  0
SECTION
  2
ENTITIES
  0
POLYLINE
  8
0
 62
7
 66
1
 70
1
  0
VERTEX
  8
0
 62
7
 10
15.00000000
 20
2.53500000
  0
VERTEX
  8
0
 62
7
 10
14.42859619
 20
2.53781421
  0
VERTEX
  8
0
 62
7
 10
13.86030078
 20
2.54626367
  0
VERTEX
  8
0
 62
7
 10
13.29498779
 20
2.56035864
  0
VERTEX
  8
0
 62
7
 10
12.73253125
 20
2.58010938
  0
VERTEX
  8
0
 62
7
 10
12.17280518
 20
2.60552612
  0
VERTEX
  8
0
 62
7
 10
11.61568359
 20
2.63661914
  0
VERTEX
  8
0
 62
7
 10
11.06104053
 20
2.67339868
  0
VERTEX
  8
0
 62
7
 10
10.50875000
 20
2.71587500
  0
VERTEX
  8
0
 62
7
 10
9.95868604
 20
2.76405835
  0
VERTEX
  8
0
 62
7
 10
9.41072266
 20
2.81795898
  0
VERTEX
  8
0
 62
7
 10
8.86473389
 20
2.87758716
  0
VERTEX
  8
0
 62
7
 10
8.32059375
 20
2.94295313
  0
VERTEX
  8
0
 62
7
 10
7.77817627
 20
3.01406714
  0
VERTEX
  8
0
 62
7
 10
7.23735547
 20
3.09093945
  0
VERTEX
  8
0
 62
7
 10
6.69800537
 20
3.17358032
  0
VERTEX
  8
0
 62
7
 10
6.16000000
 20
3.26200000
  0
VERTEX
  8
0
 62
7
 10
6.16400000
 20
3.32600000
  0
VERTEX
  8
0
 62
7
 10
6.16242578
 20
3.36840039
  0
VERTEX
  8
0
 62
7
 10
6.15778125
 20
3.41001563
  0
VERTEX
  8
0
 62
7
 10
6.15018359
 20
3.45071680
  0
VERTEX
  8
0
 62
7
 10
6.13975000
 20
3.49037500
  0
VERTEX
  8
0
 62
7
 10
6.12659766
 20
3.52886133
  0
VERTEX
  8
0
 62
7
 10
6.11084375
 20
3.56604688
  0
VERTEX
  8
0
 62
7
 10
6.09260547
 20
3.60180273
  0
VERTEX
  8
0
 62
7
 10
6.07200000
 20
3.63600000
  0
VERTEX
  8
0
 62
7
 10
6.07200000
 20
3.63700000
  0
VERTEX
  8
0
 62
7
 10
6.09900000
 20
3.69100000
  0
VERTEX
  8
0
 62
7
 10
6.27200586
 20
3.65203320
  0
VERTEX
  8
0
 62
7
 10
6.44560938
 20
3.61532813
  0
VERTEX
  8
0
 62
7
 10
6.62031445
 20
3.58080273
  0
VERTEX
  8
0
 62
7
 10
6.79662500
 20
3.54837500
  0
VERTEX
  8
0
 62
7
 10
6.97504492
 20
3.51796289
  0
VERTEX
  8
0
 62
7
 10
7.15607813
 20
3.48948438
  0
VERTEX
  8
0
 62
7
 10
7.34022852
 20
3.46285742
  0
VERTEX
  8
0
 62
7
 10
7.52800000
 20
3.43800000
  0
VERTEX
  8
0
 62
7
 10
7.32817578
 20
3.48429688
  0
VERTEX
  8
0
 62
7
 10
7.13259375
 20
3.53181250
  0
VERTEX
  8
0
 62
7
 10
6.94071484
 20
3.58073438
  0
VERTEX
  8
0
 62
7
 10
6.75200000
 20
3.63125000
  0
VERTEX
  8
0
 62
7
 10
6.56591016
 20
3.68354688
  0
VERTEX
  8
0
 62
7
 10
6.38190625
 20
3.73781250
  0
VERTEX
  8
0
 62
7
 10
6.19944922
 20
3.79423438
  0
VERTEX
  8
0
 62
7
 10
6.01800000
 20
3.85300000
  0
VERTEX
  8
0
 62
7
 10
5.99766797
 20
3.84677148
  0
VERTEX
  8
0
 62
7
 10
5.97890625
 20
3.83729688
  0
VERTEX
  8
0
 62
7
 10
5.96206641
 20
3.82489258
  0
VERTEX
  8
0
 62
7
 10
5.94750000
 20
3.80987500
  0
VERTEX
  8
0
 62
7
 10
5.93555859
 20
3.79256055
  0
VERTEX
  8
0
 62
7
 10
5.92659375
 20
3.77326563
  0
VERTEX
  8
0
 62
7
 10
5.92095703
 20
3.75230664
  0
VERTEX
  8
0
 62
7
 10
5.91900000
 20
3.73000000
  0
VERTEX
  8
0
 62
7
 10
5.92064062
 20
3.70957813
  0
VERTEX
  8
0
 62
7
 10
5.92537500
 20
3.69037500
  0
VERTEX
  8
0
 62
7
 10
5.93292187
 20
3.67248438
  0
VERTEX
  8
0
 62
7
 10
5.94300000
 20
3.65600000
  0
VERTEX
  8
0
 62
7
 10
5.97188477
 20
3.62237891
  0
VERTEX
  8
0
 62
7
 10
5.99764062
 20
3.58615625
  0
VERTEX
  8
0
 62
7
 10
6.02004492
 20
3.54754297
  0
VERTEX
  8
0
 62
7
 10
6.03887500
 20
3.50675000
  0
VERTEX
  8
0
 62
7
 10
6.05390820
 20
3.46398828
  0
VERTEX
  8
0
 62
7
 10
6.06492188
 20
3.41946875
  0
VERTEX
  8
0
 62
7
 10
6.07169336
 20
3.37340234
  0
VERTEX
  8
0
 62
7
 10
6.07400000
 20
3.32600000
  0
VERTEX
  8
0
 62
7
 10
6.07294507
 20
3.29400708
  0
VERTEX
  8
0
 62
7
 10
6.06982617
 20
3.26257227
  0
VERTEX
  8
0
 62
7
 10
6.06471216
 20
3.23176147
  0
VERTEX
  8
0
 62
7
 10
6.05767188
 20
3.20164063
  0
VERTEX
  8
0
 62
7
 10
6.04877417
 20
3.17227563
  0
VERTEX
  8
0
 62
7
 10
6.03808789
 20
3.14373242
  0
VERTEX
  8
0
 62
7
 10
6.02568188
 20
3.11607690
  0
VERTEX
  8
0
 62
7
 10
6.01162500
 20
3.08937500
  0
VERTEX
  8
0
 62
7
 10
5.99598608
 20
3.06369263
  0
VERTEX
  8
0
 62
7
 10
5.97883398
 20
3.03909570
  0
VERTEX
  8
0
 62
7
 10
5.96023755
 20
3.01565015
  0
VERTEX
  8
0
 62
7
 10
5.94026563
 20
2.99342188
  0
VERTEX
  8
0
 62
7
 10
5.91898706
 20
2.97247681
  0
VERTEX
  8
0
 62
7
 10
5.89647070
 20
2.95288086
  0
VERTEX
  8
0
 62
7
 10
5.87278540
 20
2.93469995
  0
VERTEX
  8
0
 62
7
 10
5.84800000
 20
2.91800000
  0
VERTEX
  8
0
 62
7
 10
5.71400000
 20
2.99200000
  0
VERTEX
  8
0
 62
7
 10
5.68736133
 20
2.94196680
  0
VERTEX
  8
0
 62
7
 10
5.65501562
 20
2.89567188
  0
VERTEX
  8
0
 62
7
 10
5.61744336
 20
2.85357227
  0
VERTEX
  8
0
 62
7
 10
5.57512500
 20
2.81612500
  0
VERTEX
  8
0
 62
7
 10
5.52854102
 20
2.78378711
  0
VERTEX
  8
0
 62
7
 10
5.47817188
 20
2.75701563
  0
VERTEX
  8
0
 62
7
 10
5.42449805
 20
2.73626758
  0
VERTEX
  8
0
 62
7
 10
5.36800000
 20
2.72200000
  0
VERTEX
  8
0
 62
7
 10
5.34337500
 20
2.72650000
  0
VERTEX
  8
0
 62
7
 10
5.31800000
 20
2.72800000
  0
VERTEX
  8
0
 62
7
 10
5.27797070
 20
2.72462500
  0
VERTEX
  8
0
 62
7
 10
5.24001562
 20
2.71487500
  0
VERTEX
  8
0
 62
7
 10
5.20470898
 20
2.69931250
  0
VERTEX
  8
0
 62
7
 10
5.17262500
 20
2.67850000
  0
VERTEX
  8
0
 62
7
 10
5.14433789
 20
2.65300000
  0
VERTEX
  8
0
 62
7
 10
5.12042187
 20
2.62337500
  0
VERTEX
  8
0
 62
7
 10
5.10145117
 20
2.59018750
  0
VERTEX
  8
0
 62
7
 10
5.08800000
 20
2.55400000
  0
VERTEX
  8
0
 62
7
 10
5.04876953
 20
2.59679492
  0
VERTEX
  8
0
 62
7
 10
5.01378125
 20
2.64323438
  0
VERTEX
  8
0
 62
7
 10
4.98333984
 20
2.69302539
  0
VERTEX
  8
0
 62
7
 10
4.95775000
 20
2.74587500
  0
VERTEX
  8
0
 62
7
 10
4.93731641
 20
2.80149023
  0
VERTEX
  8
0
 62
7
 10
4.92234375
 20
2.85957813
  0
VERTEX
  8
0
 62
7
 10
4.91313672
 20
2.91984570
  0
VERTEX
  8
0
 62
7
 10
4.91000000
 20
2.98200000
  0
VERTEX
  8
0
 62
7
 10
4.91189844
 20
3.02997070
  0
VERTEX
  8
0
 62
7
 10
4.91750000
 20
3.07701563
  0
VERTEX
  8
0
 62
7
 10
4.92666406
 20
3.12295898
  0
VERTEX
  8
0
 62
7
 10
4.93925000
 20
3.16762500
  0
VERTEX
  8
0
 62
7
 10
4.95511719
 20
3.21083789
  0
VERTEX
  8
0
 62
7
 10
4.97412500
 20
3.25242188
  0
VERTEX
  8
0
 62
7
 10
4.99613281
 20
3.29220117
  0
VERTEX
  8
0
 62
7
 10
5.02100000
 20
3.33000000
  0
VERTEX
  8
0
 62
7
 10
4.91900000
 20
3.41500000
  0
VERTEX
  8
0
 62
7
 10
4.93132983
 20
3.46146973
  0
VERTEX
  8
0
 62
7
 10
4.94756055
 20
3.50625781
  0
VERTEX
  8
0
 62
7
 10
4.96749146
 20
3.54918262
  0
VERTEX
  8
0
 62
7
 10
4.99092187
 20
3.59006250
  0
VERTEX
  8
0
 62
7
 10
5.01765112
 20
3.62871582
  0
VERTEX
  8
0
 62
7
 10
5.04747852
 20
3.66496094
  0
VERTEX
  8
0
 62
7
 10
5.08020337
 20
3.69861621
  0
VERTEX
  8
0
 62
7
 10
5.11562500
 20
3.72950000
  0
VERTEX
  8
0
 62
7
 10
5.15354272
 20
3.75743066
  0
VERTEX
  8
0
 62
7
 10
5.19375586
 20
3.78222656
  0
VERTEX
  8
0
 62
7
 10
5.23606372
 20
3.80370605
  0
VERTEX
  8
0
 62
7
 10
5.28026563
 20
3.82168750
  0
VERTEX
  8
0
 62
7
 10
5.32616089
 20
3.83598926
  0
VERTEX
  8
0
 62
7
 10
5.37354883
 20
3.84642969
  0
VERTEX
  8
0
 62
7
 10
5.42222876
 20
3.85282715
  0
VERTEX
  8
0
 62
7
 10
5.47200000
 20
3.85500000
  0
VERTEX
  8
0
 62
7
 10
5.50475000
 20
3.84825000
  0
VERTEX
  8
0
 62
7
 10
5.53900000
 20
3.84600000
  0
VERTEX
  8
0
 62
7
 10
5.57733203
 20
3.84861523
  0
VERTEX
  8
0
 62
7
 10
5.61409375
 20
3.85623438
  0
VERTEX
  8
0
 62
7
 10
5.64893359
 20
3.86851758
  0
VERTEX
  8
0
 62
7
 10
5.68150000
 20
3.88512500
  0
VERTEX
  8
0
 62
7
 10
5.71144141
 20
3.90571680
  0
VERTEX
  8
0
 62
7
 10
5.73840625
 20
3.92995312
  0
VERTEX
  8
0
 62
7
 10
5.76204297
 20
3.95749414
  0
VERTEX
  8
0
 62
7
 10
5.78200000
 20
3.98800000
  0
VERTEX
  8
0
 62
7
 10
5.74735938
 20
3.99996875
  0
VERTEX
  8
0
 62
7
 10
5.71112500
 20
4.00875000
  0
VERTEX
  8
0
 62
7
 10
5.67357812
 20
4.01415625
  0
VERTEX
  8
0
 62
7
 10
5.63500000
 20
4.01600000
  0
VERTEX
  8
0
 62
7
 10
5.60599609
 20
4.01493750
  0
VERTEX
  8
0
 62
7
 10
5.57753125
 20
4.01181250
  0
VERTEX
  8
0
 62
7
 10
5.54967578
 20
4.00671875
  0
VERTEX
  8
0
 62
7
 10
5.52250000
 20
3.99975000
  0
VERTEX
  8
0
 62
7
 10
5.49607422
 20
3.99100000
  0
VERTEX
  8
0
 62
7
 10
5.47046875
 20
3.98056250
  0
VERTEX
  8
0
 62
7
 10
5.44575391
 20
3.96853125
  0
VERTEX
  8
0
 62
7
 10
5.42200000
 20
3.95500000
  0
VERTEX
  8
0
 62
7
 10
5.36685156
 20
3.92235547
  0
VERTEX
  8
0
 62
7
 10
5.30950000
 20
3.89353125
  0
VERTEX
  8
0
 62
7
 10
5.25008594
 20
3.86869141
  0
VERTEX
  8
0
 62
7
 10
5.18875000
 20
3.84800000
  0
VERTEX
  8
0
 62
7
 10
5.12563281
 20
3.83162109
  0
VERTEX
  8
0
 62
7
 10
5.06087500
 20
3.81971875
  0
VERTEX
  8
0
 62
7
 10
4.99461719
 20
3.81245703
  0
VERTEX
  8
0
 62
7
 10
4.92700000
 20
3.81000000
  0
VERTEX
  8
0
 62
7
 10
4.85714258
 20
3.81259570
  0
VERTEX
  8
0
 62
7
 10
4.78870313
 20
3.82026563
  0
VERTEX
  8
0
 62
7
 10
4.72188086
 20
3.83283398
  0
VERTEX
  8
0
 62
7
 10
4.65687500
 20
3.85012500
  0
VERTEX
  8
0
 62
7
 10
4.59388477
 20
3.87196289
  0
VERTEX
  8
0
 62
7
 10
4.53310938
 20
3.89817188
  0
VERTEX
  8
0
 62
7
 10
4.47474805
 20
3.92857617
  0
VERTEX
  8
0
 62
7
 10
4.41900000
 20
3.96300000
  0
VERTEX
  8
0
 62
7
 10
4.46100000
 20
4.09100000
  0
VERTEX
  8
0
 62
7
 10
4.40367310
 20
4.10705273
  0
VERTEX
  8
0
 62
7
 10
4.34846289
 20
4.12768750
  0
VERTEX
  8
0
 62
7
 10
4.29558765
 20
4.15268164
  0
VERTEX
  8
0
 62
7
 10
4.24526563
 20
4.18181250
  0
VERTEX
  8
0
 62
7
 10
4.19771509
 20
4.21485742
  0
VERTEX
  8
0
 62
7
 10
4.15315430
 20
4.25159375
  0
VERTEX
  8
0
 62
7
 10
4.11180151
 20
4.29179883
  0
VERTEX
  8
0
 62
7
 10
4.07387500
 20
4.33525000
  0
VERTEX
  8
0
 62
7
 10
4.03959302
 20
4.38172461
  0
VERTEX
  8
0
 62
7
 10
4.00917383
 20
4.43100000
  0
VERTEX
  8
0
 62
7
 10
3.98283569
 20
4.48285352
  0
VERTEX
  8
0
 62
7
 10
3.96079688
 20
4.53706250
  0
VERTEX
  8
0
 62
7
 10
3.94327563
 20
4.59340430
  0
VERTEX
  8
0
 62
7
 10
3.93049023
 20
4.65165625
  0
VERTEX
  8
0
 62
7
 10
3.92265894
 20
4.71159570
  0
VERTEX
  8
0
 62
7
 10
3.92000000
 20
4.77300000
  0
VERTEX
  8
0
 62
7
 10
3.92212500
 20
4.82675000
  0
VERTEX
  8
0
 62
7
 10
3.92800000
 20
4.87900000
  0
VERTEX
  8
0
 62
7
 10
3.94757227
 20
4.86153711
  0
VERTEX
  8
0
 62
7
 10
3.96870313
 20
4.84598438
  0
VERTEX
  8
0
 62
7
 10
3.99126367
 20
4.83247070
  0
VERTEX
  8
0
 62
7
 10
4.01512500
 20
4.82112500
  0
VERTEX
  8
0
 62
7
 10
4.04015820
 20
4.81207617
  0
VERTEX
  8
0
 62
7
 10
4.06623438
 20
4.80545312
  0
VERTEX
  8
0
 62
7
 10
4.09322461
 20
4.80138477
  0
VERTEX
  8
0
 62
7
 10
4.12100000
 20
4.80000000
  0
VERTEX
  8
0
 62
7
 10
4.17701758
 20
4.80356641
  0
VERTEX
  8
0
 62
7
 10
4.23145312
 20
4.81296875
  0
VERTEX
  8
0
 62
7
 10
4.28488086
 20
4.82626172
  0
VERTEX
  8
0
 62
7
 10
4.33787500
 20
4.84150000
  0
VERTEX
  8
0
 62
7
 10
4.39100977
 20
4.85673828
  0
VERTEX
  8
0
 62
7
 10
4.44485938
 20
4.87003125
  0
VERTEX
  8
0
 62
7
 10
4.49999805
 20
4.87943359
  0
VERTEX
  8
0
 62
7
 10
4.55700000
 20
4.88300000
  0
VERTEX
  8
0
 62
7
 10
4.62746875
 20
4.88039063
  0
VERTEX
  8
0
 62
7
 10
4.69625000
 20
4.87262500
  0
VERTEX
  8
0
 62
7
 10
4.76315625
 20
4.85979687
  0
VERTEX
  8
0
 62
7
 10
4.82800000
 20
4.84200000
  0
VERTEX
  8
0
 62
7
 10
4.83600000
 20
4.97600000
  0
VERTEX
  8
0
 62
7
 10
4.88600000
 20
4.97800000
  0
VERTEX
  8
0
 62
7
 10
4.94516699
 20
4.97541138
  0
VERTEX
  8
0
 62
7
 10
5.00289844
 20
4.96779102
  0
VERTEX
  8
0
 62
7
 10
5.05897754
 20
4.95535718
  0
VERTEX
  8
0
 62
7
 10
5.11318750
 20
4.93832813
  0
VERTEX
  8
0
 62
7
 10
5.16531152
 20
4.91692212
  0
VERTEX
  8
0
 62
7
 10
5.21513281
 20
4.89135742
  0
VERTEX
  8
0
 62
7
 10
5.26243457
 20
4.86185229
  0
VERTEX
  8
0
 62
7
 10
5.30700000
 20
4.82862500
  0
VERTEX
  8
0
 62
7
 10
5.34861230
 20
4.79189380
  0
VERTEX
  8
0
 62
7
 10
5.38705469
 20
4.75187695
  0
VERTEX
  8
0
 62
7
 10
5.42211035
 20
4.70879272
  0
VERTEX
  8
0
 62
7
 10
5.45356250
 20
4.66285938
  0
VERTEX
  8
0
 62
7
 10
5.48119434
 20
4.61429517
  0
VERTEX
  8
0
 62
7
 10
5.50478906
 20
4.56331836
  0
VERTEX
  8
0
 62
7
 10
5.52412988
 20
4.51014722
  0
VERTEX
  8
0
 62
7
 10
5.53900000
 20
4.45500000
  0
VERTEX
  8
0
 62
7
 10
5.54939453
 20
4.41976563
  0
VERTEX
  8
0
 62
7
 10
5.56178125
 20
4.38537500
  0
VERTEX
  8
0
 62
7
 10
5.57608984
 20
4.35192188
  0
VERTEX
  8
0
 62
7
 10
5.59225000
 20
4.31950000
  0
VERTEX
  8
0
 62
7
 10
5.61019141
 20
4.28820312
  0
VERTEX
  8
0
 62
7
 10
5.62984375
 20
4.25812500
  0
VERTEX
  8
0
 62
7
 10
5.65113672
 20
4.22935938
  0
VERTEX
  8
0
 62
7
 10
5.67400000
 20
4.20200000
  0
VERTEX
  8
0
 62
7
 10
5.68496875
 20
4.19118750
  0
VERTEX
  8
0
 62
7
 10
5.69800000
 20
4.18300000
  0
VERTEX
  8
0
 62
7
 10
5.71253125
 20
4.17781250
  0
VERTEX
  8
0
 62
7
 10
5.72800000
 20
4.17600000
  0
VERTEX
  8
0
 62
7
 10
5.74796875
 20
4.17885938
  0
VERTEX
  8
0
 62
7
 10
5.76550000
 20
4.18687500
  0
VERTEX
  8
0
 62
7
 10
5.78003125
 20
4.19920313
  0
VERTEX
  8
0
 62
7
 10
5.79100000
 20
4.21500000
  0
VERTEX
  8
0
 62
7
 10
5.78018750
 20
4.27081250
  0
VERTEX
  8
0
 62
7
 10
5.76300000
 20
4.32400000
  0
VERTEX
  8
0
 62
7
 10
5.73981250
 20
4.37418750
  0
VERTEX
  8
0
 62
7
 10
5.71100000
 20
4.42100000
  0
VERTEX
  8
0
 62
7
 10
5.67674683
 20
4.44912354
  0
VERTEX
  8
0
 62
7
 10
5.64416211
 20
4.47906641
  0
VERTEX
  8
0
 62
7
 10
5.61332056
 20
4.51074951
  0
VERTEX
  8
0
 62
7
 10
5.58429687
 20
4.54409375
  0
VERTEX
  8
0
 62
7
 10
5.55716577
 20
4.57902002
  0
VERTEX
  8
0
 62
7
 10
5.53200195
 20
4.61544922
  0
VERTEX
  8
0
 62
7
 10
5.50888013
 20
4.65330225
  0
VERTEX
  8
0
 62
7
 10
5.48787500
 20
4.69250000
  0
VERTEX
  8
0
 62
7
 10
5.46906128
 20
4.73296338
  0
VERTEX
  8
0
 62
7
 10
5.45251367
 20
4.77461328
  0
VERTEX
  8
0
 62
7
 10
5.43830688
 20
4.81737061
  0
VERTEX
  8
0
 62
7
 10
5.42651563
 20
4.86115625
  0
VERTEX
  8
0
 62
7
 10
5.41721460
 20
4.90589111
  0
VERTEX
  8
0
 62
7
 10
5.41047852
 20
4.95149609
  0
VERTEX
  8
0
 62
7
 10
5.40638208
 20
4.99789209
  0
VERTEX
  8
0
 62
7
 10
5.40500000
 20
5.04500000
  0
VERTEX
  8
0
 62
7
 10
5.40620898
 20
5.08928906
  0
VERTEX
  8
0
 62
7
 10
5.40979688
 20
5.13287500
  0
VERTEX
  8
0
 62
7
 10
5.41570508
 20
5.17571094
  0
VERTEX
  8
0
 62
7
 10
5.42387500
 20
5.21775000
  0
VERTEX
  8
0
 62
7
 10
5.43424805
 20
5.25894531
  0
VERTEX
  8
0
 62
7
 10
5.44676563
 20
5.29925000
  0
VERTEX
  8
0
 62
7
 10
5.46136914
 20
5.33861719
  0
VERTEX
  8
0
 62
7
 10
5.47800000
 20
5.37700000
  0
VERTEX
  8
0
 62
7
 10
5.60800000
 20
5.34800000
  0
VERTEX
  8
0
 62
7
 10
5.61972266
 20
5.40911694
  0
VERTEX
  8
0
 62
7
 10
5.63671875
 20
5.46816992
  0
VERTEX
  8
0
 62
7
 10
5.65873047
 20
5.52489966
  0
VERTEX
  8
0
 62
7
 10
5.68550000
 20
5.57904688
  0
VERTEX
  8
0
 62
7
 10
5.71676953
 20
5.63035229
  0
VERTEX
  8
0
 62
7
 10
5.75228125
 20
5.67855664
  0
VERTEX
  8
0
 62
7
 10
5.79177734
 20
5.72340063
  0
VERTEX
  8
0
 62
7
 10
5.83500000
 20
5.76462500
  0
VERTEX
  8
0
 62
7
 10
5.88169141
 20
5.80197046
  0
VERTEX
  8
0
 62
7
 10
5.93159375
 20
5.83517773
  0
VERTEX
  8
0
 62
7
 10
5.98444922
 20
5.86398755
  0
VERTEX
  8
0
 62
7
 10
6.04000000
 20
5.88814063
  0
VERTEX
  8
0
 62
7
 10
6.09798828
 20
5.90737769
  0
VERTEX
  8
0
 62
7
 10
6.15815625
 20
5.92143945
  0
VERTEX
  8
0
 62
7
 10
6.22024609
 20
5.93006665
  0
VERTEX
  8
0
 62
7
 10
6.28400000
 20
5.93300000
  0
VERTEX
  8
0
 62
7
 10
6.34200000
 20
5.93000000
  0
VERTEX
  8
0
 62
7
 10
6.32420313
 20
5.88148438
  0
VERTEX
  8
0
 62
7
 10
6.31137500
 20
5.83062500
  0
VERTEX
  8
0
 62
7
 10
6.30360937
 20
5.77770313
  0
VERTEX
  8
0
 62
7
 10
6.30100000
 20
5.72300000
  0
VERTEX
  8
0
 62
7
 10
6.30475000
 20
5.65787500
  0
VERTEX
  8
0
 62
7
 10
6.31600000
 20
5.59500000
  0
VERTEX
  8
0
 62
7
 10
6.33702148
 20
5.56816797
  0
VERTEX
  8
0
 62
7
 10
6.35573437
 20
5.53953125
  0
VERTEX
  8
0
 62
7
 10
6.37198633
 20
5.50925391
  0
VERTEX
  8
0
 62
7
 10
6.38562500
 20
5.47750000
  0
VERTEX
  8
0
 62
7
 10
6.39649805
 20
5.44443359
  0
VERTEX
  8
0
 62
7
 10
6.40445312
 20
5.41021875
  0
VERTEX
  8
0
 62
7
 10
6.40933789
 20
5.37501953
  0
VERTEX
  8
0
 62
7
 10
6.41100000
 20
5.33900000
  0
VERTEX
  8
0
 62
7
 10
6.40845313
 20
5.29478125
  0
VERTEX
  8
0
 62
7
 10
6.40112500
 20
5.25225000
  0
VERTEX
  8
0
 62
7
 10
6.38948438
 20
5.21159375
  0
VERTEX
  8
0
 62
7
 10
6.37400000
 20
5.17300000
  0
VERTEX
  8
0
 62
7
 10
6.54200000
 20
5.16600000
  0
VERTEX
  8
0
 62
7
 10
6.55601563
 20
5.11710938
  0
VERTEX
  8
0
 62
7
 10
6.56637500
 20
5.06662500
  0
VERTEX
  8
0
 62
7
 10
6.57279687
 20
5.01482813
  0
VERTEX
  8
0
 62
7
 10
6.57500000
 20
4.96200000
  0
VERTEX
  8
0
 62
7
 10
6.57351611
 20
4.91810571
  0
VERTEX
  8
0
 62
7
 10
6.56912891
 20
4.87498633
  0
VERTEX
  8
0
 62
7
 10
6.56193506
 20
4.83273706
  0
VERTEX
  8
0
 62
7
 10
6.55203125
 20
4.79145313
  0
VERTEX
  8
0
 62
7
 10
6.53951416
 20
4.75122974
  0
VERTEX
  8
0
 62
7
 10
6.52448047
 20
4.71216211
  0
VERTEX
  8
0
 62
7
 10
6.50702686
 20
4.67434546
  0
VERTEX
  8
0
 62
7
 10
6.48725000
 20
4.63787500
  0
VERTEX
  8
0
 62
7
 10
6.46524658
 20
4.60284595
  0
VERTEX
  8
0
 62
7
 10
6.44111328
 20
4.56935352
  0
VERTEX
  8
0
 62
7
 10
6.41494678
 20
4.53749292
  0
VERTEX
  8
0
 62
7
 10
6.38684375
 20
4.50735938
  0
VERTEX
  8
0
 62
7
 10
6.35690088
 20
4.47904810
  0
VERTEX
  8
0
 62
7
 10
6.32521484
 20
4.45265430
  0
VERTEX
  8
0
 62
7
 10
6.29188232
 20
4.42827319
  0
VERTEX
  8
0
 62
7
 10
6.25700000
 20
4.40600000
  0
VERTEX
  8
0
 62
7
 10
6.21520508
 20
4.39579883
  0
VERTEX
  8
0
 62
7
 10
6.17557813
 20
4.38045312
  0
VERTEX
  8
0
 62
7
 10
6.13850586
 20
4.36034961
  0
VERTEX
  8
0
 62
7
 10
6.10437500
 20
4.33587500
  0
VERTEX
  8
0
 62
7
 10
6.07357227
 20
4.30741602
  0
VERTEX
  8
0
 62
7
 10
6.04648438
 20
4.27535937
  0
VERTEX
  8
0
 62
7
 10
6.02349805
 20
4.24009180
  0
VERTEX
  8
0
 62
7
 10
6.00500000
 20
4.20200000
  0
VERTEX
  8
0
 62
7
 10
6.00678516
 20
4.17748047
  0
VERTEX
  8
0
 62
7
 10
6.01196875
 20
4.15246875
  0
VERTEX
  8
0
 62
7
 10
6.02029297
 20
4.12778516
  0
VERTEX
  8
0
 62
7
 10
6.03150000
 20
4.10425000
  0
VERTEX
  8
0
 62
7
 10
6.04533203
 20
4.08268359
  0
VERTEX
  8
0
 62
7
 10
6.06153125
 20
4.06390625
  0
VERTEX
  8
0
 62
7
 10
6.07983984
 20
4.04873828
  0
VERTEX
  8
0
 62
7
 10
6.10000000
 20
4.03800000
  0
VERTEX
  8
0
 62
7
 10
6.20005396
 20
3.99015430
  0
VERTEX
  8
0
 62
7
 10
6.30108789
 20
3.94412500
  0
VERTEX
  8
0
 62
7
 10
6.40309741
 20
3.89992383
  0
VERTEX
  8
0
 62
7
 10
6.50607813
 20
3.85756250
  0
VERTEX
  8
0
 62
7
 10
6.61002563
 20
3.81705273
  0
VERTEX
  8
0
 62
7
 10
6.71493555
 20
3.77840625
  0
VERTEX
  8
0
 62
7
 10
6.82080347
 20
3.74163477
  0
VERTEX
  8
0
 62
7
 10
6.92762500
 20
3.70675000
  0
VERTEX
  8
0
 62
7
 10
7.03539575
 20
3.67376367
  0
VERTEX
  8
0
 62
7
 10
7.14411133
 20
3.64268750
  0
VERTEX
  8
0
 62
7
 10
7.25376733
 20
3.61353320
  0
VERTEX
  8
0
 62
7
 10
7.36435938
 20
3.58631250
  0
VERTEX
  8
0
 62
7
 10
7.47588306
 20
3.56103711
  0
VERTEX
  8
0
 62
7
 10
7.58833398
 20
3.53771875
  0
VERTEX
  8
0
 62
7
 10
7.70170776
 20
3.51636914
  0
VERTEX
  8
0
 62
7
 10
7.81600000
 20
3.49700000
  0
VERTEX
  8
0
 62
7
 10
7.81000000
 20
3.51600000
  0
VERTEX
  8
0
 62
7
 10
7.58955078
 20
3.57751563
  0
VERTEX
  8
0
 62
7
 10
7.37278125
 20
3.64287500
  0
VERTEX
  8
0
 62
7
 10
7.15943359
 20
3.71217188
  0
VERTEX
  8
0
 62
7
 10
6.94925000
 20
3.78550000
  0
VERTEX
  8
0
 62
7
 10
6.74197266
 20
3.86295313
  0
VERTEX
  8
0
 62
7
 10
6.53734375
 20
3.94462500
  0
VERTEX
  8
0
 62
7
 10
6.33510547
 20
4.03060938
  0
VERTEX
  8
0
 62
7
 10
6.13500000
 20
4.12100000
  0
VERTEX
  8
0
 62
7
 10
6.11846875
 20
4.12964063
  0
VERTEX
  8
0
 62
7
 10
6.10550000
 20
4.14287500
  0
VERTEX
  8
0
 62
7
 10
6.09703125
 20
4.15967187
  0
VERTEX
  8
0
 62
7
 10
6.09400000
 20
4.17900000
  0
VERTEX
  8
0
 62
7
 10
6.09400000
 20
4.18000000
  0
VERTEX
  8
0
 62
7
 10
6.10900000
 20
4.20675000
  0
VERTEX
  8
0
 62
7
 10
6.12700000
 20
4.23200000
  0
VERTEX
  8
0
 62
7
 10
6.38739719
 20
4.14339670
  0
VERTEX
  8
0
 62
7
 10
6.64901733
 20
4.05740796
  0
VERTEX
  8
0
 62
7
 10
6.91184708
 20
3.97404678
  0
VERTEX
  8
0
 62
7
 10
7.17587305
 20
3.89332617
  0
VERTEX
  8
0
 62
7
 10
7.44108188
 20
3.81525912
  0
VERTEX
  8
0
 62
7
 10
7.70746021
 20
3.73985864
  0
VERTEX
  8
0
 62
7
 10
7.97499466
 20
3.66713773
  0
VERTEX
  8
0
 62
7
 10
8.24367188
 20
3.59710938
  0
VERTEX
  8
0
 62
7
 10
8.51347849
 20
3.52978659
  0
VERTEX
  8
0
 62
7
 10
8.78440112
 20
3.46518237
  0
VERTEX
  8
0
 62
7
 10
9.05642642
 20
3.40330972
  0
VERTEX
  8
0
 62
7
 10
9.32954102
 20
3.34418164
  0
VERTEX
  8
0
 62
7
 10
9.60373154
 20
3.28781113
  0
VERTEX
  8
0
 62
7
 10
9.87898462
 20
3.23421118
  0
VERTEX
  8
0
 62
7
 10
10.15528690
 20
3.18339481
  0
VERTEX
  8
0
 62
7
 10
10.43262500
 20
3.13537500
  0
VERTEX
  8
0
 62
7
 10
10.71098557
 20
3.09016476
  0
VERTEX
  8
0
 62
7
 10
10.99035522
 20
3.04777710
  0
VERTEX
  8
0
 62
7
 10
11.27072061
 20
3.00822501
  0
VERTEX
  8
0
 62
7
 10
11.55206836
 20
2.97152148
  0
VERTEX
  8
0
 62
7
 10
11.83438510
 20
2.93767953
  0
VERTEX
  8
0
 62
7
 10
12.11765747
 20
2.90671216
  0
VERTEX
  8
0
 62
7
 10
12.40187210
 20
2.87863235
  0
VERTEX
  8
0
 62
7
 10
12.68701563
 20
2.85345313
  0
VERTEX
  8
0
 62
7
 10
12.97307468
 20
2.83118747
  0
VERTEX
  8
0
 62
7
 10
13.26003589
 20
2.81184839
  0
VERTEX
  8
0
 62
7
 10
13.54788589
 20
2.79544888
  0
VERTEX
  8
0
 62
7
 10
13.83661133
 20
2.78200195
  0
VERTEX
  8
0
 62
7
 10
14.12619882
 20
2.77152060
  0
VERTEX
  8
0
 62
7
 10
14.41663501
 20
2.76401782
  0
VERTEX
  8
0
 62
7
 10
14.70790652
 20
2.75950662
  0
VERTEX
  8
0
 62
7
 10
15.00000000
 20
2.75800000
  0
VERTEX
  8
0
 62
7
 10
15.29209348
 20
2.75950662
  0
VERTEX
  8
0
 62
7
 10
15.58336499
 20
2.76401782
  0
VERTEX
  8
0
 62
7
 10
15.87380118
 20
2.77152060
  0
VERTEX
  8
0
 62
7
 10
16.16338867
 20
2.78200195
  0
VERTEX
  8
0
 62
7
 10
16.45211411
 20
2.79544888
  0
VERTEX
  8
0
 62
7
 10
16.73996411
 20
2.81184839
  0
VERTEX
  8
0
 62
7
 10
17.02692532
 20
2.83118747
  0
VERTEX
  8
0
 62
7
 10
17.31298437
 20
2.85345313
  0
VERTEX
  8
0
 62
7
 10
17.59812790
 20
2.87863235
  0
VERTEX
  8
0
 62
7
 10
17.88234253
 20
2.90671216
  0
VERTEX
  8
0
 62
7
 10
18.16561490
 20
2.93767953
  0
VERTEX
  8
0
 62
7
 10
18.44793164
 20
2.97152148
  0
VERTEX
  8
0
 62
7
 10
18.72927939
 20
3.00822501
  0
VERTEX
  8
0
 62
7
 10
19.00964478
 20
3.04777710
  0
VERTEX
  8
0
 62
7
 10
19.28901443
 20
3.09016476
  0
VERTEX
  8
0
 62
7
 10
19.56737500
 20
3.13537500
  0
VERTEX
  8
0
 62
7
 10
19.84471310
 20
3.18339481
  0
VERTEX
  8
0
 62
7
 10
20.12101538
 20
3.23421118
  0
VERTEX
  8
0
 62
7
 10
20.39626846
 20
3.28781113
  0
VERTEX
  8
0
 62
7
 10
20.67045898
 20
3.34418164
  0
VERTEX
  8
0
 62
7
 10
20.94357358
 20
3.40330972
  0
VERTEX
  8
0
 62
7
 10
21.21559888
 20
3.46518237
  0
VERTEX
  8
0
 62
7
 10
21.48652151
 20
3.52978659
  0
VERTEX
  8
0
 62
7
 10
21.75632813
 20
3.59710938
  0
VERTEX
  8
0
 62
7
 10
22.02500534
 20
3.66713773
  0
VERTEX
  8
0
 62
7
 10
22.29253979
 20
3.73985864
  0
VERTEX
  8
0
 62
7
 10
22.55891812
 20
3.81525912
  0
VERTEX
  8
0
 62
7
 10
22.82412695
 20
3.89332617
  0
VERTEX
  8
0
 62
7
 10
23.08815292
 20
3.97404678
  0
VERTEX
  8
0
 62
7
 10
23.35098267
 20
4.05740796
  0
VERTEX
  8
0
 62
7
 10
23.61260281
 20
4.14339670
  0
VERTEX
  8
0
 62
7
 10
23.87300000
 20
4.23200000
  0
VERTEX
  8
0
 62
7
 10
23.89100000
 20
4.20675000
  0
VERTEX
  8
0
 62
7
 10
23.90600000
 20
4.18000000
  0
VERTEX
  8
0
 62
7
 10
23.90600000
 20
4.17900000
  0
VERTEX
  8
0
 62
7
 10
23.90296875
 20
4.15967187
  0
VERTEX
  8
0
 62
7
 10
23.89450000
 20
4.14287500
  0
VERTEX
  8
0
 62
7
 10
23.88153125
 20
4.12964063
  0
VERTEX
  8
0
 62
7
 10
23.86500000
 20
4.12100000
  0
VERTEX
  8
0
 62
7
 10
23.66489453
 20
4.03060938
  0
VERTEX
  8
0
 62
7
 10
23.46265625
 20
3.94462500
  0
VERTEX
  8
0
 62
7
 10
23.25802734
 20
3.86295313
  0
VERTEX
  8
0
 62
7
 10
23.05075000
 20
3.78550000
  0
VERTEX
  8
0
 62
7
 10
22.84056641
 20
3.71217188
  0
VERTEX
  8
0
 62
7
 10
22.62721875
 20
3.64287500
  0
VERTEX
  8
0
 62
7
 10
22.41044922
 20
3.57751563
  0
VERTEX
  8
0
 62
7
 10
22.19000000
 20
3.51600000
  0
VERTEX
  8
0
 62
7
 10
22.18400000
 20
3.49700000
  0
VERTEX
  8
0
 62
7
 10
22.29829224
 20
3.51636914
  0
VERTEX
  8
0
 62
7
 10
22.41166602
 20
3.53771875
  0
VERTEX
  8
0
 62
7
 10
22.52411694
 20
3.56103711
  0
VERTEX
  8
0
 62
7
 10
22.63564063
 20
3.58631250
  0
VERTEX
  8
0
 62
7
 10
22.74623267
 20
3.61353320
  0
VERTEX
  8
0
 62
7
 10
22.85588867
 20
3.64268750
  0
VERTEX
  8
0
 62
7
 10
22.96460425
 20
3.67376367
  0
VERTEX
  8
0
 62
7
 10
23.07237500
 20
3.70675000
  0
VERTEX
  8
0
 62
7
 10
23.17919653
 20
3.74163477
  0
VERTEX
  8
0
 62
7
 10
23.28506445
 20
3.77840625
  0
VERTEX
  8
0
 62
7
 10
23.38997437
 20
3.81705273
  0
VERTEX
  8
0
 62
7
 10
23.49392188
 20
3.85756250
  0
VERTEX
  8
0
 62
7
 10
23.59690259
 20
3.89992383
  0
VERTEX
  8
0
 62
7
 10
23.69891211
 20
3.94412500
  0
VERTEX
  8
0
 62
7
 10
23.79994604
 20
3.99015430
  0
VERTEX
  8
0
 62
7
 10
23.90000000
 20
4.03800000
  0
VERTEX
  8
0
 62
7
 10
23.92016016
 20
4.04873828
  0
VERTEX
  8
0
 62
7
 10
23.93846875
 20
4.06390625
  0
VERTEX
  8
0
 62
7
 10
23.95466797
 20
4.08268359
  0
VERTEX
  8
0
 62
7
 10
23.96850000
 20
4.10425000
  0
VERTEX
  8
0
 62
7
 10
23.97970703
 20
4.12778516
  0
VERTEX
  8
0
 62
7
 10
23.98803125
 20
4.15246875
  0
VERTEX
  8
0
 62
7
 10
23.99321484
 20
4.17748047
  0
VERTEX
  8
0
 62
7
 10
23.99500000
 20
4.20200000
  0
VERTEX
  8
0
 62
7
 10
23.97650195
 20
4.24009180
  0
VERTEX
  8
0
 62
7
 10
23.95351563
 20
4.27535937
  0
VERTEX
  8
0
 62
7
 10
23.92642773
 20
4.30741602
  0
VERTEX
  8
0
 62
7
 10
23.89562500
 20
4.33587500
  0
VERTEX
  8
0
 62
7
 10
23.86149414
 20
4.36034961
  0
VERTEX
  8
0
 62
7
 10
23.82442187
 20
4.38045312
  0
VERTEX
  8
0
 62
7
 10
23.78479492
 20
4.39579883
  0
VERTEX
  8
0
 62
7
 10
23.74300000
 20
4.40600000
  0
VERTEX
  8
0
 62
7
 10
23.70811768
 20
4.42827319
  0
VERTEX
  8
0
 62
7
 10
23.67478516
 20
4.45265430
  0
VERTEX
  8
0
 62
7
 10
23.64309912
 20
4.47904810
  0
VERTEX
  8
0
 62
7
 10
23.61315625
 20
4.50735938
  0
VERTEX
  8
0
 62
7
 10
23.58505322
 20
4.53749292
  0
VERTEX
  8
0
 62
7
 10
23.55888672
 20
4.56935352
  0
VERTEX
  8
0
 62
7
 10
23.53475342
 20
4.60284595
  0
VERTEX
  8
0
 62
7
 10
23.51275000
 20
4.63787500
  0
VERTEX
  8
0
 62
7
 10
23.49297314
 20
4.67434546
  0
VERTEX
  8
0
 62
7
 10
23.47551953
 20
4.71216211
  0
VERTEX
  8
0
 62
7
 10
23.46048584
 20
4.75122974
  0
VERTEX
  8
0
 62
7
 10
23.44796875
 20
4.79145313
  0
VERTEX
  8
0
 62
7
 10
23.43806494
 20
4.83273706
  0
VERTEX
  8
0
 62
7
 10
23.43087109
 20
4.87498633
  0
VERTEX
  8
0
 62
7
 10
23.42648389
 20
4.91810571
  0
VERTEX
  8
0
 62
7
 10
23.42500000
 20
4.96200000
  0
VERTEX
  8
0
 62
7
 10
23.42720313
 20
5.01482813
  0
VERTEX
  8
0
 62
7
 10
23.43362500
 20
5.06662500
  0
VERTEX
  8
0
 62
7
 10
23.44398437
 20
5.11710938
  0
VERTEX
  8
0
 62
7
 10
23.45800000
 20
5.16600000
  0
VERTEX
  8
0
 62
7
 10
23.62600000
 20
5.17300000
  0
VERTEX
  8
0
 62
7
 10
23.61051563
 20
5.21159375
  0
VERTEX
  8
0
 62
7
 10
23.59887500
 20
5.25225000
  0
VERTEX
  8
0
 62
7
 10
23.59154687
 20
5.29478125
  0
VERTEX
  8
0
 62
7
 10
23.58900000
 20
5.33900000
  0
VERTEX
  8
0
 62
7
 10
23.59066211
 20
5.37501953
  0
VERTEX
  8
0
 62
7
 10
23.59554688
 20
5.41021875
  0
VERTEX
  8
0
 62
7
 10
23.60350195
 20
5.44443359
  0
VERTEX
  8
0
 62
7
 10
23.61437500
 20
5.47750000
  0
VERTEX
  8
0
 62
7
 10
23.62801367
 20
5.50925391
  0
VERTEX
  8
0
 62
7
 10
23.64426562
 20
5.53953125
  0
VERTEX
  8
0
 62
7
 10
23.66297852
 20
5.56816797
  0
VERTEX
  8
0
 62
7
 10
23.68400000
 20
5.59500000
  0
VERTEX
  8
0
 62
7
 10
23.69525000
 20
5.65787500
  0
VERTEX
  8
0
 62
7
 10
23.69900000
 20
5.72300000
  0
VERTEX
  8
0
 62
7
 10
23.69639062
 20
5.77770313
  0
VERTEX
  8
0
 62
7
 10
23.68862500
 20
5.83062500
  0
VERTEX
  8
0
 62
7
 10
23.67579688
 20
5.88148438
  0
VERTEX
  8
0
 62
7
 10
23.65800000
 20
5.93000000
  0
VERTEX
  8
0
 62
7
 10
23.71600000
 20
5.93300000
  0
VERTEX
  8
0
 62
7
 10
23.77975391
 20
5.93006665
  0
VERTEX
  8
0
 62
7
 10
23.84184375
 20
5.92143945
  0
VERTEX
  8
0
 62
7
 10
23.90201172
 20
5.90737769
  0
VERTEX
  8
0
 62
7
 10
23.96000000
 20
5.88814063
  0
VERTEX
  8
0
 62
7
 10
24.01555078
 20
5.86398755
  0
VERTEX
  8
0
 62
7
 10
24.06840625
 20
5.83517773
  0
VERTEX
  8
0
 62
7
 10
24.11830859
 20
5.80197046
  0
VERTEX
  8
0
 62
7
 10
24.16500000
 20
5.76462500
  0
VERTEX
  8
0
 62
7
 10
24.20822266
 20
5.72340063
  0
VERTEX
  8
0
 62
7
 10
24.24771875
 20
5.67855664
  0
VERTEX
  8
0
 62
7
 10
24.28323047
 20
5.63035229
  0
VERTEX
  8
0
 62
7
 10
24.31450000
 20
5.57904688
  0
VERTEX
  8
0
 62
7
 10
24.34126953
 20
5.52489966
  0
VERTEX
  8
0
 62
7
 10
24.36328125
 20
5.46816992
  0
VERTEX
  8
0
 62
7
 10
24.38027734
 20
5.40911694
  0
VERTEX
  8
0
 62
7
 10
24.39200000
 20
5.34800000
  0
VERTEX
  8
0
 62
7
 10
24.52200000
 20
5.37700000
  0
VERTEX
  8
0
 62
7
 10
24.53863086
 20
5.33861719
  0
VERTEX
  8
0
 62
7
 10
24.55323437
 20
5.29925000
  0
VERTEX
  8
0
 62
7
 10
24.56575195
 20
5.25894531
  0
VERTEX
  8
0
 62
7
 10
24.57612500
 20
5.21775000
  0
VERTEX
  8
0
 62
7
 10
24.58429492
 20
5.17571094
  0
VERTEX
  8
0
 62
7
 10
24.59020313
 20
5.13287500
  0
VERTEX
  8
0
 62
7
 10
24.59379102
 20
5.08928906
  0
VERTEX
  8
0
 62
7
 10
24.59500000
 20
5.04500000
  0
VERTEX
  8
0
 62
7
 10
24.59361792
 20
4.99789209
  0
VERTEX
  8
0
 62
7
 10
24.58952148
 20
4.95149609
  0
VERTEX
  8
0
 62
7
 10
24.58278540
 20
4.90589111
  0
VERTEX
  8
0
 62
7
 10
24.57348438
 20
4.86115625
  0
VERTEX
  8
0
 62
7
 10
24.56169312
 20
4.81737061
  0
VERTEX
  8
0
 62
7
 10
24.54748633
 20
4.77461328
  0
VERTEX
  8
0
 62
7
 10
24.53093872
 20
4.73296338
  0
VERTEX
  8
0
 62
7
 10
24.51212500
 20
4.69250000
  0
VERTEX
  8
0
 62
7
 10
24.49111987
 20
4.65330225
  0
VERTEX
  8
0
 62
7
 10
24.46799805
 20
4.61544922
  0
VERTEX
  8
0
 62
7
 10
24.44283423
 20
4.57902002
  0
VERTEX
  8
0
 62
7
 10
24.41570313
 20
4.54409375
  0
VERTEX
  8
0
 62
7
 10
24.38667944
 20
4.51074951
  0
VERTEX
  8
0
 62
7
 10
24.35583789
 20
4.47906641
  0
VERTEX
  8
0
 62
7
 10
24.32325317
 20
4.44912354
  0
VERTEX
  8
0
 62
7
 10
24.28900000
 20
4.42100000
  0
VERTEX
  8
0
 62
7
 10
24.26018750
 20
4.37418750
  0
VERTEX
  8
0
 62
7
 10
24.23700000
 20
4.32400000
  0
VERTEX
  8
0
 62
7
 10
24.21981250
 20
4.27081250
  0
VERTEX
  8
0
 62
7
 10
24.20900000
 20
4.21500000
  0
VERTEX
  8
0
 62
7
 10
24.21996875
 20
4.19920313
  0
VERTEX
  8
0
 62
7
 10
24.23450000
 20
4.18687500
  0
VERTEX
  8
0
 62
7
 10
24.25203125
 20
4.17885938
  0
VERTEX
  8
0
 62
7
 10
24.27200000
 20
4.17600000
  0
VERTEX
  8
0
 62
7
 10
24.28746875
 20
4.17781250
  0
VERTEX
  8
0
 62
7
 10
24.30200000
 20
4.18300000
  0
VERTEX
  8
0
 62
7
 10
24.31503125
 20
4.19118750
  0
VERTEX
  8
0
 62
7
 10
24.32600000
 20
4.20200000
  0
VERTEX
  8
0
 62
7
 10
24.34886328
 20
4.22935938
  0
VERTEX
  8
0
 62
7
 10
24.37015625
 20
4.25812500
  0
VERTEX
  8
0
 62
7
 10
24.38980859
 20
4.28820312
  0
VERTEX
  8
0
 62
7
 10
24.40775000
 20
4.31950000
  0
VERTEX
  8
0
 62
7
 10
24.42391016
 20
4.35192188
  0
VERTEX
  8
0
 62
7
 10
24.43821875
 20
4.38537500
  0
VERTEX
  8
0
 62
7
 10
24.45060547
 20
4.41976563
  0
VERTEX
  8
0
 62
7
 10
24.46100000
 20
4.45500000
  0
VERTEX
  8
0
 62
7
 10
24.47587012
 20
4.51014722
  0
VERTEX
  8
0
 62
7
 10
24.49521094
 20
4.56331836
  0
VERTEX
  8
0
 62
7
 10
24.51880566
 20
4.61429517
  0
VERTEX
  8
0
 62
7
 10
24.54643750
 20
4.66285938
  0
VERTEX
  8
0
 62
7
 10
24.57788965
 20
4.70879272
  0
VERTEX
  8
0
 62
7
 10
24.61294531
 20
4.75187695
  0
VERTEX
  8
0
 62
7
 10
24.65138770
 20
4.79189380
  0
VERTEX
  8
0
 62
7
 10
24.69300000
 20
4.82862500
  0
VERTEX
  8
0
 62
7
 10
24.73756543
 20
4.86185229
  0
VERTEX
  8
0
 62
7
 10
24.78486719
 20
4.89135742
  0
VERTEX
  8
0
 62
7
 10
24.83468848
 20
4.91692212
  0
VERTEX
  8
0
 62
7
 10
24.88681250
 20
4.93832813
  0
VERTEX
  8
0
 62
7
 10
24.94102246
 20
4.95535718
  0
VERTEX
  8
0
 62
7
 10
24.99710156
 20
4.96779102
  0
VERTEX
  8
0
 62
7
 10
25.05483301
 20
4.97541138
  0
VERTEX
  8
0
 62
7
 10
25.11400000
 20
4.97800000
  0
VERTEX
  8
0
 62
7
 10
25.16400000
 20
4.97600000
  0
VERTEX
  8
0
 62
7
 10
25.17200000
 20
4.84200000
  0
VERTEX
  8
0
 62
7
 10
25.23684375
 20
4.85979687
  0
VERTEX
  8
0
 62
7
 10
25.30375000
 20
4.87262500
  0
VERTEX
  8
0
 62
7
 10
25.37253125
 20
4.88039063
  0
VERTEX
  8
0
 62
7
 10
25.44300000
 20
4.88300000
  0
VERTEX
  8
0
 62
7
 10
25.50000195
 20
4.87943359
  0
VERTEX
  8
0
 62
7
 10
25.55514063
 20
4.87003125
  0
VERTEX
  8
0
 62
7
 10
25.60899023
 20
4.85673828
  0
VERTEX
  8
0
 62
7
 10
25.66212500
 20
4.84150000
  0
VERTEX
  8
0
 62
7
 10
25.71511914
 20
4.82626172
  0
VERTEX
  8
0
 62
7
 10
25.76854688
 20
4.81296875
  0
VERTEX
  8
0
 62
7
 10
25.82298242
 20
4.80356641
  0
VERTEX
  8
0
 62
7
 10
25.87900000
 20
4.80000000
  0
VERTEX
  8
0
 62
7
 10
25.90677539
 20
4.80138477
  0
VERTEX
  8
0
 62
7
 10
25.93376562
 20
4.80545312
  0
VERTEX
  8
0
 62
7
 10
25.95984180
 20
4.81207617
  0
VERTEX
  8
0
 62
7
 10
25.98487500
 20
4.82112500
  0
VERTEX
  8
0
 62
7
 10
26.00873633
 20
4.83247070
  0
VERTEX
  8
0
 62
7
 10
26.03129687
 20
4.84598438
  0
VERTEX
  8
0
 62
7
 10
26.05242773
 20
4.86153711
  0
VERTEX
  8
0
 62
7
 10
26.07200000
 20
4.87900000
  0
VERTEX
  8
0
 62
7
 10
26.07787500
 20
4.82675000
  0
VERTEX
  8
0
 62
7
 10
26.08000000
 20
4.77300000
  0
VERTEX
  8
0
 62
7
 10
26.07734106
 20
4.71159570
  0
VERTEX
  8
0
 62
7
 10
26.06950977
 20
4.65165625
  0
VERTEX
  8
0
 62
7
 10
26.05672437
 20
4.59340430
  0
VERTEX
  8
0
 62
7
 10
26.03920313
 20
4.53706250
  0
VERTEX
  8
0
 62
7
 10
26.01716431
 20
4.48285352
  0
VERTEX
  8
0
 62
7
 10
25.99082617
 20
4.43100000
  0
VERTEX
  8
0
 62
7
 10
25.96040698
 20
4.38172461
  0
VERTEX
  8
0
 62
7
 10
25.92612500
 20
4.33525000
  0
VERTEX
  8
0
 62
7
 10
25.88819849
 20
4.29179883
  0
VERTEX
  8
0
 62
7
 10
25.84684570
 20
4.25159375
  0
VERTEX
  8
0
 62
7
 10
25.80228491
 20
4.21485742
  0
VERTEX
  8
0
 62
7
 10
25.75473438
 20
4.18181250
  0
VERTEX
  8
0
 62
7
 10
25.70441235
 20
4.15268164
  0
VERTEX
  8
0
 62
7
 10
25.65153711
 20
4.12768750
  0
VERTEX
  8
0
 62
7
 10
25.59632690
 20
4.10705273
  0
VERTEX
  8
0
 62
7
 10
25.53900000
 20
4.09100000
  0
VERTEX
  8
0
 62
7
 10
25.58100000
 20
3.96300000
  0
VERTEX
  8
0
 62
7
 10
25.52525195
 20
3.92857617
  0
VERTEX
  8
0
 62
7
 10
25.46689063
 20
3.89817188
  0
VERTEX
  8
0
 62
7
 10
25.40611523
 20
3.87196289
  0
VERTEX
  8
0
 62
7
 10
25.34312500
 20
3.85012500
  0
VERTEX
  8
0
 62
7
 10
25.27811914
 20
3.83283398
  0
VERTEX
  8
0
 62
7
 10
25.21129688
 20
3.82026563
  0
VERTEX
  8
0
 62
7
 10
25.14285742
 20
3.81259570
  0
VERTEX
  8
0
 62
7
 10
25.07300000
 20
3.81000000
  0
VERTEX
  8
0
 62
7
 10
25.00538281
 20
3.81245703
  0
VERTEX
  8
0
 62
7
 10
24.93912500
 20
3.81971875
  0
VERTEX
  8
0
 62
7
 10
24.87436719
 20
3.83162109
  0
VERTEX
  8
0
 62
7
 10
24.81125000
 20
3.84800000
  0
VERTEX
  8
0
 62
7
 10
24.74991406
 20
3.86869141
  0
VERTEX
  8
0
 62
7
 10
24.69050000
 20
3.89353125
  0
VERTEX
  8
0
 62
7
 10
24.63314844
 20
3.92235547
  0
VERTEX
  8
0
 62
7
 10
24.57800000
 20
3.95500000
  0
VERTEX
  8
0
 62
7
 10
24.55424609
 20
3.96853125
  0
VERTEX
  8
0
 62
7
 10
24.52953125
 20
3.98056250
  0
VERTEX
  8
0
 62
7
 10
24.50392578
 20
3.99100000
  0
VERTEX
  8
0
 62
7
 10
24.47750000
 20
3.99975000
  0
VERTEX
  8
0
 62
7
 10
24.45032422
 20
4.00671875
  0
VERTEX
  8
0
 62
7
 10
24.42246875
 20
4.01181250
  0
VERTEX
  8
0
 62
7
 10
24.39400391
 20
4.01493750
  0
VERTEX
  8
0
 62
7
 10
24.36500000
 20
4.01600000
  0
VERTEX
  8
0
 62
7
 10
24.32642188
 20
4.01415625
  0
VERTEX
  8
0
 62
7
 10
24.28887500
 20
4.00875000
  0
VERTEX
  8
0
 62
7
 10
24.25264063
 20
3.99996875
  0
VERTEX
  8
0
 62
7
 10
24.21800000
 20
3.98800000
  0
VERTEX
  8
0
 62
7
 10
24.23795703
 20
3.95749414
  0
VERTEX
  8
0
 62
7
 10
24.26159375
 20
3.92995312
  0
VERTEX
  8
0
 62
7
 10
24.28855859
 20
3.90571680
  0
VERTEX
  8
0
 62
7
 10
24.31850000
 20
3.88512500
  0
VERTEX
  8
0
 62
7
 10
24.35106641
 20
3.86851758
  0
VERTEX
  8
0
 62
7
 10
24.38590625
 20
3.85623438
  0
VERTEX
  8
0
 62
7
 10
24.42266797
 20
3.84861523
  0
VERTEX
  8
0
 62
7
 10
24.46100000
 20
3.84600000
  0
VERTEX
  8
0
 62
7
 10
24.49525000
 20
3.84825000
  0
VERTEX
  8
0
 62
7
 10
24.52800000
 20
3.85500000
  0
VERTEX
  8
0
 62
7
 10
24.57777124
 20
3.85282715
  0
VERTEX
  8
0
 62
7
 10
24.62645117
 20
3.84642969
  0
VERTEX
  8
0
 62
7
 10
24.67383911
 20
3.83598926
  0
VERTEX
  8
0
 62
7
 10
24.71973438
 20
3.82168750
  0
VERTEX
  8
0
 62
7
 10
24.76393628
 20
3.80370605
  0
VERTEX
  8
0
 62
7
 10
24.80624414
 20
3.78222656
  0
VERTEX
  8
0
 62
7
 10
24.84645728
 20
3.75743066
  0
VERTEX
  8
0
 62
7
 10
24.88437500
 20
3.72950000
  0
VERTEX
  8
0
 62
7
 10
24.91979663
 20
3.69861621
  0
VERTEX
  8
0
 62
7
 10
24.95252148
 20
3.66496094
  0
VERTEX
  8
0
 62
7
 10
24.98234888
 20
3.62871582
  0
VERTEX
  8
0
 62
7
 10
25.00907813
 20
3.59006250
  0
VERTEX
  8
0
 62
7
 10
25.03250854
 20
3.54918262
  0
VERTEX
  8
0
 62
7
 10
25.05243945
 20
3.50625781
  0
VERTEX
  8
0
 62
7
 10
25.06867017
 20
3.46146973
  0
VERTEX
  8
0
 62
7
 10
25.08100000
 20
3.41500000
  0
VERTEX
  8
0
 62
7
 10
24.97900000
 20
3.33000000
  0
VERTEX
  8
0
 62
7
 10
25.00386719
 20
3.29220117
  0
VERTEX
  8
0
 62
7
 10
25.02587500
 20
3.25242188
  0
VERTEX
  8
0
 62
7
 10
25.04488281
 20
3.21083789
  0
VERTEX
  8
0
 62
7
 10
25.06075000
 20
3.16762500
  0
VERTEX
  8
0
 62
7
 10
25.07333594
 20
3.12295898
  0
VERTEX
  8
0
 62
7
 10
25.08250000
 20
3.07701563
  0
VERTEX
  8
0
 62
7
 10
25.08810156
 20
3.02997070
  0
VERTEX
  8
0
 62
7
 10
25.09000000
 20
2.98200000
  0
VERTEX
  8
0
 62
7
 10
25.08686328
 20
2.91984570
  0
VERTEX
  8
0
 62
7
 10
25.07765625
 20
2.85957813
  0
VERTEX
  8
0
 62
7
 10
25.06268359
 20
2.80149023
  0
VERTEX
  8
0
 62
7
 10
25.04225000
 20
2.74587500
  0
VERTEX
  8
0
 62
7
 10
25.01666016
 20
2.69302539
  0
VERTEX
  8
0
 62
7
 10
24.98621875
 20
2.64323438
  0
VERTEX
  8
0
 62
7
 10
24.95123047
 20
2.59679492
  0
VERTEX
  8
0
 62
7
 10
24.91200000
 20
2.55400000
  0
VERTEX
  8
0
 62
7
 10
24.89854883
 20
2.59018750
  0
VERTEX
  8
0
 62
7
 10
24.87957813
 20
2.62337500
  0
VERTEX
  8
0
 62
7
 10
24.85566211
 20
2.65300000
  0
VERTEX
  8
0
 62
7
 10
24.82737500
 20
2.67850000
  0
VERTEX
  8
0
 62
7
 10
24.79529102
 20
2.69931250
  0
VERTEX
  8
0
 62
7
 10
24.75998438
 20
2.71487500
  0
VERTEX
  8
0
 62
7
 10
24.72202930
 20
2.72462500
  0
VERTEX
  8
0
 62
7
 10
24.68200000
 20
2.72800000
  0
VERTEX
  8
0
 62
7
 10
24.65662500
 20
2.72650000
  0
VERTEX
  8
0
 62
7
 10
24.63200000
 20
2.72200000
  0
VERTEX
  8
0
 62
7
 10
24.57550195
 20
2.73626758
  0
VERTEX
  8
0
 62
7
 10
24.52182812
 20
2.75701563
  0
VERTEX
  8
0
 62
7
 10
24.47145898
 20
2.78378711
  0
VERTEX
  8
0
 62
7
 10
24.42487500
 20
2.81612500
  0
VERTEX
  8
0
 62
7
 10
24.38255664
 20
2.85357227
  0
VERTEX
  8
0
 62
7
 10
24.34498437
 20
2.89567188
  0
VERTEX
  8
0
 62
7
 10
24.31263867
 20
2.94196680
  0
VERTEX
  8
0
 62
7
 10
24.28600000
 20
2.99200000
  0
VERTEX
  8
0
 62
7
 10
24.15200000
 20
2.91800000
  0
VERTEX
  8
0
 62
7
 10
24.12721460
 20
2.93469995
  0
VERTEX
  8
0
 62
7
 10
24.10352930
 20
2.95288086
  0
VERTEX
  8
0
 62
7
 10
24.08101294
 20
2.97247681
  0
VERTEX
  8
0
 62
7
 10
24.05973438
 20
2.99342188
  0
VERTEX
  8
0
 62
7
 10
24.03976245
 20
3.01565015
  0
VERTEX
  8
0
 62
7
 10
24.02116602
 20
3.03909570
  0
VERTEX
  8
0
 62
7
 10
24.00401392
 20
3.06369263
  0
VERTEX
  8
0
 62
7
 10
23.98837500
 20
3.08937500
  0
VERTEX
  8
0
 62
7
 10
23.97431812
 20
3.11607690
  0
VERTEX
  8
0
 62
7
 10
23.96191211
 20
3.14373242
  0
VERTEX
  8
0
 62
7
 10
23.95122583
 20
3.17227563
  0
VERTEX
  8
0
 62
7
 10
23.94232813
 20
3.20164063
  0
VERTEX
  8
0
 62
7
 10
23.93528784
 20
3.23176147
  0
VERTEX
  8
0
 62
7
 10
23.93017383
 20
3.26257227
  0
VERTEX
  8
0
 62
7
 10
23.92705493
 20
3.29400708
  0
VERTEX
  8
0
 62
7
 10
23.92600000
 20
3.32600000
  0
VERTEX
  8
0
 62
7
 10
23.92830664
 20
3.37340234
  0
VERTEX
  8
0
 62
7
 10
23.93507813
 20
3.41946875
  0
VERTEX
  8
0
 62
7
 10
23.94609180
 20
3.46398828
  0
VERTEX
  8
0
 62
7
 10
23.96112500
 20
3.50675000
  0
VERTEX
  8
0
 62
7
 10
23.97995508
 20
3.54754297
  0
VERTEX
  8
0
 62
7
 10
24.00235938
 20
3.58615625
  0
VERTEX
  8
0
 62
7
 10
24.02811523
 20
3.62237891
  0
VERTEX
  8
0
 62
7
 10
24.05700000
 20
3.65600000
  0
VERTEX
  8
0
 62
7
 10
24.06707813
 20
3.67248438
  0
VERTEX
  8
0
 62
7
 10
24.07462500
 20
3.69037500
  0
VERTEX
  8
0
 62
7
 10
24.07935937
 20
3.70957813
  0
VERTEX
  8
0
 62
7
 10
24.08100000
 20
3.73000000
  0
VERTEX
  8
0
 62
7
 10
24.07904297
 20
3.75230664
  0
VERTEX
  8
0
 62
7
 10
24.07340625
 20
3.77326563
  0
VERTEX
  8
0
 62
7
 10
24.06444141
 20
3.79256055
  0
VERTEX
  8
0
 62
7
 10
24.05250000
 20
3.80987500
  0
VERTEX
  8
0
 62
7
 10
24.03793359
 20
3.82489258
  0
VERTEX
  8
0
 62
7
 10
24.02109375
 20
3.83729688
  0
VERTEX
  8
0
 62
7
 10
24.00233203
 20
3.84677148
  0
VERTEX
  8
0
 62
7
 10
23.98200000
 20
3.85300000
  0
VERTEX
  8
0
 62
7
 10
23.80055078
 20
3.79423438
  0
VERTEX
  8
0
 62
7
 10
23.61809375
 20
3.73781250
  0
VERTEX
  8
0
 62
7
 10
23.43408984
 20
3.68354688
  0
VERTEX
  8
0
 62
7
 10
23.24800000
 20
3.63125000
  0
VERTEX
  8
0
 62
7
 10
23.05928516
 20
3.58073438
  0
VERTEX
  8
0
 62
7
 10
22.86740625
 20
3.53181250
  0
VERTEX
  8
0
 62
7
 10
22.67182422
 20
3.48429688
  0
VERTEX
  8
0
 62
7
 10
22.47200000
 20
3.43800000
  0
VERTEX
  8
0
 62
7
 10
22.65977148
 20
3.46285742
  0
VERTEX
  8
0
 62
7
 10
22.84392187
 20
3.48948438
  0
VERTEX
  8
0
 62
7
 10
23.02495508
 20
3.51796289
  0
VERTEX
  8
0
 62
7
 10
23.20337500
 20
3.54837500
  0
VERTEX
  8
0
 62
7
 10
23.37968555
 20
3.58080273
  0
VERTEX
  8
0
 62
7
 10
23.55439063
 20
3.61532813
  0
VERTEX
  8
0
 62
7
 10
23.72799414
 20
3.65203320
  0
VERTEX
  8
0
 62
7
 10
23.90100000
 20
3.69100000
  0
VERTEX
  8
0
 62
7
 10
23.92800000
 20
3.63700000
  0
VERTEX
  8
0
 62
7
 10
23.92800000
 20
3.63600000
  0
VERTEX
  8
0
 62
7
 10
23.90739453
 20
3.60180273
  0
VERTEX
  8
0
 62
7
 10
23.88915625
 20
3.56604688
  0
VERTEX
  8
0
 62
7
 10
23.87340234
 20
3.52886133
  0
VERTEX
  8
0
 62
7
 10
23.86025000
 20
3.49037500
  0
VERTEX
  8
0
 62
7
 10
23.84981641
 20
3.45071680
  0
VERTEX
  8
0
 62
7
 10
23.84221875
 20
3.41001563
  0
VERTEX
  8
0
 62
7
 10
23.83757422
 20
3.36840039
  0
VERTEX
  8
0
 62
7
 10
23.83600000
 20
3.32600000
  0
VERTEX
  8
0
 62
7
 10
23.84000000
 20
3.26200000
  0
VERTEX
  8
0
 62
7
 10
23.30199463
 20
3.17358032
  0
VERTEX
  8
0
 62
7
 10
22.76264453
 20
3.09093945
  0
VERTEX
  8
0
 62
7
 10
22.22182373
 20
3.01406714
  0
VERTEX
  8
0
 62
7
 10
21.67940625
 20
2.94295313
  0
VERTEX
  8
0
 62
7
 10
21.13526611
 20
2.87758716
  0
VERTEX
  8
0
 62
7
 10
20.58927734
 20
2.81795898
  0
VERTEX
  8
0
 62
7
 10
20.04131396
 20
2.76405835
  0
VERTEX
  8
0
 62
7
 10
19.49125000
 20
2.71587500
  0
VERTEX
  8
0
 62
7
 10
18.93895947
 20
2.67339868
  0
VERTEX
  8
0
 62
7
 10
18.38431641
 20
2.63661914
  0
VERTEX
  8
0
 62
7
 10
17.82719482
 20
2.60552612
  0
VERTEX
  8
0
 62
7
 10
17.26746875
 20
2.58010938
  0
VERTEX
  8
0
 62
7
 10
16.70501221
 20
2.56035864
  0
VERTEX
  8
0
 62
7
 10
16.13969922
 20
2.54626367
  0
VERTEX
  8
0
 62
7
 10
15.57140381
 20
2.53781421
  0
VERTEX
  8
0
 62
7
 10
15.00000000
 20
2.53500000
  0
SEQEND
  0
POLYLINE
  8
0
 62
7
 66
1
 70
1
  0
VERTEX
  8
0
 62
7
 10
22.44900000
 20
23.26000000
  0
VERTEX
  8
0
 62
7
 10
21.99608276
 20
23.35037842
  0
VERTEX
  8
0
 62
7
 10
21.54244336
 20
23.43477734
  0
VERTEX
  8
0
 62
7
 10
21.08787524
 20
23.51321729
  0
VERTEX
  8
0
 62
7
 10
20.63217188
 20
23.58571875
  0
VERTEX
  8
0
 62
7
 10
20.17512671
 20
23.65230225
  0
VERTEX
  8
0
 62
7
 10
19.71653320
 20
23.71298828
  0
VERTEX
  8
0
 62
7
 10
19.25618481
 20
23.76779736
  0
VERTEX
  8
0
 62
7
 10
18.79387500
 20
23.81675000
  0
VERTEX
  8
0
 62
7
 10
18.32939722
 20
23.85986670
  0
VERTEX
  8
0
 62
7
 10
17.86254492
 20
23.89716797
  0
VERTEX
  8
0
 62
7
 10
17.39311157
 20
23.92867432
  0
VERTEX
  8
0
 62
7
 10
16.92089063
 20
23.95440625
  0
VERTEX
  8
0
 62
7
 10
16.44567554
 20
23.97438428
  0
VERTEX
  8
0
 62
7
 10
15.96725977
 20
23.98862891
  0
VERTEX
  8
0
 62
7
 10
15.48543677
 20
23.99716064
  0
VERTEX
  8
0
 62
7
 10
15.00000000
 20
24.00000000
  0
VERTEX
  8
0
 62
7
 10
14.51771826
 20
23.99699414
  0
VERTEX
  8
0
 62
7
 10
14.03693359
 20
23.98800000
  0
VERTEX
  8
0
 62
7
 10
13.55773682
 20
23.97305273
  0
VERTEX
  8
0
 62
7
 10
13.08021875
 20
23.95218750
  0
VERTEX
  8
0
 62
7
 10
12.60447021
 20
23.92543945
  0
VERTEX
  8
0
 62
7
 10
12.13058203
 20
23.89284375
  0
VERTEX
  8
0
 62
7
 10
11.65864502
 20
23.85443555
  0
VERTEX
  8
0
 62
7
 10
11.18875000
 20
23.81025000
  0
VERTEX
  8
0
 62
7
 10
10.72098779
 20
23.76032227
  0
VERTEX
  8
0
 62
7
 10
10.25544922
 20
23.70468750
  0
VERTEX
  8
0
 62
7
 10
9.79222510
 20
23.64338086
  0
VERTEX
  8
0
 62
7
 10
9.33140625
 20
23.57643750
  0
VERTEX
  8
0
 62
7
 10
8.87308350
 20
23.50389258
  0
VERTEX
  8
0
 62
7
 10
8.41734766
 20
23.42578125
  0
VERTEX
  8
0
 62
7
 10
7.96428955
 20
23.34213867
  0
VERTEX
  8
0
 62
7
 10
7.51400000
 20
23.25300000
  0
VERTEX
  8
0
 62
7
 10
7.06339600
 20
23.16379395
  0
VERTEX
  8
0
 62
7
 10
6.60944922
 20
23.07996094
  0
VERTEX
  8
0
 62
7
 10
6.15233252
 20
23.00155371
  0
VERTEX
  8
0
 62
7
 10
5.69221875
 20
22.92862500
  0
VERTEX
  8
0
 62
7
 10
5.22928076
 20
22.86122754
  0
VERTEX
  8
0
 62
7
 10
4.76369141
 20
22.79941406
  0
VERTEX
  8
0
 62
7
 10
4.29562354
 20
22.74323730
  0
VERTEX
  8
0
 62
7
 10
3.82525000
 20
22.69275000
  0
VERTEX
  8
0
 62
7
 10
3.35274365
 20
22.64800488
  0
VERTEX
  8
0
 62
7
 10
2.87827734
 20
22.60905469
  0
VERTEX
  8
0
 62
7
 10
2.40202393
 20
22.57595215
  0
VERTEX
  8
0
 62
7
 10
1.92415625
 20
22.54875000
  0
VERTEX
  8
0
 62
7
 10
1.44484717
 20
22.52750098
  0
VERTEX
  8
0
 62
7
 10
0.96426953
 20
22.51225781
  0
VERTEX
  8
0
 62
7
 10
0.48259619
 20
22.50307324
  0
VERTEX
  8
0
 62
7
 10
0.00000000
 20
22.50000000
  0
VERTEX
  8
0
 62
7
 10
0.00000000
 20
0.00000000
  0
VERTEX
  8
0
 62
7
 10
30.00000000
 20
0.00000000
  0
VERTEX
  8
0
 62
7
 10
30.00000000
 20
22.50000000
  0
VERTEX
  8
0
 62
7
 10
29.51341772
 20
22.50306396
  0
VERTEX
  8
0
 62
7
 10
29.02835742
 20
22.51223047
  0
VERTEX
  8
0
 62
7
 10
28.54491138
 20
22.52746143
  0
VERTEX
  8
0
 62
7
 10
28.06317188
 20
22.54871875
  0
VERTEX
  8
0
 62
7
 10
27.58323120
 20
22.57596436
  0
VERTEX
  8
0
 62
7
 10
27.10518164
 20
22.60916016
  0
VERTEX
  8
0
 62
7
 10
26.62911548
 20
22.64826807
  0
VERTEX
  8
0
 62
7
 10
26.15512500
 20
22.69325000
  0
VERTEX
  8
0
 62
7
 10
25.68330249
 20
22.74406787
  0
VERTEX
  8
0
 62
7
 10
25.21374023
 20
22.80068359
  0
VERTEX
  8
0
 62
7
 10
24.74653052
 20
22.86305908
  0
VERTEX
  8
0
 62
7
 10
24.28176563
 20
22.93115625
  0
VERTEX
  8
0
 62
7
 10
23.81953784
 20
23.00493701
  0
VERTEX
  8
0
 62
7
 10
23.35993945
 20
23.08436328
  0
VERTEX
  8
0
 62
7
 10
22.90306274
 20
23.16939697
  0
VERTEX
  8
0
 62
7
 10
22.44900000
 20
23.26000000
  0
SEQEND
  0
POLYLINE
  8
0
 62
7
 66
1
 70
1
  0
VERTEX
  8
0
 62
7
 10
15.00000000
 20
2.84800000
  0
VERTEX
  8
0
 62
7
 10
14.71046628
 20
2.84947467
  0
VERTEX
  8
0
 62
7
 10
14.42180835
 20
2.85389111
  0
VERTEX
  8
0
 62
7
 10
14.13403482
 20
2.86123798
  0
VERTEX
  8
0
 62
7
 10
13.84715430
 20
2.87150391
  0
VERTEX
  8
0
 62
7
 10
13.56117538
 20
2.88467755
  0
VERTEX
  8
0
 62
7
 10
13.27610669
 20
2.90074756
  0
VERTEX
  8
0
 62
7
 10
12.99195682
 20
2.91970258
  0
VERTEX
  8
0
 62
7
 10
12.70873438
 20
2.94153125
  0
VERTEX
  8
0
 62
7
 10
12.42644797
 20
2.96622223
  0
VERTEX
  8
0
 62
7
 10
12.14510620
 20
2.99376416
  0
VERTEX
  8
0
 62
7
 10
11.86471768
 20
3.02414569
  0
VERTEX
  8
0
 62
7
 10
11.58529102
 20
3.05735547
  0
VERTEX
  8
0
 62
7
 10
11.30683481
 20
3.09338214
  0
VERTEX
  8
0
 62
7
 10
11.02935767
 20
3.13221436
  0
VERTEX
  8
0
 62
7
 10
10.75286819
 20
3.17384076
  0
VERTEX
  8
0
 62
7
 10
10.47737500
 20
3.21825000
  0
VERTEX
  8
0
 62
7
 10
10.20288669
 20
3.26543073
  0
VERTEX
  8
0
 62
7
 10
9.92941187
 20
3.31537158
  0
VERTEX
  8
0
 62
7
 10
9.65695914
 20
3.36806122
  0
VERTEX
  8
0
 62
7
 10
9.38553711
 20
3.42348828
  0
VERTEX
  8
0
 62
7
 10
9.11515439
 20
3.48164142
  0
VERTEX
  8
0
 62
7
 10
8.84581958
 20
3.54250928
  0
VERTEX
  8
0
 62
7
 10
8.57754129
 20
3.60608051
  0
VERTEX
  8
0
 62
7
 10
8.31032812
 20
3.67234375
  0
VERTEX
  8
0
 62
7
 10
8.04418869
 20
3.74128766
  0
VERTEX
  8
0
 62
7
 10
7.77913159
 20
3.81290088
  0
VERTEX
  8
0
 62
7
 10
7.51516544
 20
3.88717206
  0
VERTEX
  8
0
 62
7
 10
7.25229883
 20
3.96408984
  0
VERTEX
  8
0
 62
7
 10
6.99054037
 20
4.04364288
  0
VERTEX
  8
0
 62
7
 10
6.72989868
 20
4.12581982
  0
VERTEX
  8
0
 62
7
 10
6.47038235
 20
4.21060931
  0
VERTEX
  8
0
 62
7
 10
6.21200000
 20
4.29800000
  0
VERTEX
  8
0
 62
7
 10
6.24850000
 20
4.31200000
  0
VERTEX
  8
0
 62
7
 10
6.28800000
 20
4.32000000
  0
VERTEX
  8
0
 62
7
 10
6.32931274
 20
4.34494189
  0
VERTEX
  8
0
 62
7
 10
6.36879883
 20
4.37244141
  0
VERTEX
  8
0
 62
7
 10
6.40634253
 20
4.40238428
  0
VERTEX
  8
0
 62
7
 10
6.44182812
 20
4.43465625
  0
VERTEX
  8
0
 62
7
 10
6.47513989
 20
4.46914307
  0
VERTEX
  8
0
 62
7
 10
6.50616211
 20
4.50573047
  0
VERTEX
  8
0
 62
7
 10
6.53477905
 20
4.54430420
  0
VERTEX
  8
0
 62
7
 10
6.56087500
 20
4.58475000
  0
VERTEX
  8
0
 62
7
 10
6.58433423
 20
4.62695361
  0
VERTEX
  8
0
 62
7
 10
6.60504102
 20
4.67080078
  0
VERTEX
  8
0
 62
7
 10
6.62287964
 20
4.71617725
  0
VERTEX
  8
0
 62
7
 10
6.63773438
 20
4.76296875
  0
VERTEX
  8
0
 62
7
 10
6.64948950
 20
4.81106104
  0
VERTEX
  8
0
 62
7
 10
6.65802930
 20
4.86033984
  0
VERTEX
  8
0
 62
7
 10
6.66323804
 20
4.91069092
  0
VERTEX
  8
0
 62
7
 10
6.66500000
 20
4.96200000
  0
VERTEX
  8
0
 62
7
 10
6.66398047
 20
5.00071484
  0
VERTEX
  8
0
 62
7
 10
6.66096875
 20
5.03884375
  0
VERTEX
  8
0
 62
7
 10
6.65603516
 20
5.07636328
  0
VERTEX
  8
0
 62
7
 10
6.64925000
 20
5.11325000
  0
VERTEX
  8
0
 62
7
 10
6.64068359
 20
5.14948047
  0
VERTEX
  8
0
 62
7
 10
6.63040625
 20
5.18503125
  0
VERTEX
  8
0
 62
7
 10
6.61848828
 20
5.21987891
  0
VERTEX
  8
0
 62
7
 10
6.60500000
 20
5.25400000
  0
VERTEX
  8
0
 62
7
 10
6.49400000
 20
5.25800000
  0
VERTEX
  8
0
 62
7
 10
6.49900000
 20
5.29775000
  0
VERTEX
  8
0
 62
7
 10
6.50100000
 20
5.33900000
  0
VERTEX
  8
0
 62
7
 10
6.49924219
 20
5.38022461
  0
VERTEX
  8
0
 62
7
 10
6.49406250
 20
5.42054688
  0
VERTEX
  8
0
 62
7
 10
6.48560156
 20
5.45981445
  0
VERTEX
  8
0
 62
7
 10
6.47400000
 20
5.49787500
  0
VERTEX
  8
0
 62
7
 10
6.45939844
 20
5.53457617
  0
VERTEX
  8
0
 62
7
 10
6.44193750
 20
5.56976563
  0
VERTEX
  8
0
 62
7
 10
6.42175781
 20
5.60329102
  0
VERTEX
  8
0
 62
7
 10
6.39900000
 20
5.63500000
  0
VERTEX
  8
0
 62
7
 10
6.39312500
 20
5.67862500
  0
VERTEX
  8
0
 62
7
 10
6.39100000
 20
5.72300000
  0
VERTEX
  8
0
 62
7
 10
6.39253125
 20
5.76122852
  0
VERTEX
  8
0
 62
7
 10
6.39706250
 20
5.79857812
  0
VERTEX
  8
0
 62
7
 10
6.40450000
 20
5.83491992
  0
VERTEX
  8
0
 62
7
 10
6.41475000
 20
5.87012500
  0
VERTEX
  8
0
 62
7
 10
6.42771875
 20
5.90406445
  0
VERTEX
  8
0
 62
7
 10
6.44331250
 20
5.93660937
  0
VERTEX
  8
0
 62
7
 10
6.46143750
 20
5.96763086
  0
VERTEX
  8
0
 62
7
 10
6.48200000
 20
5.99700000
  0
VERTEX
  8
0
 62
7
 10
6.43418750
 20
6.00823437
  0
VERTEX
  8
0
 62
7
 10
6.38525000
 20
6.01637500
  0
VERTEX
  8
0
 62
7
 10
6.33518750
 20
6.02132813
  0
VERTEX
  8
0
 62
7
 10
6.28400000
 20
6.02300000
  0
VERTEX
  8
0
 62
7
 10
6.21795508
 20
6.02021362
  0
VERTEX
  8
0
 62
7
 10
6.15346875
 20
6.01200586
  0
VERTEX
  8
0
 62
7
 10
6.09076367
 20
5.99860376
  0
VERTEX
  8
0
 62
7
 10
6.03006250
 20
5.98023438
  0
VERTEX
  8
0
 62
7
 10
5.97158789
 20
5.95712476
  0
VERTEX
  8
0
 62
7
 10
5.91556250
 20
5.92950195
  0
VERTEX
  8
0
 62
7
 10
5.86220898
 20
5.89759302
  0
VERTEX
  8
0
 62
7
 10
5.81175000
 20
5.86162500
  0
VERTEX
  8
0
 62
7
 10
5.76440820
 20
5.82182495
  0
VERTEX
  8
0
 62
7
 10
5.72040625
 20
5.77841992
  0
VERTEX
  8
0
 62
7
 10
5.67996680
 20
5.73163696
  0
VERTEX
  8
0
 62
7
 10
5.64331250
 20
5.68170313
  0
VERTEX
  8
0
 62
7
 10
5.61066602
 20
5.62884546
  0
VERTEX
  8
0
 62
7
 10
5.58225000
 20
5.57329102
  0
VERTEX
  8
0
 62
7
 10
5.55828711
 20
5.51526685
  0
VERTEX
  8
0
 62
7
 10
5.53900000
 20
5.45500000
  0
VERTEX
  8
0
 62
7
 10
5.43000000
 20
5.47900000
  0
VERTEX
  8
0
 62
7
 10
5.40952734
 20
5.44127734
  0
VERTEX
  8
0
 62
7
 10
5.39090625
 20
5.40240625
  0
VERTEX
  8
0
 62
7
 10
5.37420703
 20
5.36245703
  0
VERTEX
  8
0
 62
7
 10
5.35950000
 20
5.32150000
  0
VERTEX
  8
0
 62
7
 10
5.34685547
 20
5.27960547
  0
VERTEX
  8
0
 62
7
 10
5.33634375
 20
5.23684375
  0
VERTEX
  8
0
 62
7
 10
5.32803516
 20
5.19328516
  0
VERTEX
  8
0
 62
7
 10
5.32200000
 20
5.14900000
  0
VERTEX
  8
0
 62
7
 10
5.27595703
 20
5.18392773
  0
VERTEX
  8
0
 62
7
 10
5.23321875
 20
5.22254687
  0
VERTEX
  8
0
 62
7
 10
5.19399609
 20
5.26461133
  0
VERTEX
  8
0
 62
7
 10
5.15850000
 20
5.30987500
  0
VERTEX
  8
0
 62
7
 10
5.12694141
 20
5.35809180
  0
VERTEX
  8
0
 62
7
 10
5.09953125
 20
5.40901563
  0
VERTEX
  8
0
 62
7
 10
5.07648047
 20
5.46240039
  0
VERTEX
  8
0
 62
7
 10
5.05800000
 20
5.51800000
  0
VERTEX
  8
0
 62
7
 10
5.07275000
 20
5.53561523
  0
VERTEX
  8
0
 62
7
 10
5.08675000
 20
5.55523438
  0
VERTEX
  8
0
 62
7
 10
5.09962500
 20
5.57651758
  0
VERTEX
  8
0
 62
7
 10
5.11100000
 20
5.59912500
  0
VERTEX
  8
0
 62
7
 10
5.12050000
 20
5.62271680
  0
VERTEX
  8
0
 62
7
 10
5.12775000
 20
5.64695313
  0
VERTEX
  8
0
 62
7
 10
5.13237500
 20
5.67149414
  0
VERTEX
  8
0
 62
7
 10
5.13400000
 20
5.69600000
  0
VERTEX
  8
0
 62
7
 10
5.13090625
 20
5.73507813
  0
VERTEX
  8
0
 62
7
 10
5.12200000
 20
5.77237500
  0
VERTEX
  8
0
 62
7
 10
5.10784375
 20
5.80723438
  0
VERTEX
  8
0
 62
7
 10
5.08900000
 20
5.83900000
  0
VERTEX
  8
0
 62
7
 10
5.12766992
 20
5.85300977
  0
VERTEX
  8
0
 62
7
 10
5.16304688
 20
5.87289063
  0
VERTEX
  8
0
 62
7
 10
5.19455664
 20
5.89804492
  0
VERTEX
  8
0
 62
7
 10
5.22162500
 20
5.92787500
  0
VERTEX
  8
0
 62
7
 10
5.24367773
 20
5.96178320
  0
VERTEX
  8
0
 62
7
 10
5.26014063
 20
5.99917188
  0
VERTEX
  8
0
 62
7
 10
5.27043945
 20
6.03944336
  0
VERTEX
  8
0
 62
7
 10
5.27400000
 20
6.08200000
  0
VERTEX
  8
0
 62
7
 10
5.27200000
 20
6.11800000
  0
VERTEX
  8
0
 62
7
 10
5.27382813
 20
6.14110938
  0
VERTEX
  8
0
 62
7
 10
5.27912500
 20
6.16300000
  0
VERTEX
  8
0
 62
7
 10
5.28760937
 20
6.18339063
  0
VERTEX
  8
0
 62
7
 10
5.29900000
 20
6.20200000
  0
VERTEX
  8
0
 62
7
 10
5.31301563
 20
6.21854688
  0
VERTEX
  8
0
 62
7
 10
5.32937500
 20
6.23275000
  0
VERTEX
  8
0
 62
7
 10
5.34779688
 20
6.24432813
  0
VERTEX
  8
0
 62
7
 10
5.36800000
 20
6.25300000
  0
VERTEX
  8
0
 62
7
 10
5.37988086
 20
6.25948828
  0
VERTEX
  8
0
 62
7
 10
5.39067187
 20
6.26759375
  0
VERTEX
  8
0
 62
7
 10
5.40022070
 20
6.27715234
  0
VERTEX
  8
0
 62
7
 10
5.40837500
 20
6.28800000
  0
VERTEX
  8
0
 62
7
 10
5.41498242
 20
6.29997266
  0
VERTEX
  8
0
 62
7
 10
5.41989062
 20
6.31290625
  0
VERTEX
  8
0
 62
7
 10
5.42294727
 20
6.32663672
  0
VERTEX
  8
0
 62
7
 10
5.42400000
 20
6.34100000
  0
VERTEX
  8
0
 62
7
 10
5.42004687
 20
6.36853125
  0
VERTEX
  8
0
 62
7
 10
5.40887500
 20
6.39325000
  0
VERTEX
  8
0
 62
7
 10
5.39151563
 20
6.41384375
  0
VERTEX
  8
0
 62
7
 10
5.36900000
 20
6.42900000
  0
VERTEX
  8
0
 62
7
 10
5.33903906
 20
6.46229102
  0
VERTEX
  8
0
 62
7
 10
5.31231250
 20
6.49826563
  0
VERTEX
  8
0
 62
7
 10
5.28905469
 20
6.53670117
  0
VERTEX
  8
0
 62
7
 10
5.26950000
 20
6.57737500
  0
VERTEX
  8
0
 62
7
 10
5.25388281
 20
6.62006445
  0
VERTEX
  8
0
 62
7
 10
5.24243750
 20
6.66454688
  0
VERTEX
  8
0
 62
7
 10
5.23539844
 20
6.71059961
  0
VERTEX
  8
0
 62
7
 10
5.23300000
 20
6.75800000
  0
VERTEX
  8
0
 62
7
 10
5.23600000
 20
6.81125000
  0
VERTEX
  8
0
 62
7
 10
5.24500000
 20
6.86300000
  0
VERTEX
  8
0
 62
7
 10
5.25537500
 20
6.88662500
  0
VERTEX
  8
0
 62
7
 10
5.25900000
 20
6.91400000
  0
VERTEX
  8
0
 62
7
 10
5.25700391
 20
6.93371484
  0
VERTEX
  8
0
 62
7
 10
5.25128125
 20
6.95209375
  0
VERTEX
  8
0
 62
7
 10
5.24223047
 20
6.96873828
  0
VERTEX
  8
0
 62
7
 10
5.23025000
 20
6.98325000
  0
VERTEX
  8
0
 62
7
 10
5.21573828
 20
6.99523047
  0
VERTEX
  8
0
 62
7
 10
5.19909375
 20
7.00428125
  0
VERTEX
  8
0
 62
7
 10
5.18071484
 20
7.01000391
  0
VERTEX
  8
0
 62
7
 10
5.16100000
 20
7.01200000
  0
VERTEX
  8
0
 62
7
 10
5.11800000
 20
7.00700000
  0
VERTEX
  8
0
 62
7
 10
5.09559180
 20
7.00873633
  0
VERTEX
  8
0
 62
7
 10
5.07429687
 20
7.01376563
  0
VERTEX
  8
0
 62
7
 10
5.05438477
 20
7.02181836
  0
VERTEX
  8
0
 62
7
 10
5.03612500
 20
7.03262500
  0
VERTEX
  8
0
 62
7
 10
5.01978711
 20
7.04591602
  0
VERTEX
  8
0
 62
7
 10
5.00564062
 20
7.06142187
  0
VERTEX
  8
0
 62
7
 10
4.99395508
 20
7.07887305
  0
VERTEX
  8
0
 62
7
 10
4.98500000
 20
7.09800000
  0
VERTEX
  8
0
 62
7
 10
4.96714258
 20
7.12494727
  0
VERTEX
  8
0
 62
7
 10
4.94601563
 20
7.14932813
  0
VERTEX
  8
0
 62
7
 10
4.92191211
 20
7.17082617
  0
VERTEX
  8
0
 62
7
 10
4.89512500
 20
7.18912500
  0
VERTEX
  8
0
 62
7
 10
4.86594727
 20
7.20390820
  0
VERTEX
  8
0
 62
7
 10
4.83467187
 20
7.21485938
  0
VERTEX
  8
0
 62
7
 10
4.80159180
 20
7.22166211
  0
VERTEX
  8
0
 62
7
 10
4.76700000
 20
7.22400000
  0
VERTEX
  8
0
 62
7
 10
4.72975000
 20
7.22112500
  0
VERTEX
  8
0
 62
7
 10
4.69400000
 20
7.21300000
  0
VERTEX
  8
0
 62
7
 10
4.69789404
 20
7.23348389
  0
VERTEX
  8
0
 62
7
 10
4.69918359
 20
7.25363672
  0
VERTEX
  8
0
 62
7
 10
4.69802979
 20
7.27338525
  0
VERTEX
  8
0
 62
7
 10
4.69459375
 20
7.29265625
  0
VERTEX
  8
0
 62
7
 10
4.68903662
 20
7.31137646
  0
VERTEX
  8
0
 62
7
 10
4.68151953
 20
7.32947266
  0
VERTEX
  8
0
 62
7
 10
4.67220361
 20
7.34687158
  0
VERTEX
  8
0
 62
7
 10
4.66125000
 20
7.36350000
  0
VERTEX
  8
0
 62
7
 10
4.64881982
 20
7.37928467
  0
VERTEX
  8
0
 62
7
 10
4.63507422
 20
7.39415234
  0
VERTEX
  8
0
 62
7
 10
4.62017432
 20
7.40802979
  0
VERTEX
  8
0
 62
7
 10
4.60428125
 20
7.42084375
  0
VERTEX
  8
0
 62
7
 10
4.58755615
 20
7.43252100
  0
VERTEX
  8
0
 62
7
 10
4.57016016
 20
7.44298828
  0
VERTEX
  8
0
 62
7
 10
4.55225439
 20
7.45217236
  0
VERTEX
  8
0
 62
7
 10
4.53400000
 20
7.46000000
  0
VERTEX
  8
0
 62
7
 10
4.53400000
 20
7.51700000
  0
VERTEX
  8
0
 62
7
 10
4.56500000
 20
7.51600000
  0
VERTEX
  8
0
 62
7
 10
4.60089453
 20
7.51714844
  0
VERTEX
  8
0
 62
7
 10
4.63615625
 20
7.52054688
  0
VERTEX
  8
0
 62
7
 10
4.67071484
 20
7.52612500
  0
VERTEX
  8
0
 62
7
 10
4.70450000
 20
7.53381250
  0
VERTEX
  8
0
 62
7
 10
4.73744141
 20
7.54353906
  0
VERTEX
  8
0
 62
7
 10
4.76946875
 20
7.55523438
  0
VERTEX
  8
0
 62
7
 10
4.80051172
 20
7.56882813
  0
VERTEX
  8
0
 62
7
 10
4.83050000
 20
7.58425000
  0
VERTEX
  8
0
 62
7
 10
4.85936328
 20
7.60142969
  0
VERTEX
  8
0
 62
7
 10
4.88703125
 20
7.62029688
  0
VERTEX
  8
0
 62
7
 10
4.91343359
 20
7.64078125
  0
VERTEX
  8
0
 62
7
 10
4.93850000
 20
7.66281250
  0
VERTEX
  8
0
 62
7
 10
4.96216016
 20
7.68632031
  0
VERTEX
  8
0
 62
7
 10
4.98434375
 20
7.71123438
  0
VERTEX
  8
0
 62
7
 10
5.00498047
 20
7.73748438
  0
VERTEX
  8
0
 62
7
 10
5.02400000
 20
7.76500000
  0
VERTEX
  8
0
 62
7
 10
4.97900000
 20
7.86400000
  0
VERTEX
  8
0
 62
7
 10
5.02420020
 20
7.88967749
  0
VERTEX
  8
0
 62
7
 10
5.06746094
 20
7.91824805
  0
VERTEX
  8
0
 62
7
 10
5.10864746
 20
7.94958130
  0
VERTEX
  8
0
 62
7
 10
5.14762500
 20
7.98354688
  0
VERTEX
  8
0
 62
7
 10
5.18425879
 20
8.02001440
  0
VERTEX
  8
0
 62
7
 10
5.21841406
 20
8.05885352
  0
VERTEX
  8
0
 62
7
 10
5.24995605
 20
8.09993384
  0
VERTEX
  8
0
 62
7
 10
5.27875000
 20
8.14312500
  0
VERTEX
  8
0
 62
7
 10
5.30466113
 20
8.18829663
  0
VERTEX
  8
0
 62
7
 10
5.32755469
 20
8.23531836
  0
VERTEX
  8
0
 62
7
 10
5.34729590
 20
8.28405981
  0
VERTEX
  8
0
 62
7
 10
5.36375000
 20
8.33439063
  0
VERTEX
  8
0
 62
7
 10
5.37678223
 20
8.38618042
  0
VERTEX
  8
0
 62
7
 10
5.38625781
 20
8.43929883
  0
VERTEX
  8
0
 62
7
 10
5.39204199
 20
8.49361548
  0
VERTEX
  8
0
 62
7
 10
5.39400000
 20
8.54900000
  0
VERTEX
  8
0
 62
7
 10
5.39279297
 20
8.59225195
  0
VERTEX
  8
0
 62
7
 10
5.38921875
 20
8.63495313
  0
VERTEX
  8
0
 62
7
 10
5.38334766
 20
8.67702148
  0
VERTEX
  8
0
 62
7
 10
5.37525000
 20
8.71837500
  0
VERTEX
  8
0
 62
7
 10
5.36499609
 20
8.75893164
  0
VERTEX
  8
0
 62
7
 10
5.35265625
 20
8.79860937
  0
VERTEX
  8
0
 62
7
 10
5.33830078
 20
8.83732617
  0
VERTEX
  8
0
 62
7
 10
5.32200000
 20
8.87500000
  0
VERTEX
  8
0
 62
7
 10
5.29010742
 20
8.84971680
  0
VERTEX
  8
0
 62
7
 10
5.25604688
 20
8.82723437
  0
VERTEX
  8
0
 62
7
 10
5.21999414
 20
8.80772852
  0
VERTEX
  8
0
 62
7
 10
5.18212500
 20
8.79137500
  0
VERTEX
  8
0
 62
7
 10
5.14261523
 20
8.77834961
  0
VERTEX
  8
0
 62
7
 10
5.10164062
 20
8.76882813
  0
VERTEX
  8
0
 62
7
 10
5.05937695
 20
8.76298633
  0
VERTEX
  8
0
 62
7
 10
5.01600000
 20
8.76100000
  0
VERTEX
  8
0
 62
7
 10
4.90100000
 20
8.76600000
  0
VERTEX
  8
0
 62
7
 10
4.83225000
 20
8.76312500
  0
VERTEX
  8
0
 62
7
 10
4.76500000
 20
8.75500000
  0
VERTEX
  8
0
 62
7
 10
4.74000000
 20
8.85800000
  0
VERTEX
  8
0
 62
7
 10
4.69641992
 20
8.85641797
  0
VERTEX
  8
0
 62
7
 10
4.65348437
 20
8.85246875
  0
VERTEX
  8
0
 62
7
 10
4.61127539
 20
8.84622266
  0
VERTEX
  8
0
 62
7
 10
4.56987500
 20
8.83775000
  0
VERTEX
  8
0
 62
7
 10
4.52936523
 20
8.82712109
  0
VERTEX
  8
0
 62
7
 10
4.48982812
 20
8.81440625
  0
VERTEX
  8
0
 62
7
 10
4.45134570
 20
8.79967578
  0
VERTEX
  8
0
 62
7
 10
4.41400000
 20
8.78300000
  0
VERTEX
  8
0
 62
7
 10
4.43600000
 20
8.82300000
  0
VERTEX
  8
0
 62
7
 10
4.45755273
 20
8.87431445
  0
VERTEX
  8
0
 62
7
 10
4.47642187
 20
8.92695313
  0
VERTEX
  8
0
 62
7
 10
4.49254883
 20
8.98083398
  0
VERTEX
  8
0
 62
7
 10
4.50587500
 20
9.03587500
  0
VERTEX
  8
0
 62
7
 10
4.51634180
 20
9.09199414
  0
VERTEX
  8
0
 62
7
 10
4.52389062
 20
9.14910938
  0
VERTEX
  8
0
 62
7
 10
4.52846289
 20
9.20713867
  0
VERTEX
  8
0
 62
7
 10
4.53000000
 20
9.26600000
  0
VERTEX
  8
0
 62
7
 10
4.52792187
 20
9.33532813
  0
VERTEX
  8
0
 62
7
 10
4.52162500
 20
9.40362500
  0
VERTEX
  8
0
 62
7
 10
4.51101562
 20
9.47060938
  0
VERTEX
  8
0
 62
7
 10
4.49600000
 20
9.53600000
  0
VERTEX
  8
0
 62
7
 10
4.36000000
 20
9.52000000
  0
VERTEX
  8
0
 62
7
 10
4.35535352
 20
9.58004883
  0
VERTEX
  8
0
 62
7
 10
4.34532813
 20
9.63851563
  0
VERTEX
  8
0
 62
7
 10
4.33016992
 20
9.69513086
  0
VERTEX
  8
0
 62
7
 10
4.31012500
 20
9.74962500
  0
VERTEX
  8
0
 62
7
 10
4.28543945
 20
9.80172852
  0
VERTEX
  8
0
 62
7
 10
4.25635937
 20
9.85117188
  0
VERTEX
  8
0
 62
7
 10
4.22313086
 20
9.89768555
  0
VERTEX
  8
0
 62
7
 10
4.18600000
 20
9.94100000
  0
VERTEX
  8
0
 62
7
 10
4.17251172
 20
9.96175391
  0
VERTEX
  8
0
 62
7
 10
4.16059375
 20
9.98346875
  0
VERTEX
  8
0
 62
7
 10
4.15031641
 20
10.00607422
  0
VERTEX
  8
0
 62
7
 10
4.14175000
 20
10.02950000
  0
VERTEX
  8
0
 62
7
 10
4.13496484
 20
10.05367578
  0
VERTEX
  8
0
 62
7
 10
4.13003125
 20
10.07853125
  0
VERTEX
  8
0
 62
7
 10
4.12701953
 20
10.10399609
  0
VERTEX
  8
0
 62
7
 10
4.12600000
 20
10.13000000
  0
VERTEX
  8
0
 62
7
 10
4.12948047
 20
10.17749609
  0
VERTEX
  8
0
 62
7
 10
4.13959375
 20
10.22290625
  0
VERTEX
  8
0
 62
7
 10
4.15584766
 20
10.26573828
  0
VERTEX
  8
0
 62
7
 10
4.17775000
 20
10.30550000
  0
VERTEX
  8
0
 62
7
 10
4.20480859
 20
10.34169922
  0
VERTEX
  8
0
 62
7
 10
4.23653125
 20
10.37384375
  0
VERTEX
  8
0
 62
7
 10
4.27242578
 20
10.40144141
  0
VERTEX
  8
0
 62
7
 10
4.31200000
 20
10.42400000
  0
VERTEX
  8
0
 62
7
 10
4.21666797
 20
10.41706836
  0
VERTEX
  8
0
 62
7
 10
4.12365625
 20
10.40248438
  0
VERTEX
  8
0
 62
7
 10
4.03331641
 20
10.38056445
  0
VERTEX
  8
0
 62
7
 10
3.94600000
 20
10.35162500
  0
VERTEX
  8
0
 62
7
 10
3.86205859
 20
10.31598242
  0
VERTEX
  8
0
 62
7
 10
3.78184375
 20
10.27395313
  0
VERTEX
  8
0
 62
7
 10
3.70570703
 20
10.22585352
  0
VERTEX
  8
0
 62
7
 10
3.63400000
 20
10.17200000
  0
VERTEX
  8
0
 62
7
 10
3.62987500
 20
10.43500000
  0
VERTEX
  8
0
 62
7
 10
3.62800000
 20
10.69800000
  0
VERTEX
  8
0
 62
7
 10
3.62937012
 20
11.00166568
  0
VERTEX
  8
0
 62
7
 10
3.63347656
 20
11.30441528
  0
VERTEX
  8
0
 62
7
 10
3.64031348
 20
11.60625266
  0
VERTEX
  8
0
 62
7
 10
3.64987500
 20
11.90718164
  0
VERTEX
  8
0
 62
7
 10
3.66215527
 20
12.20720609
  0
VERTEX
  8
0
 62
7
 10
3.67714844
 20
12.50632983
  0
VERTEX
  8
0
 62
7
 10
3.69484863
 20
12.80455673
  0
VERTEX
  8
0
 62
7
 10
3.71525000
 20
13.10189063
  0
VERTEX
  8
0
 62
7
 10
3.73834668
 20
13.39833536
  0
VERTEX
  8
0
 62
7
 10
3.76413281
 20
13.69389478
  0
VERTEX
  8
0
 62
7
 10
3.79260254
 20
13.98857272
  0
VERTEX
  8
0
 62
7
 10
3.82375000
 20
14.28237305
  0
VERTEX
  8
0
 62
7
 10
3.85756934
 20
14.57529959
  0
VERTEX
  8
0
 62
7
 10
3.89405469
 20
14.86735620
  0
VERTEX
  8
0
 62
7
 10
3.93320020
 20
15.15854672
  0
VERTEX
  8
0
 62
7
 10
3.97500000
 20
15.44887500
  0
VERTEX
  8
0
 62
7
 10
4.01944824
 20
15.73834488
  0
VERTEX
  8
0
 62
7
 10
4.06653906
 20
16.02696021
  0
VERTEX
  8
0
 62
7
 10
4.11626660
 20
16.31472482
  0
VERTEX
  8
0
 62
7
 10
4.16862500
 20
16.60164258
  0
VERTEX
  8
0
 62
7
 10
4.22360840
 20
16.88771732
  0
VERTEX
  8
0
 62
7
 10
4.28121094
 20
17.17295288
  0
VERTEX
  8
0
 62
7
 10
4.34142676
 20
17.45735312
  0
VERTEX
  8
0
 62
7
 10
4.40425000
 20
17.74092188
  0
VERTEX
  8
0
 62
7
 10
4.46967480
 20
18.02366299
  0
VERTEX
  8
0
 62
7
 10
4.53769531
 20
18.30558032
  0
VERTEX
  8
0
 62
7
 10
4.60830566
 20
18.58667770
  0
VERTEX
  8
0
 62
7
 10
4.68150000
 20
18.86695898
  0
VERTEX
  8
0
 62
7
 10
4.75727246
 20
19.14642801
  0
VERTEX
  8
0
 62
7
 10
4.83561719
 20
19.42508862
  0
VERTEX
  8
0
 62
7
 10
4.91652832
 20
19.70294467
  0
VERTEX
  8
0
 62
7
 10
5.00000000
 20
19.98000000
  0
VERTEX
  8
0
 62
7
 10
5.32573926
 20
19.98315063
  0
VERTEX
  8
0
 62
7
 10
5.65071094
 20
19.99254883
  0
VERTEX
  8
0
 62
7
 10
5.97473340
 20
20.00811401
  0
VERTEX
  8
0
 62
7
 10
6.29762500
 20
20.02976563
  0
VERTEX
  8
0
 62
7
 10
6.61920410
 20
20.05742310
  0
VERTEX
  8
0
 62
7
 10
6.93928906
 20
20.09100586
  0
VERTEX
  8
0
 62
7
 10
7.25769824
 20
20.13043335
  0
VERTEX
  8
0
 62
7
 10
7.57425000
 20
20.17562500
  0
VERTEX
  8
0
 62
7
 10
7.88876270
 20
20.22650024
  0
VERTEX
  8
0
 62
7
 10
8.20105469
 20
20.28297852
  0
VERTEX
  8
0
 62
7
 10
8.51094434
 20
20.34497925
  0
VERTEX
  8
0
 62
7
 10
8.81825000
 20
20.41242188
  0
VERTEX
  8
0
 62
7
 10
9.12279004
 20
20.48522583
  0
VERTEX
  8
0
 62
7
 10
9.42438281
 20
20.56331055
  0
VERTEX
  8
0
 62
7
 10
9.72284668
 20
20.64659546
  0
VERTEX
  8
0
 62
7
 10
10.01800000
 20
20.73500000
  0
VERTEX
  8
0
 62
7
 10
10.31274902
 20
20.82312744
  0
VERTEX
  8
0
 62
7
 10
10.61007031
 20
20.90597266
  0
VERTEX
  8
0
 62
7
 10
10.90988770
 20
20.98347998
  0
VERTEX
  8
0
 62
7
 10
11.21212500
 20
21.05559375
  0
VERTEX
  8
0
 62
7
 10
11.51670605
 20
21.12225830
  0
VERTEX
  8
0
 62
7
 10
11.82355469
 20
21.18341797
  0
VERTEX
  8
0
 62
7
 10
12.13259473
 20
21.23901709
  0
VERTEX
  8
0
 62
7
 10
12.44375000
 20
21.28900000
  0
VERTEX
  8
0
 62
7
 10
12.75694434
 20
21.33331104
  0
VERTEX
  8
0
 62
7
 10
13.07210156
 20
21.37189453
  0
VERTEX
  8
0
 62
7
 10
13.38914551
 20
21.40469482
  0
VERTEX
  8
0
 62
7
 10
13.70800000
 20
21.43165625
  0
VERTEX
  8
0
 62
7
 10
14.02858887
 20
21.45272314
  0
VERTEX
  8
0
 62
7
 10
14.35083594
 20
21.46783984
  0
VERTEX
  8
0
 62
7
 10
14.67466504
 20
21.47695068
  0
VERTEX
  8
0
 62
7
 10
15.00000000
 20
21.48000000
  0
VERTEX
  8
0
 62
7
 10
15.32533496
 20
21.47695068
  0
VERTEX
  8
0
 62
7
 10
15.64916406
 20
21.46783984
  0
VERTEX
  8
0
 62
7
 10
15.97141113
 20
21.45272314
  0
VERTEX
  8
0
 62
7
 10
16.29200000
 20
21.43165625
  0
VERTEX
  8
0
 62
7
 10
16.61085449
 20
21.40469482
  0
VERTEX
  8
0
 62
7
 10
16.92789844
 20
21.37189453
  0
VERTEX
  8
0
 62
7
 10
17.24305566
 20
21.33331104
  0
VERTEX
  8
0
 62
7
 10
17.55625000
 20
21.28900000
  0
VERTEX
  8
0
 62
7
 10
17.86740527
 20
21.23901709
  0
VERTEX
  8
0
 62
7
 10
18.17644531
 20
21.18341797
  0
VERTEX
  8
0
 62
7
 10
18.48329395
 20
21.12225830
  0
VERTEX
  8
0
 62
7
 10
18.78787500
 20
21.05559375
  0
VERTEX
  8
0
 62
7
 10
19.09011230
 20
20.98347998
  0
VERTEX
  8
0
 62
7
 10
19.38992969
 20
20.90597266
  0
VERTEX
  8
0
 62
7
 10
19.68725098
 20
20.82312744
  0
VERTEX
  8
0
 62
7
 10
19.98200000
 20
20.73500000
  0
VERTEX
  8
0
 62
7
 10
20.27715332
 20
20.64659546
  0
VERTEX
  8
0
 62
7
 10
20.57561719
 20
20.56331055
  0
VERTEX
  8
0
 62
7
 10
20.87720996
 20
20.48522583
  0
VERTEX
  8
0
 62
7
 10
21.18175000
 20
20.41242188
  0
VERTEX
  8
0
 62
7
 10
21.48905566
 20
20.34497925
  0
VERTEX
  8
0
 62
7
 10
21.79894531
 20
20.28297852
  0
VERTEX
  8
0
 62
7
 10
22.11123730
 20
20.22650024
  0
VERTEX
  8
0
 62
7
 10
22.42575000
 20
20.17562500
  0
VERTEX
  8
0
 62
7
 10
22.74230176
 20
20.13043335
  0
VERTEX
  8
0
 62
7
 10
23.06071094
 20
20.09100586
  0
VERTEX
  8
0
 62
7
 10
23.38079590
 20
20.05742310
  0
VERTEX
  8
0
 62
7
 10
23.70237500
 20
20.02976563
  0
VERTEX
  8
0
 62
7
 10
24.02526660
 20
20.00811401
  0
VERTEX
  8
0
 62
7
 10
24.34928906
 20
19.99254883
  0
VERTEX
  8
0
 62
7
 10
24.67426074
 20
19.98315063
  0
VERTEX
  8
0
 62
7
 10
25.00000000
 20
19.98000000
  0
VERTEX
  8
0
 62
7
 10
25.08347168
 20
19.70294467
  0
VERTEX
  8
0
 62
7
 10
25.16438281
 20
19.42508862
  0
VERTEX
  8
0
 62
7
 10
25.24272754
 20
19.14642801
  0
VERTEX
  8
0
 62
7
 10
25.31850000
 20
18.86695898
  0
VERTEX
  8
0
 62
7
 10
25.39169434
 20
18.58667770
  0
VERTEX
  8
0
 62
7
 10
25.46230469
 20
18.30558032
  0
VERTEX
  8
0
 62
7
 10
25.53032520
 20
18.02366299
  0
VERTEX
  8
0
 62
7
 10
25.59575000
 20
17.74092188
  0
VERTEX
  8
0
 62
7
 10
25.65857324
 20
17.45735312
  0
VERTEX
  8
0
 62
7
 10
25.71878906
 20
17.17295288
  0
VERTEX
  8
0
 62
7
 10
25.77639160
 20
16.88771732
  0
VERTEX
  8
0
 62
7
 10
25.83137500
 20
16.60164258
  0
VERTEX
  8
0
 62
7
 10
25.88373340
 20
16.31472482
  0
VERTEX
  8
0
 62
7
 10
25.93346094
 20
16.02696021
  0
VERTEX
  8
0
 62
7
 10
25.98055176
 20
15.73834488
  0
VERTEX
  8
0
 62
7
 10
26.02500000
 20
15.44887500
  0
VERTEX
  8
0
 62
7
 10
26.06679980
 20
15.15854672
  0
VERTEX
  8
0
 62
7
 10
26.10594531
 20
14.86735620
  0
VERTEX
  8
0
 62
7
 10
26.14243066
 20
14.57529959
  0
VERTEX
  8
0
 62
7
 10
26.17625000
 20
14.28237305
  0
VERTEX
  8
0
 62
7
 10
26.20739746
 20
13.98857272
  0
VERTEX
  8
0
 62
7
 10
26.23586719
 20
13.69389478
  0
VERTEX
  8
0
 62
7
 10
26.26165332
 20
13.39833536
  0
VERTEX
  8
0
 62
7
 10
26.28475000
 20
13.10189063
  0
VERTEX
  8
0
 62
7
 10
26.30515137
 20
12.80455673
  0
VERTEX
  8
0
 62
7
 10
26.32285156
 20
12.50632983
  0
VERTEX
  8
0
 62
7
 10
26.33784473
 20
12.20720609
  0
VERTEX
  8
0
 62
7
 10
26.35012500
 20
11.90718164
  0
VERTEX
  8
0
 62
7
 10
26.35968652
 20
11.60625266
  0
VERTEX
  8
0
 62
7
 10
26.36652344
 20
11.30441528
  0
VERTEX
  8
0
 62
7
 10
26.37062988
 20
11.00166568
  0
VERTEX
  8
0
 62
7
 10
26.37200000
 20
10.69800000
  0
VERTEX
  8
0
 62
7
 10
26.37012500
 20
10.43500000
  0
VERTEX
  8
0
 62
7
 10
26.36600000
 20
10.17200000
  0
VERTEX
  8
0
 62
7
 10
26.29429297
 20
10.22585352
  0
VERTEX
  8
0
 62
7
 10
26.21815625
 20
10.27395313
  0
VERTEX
  8
0
 62
7
 10
26.13794141
 20
10.31598242
  0
VERTEX
  8
0
 62
7
 10
26.05400000
 20
10.35162500
  0
VERTEX
  8
0
 62
7
 10
25.96668359
 20
10.38056445
  0
VERTEX
  8
0
 62
7
 10
25.87634375
 20
10.40248438
  0
VERTEX
  8
0
 62
7
 10
25.78333203
 20
10.41706836
  0
VERTEX
  8
0
 62
7
 10
25.68800000
 20
10.42400000
  0
VERTEX
  8
0
 62
7
 10
25.72757422
 20
10.40144141
  0
VERTEX
  8
0
 62
7
 10
25.76346875
 20
10.37384375
  0
VERTEX
  8
0
 62
7
 10
25.79519141
 20
10.34169922
  0
VERTEX
  8
0
 62
7
 10
25.82225000
 20
10.30550000
  0
VERTEX
  8
0
 62
7
 10
25.84415234
 20
10.26573828
  0
VERTEX
  8
0
 62
7
 10
25.86040625
 20
10.22290625
  0
VERTEX
  8
0
 62
7
 10
25.87051953
 20
10.17749609
  0
VERTEX
  8
0
 62
7
 10
25.87400000
 20
10.13000000
  0
VERTEX
  8
0
 62
7
 10
25.87298047
 20
10.10399609
  0
VERTEX
  8
0
 62
7
 10
25.86996875
 20
10.07853125
  0
VERTEX
  8
0
 62
7
 10
25.86503516
 20
10.05367578
  0
VERTEX
  8
0
 62
7
 10
25.85825000
 20
10.02950000
  0
VERTEX
  8
0
 62
7
 10
25.84968359
 20
10.00607422
  0
VERTEX
  8
0
 62
7
 10
25.83940625
 20
9.98346875
  0
VERTEX
  8
0
 62
7
 10
25.82748828
 20
9.96175391
  0
VERTEX
  8
0
 62
7
 10
25.81400000
 20
9.94100000
  0
VERTEX
  8
0
 62
7
 10
25.77686914
 20
9.89768555
  0
VERTEX
  8
0
 62
7
 10
25.74364063
 20
9.85117188
  0
VERTEX
  8
0
 62
7
 10
25.71456055
 20
9.80172852
  0
VERTEX
  8
0
 62
7
 10
25.68987500
 20
9.74962500
  0
VERTEX
  8
0
 62
7
 10
25.66983008
 20
9.69513086
  0
VERTEX
  8
0
 62
7
 10
25.65467188
 20
9.63851563
  0
VERTEX
  8
0
 62
7
 10
25.64464648
 20
9.58004883
  0
VERTEX
  8
0
 62
7
 10
25.64000000
 20
9.52000000
  0
VERTEX
  8
0
 62
7
 10
25.50400000
 20
9.53600000
  0
VERTEX
  8
0
 62
7
 10
25.48898438
 20
9.47060938
  0
VERTEX
  8
0
 62
7
 10
25.47837500
 20
9.40362500
  0
VERTEX
  8
0
 62
7
 10
25.47207812
 20
9.33532813
  0
VERTEX
  8
0
 62
7
 10
25.47000000
 20
9.26600000
  0
VERTEX
  8
0
 62
7
 10
25.47153711
 20
9.20713867
  0
VERTEX
  8
0
 62
7
 10
25.47610938
 20
9.14910938
  0
VERTEX
  8
0
 62
7
 10
25.48365820
 20
9.09199414
  0
VERTEX
  8
0
 62
7
 10
25.49412500
 20
9.03587500
  0
VERTEX
  8
0
 62
7
 10
25.50745117
 20
8.98083398
  0
VERTEX
  8
0
 62
7
 10
25.52357813
 20
8.92695313
  0
VERTEX
  8
0
 62
7
 10
25.54244727
 20
8.87431445
  0
VERTEX
  8
0
 62
7
 10
25.56400000
 20
8.82300000
  0
VERTEX
  8
0
 62
7
 10
25.58600000
 20
8.78300000
  0
VERTEX
  8
0
 62
7
 10
25.54865430
 20
8.79967578
  0
VERTEX
  8
0
 62
7
 10
25.51017188
 20
8.81440625
  0
VERTEX
  8
0
 62
7
 10
25.47063477
 20
8.82712109
  0
VERTEX
  8
0
 62
7
 10
25.43012500
 20
8.83775000
  0
VERTEX
  8
0
 62
7
 10
25.38872461
 20
8.84622266
  0
VERTEX
  8
0
 62
7
 10
25.34651563
 20
8.85246875
  0
VERTEX
  8
0
 62
7
 10
25.30358008
 20
8.85641797
  0
VERTEX
  8
0
 62
7
 10
25.26000000
 20
8.85800000
  0
VERTEX
  8
0
 62
7
 10
25.23500000
 20
8.75500000
  0
VERTEX
  8
0
 62
7
 10
25.16775000
 20
8.76312500
  0
VERTEX
  8
0
 62
7
 10
25.09900000
 20
8.76600000
  0
VERTEX
  8
0
 62
7
 10
24.98400000
 20
8.76100000
  0
VERTEX
  8
0
 62
7
 10
24.94062305
 20
8.76298633
  0
VERTEX
  8
0
 62
7
 10
24.89835938
 20
8.76882813
  0
VERTEX
  8
0
 62
7
 10
24.85738477
 20
8.77834961
  0
VERTEX
  8
0
 62
7
 10
24.81787500
 20
8.79137500
  0
VERTEX
  8
0
 62
7
 10
24.78000586
 20
8.80772852
  0
VERTEX
  8
0
 62
7
 10
24.74395313
 20
8.82723437
  0
VERTEX
  8
0
 62
7
 10
24.70989258
 20
8.84971680
  0
VERTEX
  8
0
 62
7
 10
24.67800000
 20
8.87500000
  0
VERTEX
  8
0
 62
7
 10
24.66169922
 20
8.83732617
  0
VERTEX
  8
0
 62
7
 10
24.64734375
 20
8.79860937
  0
VERTEX
  8
0
 62
7
 10
24.63500391
 20
8.75893164
  0
VERTEX
  8
0
 62
7
 10
24.62475000
 20
8.71837500
  0
VERTEX
  8
0
 62
7
 10
24.61665234
 20
8.67702148
  0
VERTEX
  8
0
 62
7
 10
24.61078125
 20
8.63495313
  0
VERTEX
  8
0
 62
7
 10
24.60720703
 20
8.59225195
  0
VERTEX
  8
0
 62
7
 10
24.60600000
 20
8.54900000
  0
VERTEX
  8
0
 62
7
 10
24.60795801
 20
8.49361548
  0
VERTEX
  8
0
 62
7
 10
24.61374219
 20
8.43929883
  0
VERTEX
  8
0
 62
7
 10
24.62321777
 20
8.38618042
  0
VERTEX
  8
0
 62
7
 10
24.63625000
 20
8.33439063
  0
VERTEX
  8
0
 62
7
 10
24.65270410
 20
8.28405981
  0
VERTEX
  8
0
 62
7
 10
24.67244531
 20
8.23531836
  0
VERTEX
  8
0
 62
7
 10
24.69533887
 20
8.18829663
  0
VERTEX
  8
0
 62
7
 10
24.72125000
 20
8.14312500
  0
VERTEX
  8
0
 62
7
 10
24.75004395
 20
8.09993384
  0
VERTEX
  8
0
 62
7
 10
24.78158594
 20
8.05885352
  0
VERTEX
  8
0
 62
7
 10
24.81574121
 20
8.02001440
  0
VERTEX
  8
0
 62
7
 10
24.85237500
 20
7.98354688
  0
VERTEX
  8
0
 62
7
 10
24.89135254
 20
7.94958130
  0
VERTEX
  8
0
 62
7
 10
24.93253906
 20
7.91824805
  0
VERTEX
  8
0
 62
7
 10
24.97579980
 20
7.88967749
  0
VERTEX
  8
0
 62
7
 10
25.02100000
 20
7.86400000
  0
VERTEX
  8
0
 62
7
 10
24.97600000
 20
7.76500000
  0
VERTEX
  8
0
 62
7
 10
24.99501953
 20
7.73748438
  0
VERTEX
  8
0
 62
7
 10
25.01565625
 20
7.71123438
  0
VERTEX
  8
0
 62
7
 10
25.03783984
 20
7.68632031
  0
VERTEX
  8
0
 62
7
 10
25.06150000
 20
7.66281250
  0
VERTEX
  8
0
 62
7
 10
25.08656641
 20
7.64078125
  0
VERTEX
  8
0
 62
7
 10
25.11296875
 20
7.62029688
  0
VERTEX
  8
0
 62
7
 10
25.14063672
 20
7.60142969
  0
VERTEX
  8
0
 62
7
 10
25.16950000
 20
7.58425000
  0
VERTEX
  8
0
 62
7
 10
25.19948828
 20
7.56882813
  0
VERTEX
  8
0
 62
7
 10
25.23053125
 20
7.55523438
  0
VERTEX
  8
0
 62
7
 10
25.26255859
 20
7.54353906
  0
VERTEX
  8
0
 62
7
 10
25.29550000
 20
7.53381250
  0
VERTEX
  8
0
 62
7
 10
25.32928516
 20
7.52612500
  0
VERTEX
  8
0
 62
7
 10
25.36384375
 20
7.52054688
  0
VERTEX
  8
0
 62
7
 10
25.39910547
 20
7.51714844
  0
VERTEX
  8
0
 62
7
 10
25.43500000
 20
7.51600000
  0
VERTEX
  8
0
 62
7
 10
25.46600000
 20
7.51700000
  0
VERTEX
  8
0
 62
7
 10
25.46600000
 20
7.46000000
  0
VERTEX
  8
0
 62
7
 10
25.44774561
 20
7.45217236
  0
VERTEX
  8
0
 62
7
 10
25.42983984
 20
7.44298828
  0
VERTEX
  8
0
 62
7
 10
25.41244385
 20
7.43252100
  0
VERTEX
  8
0
 62
7
 10
25.39571875
 20
7.42084375
  0
VERTEX
  8
0
 62
7
 10
25.37982568
 20
7.40802979
  0
VERTEX
  8
0
 62
7
 10
25.36492578
 20
7.39415234
  0
VERTEX
  8
0
 62
7
 10
25.35118018
 20
7.37928467
  0
VERTEX
  8
0
 62
7
 10
25.33875000
 20
7.36350000
  0
VERTEX
  8
0
 62
7
 10
25.32779639
 20
7.34687158
  0
VERTEX
  8
0
 62
7
 10
25.31848047
 20
7.32947266
  0
VERTEX
  8
0
 62
7
 10
25.31096338
 20
7.31137646
  0
VERTEX
  8
0
 62
7
 10
25.30540625
 20
7.29265625
  0
VERTEX
  8
0
 62
7
 10
25.30197021
 20
7.27338525
  0
VERTEX
  8
0
 62
7
 10
25.30081641
 20
7.25363672
  0
VERTEX
  8
0
 62
7
 10
25.30210596
 20
7.23348389
  0
VERTEX
  8
0
 62
7
 10
25.30600000
 20
7.21300000
  0
VERTEX
  8
0
 62
7
 10
25.27025000
 20
7.22112500
  0
VERTEX
  8
0
 62
7
 10
25.23300000
 20
7.22400000
  0
VERTEX
  8
0
 62
7
 10
25.19840820
 20
7.22166211
  0
VERTEX
  8
0
 62
7
 10
25.16532813
 20
7.21485938
  0
VERTEX
  8
0
 62
7
 10
25.13405273
 20
7.20390820
  0
VERTEX
  8
0
 62
7
 10
25.10487500
 20
7.18912500
  0
VERTEX
  8
0
 62
7
 10
25.07808789
 20
7.17082617
  0
VERTEX
  8
0
 62
7
 10
25.05398437
 20
7.14932813
  0
VERTEX
  8
0
 62
7
 10
25.03285742
 20
7.12494727
  0
VERTEX
  8
0
 62
7
 10
25.01500000
 20
7.09800000
  0
VERTEX
  8
0
 62
7
 10
25.00604492
 20
7.07887305
  0
VERTEX
  8
0
 62
7
 10
24.99435938
 20
7.06142187
  0
VERTEX
  8
0
 62
7
 10
24.98021289
 20
7.04591602
  0
VERTEX
  8
0
 62
7
 10
24.96387500
 20
7.03262500
  0
VERTEX
  8
0
 62
7
 10
24.94561523
 20
7.02181836
  0
VERTEX
  8
0
 62
7
 10
24.92570313
 20
7.01376563
  0
VERTEX
  8
0
 62
7
 10
24.90440820
 20
7.00873633
  0
VERTEX
  8
0
 62
7
 10
24.88200000
 20
7.00700000
  0
VERTEX
  8
0
 62
7
 10
24.83900000
 20
7.01200000
  0
VERTEX
  8
0
 62
7
 10
24.81928516
 20
7.01000391
  0
VERTEX
  8
0
 62
7
 10
24.80090625
 20
7.00428125
  0
VERTEX
  8
0
 62
7
 10
24.78426172
 20
6.99523047
  0
VERTEX
  8
0
 62
7
 10
24.76975000
 20
6.98325000
  0
VERTEX
  8
0
 62
7
 10
24.75776953
 20
6.96873828
  0
VERTEX
  8
0
 62
7
 10
24.74871875
 20
6.95209375
  0
VERTEX
  8
0
 62
7
 10
24.74299609
 20
6.93371484
  0
VERTEX
  8
0
 62
7
 10
24.74100000
 20
6.91400000
  0
VERTEX
  8
0
 62
7
 10
24.74462500
 20
6.88662500
  0
VERTEX
  8
0
 62
7
 10
24.75500000
 20
6.86300000
  0
VERTEX
  8
0
 62
7
 10
24.76400000
 20
6.81125000
  0
VERTEX
  8
0
 62
7
 10
24.76700000
 20
6.75800000
  0
VERTEX
  8
0
 62
7
 10
24.76460156
 20
6.71059961
  0
VERTEX
  8
0
 62
7
 10
24.75756250
 20
6.66454688
  0
VERTEX
  8
0
 62
7
 10
24.74611719
 20
6.62006445
  0
VERTEX
  8
0
 62
7
 10
24.73050000
 20
6.57737500
  0
VERTEX
  8
0
 62
7
 10
24.71094531
 20
6.53670117
  0
VERTEX
  8
0
 62
7
 10
24.68768750
 20
6.49826563
  0
VERTEX
  8
0
 62
7
 10
24.66096094
 20
6.46229102
  0
VERTEX
  8
0
 62
7
 10
24.63100000
 20
6.42900000
  0
VERTEX
  8
0
 62
7
 10
24.60848438
 20
6.41384375
  0
VERTEX
  8
0
 62
7
 10
24.59112500
 20
6.39325000
  0
VERTEX
  8
0
 62
7
 10
24.57995312
 20
6.36853125
  0
VERTEX
  8
0
 62
7
 10
24.57600000
 20
6.34100000
  0
VERTEX
  8
0
 62
7
 10
24.57705273
 20
6.32663672
  0
VERTEX
  8
0
 62
7
 10
24.58010937
 20
6.31290625
  0
VERTEX
  8
0
 62
7
 10
24.58501758
 20
6.29997266
  0
VERTEX
  8
0
 62
7
 10
24.59162500
 20
6.28800000
  0
VERTEX
  8
0
 62
7
 10
24.59977930
 20
6.27715234
  0
VERTEX
  8
0
 62
7
 10
24.60932813
 20
6.26759375
  0
VERTEX
  8
0
 62
7
 10
24.62011914
 20
6.25948828
  0
VERTEX
  8
0
 62
7
 10
24.63200000
 20
6.25300000
  0
VERTEX
  8
0
 62
7
 10
24.65220313
 20
6.24432813
  0
VERTEX
  8
0
 62
7
 10
24.67062500
 20
6.23275000
  0
VERTEX
  8
0
 62
7
 10
24.68698438
 20
6.21854688
  0
VERTEX
  8
0
 62
7
 10
24.70100000
 20
6.20200000
  0
VERTEX
  8
0
 62
7
 10
24.71239063
 20
6.18339063
  0
VERTEX
  8
0
 62
7
 10
24.72087500
 20
6.16300000
  0
VERTEX
  8
0
 62
7
 10
24.72617188
 20
6.14110938
  0
VERTEX
  8
0
 62
7
 10
24.72800000
 20
6.11800000
  0
VERTEX
  8
0
 62
7
 10
24.72600000
 20
6.08200000
  0
VERTEX
  8
0
 62
7
 10
24.72956055
 20
6.03944336
  0
VERTEX
  8
0
 62
7
 10
24.73985938
 20
5.99917188
  0
VERTEX
  8
0
 62
7
 10
24.75632227
 20
5.96178320
  0
VERTEX
  8
0
 62
7
 10
24.77837500
 20
5.92787500
  0
VERTEX
  8
0
 62
7
 10
24.80544336
 20
5.89804492
  0
VERTEX
  8
0
 62
7
 10
24.83695313
 20
5.87289063
  0
VERTEX
  8
0
 62
7
 10
24.87233008
 20
5.85300977
  0
VERTEX
  8
0
 62
7
 10
24.91100000
 20
5.83900000
  0
VERTEX
  8
0
 62
7
 10
24.89215625
 20
5.80723438
  0
VERTEX
  8
0
 62
7
 10
24.87800000
 20
5.77237500
  0
VERTEX
  8
0
 62
7
 10
24.86909375
 20
5.73507813
  0
VERTEX
  8
0
 62
7
 10
24.86600000
 20
5.69600000
  0
VERTEX
  8
0
 62
7
 10
24.86762500
 20
5.67149414
  0
VERTEX
  8
0
 62
7
 10
24.87225000
 20
5.64695313
  0
VERTEX
  8
0
 62
7
 10
24.87950000
 20
5.62271680
  0
VERTEX
  8
0
 62
7
 10
24.88900000
 20
5.59912500
  0
VERTEX
  8
0
 62
7
 10
24.90037500
 20
5.57651758
  0
VERTEX
  8
0
 62
7
 10
24.91325000
 20
5.55523438
  0
VERTEX
  8
0
 62
7
 10
24.92725000
 20
5.53561523
  0
VERTEX
  8
0
 62
7
 10
24.94200000
 20
5.51800000
  0
VERTEX
  8
0
 62
7
 10
24.92351953
 20
5.46240039
  0
VERTEX
  8
0
 62
7
 10
24.90046875
 20
5.40901563
  0
VERTEX
  8
0
 62
7
 10
24.87305859
 20
5.35809180
  0
VERTEX
  8
0
 62
7
 10
24.84150000
 20
5.30987500
  0
VERTEX
  8
0
 62
7
 10
24.80600391
 20
5.26461133
  0
VERTEX
  8
0
 62
7
 10
24.76678125
 20
5.22254687
  0
VERTEX
  8
0
 62
7
 10
24.72404297
 20
5.18392773
  0
VERTEX
  8
0
 62
7
 10
24.67800000
 20
5.14900000
  0
VERTEX
  8
0
 62
7
 10
24.67196484
 20
5.19328516
  0
VERTEX
  8
0
 62
7
 10
24.66365625
 20
5.23684375
  0
VERTEX
  8
0
 62
7
 10
24.65314453
 20
5.27960547
  0
VERTEX
  8
0
 62
7
 10
24.64050000
 20
5.32150000
  0
VERTEX
  8
0
 62
7
 10
24.62579297
 20
5.36245703
  0
VERTEX
  8
0
 62
7
 10
24.60909375
 20
5.40240625
  0
VERTEX
  8
0
 62
7
 10
24.59047266
 20
5.44127734
  0
VERTEX
  8
0
 62
7
 10
24.57000000
 20
5.47900000
  0
VERTEX
  8
0
 62
7
 10
24.46100000
 20
5.45500000
  0
VERTEX
  8
0
 62
7
 10
24.44171289
 20
5.51526685
  0
VERTEX
  8
0
 62
7
 10
24.41775000
 20
5.57329102
  0
VERTEX
  8
0
 62
7
 10
24.38933398
 20
5.62884546
  0
VERTEX
  8
0
 62
7
 10
24.35668750
 20
5.68170313
  0
VERTEX
  8
0
 62
7
 10
24.32003320
 20
5.73163696
  0
VERTEX
  8
0
 62
7
 10
24.27959375
 20
5.77841992
  0
VERTEX
  8
0
 62
7
 10
24.23559180
 20
5.82182495
  0
VERTEX
  8
0
 62
7
 10
24.18825000
 20
5.86162500
  0
VERTEX
  8
0
 62
7
 10
24.13779102
 20
5.89759302
  0
VERTEX
  8
0
 62
7
 10
24.08443750
 20
5.92950195
  0
VERTEX
  8
0
 62
7
 10
24.02841211
 20
5.95712476
  0
VERTEX
  8
0
 62
7
 10
23.96993750
 20
5.98023438
  0
VERTEX
  8
0
 62
7
 10
23.90923633
 20
5.99860376
  0
VERTEX
  8
0
 62
7
 10
23.84653125
 20
6.01200586
  0
VERTEX
  8
0
 62
7
 10
23.78204492
 20
6.02021362
  0
VERTEX
  8
0
 62
7
 10
23.71600000
 20
6.02300000
  0
VERTEX
  8
0
 62
7
 10
23.66481250
 20
6.02132813
  0
VERTEX
  8
0
 62
7
 10
23.61475000
 20
6.01637500
  0
VERTEX
  8
0
 62
7
 10
23.56581250
 20
6.00823437
  0
VERTEX
  8
0
 62
7
 10
23.51800000
 20
5.99700000
  0
VERTEX
  8
0
 62
7
 10
23.53856250
 20
5.96763086
  0
VERTEX
  8
0
 62
7
 10
23.55668750
 20
5.93660937
  0
VERTEX
  8
0
 62
7
 10
23.57228125
 20
5.90406445
  0
VERTEX
  8
0
 62
7
 10
23.58525000
 20
5.87012500
  0
VERTEX
  8
0
 62
7
 10
23.59550000
 20
5.83491992
  0
VERTEX
  8
0
 62
7
 10
23.60293750
 20
5.79857812
  0
VERTEX
  8
0
 62
7
 10
23.60746875
 20
5.76122852
  0
VERTEX
  8
0
 62
7
 10
23.60900000
 20
5.72300000
  0
VERTEX
  8
0
 62
7
 10
23.60687500
 20
5.67862500
  0
VERTEX
  8
0
 62
7
 10
23.60100000
 20
5.63500000
  0
VERTEX
  8
0
 62
7
 10
23.57824219
 20
5.60329102
  0
VERTEX
  8
0
 62
7
 10
23.55806250
 20
5.56976563
  0
VERTEX
  8
0
 62
7
 10
23.54060156
 20
5.53457617
  0
VERTEX
  8
0
 62
7
 10
23.52600000
 20
5.49787500
  0
VERTEX
  8
0
 62
7
 10
23.51439844
 20
5.45981445
  0
VERTEX
  8
0
 62
7
 10
23.50593750
 20
5.42054688
  0
VERTEX
  8
0
 62
7
 10
23.50075781
 20
5.38022461
  0
VERTEX
  8
0
 62
7
 10
23.49900000
 20
5.33900000
  0
VERTEX
  8
0
 62
7
 10
23.50100000
 20
5.29775000
  0
VERTEX
  8
0
 62
7
 10
23.50600000
 20
5.25800000
  0
VERTEX
  8
0
 62
7
 10
23.39500000
 20
5.25400000
  0
VERTEX
  8
0
 62
7
 10
23.38151172
 20
5.21987891
  0
VERTEX
  8
0
 62
7
 10
23.36959375
 20
5.18503125
  0
VERTEX
  8
0
 62
7
 10
23.35931641
 20
5.14948047
  0
VERTEX
  8
0
 62
7
 10
23.35075000
 20
5.11325000
  0
VERTEX
  8
0
 62
7
 10
23.34396484
 20
5.07636328
  0
VERTEX
  8
0
 62
7
 10
23.33903125
 20
5.03884375
  0
VERTEX
  8
0
 62
7
 10
23.33601953
 20
5.00071484
  0
VERTEX
  8
0
 62
7
 10
23.33500000
 20
4.96200000
  0
VERTEX
  8
0
 62
7
 10
23.33676196
 20
4.91069092
  0
VERTEX
  8
0
 62
7
 10
23.34197070
 20
4.86033984
  0
VERTEX
  8
0
 62
7
 10
23.35051050
 20
4.81106104
  0
VERTEX
  8
0
 62
7
 10
23.36226562
 20
4.76296875
  0
VERTEX
  8
0
 62
7
 10
23.37712036
 20
4.71617725
  0
VERTEX
  8
0
 62
7
 10
23.39495898
 20
4.67080078
  0
VERTEX
  8
0
 62
7
 10
23.41566577
 20
4.62695361
  0
VERTEX
  8
0
 62
7
 10
23.43912500
 20
4.58475000
  0
VERTEX
  8
0
 62
7
 10
23.46522095
 20
4.54430420
  0
VERTEX
  8
0
 62
7
 10
23.49383789
 20
4.50573047
  0
VERTEX
  8
0
 62
7
 10
23.52486011
 20
4.46914307
  0
VERTEX
  8
0
 62
7
 10
23.55817187
 20
4.43465625
  0
VERTEX
  8
0
 62
7
 10
23.59365747
 20
4.40238428
  0
VERTEX
  8
0
 62
7
 10
23.63120117
 20
4.37244141
  0
VERTEX
  8
0
 62
7
 10
23.67068726
 20
4.34494189
  0
VERTEX
  8
0
 62
7
 10
23.71200000
 20
4.32000000
  0
VERTEX
  8
0
 62
7
 10
23.75150000
 20
4.31200000
  0
VERTEX
  8
0
 62
7
 10
23.78800000
 20
4.29800000
  0
VERTEX
  8
0
 62
7
 10
23.52961765
 20
4.21060931
  0
VERTEX
  8
0
 62
7
 10
23.27010132
 20
4.12581982
  0
VERTEX
  8
0
 62
7
 10
23.00945963
 20
4.04364288
  0
VERTEX
  8
0
 62
7
 10
22.74770117
 20
3.96408984
  0
VERTEX
  8
0
 62
7
 10
22.48483456
 20
3.88717206
  0
VERTEX
  8
0
 62
7
 10
22.22086841
 20
3.81290088
  0
VERTEX
  8
0
 62
7
 10
21.95581131
 20
3.74128766
  0
VERTEX
  8
0
 62
7
 10
21.68967188
 20
3.67234375
  0
VERTEX
  8
0
 62
7
 10
21.42245871
 20
3.60608051
  0
VERTEX
  8
0
 62
7
 10
21.15418042
 20
3.54250928
  0
VERTEX
  8
0
 62
7
 10
20.88484561
 20
3.48164142
  0
VERTEX
  8
0
 62
7
 10
20.61446289
 20
3.42348828
  0
VERTEX
  8
0
 62
7
 10
20.34304086
 20
3.36806122
  0
VERTEX
  8
0
 62
7
 10
20.07058813
 20
3.31537158
  0
VERTEX
  8
0
 62
7
 10
19.79711331
 20
3.26543073
  0
VERTEX
  8
0
 62
7
 10
19.52262500
 20
3.21825000
  0
VERTEX
  8
0
 62
7
 10
19.24713181
 20
3.17384076
  0
VERTEX
  8
0
 62
7
 10
18.97064233
 20
3.13221436
  0
VERTEX
  8
0
 62
7
 10
18.69316519
 20
3.09338214
  0
VERTEX
  8
0
 62
7
 10
18.41470898
 20
3.05735547
  0
VERTEX
  8
0
 62
7
 10
18.13528232
 20
3.02414569
  0
VERTEX
  8
0
 62
7
 10
17.85489380
 20
2.99376416
  0
VERTEX
  8
0
 62
7
 10
17.57355203
 20
2.96622223
  0
VERTEX
  8
0
 62
7
 10
17.29126563
 20
2.94153125
  0
VERTEX
  8
0
 62
7
 10
17.00804318
 20
2.91970258
  0
VERTEX
  8
0
 62
7
 10
16.72389331
 20
2.90074756
  0
VERTEX
  8
0
 62
7
 10
16.43882462
 20
2.88467755
  0
VERTEX
  8
0
 62
7
 10
16.15284570
 20
2.87150391
  0
VERTEX
  8
0
 62
7
 10
15.86596518
 20
2.86123798
  0
VERTEX
  8
0
 62
7
 10
15.57819165
 20
2.85389111
  0
VERTEX
  8
0
 62
7
 10
15.28953372
 20
2.84947467
  0
VERTEX
  8
0
 62
7
 10
15.00000000
 20
2.84800000
  0
SEQEND
  0
POLYLINE
  8
0
 62
7
 66
1
 70
1
  0
VERTEX
  8
0
 62
7
 10
15.00000000
 20
2.44500000
  0
VERTEX
  8
0
 62
7
 10
15.57236377
 20
2.44782568
  0
VERTEX
  8
0
 62
7
 10
16.14166016
 20
2.45630859
  0
VERTEX
  8
0
 62
7
 10
16.70800928
 20
2.47045752
  0
VERTEX
  8
0
 62
7
 10
17.27153125
 20
2.49028125
  0
VERTEX
  8
0
 62
7
 10
17.83234619
 20
2.51578857
  0
VERTEX
  8
0
 62
7
 10
18.39057422
 20
2.54698828
  0
VERTEX
  8
0
 62
7
 10
18.94633545
 20
2.58388916
  0
VERTEX
  8
0
 62
7
 10
19.49975000
 20
2.62650000
  0
VERTEX
  8
0
 62
7
 10
20.05093799
 20
2.67482959
  0
VERTEX
  8
0
 62
7
 10
20.60001953
 20
2.72888672
  0
VERTEX
  8
0
 62
7
 10
21.14711475
 20
2.78868018
  0
VERTEX
  8
0
 62
7
 10
21.69234375
 20
2.85421875
  0
VERTEX
  8
0
 62
7
 10
22.23582666
 20
2.92551123
  0
VERTEX
  8
0
 62
7
 10
22.77768359
 20
3.00256641
  0
VERTEX
  8
0
 62
7
 10
23.31803467
 20
3.08539307
  0
VERTEX
  8
0
 62
7
 10
23.85700000
 20
3.17400000
  0
VERTEX
  8
0
 62
7
 10
23.87615625
 20
3.11640820
  0
VERTEX
  8
0
 62
7
 10
23.90112500
 20
3.06164062
  0
VERTEX
  8
0
 62
7
 10
23.93153125
 20
3.01008398
  0
VERTEX
  8
0
 62
7
 10
23.96700000
 20
2.96212500
  0
VERTEX
  8
0
 62
7
 10
24.00715625
 20
2.91815039
  0
VERTEX
  8
0
 62
7
 10
24.05162500
 20
2.87854688
  0
VERTEX
  8
0
 62
7
 10
24.10003125
 20
2.84370117
  0
VERTEX
  8
0
 62
7
 10
24.15200000
 20
2.81400000
  0
VERTEX
  8
0
 62
7
 10
24.25200000
 20
2.87100000
  0
VERTEX
  8
0
 62
7
 10
24.28695703
 20
2.82516602
  0
VERTEX
  8
0
 62
7
 10
24.32634375
 20
2.78314063
  0
VERTEX
  8
0
 62
7
 10
24.36980859
 20
2.74526367
  0
VERTEX
  8
0
 62
7
 10
24.41700000
 20
2.71187500
  0
VERTEX
  8
0
 62
7
 10
24.46756641
 20
2.68331445
  0
VERTEX
  8
0
 62
7
 10
24.52115625
 20
2.65992188
  0
VERTEX
  8
0
 62
7
 10
24.57741797
 20
2.64203711
  0
VERTEX
  8
0
 62
7
 10
24.63600000
 20
2.63000000
  0
VERTEX
  8
0
 62
7
 10
24.65825000
 20
2.63587500
  0
VERTEX
  8
0
 62
7
 10
24.68200000
 20
2.63800000
  0
VERTEX
  8
0
 62
7
 10
24.70697070
 20
2.63590039
  0
VERTEX
  8
0
 62
7
 10
24.73064062
 20
2.62982813
  0
VERTEX
  8
0
 62
7
 10
24.75264648
 20
2.62012305
  0
VERTEX
  8
0
 62
7
 10
24.77262500
 20
2.60712500
  0
VERTEX
  8
0
 62
7
 10
24.79021289
 20
2.59117383
  0
VERTEX
  8
0
 62
7
 10
24.80504688
 20
2.57260937
  0
VERTEX
  8
0
 62
7
 10
24.81676367
 20
2.55177148
  0
VERTEX
  8
0
 62
7
 10
24.82500000
 20
2.52900000
  0
VERTEX
  8
0
 62
7
 10
24.85900000
 20
2.39600000
  0
VERTEX
  8
0
 62
7
 10
24.89441040
 20
2.42031299
  0
VERTEX
  8
0
 62
7
 10
24.92820508
 20
2.44669141
  0
VERTEX
  8
0
 62
7
 10
24.96029175
 20
2.47504443
  0
VERTEX
  8
0
 62
7
 10
24.99057812
 20
2.50528125
  0
VERTEX
  8
0
 62
7
 10
25.01897192
 20
2.53731104
  0
VERTEX
  8
0
 62
7
 10
25.04538086
 20
2.57104297
  0
VERTEX
  8
0
 62
7
 10
25.06971265
 20
2.60638623
  0
VERTEX
  8
0
 62
7
 10
25.09187500
 20
2.64325000
  0
VERTEX
  8
0
 62
7
 10
25.11177563
 20
2.68154346
  0
VERTEX
  8
0
 62
7
 10
25.12932227
 20
2.72117578
  0
VERTEX
  8
0
 62
7
 10
25.14442261
 20
2.76205615
  0
VERTEX
  8
0
 62
7
 10
25.15698438
 20
2.80409375
  0
VERTEX
  8
0
 62
7
 10
25.16691528
 20
2.84719775
  0
VERTEX
  8
0
 62
7
 10
25.17412305
 20
2.89127734
  0
VERTEX
  8
0
 62
7
 10
25.17851538
 20
2.93624170
  0
VERTEX
  8
0
 62
7
 10
25.18000000
 20
2.98200000
  0
VERTEX
  8
0
 62
7
 10
25.17860742
 20
3.02628320
  0
VERTEX
  8
0
 62
7
 10
25.17448438
 20
3.06982812
  0
VERTEX
  8
0
 62
7
 10
25.16771289
 20
3.11255273
  0
VERTEX
  8
0
 62
7
 10
25.15837500
 20
3.15437500
  0
VERTEX
  8
0
 62
7
 10
25.14655273
 20
3.19521289
  0
VERTEX
  8
0
 62
7
 10
25.13232813
 20
3.23498438
  0
VERTEX
  8
0
 62
7
 10
25.11578320
 20
3.27360742
  0
VERTEX
  8
0
 62
7
 10
25.09700000
 20
3.31100000
  0
VERTEX
  8
0
 62
7
 10
25.21600000
 20
3.41100000
  0
VERTEX
  8
0
 62
7
 10
25.35326562
 20
3.43246680
  0
VERTEX
  8
0
 62
7
 10
25.49137500
 20
3.45110938
  0
VERTEX
  8
0
 62
7
 10
25.63042188
 20
3.46691602
  0
VERTEX
  8
0
 62
7
 10
25.77050000
 20
3.47987500
  0
VERTEX
  8
0
 62
7
 10
25.91170312
 20
3.48997461
  0
VERTEX
  8
0
 62
7
 10
26.05412500
 20
3.49720313
  0
VERTEX
  8
0
 62
7
 10
26.19785938
 20
3.50154883
  0
VERTEX
  8
0
 62
7
 10
26.34300000
 20
3.50300000
  0
VERTEX
  8
0
 62
7
 10
26.47200000
 20
3.50400000
  0
VERTEX
  8
0
 62
7
 10
26.53742188
 20
3.50217188
  0
VERTEX
  8
0
 62
7
 10
26.60162500
 20
3.49687500
  0
VERTEX
  8
0
 62
7
 10
26.66451563
 20
3.48839063
  0
VERTEX
  8
0
 62
7
 10
26.72600000
 20
3.47700000
  0
VERTEX
  8
0
 62
7
 10
26.68750000
 20
3.45675000
  0
VERTEX
  8
0
 62
7
 10
26.65200000
 20
3.43200000
  0
VERTEX
  8
0
 62
7
 10
26.60614063
 20
3.39734766
  0
VERTEX
  8
0
 62
7
 10
26.56487500
 20
3.35746875
  0
VERTEX
  8
0
 62
7
 10
26.52867188
 20
3.31285547
  0
VERTEX
  8
0
 62
7
 10
26.49800000
 20
3.26400000
  0
VERTEX
  8
0
 62
7
 10
26.47332813
 20
3.21139453
  0
VERTEX
  8
0
 62
7
 10
26.45512500
 20
3.15553125
  0
VERTEX
  8
0
 62
7
 10
26.44385937
 20
3.09690234
  0
VERTEX
  8
0
 62
7
 10
26.44000000
 20
3.03600000
  0
VERTEX
  8
0
 62
7
 10
26.44105908
 20
2.99865234
  0
VERTEX
  8
0
 62
7
 10
26.44420703
 20
2.96165625
  0
VERTEX
  8
0
 62
7
 10
26.44939990
 20
2.92508203
  0
VERTEX
  8
0
 62
7
 10
26.45659375
 20
2.88900000
  0
VERTEX
  8
0
 62
7
 10
26.46574463
 20
2.85348047
  0
VERTEX
  8
0
 62
7
 10
26.47680859
 20
2.81859375
  0
VERTEX
  8
0
 62
7
 10
26.48974170
 20
2.78441016
  0
VERTEX
  8
0
 62
7
 10
26.50450000
 20
2.75100000
  0
VERTEX
  8
0
 62
7
 10
26.52103955
 20
2.71843359
  0
VERTEX
  8
0
 62
7
 10
26.53931641
 20
2.68678125
  0
VERTEX
  8
0
 62
7
 10
26.55928662
 20
2.65611328
  0
VERTEX
  8
0
 62
7
 10
26.58090625
 20
2.62650000
  0
VERTEX
  8
0
 62
7
 10
26.60413135
 20
2.59801172
  0
VERTEX
  8
0
 62
7
 10
26.62891797
 20
2.57071875
  0
VERTEX
  8
0
 62
7
 10
26.65522217
 20
2.54469141
  0
VERTEX
  8
0
 62
7
 10
26.68300000
 20
2.52000000
  0
VERTEX
  8
0
 62
7
 10
26.71686060
 20
2.49247314
  0
VERTEX
  8
0
 62
7
 10
26.75166602
 20
2.46619141
  0
VERTEX
  8
0
 62
7
 10
26.78737671
 20
2.44122803
  0
VERTEX
  8
0
 62
7
 10
26.82395312
 20
2.41765625
  0
VERTEX
  8
0
 62
7
 10
26.86135571
 20
2.39554932
  0
VERTEX
  8
0
 62
7
 10
26.89954492
 20
2.37498047
  0
VERTEX
  8
0
 62
7
 10
26.93848120
 20
2.35602295
  0
VERTEX
  8
0
 62
7
 10
26.97812500
 20
2.33875000
  0
VERTEX
  8
0
 62
7
 10
27.01843677
 20
2.32323486
  0
VERTEX
  8
0
 62
7
 10
27.05937695
 20
2.30955078
  0
VERTEX
  8
0
 62
7
 10
27.10090601
 20
2.29777100
  0
VERTEX
  8
0
 62
7
 10
27.14298438
 20
2.28796875
  0
VERTEX
  8
0
 62
7
 10
27.18557251
 20
2.28021729
  0
VERTEX
  8
0
 62
7
 10
27.22863086
 20
2.27458984
  0
VERTEX
  8
0
 62
7
 10
27.27211987
 20
2.27115967
  0
VERTEX
  8
0
 62
7
 10
27.31600000
 20
2.27000000
  0
VERTEX
  8
0
 62
7
 10
27.36435889
 20
2.27156567
  0
VERTEX
  8
0
 62
7
 10
27.41187109
 20
2.27619727
  0
VERTEX
  8
0
 62
7
 10
27.45843994
 20
2.28379663
  0
VERTEX
  8
0
 62
7
 10
27.50396875
 20
2.29426563
  0
VERTEX
  8
0
 62
7
 10
27.54836084
 20
2.30750610
  0
VERTEX
  8
0
 62
7
 10
27.59151953
 20
2.32341992
  0
VERTEX
  8
0
 62
7
 10
27.63334814
 20
2.34190894
  0
VERTEX
  8
0
 62
7
 10
27.67375000
 20
2.36287500
  0
VERTEX
  8
0
 62
7
 10
27.71262842
 20
2.38621997
  0
VERTEX
  8
0
 62
7
 10
27.74988672
 20
2.41184570
  0
VERTEX
  8
0
 62
7
 10
27.78542822
 20
2.43965405
  0
VERTEX
  8
0
 62
7
 10
27.81915625
 20
2.46954688
  0
VERTEX
  8
0
 62
7
 10
27.85097412
 20
2.50142603
  0
VERTEX
  8
0
 62
7
 10
27.88078516
 20
2.53519336
  0
VERTEX
  8
0
 62
7
 10
27.90849268
 20
2.57075073
  0
VERTEX
  8
0
 62
7
 10
27.93400000
 20
2.60800000
  0
VERTEX
  8
0
 62
7
 10
27.96350195
 20
2.65597852
  0
VERTEX
  8
0
 62
7
 10
27.98964063
 20
2.70607812
  0
VERTEX
  8
0
 62
7
 10
28.01224023
 20
2.75816992
  0
VERTEX
  8
0
 62
7
 10
28.03112500
 20
2.81212500
  0
VERTEX
  8
0
 62
7
 10
28.04611914
 20
2.86781445
  0
VERTEX
  8
0
 62
7
 10
28.05704688
 20
2.92510937
  0
VERTEX
  8
0
 62
7
 10
28.06373242
 20
2.98388086
  0
VERTEX
  8
0
 62
7
 10
28.06600000
 20
3.04400000
  0
VERTEX
  8
0
 62
7
 10
28.06431250
 20
3.09609375
  0
VERTEX
  8
0
 62
7
 10
28.05925000
 20
3.14725000
  0
VERTEX
  8
0
 62
7
 10
28.05081250
 20
3.19728125
  0
VERTEX
  8
0
 62
7
 10
28.03900000
 20
3.24600000
  0
VERTEX
  8
0
 62
7
 10
28.08196875
 20
3.25593359
  0
VERTEX
  8
0
 62
7
 10
28.12362500
 20
3.26921875
  0
VERTEX
  8
0
 62
7
 10
28.16359375
 20
3.28583203
  0
VERTEX
  8
0
 62
7
 10
28.20150000
 20
3.30575000
  0
VERTEX
  8
0
 62
7
 10
28.23696875
 20
3.32894922
  0
VERTEX
  8
0
 62
7
 10
28.26962500
 20
3.35540625
  0
VERTEX
  8
0
 62
7
 10
28.29909375
 20
3.38509766
  0
VERTEX
  8
0
 62
7
 10
28.32500000
 20
3.41800000
  0
VERTEX
  8
0
 62
7
 10
28.15550000
 20
3.61662500
  0
VERTEX
  8
0
 62
7
 10
27.99200000
 20
3.81900000
  0
VERTEX
  8
0
 62
7
 10
27.95334961
 20
3.86847266
  0
VERTEX
  8
0
 62
7
 10
27.91042188
 20
3.91534375
  0
VERTEX
  8
0
 62
7
 10
27.86362695
 20
3.95916797
  0
VERTEX
  8
0
 62
7
 10
27.81337500
 20
3.99950000
  0
VERTEX
  8
0
 62
7
 10
27.76007617
 20
4.03589453
  0
VERTEX
  8
0
 62
7
 10
27.70414063
 20
4.06790625
  0
VERTEX
  8
0
 62
7
 10
27.64597852
 20
4.09508984
  0
VERTEX
  8
0
 62
7
 10
27.58600000
 20
4.11700000
  0
VERTEX
  8
0
 62
7
 10
27.63100000
 20
4.15350000
  0
VERTEX
  8
0
 62
7
 10
27.67300000
 20
4.19300000
  0
VERTEX
  8
0
 62
7
 10
27.69688086
 20
4.23212109
  0
VERTEX
  8
0
 62
7
 10
27.71817187
 20
4.27290625
  0
VERTEX
  8
0
 62
7
 10
27.73672070
 20
4.31523828
  0
VERTEX
  8
0
 62
7
 10
27.75237500
 20
4.35900000
  0
VERTEX
  8
0
 62
7
 10
27.76498242
 20
4.40407422
  0
VERTEX
  8
0
 62
7
 10
27.77439063
 20
4.45034375
  0
VERTEX
  8
0
 62
7
 10
27.78044727
 20
4.49769141
  0
VERTEX
  8
0
 62
7
 10
27.78300000
 20
4.54600000
  0
VERTEX
  8
0
 62
7
 10
27.78800000
 20
4.57748828
  0
VERTEX
  8
0
 62
7
 10
27.79750000
 20
4.60721875
  0
VERTEX
  8
0
 62
7
 10
27.81112500
 20
4.63483984
  0
VERTEX
  8
0
 62
7
 10
27.82850000
 20
4.66000000
  0
VERTEX
  8
0
 62
7
 10
27.84925000
 20
4.68234766
  0
VERTEX
  8
0
 62
7
 10
27.87300000
 20
4.70153125
  0
VERTEX
  8
0
 62
7
 10
27.89937500
 20
4.71719922
  0
VERTEX
  8
0
 62
7
 10
27.92800000
 20
4.72900000
  0
VERTEX
  8
0
 62
7
 10
28.07100000
 20
4.79400000
  0
VERTEX
  8
0
 62
7
 10
27.96492188
 20
4.87865625
  0
VERTEX
  8
0
 62
7
 10
27.85387500
 20
4.95675000
  0
VERTEX
  8
0
 62
7
 10
27.73814063
 20
5.02771875
  0
VERTEX
  8
0
 62
7
 10
27.61800000
 20
5.09100000
  0
VERTEX
  8
0
 62
7
 10
27.58219922
 20
5.10697070
  0
VERTEX
  8
0
 62
7
 10
27.54534375
 20
5.12107813
  0
VERTEX
  8
0
 62
7
 10
27.50750391
 20
5.13324023
  0
VERTEX
  8
0
 62
7
 10
27.46875000
 20
5.14337500
  0
VERTEX
  8
0
 62
7
 10
27.42915234
 20
5.15140039
  0
VERTEX
  8
0
 62
7
 10
27.38878125
 20
5.15723437
  0
VERTEX
  8
0
 62
7
 10
27.34770703
 20
5.16079492
  0
VERTEX
  8
0
 62
7
 10
27.30600000
 20
5.16200000
  0
VERTEX
  8
0
 62
7
 10
27.26135938
 20
5.16053125
  0
VERTEX
  8
0
 62
7
 10
27.21737500
 20
5.15625000
  0
VERTEX
  8
0
 62
7
 10
27.17395313
 20
5.14934375
  0
VERTEX
  8
0
 62
7
 10
27.13100000
 20
5.14000000
  0
VERTEX
  8
0
 62
7
 10
27.02995313
 20
5.11490625
  0
VERTEX
  8
0
 62
7
 10
26.93237500
 20
5.08325000
  0
VERTEX
  8
0
 62
7
 10
26.83835938
 20
5.04521875
  0
VERTEX
  8
0
 62
7
 10
26.74800000
 20
5.00100000
  0
VERTEX
  8
0
 62
7
 10
26.77445117
 20
5.05317773
  0
VERTEX
  8
0
 62
7
 10
26.80698437
 20
5.10135938
  0
VERTEX
  8
0
 62
7
 10
26.84511914
 20
5.14501758
  0
VERTEX
  8
0
 62
7
 10
26.88837500
 20
5.18362500
  0
VERTEX
  8
0
 62
7
 10
26.93627148
 20
5.21665430
  0
VERTEX
  8
0
 62
7
 10
26.98832812
 20
5.24357813
  0
VERTEX
  8
0
 62
7
 10
27.04406445
 20
5.26386914
  0
VERTEX
  8
0
 62
7
 10
27.10300000
 20
5.27700000
  0
VERTEX
  8
0
 62
7
 10
27.12340234
 20
5.27895313
  0
VERTEX
  8
0
 62
7
 10
27.14359375
 20
5.28456250
  0
VERTEX
  8
0
 62
7
 10
27.16280078
 20
5.29345313
  0
VERTEX
  8
0
 62
7
 10
27.18025000
 20
5.30525000
  0
VERTEX
  8
0
 62
7
 10
27.19516797
 20
5.31957813
  0
VERTEX
  8
0
 62
7
 10
27.20678125
 20
5.33606250
  0
VERTEX
  8
0
 62
7
 10
27.21431641
 20
5.35432813
  0
VERTEX
  8
0
 62
7
 10
27.21700000
 20
5.37400000
  0
VERTEX
  8
0
 62
7
 10
27.21536719
 20
5.39102734
  0
VERTEX
  8
0
 62
7
 10
27.21106250
 20
5.40709375
  0
VERTEX
  8
0
 62
7
 10
27.20497656
 20
5.42255078
  0
VERTEX
  8
0
 62
7
 10
27.19800000
 20
5.43775000
  0
VERTEX
  8
0
 62
7
 10
27.19102344
 20
5.45304297
  0
VERTEX
  8
0
 62
7
 10
27.18493750
 20
5.46878125
  0
VERTEX
  8
0
 62
7
 10
27.18063281
 20
5.48531641
  0
VERTEX
  8
0
 62
7
 10
27.17900000
 20
5.50300000
  0
VERTEX
  8
0
 62
7
 10
27.18225000
 20
5.53275000
  0
VERTEX
  8
0
 62
7
 10
27.19150000
 20
5.56025000
  0
VERTEX
  8
0
 62
7
 10
27.20600000
 20
5.58512500
  0
VERTEX
  8
0
 62
7
 10
27.22500000
 20
5.60700000
  0
VERTEX
  8
0
 62
7
 10
27.24720313
 20
5.64064063
  0
VERTEX
  8
0
 62
7
 10
27.26387500
 20
5.67812500
  0
VERTEX
  8
0
 62
7
 10
27.27435938
 20
5.71879687
  0
VERTEX
  8
0
 62
7
 10
27.27800000
 20
5.76200000
  0
VERTEX
  8
0
 62
7
 10
27.27418750
 20
5.80537500
  0
VERTEX
  8
0
 62
7
 10
27.26325000
 20
5.84650000
  0
VERTEX
  8
0
 62
7
 10
27.24593750
 20
5.88462500
  0
VERTEX
  8
0
 62
7
 10
27.22300000
 20
5.91900000
  0
VERTEX
  8
0
 62
7
 10
27.25839844
 20
5.93447461
  0
VERTEX
  8
0
 62
7
 10
27.29075000
 20
5.95504687
  0
VERTEX
  8
0
 62
7
 10
27.31953906
 20
5.98018945
  0
VERTEX
  8
0
 62
7
 10
27.34425000
 20
6.00937500
  0
VERTEX
  8
0
 62
7
 10
27.36436719
 20
6.04207617
  0
VERTEX
  8
0
 62
7
 10
27.37937500
 20
6.07776563
  0
VERTEX
  8
0
 62
7
 10
27.38875781
 20
6.11591602
  0
VERTEX
  8
0
 62
7
 10
27.39200000
 20
6.15600000
  0
VERTEX
  8
0
 62
7
 10
27.38500000
 20
6.22000000
  0
VERTEX
  8
0
 62
7
 10
27.38664844
 20
6.24166602
  0
VERTEX
  8
0
 62
7
 10
27.39143750
 20
6.26226563
  0
VERTEX
  8
0
 62
7
 10
27.39913281
 20
6.28157617
  0
VERTEX
  8
0
 62
7
 10
27.40950000
 20
6.29937500
  0
VERTEX
  8
0
 62
7
 10
27.42230469
 20
6.31543945
  0
VERTEX
  8
0
 62
7
 10
27.43731250
 20
6.32954688
  0
VERTEX
  8
0
 62
7
 10
27.45428906
 20
6.34147461
  0
VERTEX
  8
0
 62
7
 10
27.47300000
 20
6.35100000
  0
VERTEX
  8
0
 62
7
 10
27.49289063
 20
6.36639063
  0
VERTEX
  8
0
 62
7
 10
27.50837500
 20
6.38637500
  0
VERTEX
  8
0
 62
7
 10
27.51842188
 20
6.40992188
  0
VERTEX
  8
0
 62
7
 10
27.52200000
 20
6.43600000
  0
VERTEX
  8
0
 62
7
 10
27.52085742
 20
6.45106445
  0
VERTEX
  8
0
 62
7
 10
27.51754688
 20
6.46539063
  0
VERTEX
  8
0
 62
7
 10
27.51224414
 20
6.47880273
  0
VERTEX
  8
0
 62
7
 10
27.50512500
 20
6.49112500
  0
VERTEX
  8
0
 62
7
 10
27.49636523
 20
6.50218164
  0
VERTEX
  8
0
 62
7
 10
27.48614063
 20
6.51179687
  0
VERTEX
  8
0
 62
7
 10
27.47462695
 20
6.51979492
  0
VERTEX
  8
0
 62
7
 10
27.46200000
 20
6.52600000
  0
VERTEX
  8
0
 62
7
 10
27.42698828
 20
6.56003320
  0
VERTEX
  8
0
 62
7
 10
27.39565625
 20
6.59745313
  0
VERTEX
  8
0
 62
7
 10
27.36830859
 20
6.63799023
  0
VERTEX
  8
0
 62
7
 10
27.34525000
 20
6.68137500
  0
VERTEX
  8
0
 62
7
 10
27.32678516
 20
6.72733789
  0
VERTEX
  8
0
 62
7
 10
27.31321875
 20
6.77560938
  0
VERTEX
  8
0
 62
7
 10
27.30485547
 20
6.82591992
  0
VERTEX
  8
0
 62
7
 10
27.30200000
 20
6.87800000
  0
VERTEX
  8
0
 62
7
 10
27.31900000
 20
6.99600000
  0
VERTEX
  8
0
 62
7
 10
27.31700391
 20
7.01571484
  0
VERTEX
  8
0
 62
7
 10
27.31128125
 20
7.03409375
  0
VERTEX
  8
0
 62
7
 10
27.30223047
 20
7.05073828
  0
VERTEX
  8
0
 62
7
 10
27.29025000
 20
7.06525000
  0
VERTEX
  8
0
 62
7
 10
27.27573828
 20
7.07723047
  0
VERTEX
  8
0
 62
7
 10
27.25909375
 20
7.08628125
  0
VERTEX
  8
0
 62
7
 10
27.24071484
 20
7.09200391
  0
VERTEX
  8
0
 62
7
 10
27.22100000
 20
7.09400000
  0
VERTEX
  8
0
 62
7
 10
27.16100000
 20
7.08600000
  0
VERTEX
  8
0
 62
7
 10
27.14003516
 20
7.08751367
  0
VERTEX
  8
0
 62
7
 10
27.12003125
 20
7.09192187
  0
VERTEX
  8
0
 62
7
 10
27.10119922
 20
7.09902539
  0
VERTEX
  8
0
 62
7
 10
27.08375000
 20
7.10862500
  0
VERTEX
  8
0
 62
7
 10
27.06789453
 20
7.12052148
  0
VERTEX
  8
0
 62
7
 10
27.05384375
 20
7.13451563
  0
VERTEX
  8
0
 62
7
 10
27.04180859
 20
7.15040820
  0
VERTEX
  8
0
 62
7
 10
27.03200000
 20
7.16800000
  0
VERTEX
  8
0
 62
7
 10
27.01366992
 20
7.19200586
  0
VERTEX
  8
0
 62
7
 10
26.99260938
 20
7.21360937
  0
VERTEX
  8
0
 62
7
 10
26.96908789
 20
7.23256445
  0
VERTEX
  8
0
 62
7
 10
26.94337500
 20
7.24862500
  0
VERTEX
  8
0
 62
7
 10
26.91574023
 20
7.26154492
  0
VERTEX
  8
0
 62
7
 10
26.88645312
 20
7.27107812
  0
VERTEX
  8
0
 62
7
 10
26.85578320
 20
7.27697852
  0
VERTEX
  8
0
 62
7
 10
26.82400000
 20
7.27900000
  0
VERTEX
  8
0
 62
7
 10
26.80037500
 20
7.27790625
  0
VERTEX
  8
0
 62
7
 10
26.77750000
 20
7.27475000
  0
VERTEX
  8
0
 62
7
 10
26.75537500
 20
7.26971875
  0
VERTEX
  8
0
 62
7
 10
26.73400000
 20
7.26300000
  0
VERTEX
  8
0
 62
7
 10
26.73210742
 20
7.29034961
  0
VERTEX
  8
0
 62
7
 10
26.72729688
 20
7.31679688
  0
VERTEX
  8
0
 62
7
 10
26.71974414
 20
7.34218945
  0
VERTEX
  8
0
 62
7
 10
26.70962500
 20
7.36637500
  0
VERTEX
  8
0
 62
7
 10
26.69711523
 20
7.38920117
  0
VERTEX
  8
0
 62
7
 10
26.68239063
 20
7.41051563
  0
VERTEX
  8
0
 62
7
 10
26.66562695
 20
7.43016602
  0
VERTEX
  8
0
 62
7
 10
26.64700000
 20
7.44800000
  0
VERTEX
  8
0
 62
7
 10
26.69300000
 20
7.46900000
  0
VERTEX
  8
0
 62
7
 10
26.72871094
 20
7.45344531
  0
VERTEX
  8
0
 62
7
 10
26.76531250
 20
7.43981250
  0
VERTEX
  8
0
 62
7
 10
26.80275781
 20
7.42814844
  0
VERTEX
  8
0
 62
7
 10
26.84100000
 20
7.41850000
  0
VERTEX
  8
0
 62
7
 10
26.87999219
 20
7.41091406
  0
VERTEX
  8
0
 62
7
 10
26.91968750
 20
7.40543750
  0
VERTEX
  8
0
 62
7
 10
26.96003906
 20
7.40211719
  0
VERTEX
  8
0
 62
7
 10
27.00100000
 20
7.40100000
  0
VERTEX
  8
0
 62
7
 10
27.04931641
 20
7.40253320
  0
VERTEX
  8
0
 62
7
 10
27.09671875
 20
7.40707813
  0
VERTEX
  8
0
 62
7
 10
27.14313672
 20
7.41455273
  0
VERTEX
  8
0
 62
7
 10
27.18850000
 20
7.42487500
  0
VERTEX
  8
0
 62
7
 10
27.23273828
 20
7.43796289
  0
VERTEX
  8
0
 62
7
 10
27.27578125
 20
7.45373437
  0
VERTEX
  8
0
 62
7
 10
27.31755859
 20
7.47210742
  0
VERTEX
  8
0
 62
7
 10
27.35800000
 20
7.49300000
  0
VERTEX
  8
0
 62
7
 10
27.32200000
 20
7.65500000
  0
VERTEX
  8
0
 62
7
 10
27.37627466
 20
7.67782080
  0
VERTEX
  8
0
 62
7
 10
27.42835352
 20
7.70453516
  0
VERTEX
  8
0
 62
7
 10
27.47805640
 20
7.73495850
  0
VERTEX
  8
0
 62
7
 10
27.52520313
 20
7.76890625
  0
VERTEX
  8
0
 62
7
 10
27.56961353
 20
7.80619385
  0
VERTEX
  8
0
 62
7
 10
27.61110742
 20
7.84663672
  0
VERTEX
  8
0
 62
7
 10
27.64950464
 20
7.89005029
  0
VERTEX
  8
0
 62
7
 10
27.68462500
 20
7.93625000
  0
VERTEX
  8
0
 62
7
 10
27.71628833
 20
7.98505127
  0
VERTEX
  8
0
 62
7
 10
27.74431445
 20
8.03626953
  0
VERTEX
  8
0
 62
7
 10
27.76852319
 20
8.08972021
  0
VERTEX
  8
0
 62
7
 10
27.78873438
 20
8.14521875
  0
VERTEX
  8
0
 62
7
 10
27.80476782
 20
8.20258057
  0
VERTEX
  8
0
 62
7
 10
27.81644336
 20
8.26162109
  0
VERTEX
  8
0
 62
7
 10
27.82358081
 20
8.32215576
  0
VERTEX
  8
0
 62
7
 10
27.82600000
 20
8.38400000
  0
VERTEX
  8
0
 62
7
 10
27.82300000
 20
8.45500000
  0
VERTEX
  8
0
 62
7
 10
27.67900000
 20
8.39800000
  0
VERTEX
  8
0
 62
7
 10
27.66535938
 20
8.38865625
  0
VERTEX
  8
0
 62
7
 10
27.65012500
 20
8.38175000
  0
VERTEX
  8
0
 62
7
 10
27.63357813
 20
8.37746875
  0
VERTEX
  8
0
 62
7
 10
27.61600000
 20
8.37600000
  0
VERTEX
  8
0
 62
7
 10
27.59412500
 20
8.37834375
  0
VERTEX
  8
0
 62
7
 10
27.57375000
 20
8.38500000
  0
VERTEX
  8
0
 62
7
 10
27.55525000
 20
8.39540625
  0
VERTEX
  8
0
 62
7
 10
27.53900000
 20
8.40900000
  0
VERTEX
  8
0
 62
7
 10
27.49389062
 20
8.43883203
  0
VERTEX
  8
0
 62
7
 10
27.44643750
 20
8.46521875
  0
VERTEX
  8
0
 62
7
 10
27.39682812
 20
8.48799609
  0
VERTEX
  8
0
 62
7
 10
27.34525000
 20
8.50700000
  0
VERTEX
  8
0
 62
7
 10
27.29189063
 20
8.52206641
  0
VERTEX
  8
0
 62
7
 10
27.23693750
 20
8.53303125
  0
VERTEX
  8
0
 62
7
 10
27.18057813
 20
8.53973047
  0
VERTEX
  8
0
 62
7
 10
27.12300000
 20
8.54200000
  0
VERTEX
  8
0
 62
7
 10
27.11000000
 20
8.62500000
  0
VERTEX
  8
0
 62
7
 10
27.08000000
 20
8.62600000
  0
VERTEX
  8
0
 62
7
 10
27.03243945
 20
8.62433594
  0
VERTEX
  8
0
 62
7
 10
26.98582813
 20
8.61943750
  0
VERTEX
  8
0
 62
7
 10
26.94027148
 20
8.61144531
  0
VERTEX
  8
0
 62
7
 10
26.89587500
 20
8.60050000
  0
VERTEX
  8
0
 62
7
 10
26.85274414
 20
8.58674219
  0
VERTEX
  8
0
 62
7
 10
26.81098438
 20
8.57031250
  0
VERTEX
  8
0
 62
7
 10
26.77070117
 20
8.55135156
  0
VERTEX
  8
0
 62
7
 10
26.73200000
 20
8.53000000
  0
VERTEX
  8
0
 62
7
 10
26.77673047
 20
8.60223828
  0
VERTEX
  8
0
 62
7
 10
26.81628125
 20
8.67778125
  0
VERTEX
  8
0
 62
7
 10
26.85044141
 20
8.75637109
  0
VERTEX
  8
0
 62
7
 10
26.87900000
 20
8.83775000
  0
VERTEX
  8
0
 62
7
 10
26.90174609
 20
8.92166016
  0
VERTEX
  8
0
 62
7
 10
26.91846875
 20
9.00784375
  0
VERTEX
  8
0
 62
7
 10
26.92895703
 20
9.09604297
  0
VERTEX
  8
0
 62
7
 10
26.93300000
 20
9.18600000
  0
VERTEX
  8
0
 62
7
 10
26.77800000
 20
9.18600000
  0
VERTEX
  8
0
 62
7
 10
26.78162500
 20
9.24062500
  0
VERTEX
  8
0
 62
7
 10
26.78300000
 20
9.29600000
  0
VERTEX
  8
0
 62
7
 10
26.78154688
 20
9.35377344
  0
VERTEX
  8
0
 62
7
 10
26.77723437
 20
9.41079688
  0
VERTEX
  8
0
 62
7
 10
26.77013281
 20
9.46700000
  0
VERTEX
  8
0
 62
7
 10
26.76031250
 20
9.52231250
  0
VERTEX
  8
0
 62
7
 10
26.74784375
 20
9.57666406
  0
VERTEX
  8
0
 62
7
 10
26.73279688
 20
9.62998437
  0
VERTEX
  8
0
 62
7
 10
26.71524219
 20
9.68220313
  0
VERTEX
  8
0
 62
7
 10
26.69525000
 20
9.73325000
  0
VERTEX
  8
0
 62
7
 10
26.67289063
 20
9.78305469
  0
VERTEX
  8
0
 62
7
 10
26.64823438
 20
9.83154688
  0
VERTEX
  8
0
 62
7
 10
26.62135156
 20
9.87865625
  0
VERTEX
  8
0
 62
7
 10
26.59231250
 20
9.92431250
  0
VERTEX
  8
0
 62
7
 10
26.56118750
 20
9.96844531
  0
VERTEX
  8
0
 62
7
 10
26.52804688
 20
10.01098438
  0
VERTEX
  8
0
 62
7
 10
26.49296094
 20
10.05185937
  0
VERTEX
  8
0
 62
7
 10
26.45600000
 20
10.09100000
  0
VERTEX
  8
0
 62
7
 10
26.46012500
 20
10.39412500
  0
VERTEX
  8
0
 62
7
 10
26.46200000
 20
10.69800000
  0
VERTEX
  8
0
 62
7
 10
26.46061514
 20
11.00440723
  0
VERTEX
  8
0
 62
7
 10
26.45646411
 20
11.30994141
  0
VERTEX
  8
0
 62
7
 10
26.44955222
 20
11.61460254
  0
VERTEX
  8
0
 62
7
 10
26.43988477
 20
11.91839063
  0
VERTEX
  8
0
 62
7
 10
26.42746707
 20
12.22130566
  0
VERTEX
  8
0
 62
7
 10
26.41230444
 20
12.52334766
  0
VERTEX
  8
0
 62
7
 10
26.39440219
 20
12.82451660
  0
VERTEX
  8
0
 62
7
 10
26.37376563
 20
13.12481250
  0
VERTEX
  8
0
 62
7
 10
26.35040005
 20
13.42423535
  0
VERTEX
  8
0
 62
7
 10
26.32431079
 20
13.72278516
  0
VERTEX
  8
0
 62
7
 10
26.29550314
 20
14.02046191
  0
VERTEX
  8
0
 62
7
 10
26.26398242
 20
14.31726563
  0
VERTEX
  8
0
 62
7
 10
26.22975394
 20
14.61319629
  0
VERTEX
  8
0
 62
7
 10
26.19282300
 20
14.90825391
  0
VERTEX
  8
0
 62
7
 10
26.15319492
 20
15.20243848
  0
VERTEX
  8
0
 62
7
 10
26.11087500
 20
15.49575000
  0
VERTEX
  8
0
 62
7
 10
26.06586856
 20
15.78818848
  0
VERTEX
  8
0
 62
7
 10
26.01818091
 20
16.07975391
  0
VERTEX
  8
0
 62
7
 10
25.96781735
 20
16.37044629
  0
VERTEX
  8
0
 62
7
 10
25.91478320
 20
16.66026563
  0
VERTEX
  8
0
 62
7
 10
25.85908377
 20
16.94921191
  0
VERTEX
  8
0
 62
7
 10
25.80072437
 20
17.23728516
  0
VERTEX
  8
0
 62
7
 10
25.73971030
 20
17.52448535
  0
VERTEX
  8
0
 62
7
 10
25.67604688
 20
17.81081250
  0
VERTEX
  8
0
 62
7
 10
25.60973941
 20
18.09626660
  0
VERTEX
  8
0
 62
7
 10
25.54079321
 20
18.38084766
  0
VERTEX
  8
0
 62
7
 10
25.46921359
 20
18.66455566
  0
VERTEX
  8
0
 62
7
 10
25.39500586
 20
18.94739063
  0
VERTEX
  8
0
 62
7
 10
25.31817532
 20
19.22935254
  0
VERTEX
  8
0
 62
7
 10
25.23872729
 20
19.51044141
  0
VERTEX
  8
0
 62
7
 10
25.15666708
 20
19.79065723
  0
VERTEX
  8
0
 62
7
 10
25.07200000
 20
20.07000000
  0
VERTEX
  8
0
 62
7
 10
25.00000000
 20
20.07000000
  0
VERTEX
  8
0
 62
7
 10
24.67595923
 20
20.07313867
  0
VERTEX
  8
0
 62
7
 10
24.35270508
 20
20.08250000
  0
VERTEX
  8
0
 62
7
 10
24.03041479
 20
20.09800195
  0
VERTEX
  8
0
 62
7
 10
23.70926563
 20
20.11956250
  0
VERTEX
  8
0
 62
7
 10
23.38943481
 20
20.14709961
  0
VERTEX
  8
0
 62
7
 10
23.07109961
 20
20.18053125
  0
VERTEX
  8
0
 62
7
 10
22.75443726
 20
20.21977539
  0
VERTEX
  8
0
 62
7
 10
22.43962500
 20
20.26475000
  0
VERTEX
  8
0
 62
7
 10
22.12684009
 20
20.31537305
  0
VERTEX
  8
0
 62
7
 10
21.81625977
 20
20.37156250
  0
VERTEX
  8
0
 62
7
 10
21.50806128
 20
20.43323633
  0
VERTEX
  8
0
 62
7
 10
21.20242187
 20
20.50031250
  0
VERTEX
  8
0
 62
7
 10
20.89951880
 20
20.57270898
  0
VERTEX
  8
0
 62
7
 10
20.59952930
 20
20.65034375
  0
VERTEX
  8
0
 62
7
 10
20.30263062
 20
20.73313477
  0
VERTEX
  8
0
 62
7
 10
20.00900000
 20
20.82100000
  0
VERTEX
  8
0
 62
7
 10
19.71256348
 20
20.90966675
  0
VERTEX
  8
0
 62
7
 10
19.41355469
 20
20.99300586
  0
VERTEX
  8
0
 62
7
 10
19.11204980
 20
21.07096313
  0
VERTEX
  8
0
 62
7
 10
18.80812500
 20
21.14348438
  0
VERTEX
  8
0
 62
7
 10
18.50185645
 20
21.21051538
  0
VERTEX
  8
0
 62
7
 10
18.19332031
 20
21.27200195
  0
VERTEX
  8
0
 62
7
 10
17.88259277
 20
21.32788989
  0
VERTEX
  8
0
 62
7
 10
17.56975000
 20
21.37812500
  0
VERTEX
  8
0
 62
7
 10
17.25486816
 20
21.42265308
  0
VERTEX
  8
0
 62
7
 10
16.93802344
 20
21.46141992
  0
VERTEX
  8
0
 62
7
 10
16.61929199
 20
21.49437134
  0
VERTEX
  8
0
 62
7
 10
16.29875000
 20
21.52145313
  0
VERTEX
  8
0
 62
7
 10
15.97647363
 20
21.54261108
  0
VERTEX
  8
0
 62
7
 10
15.65253906
 20
21.55779102
  0
VERTEX
  8
0
 62
7
 10
15.32702246
 20
21.56693872
  0
VERTEX
  8
0
 62
7
 10
15.00000000
 20
21.57000000
  0
VERTEX
  8
0
 62
7
 10
14.67297754
 20
21.56693872
  0
VERTEX
  8
0
 62
7
 10
14.34746094
 20
21.55779102
  0
VERTEX
  8
0
 62
7
 10
14.02352637
 20
21.54261108
  0
VERTEX
  8
0
 62
7
 10
13.70125000
 20
21.52145313
  0
VERTEX
  8
0
 62
7
 10
13.38070801
 20
21.49437134
  0
VERTEX
  8
0
 62
7
 10
13.06197656
 20
21.46141992
  0
VERTEX
  8
0
 62
7
 10
12.74513184
 20
21.42265308
  0
VERTEX
  8
0
 62
7
 10
12.43025000
 20
21.37812500
  0
VERTEX
  8
0
 62
7
 10
12.11740723
 20
21.32788989
  0
VERTEX
  8
0
 62
7
 10
11.80667969
 20
21.27200195
  0
VERTEX
  8
0
 62
7
 10
11.49814355
 20
21.21051538
  0
VERTEX
  8
0
 62
7
 10
11.19187500
 20
21.14348438
  0
VERTEX
  8
0
 62
7
 10
10.88795020
 20
21.07096313
  0
VERTEX
  8
0
 62
7
 10
10.58644531
 20
20.99300586
  0
VERTEX
  8
0
 62
7
 10
10.28743652
 20
20.90966675
  0
VERTEX
  8
0
 62
7
 10
9.99100000
 20
20.82100000
  0
VERTEX
  8
0
 62
7
 10
9.69736938
 20
20.73313477
  0
VERTEX
  8
0
 62
7
 10
9.40047070
 20
20.65034375
  0
VERTEX
  8
0
 62
7
 10
9.10048120
 20
20.57270898
  0
VERTEX
  8
0
 62
7
 10
8.79757812
 20
20.50031250
  0
VERTEX
  8
0
 62
7
 10
8.49193872
 20
20.43323633
  0
VERTEX
  8
0
 62
7
 10
8.18374023
 20
20.37156250
  0
VERTEX
  8
0
 62
7
 10
7.87315991
 20
20.31537305
  0
VERTEX
  8
0
 62
7
 10
7.56037500
 20
20.26475000
  0
VERTEX
  8
0
 62
7
 10
7.24556274
 20
20.21977539
  0
VERTEX
  8
0
 62
7
 10
6.92890039
 20
20.18053125
  0
VERTEX
  8
0
 62
7
 10
6.61056519
 20
20.14709961
  0
VERTEX
  8
0
 62
7
 10
6.29073438
 20
20.11956250
  0
VERTEX
  8
0
 62
7
 10
5.96958521
 20
20.09800195
  0
VERTEX
  8
0
 62
7
 10
5.64729492
 20
20.08250000
  0
VERTEX
  8
0
 62
7
 10
5.32404077
 20
20.07313867
  0
VERTEX
  8
0
 62
7
 10
5.00000000
 20
20.07000000
  0
VERTEX
  8
0
 62
7
 10
4.92800000
 20
20.07000000
  0
VERTEX
  8
0
 62
7
 10
4.84333292
 20
19.79065723
  0
VERTEX
  8
0
 62
7
 10
4.76127271
 20
19.51044141
  0
VERTEX
  8
0
 62
7
 10
4.68182468
 20
19.22935254
  0
VERTEX
  8
0
 62
7
 10
4.60499414
 20
18.94739063
  0
VERTEX
  8
0
 62
7
 10
4.53078641
 20
18.66455566
  0
VERTEX
  8
0
 62
7
 10
4.45920679
 20
18.38084766
  0
VERTEX
  8
0
 62
7
 10
4.39026059
 20
18.09626660
  0
VERTEX
  8
0
 62
7
 10
4.32395313
 20
17.81081250
  0
VERTEX
  8
0
 62
7
 10
4.26028970
 20
17.52448535
  0
VERTEX
  8
0
 62
7
 10
4.19927563
 20
17.23728516
  0
VERTEX
  8
0
 62
7
 10
4.14091623
 20
16.94921191
  0
VERTEX
  8
0
 62
7
 10
4.08521680
 20
16.66026563
  0
VERTEX
  8
0
 62
7
 10
4.03218265
 20
16.37044629
  0
VERTEX
  8
0
 62
7
 10
3.98181909
 20
16.07975391
  0
VERTEX
  8
0
 62
7
 10
3.93413144
 20
15.78818848
  0
VERTEX
  8
0
 62
7
 10
3.88912500
 20
15.49575000
  0
VERTEX
  8
0
 62
7
 10
3.84680508
 20
15.20243848
  0
VERTEX
  8
0
 62
7
 10
3.80717700
 20
14.90825391
  0
VERTEX
  8
0
 62
7
 10
3.77024606
 20
14.61319629
  0
VERTEX
  8
0
 62
7
 10
3.73601758
 20
14.31726563
  0
VERTEX
  8
0
 62
7
 10
3.70449686
 20
14.02046191
  0
VERTEX
  8
0
 62
7
 10
3.67568921
 20
13.72278516
  0
VERTEX
  8
0
 62
7
 10
3.64959995
 20
13.42423535
  0
VERTEX
  8
0
 62
7
 10
3.62623438
 20
13.12481250
  0
VERTEX
  8
0
 62
7
 10
3.60559781
 20
12.82451660
  0
VERTEX
  8
0
 62
7
 10
3.58769556
 20
12.52334766
  0
VERTEX
  8
0
 62
7
 10
3.57253293
 20
12.22130566
  0
VERTEX
  8
0
 62
7
 10
3.56011523
 20
11.91839063
  0
VERTEX
  8
0
 62
7
 10
3.55044778
 20
11.61460254
  0
VERTEX
  8
0
 62
7
 10
3.54353589
 20
11.30994141
  0
VERTEX
  8
0
 62
7
 10
3.53938486
 20
11.00440723
  0
VERTEX
  8
0
 62
7
 10
3.53800000
 20
10.69800000
  0
VERTEX
  8
0
 62
7
 10
3.53987500
 20
10.39412500
  0
VERTEX
  8
0
 62
7
 10
3.54400000
 20
10.09100000
  0
VERTEX
  8
0
 62
7
 10
3.50703906
 20
10.05185937
  0
VERTEX
  8
0
 62
7
 10
3.47195313
 20
10.01098438
  0
VERTEX
  8
0
 62
7
 10
3.43881250
 20
9.96844531
  0
VERTEX
  8
0
 62
7
 10
3.40768750
 20
9.92431250
  0
VERTEX
  8
0
 62
7
 10
3.37864844
 20
9.87865625
  0
VERTEX
  8
0
 62
7
 10
3.35176563
 20
9.83154688
  0
VERTEX
  8
0
 62
7
 10
3.32710938
 20
9.78305469
  0
VERTEX
  8
0
 62
7
 10
3.30475000
 20
9.73325000
  0
VERTEX
  8
0
 62
7
 10
3.28475781
 20
9.68220313
  0
VERTEX
  8
0
 62
7
 10
3.26720313
 20
9.62998437
  0
VERTEX
  8
0
 62
7
 10
3.25215625
 20
9.57666406
  0
VERTEX
  8
0
 62
7
 10
3.23968750
 20
9.52231250
  0
VERTEX
  8
0
 62
7
 10
3.22986719
 20
9.46700000
  0
VERTEX
  8
0
 62
7
 10
3.22276563
 20
9.41079688
  0
VERTEX
  8
0
 62
7
 10
3.21845312
 20
9.35377344
  0
VERTEX
  8
0
 62
7
 10
3.21700000
 20
9.29600000
  0
VERTEX
  8
0
 62
7
 10
3.21837500
 20
9.24062500
  0
VERTEX
  8
0
 62
7
 10
3.22200000
 20
9.18600000
  0
VERTEX
  8
0
 62
7
 10
3.06700000
 20
9.18600000
  0
VERTEX
  8
0
 62
7
 10
3.07104297
 20
9.09604297
  0
VERTEX
  8
0
 62
7
 10
3.08153125
 20
9.00784375
  0
VERTEX
  8
0
 62
7
 10
3.09825391
 20
8.92166016
  0
VERTEX
  8
0
 62
7
 10
3.12100000
 20
8.83775000
  0
VERTEX
  8
0
 62
7
 10
3.14955859
 20
8.75637109
  0
VERTEX
  8
0
 62
7
 10
3.18371875
 20
8.67778125
  0
VERTEX
  8
0
 62
7
 10
3.22326953
 20
8.60223828
  0
VERTEX
  8
0
 62
7
 10
3.26800000
 20
8.53000000
  0
VERTEX
  8
0
 62
7
 10
3.22929883
 20
8.55135156
  0
VERTEX
  8
0
 62
7
 10
3.18901563
 20
8.57031250
  0
VERTEX
  8
0
 62
7
 10
3.14725586
 20
8.58674219
  0
VERTEX
  8
0
 62
7
 10
3.10412500
 20
8.60050000
  0
VERTEX
  8
0
 62
7
 10
3.05972852
 20
8.61144531
  0
VERTEX
  8
0
 62
7
 10
3.01417188
 20
8.61943750
  0
VERTEX
  8
0
 62
7
 10
2.96756055
 20
8.62433594
  0
VERTEX
  8
0
 62
7
 10
2.92000000
 20
8.62600000
  0
VERTEX
  8
0
 62
7
 10
2.89000000
 20
8.62500000
  0
VERTEX
  8
0
 62
7
 10
2.87700000
 20
8.54200000
  0
VERTEX
  8
0
 62
7
 10
2.81942188
 20
8.53973047
  0
VERTEX
  8
0
 62
7
 10
2.76306250
 20
8.53303125
  0
VERTEX
  8
0
 62
7
 10
2.70810938
 20
8.52206641
  0
VERTEX
  8
0
 62
7
 10
2.65475000
 20
8.50700000
  0
VERTEX
  8
0
 62
7
 10
2.60317188
 20
8.48799609
  0
VERTEX
  8
0
 62
7
 10
2.55356250
 20
8.46521875
  0
VERTEX
  8
0
 62
7
 10
2.50610937
 20
8.43883203
  0
VERTEX
  8
0
 62
7
 10
2.46100000
 20
8.40900000
  0
VERTEX
  8
0
 62
7
 10
2.44475000
 20
8.39540625
  0
VERTEX
  8
0
 62
7
 10
2.42625000
 20
8.38500000
  0
VERTEX
  8
0
 62
7
 10
2.40587500
 20
8.37834375
  0
VERTEX
  8
0
 62
7
 10
2.38400000
 20
8.37600000
  0
VERTEX
  8
0
 62
7
 10
2.36642187
 20
8.37746875
  0
VERTEX
  8
0
 62
7
 10
2.34987500
 20
8.38175000
  0
VERTEX
  8
0
 62
7
 10
2.33464063
 20
8.38865625
  0
VERTEX
  8
0
 62
7
 10
2.32100000
 20
8.39800000
  0
VERTEX
  8
0
 62
7
 10
2.17700000
 20
8.45500000
  0
VERTEX
  8
0
 62
7
 10
2.17400000
 20
8.38400000
  0
VERTEX
  8
0
 62
7
 10
2.17641919
 20
8.32215576
  0
VERTEX
  8
0
 62
7
 10
2.18355664
 20
8.26162109
  0
VERTEX
  8
0
 62
7
 10
2.19523218
 20
8.20258057
  0
VERTEX
  8
0
 62
7
 10
2.21126563
 20
8.14521875
  0
VERTEX
  8
0
 62
7
 10
2.23147681
 20
8.08972021
  0
VERTEX
  8
0
 62
7
 10
2.25568555
 20
8.03626953
  0
VERTEX
  8
0
 62
7
 10
2.28371167
 20
7.98505127
  0
VERTEX
  8
0
 62
7
 10
2.31537500
 20
7.93625000
  0
VERTEX
  8
0
 62
7
 10
2.35049536
 20
7.89005029
  0
VERTEX
  8
0
 62
7
 10
2.38889258
 20
7.84663672
  0
VERTEX
  8
0
 62
7
 10
2.43038647
 20
7.80619385
  0
VERTEX
  8
0
 62
7
 10
2.47479688
 20
7.76890625
  0
VERTEX
  8
0
 62
7
 10
2.52194360
 20
7.73495850
  0
VERTEX
  8
0
 62
7
 10
2.57164648
 20
7.70453516
  0
VERTEX
  8
0
 62
7
 10
2.62372534
 20
7.67782080
  0
VERTEX
  8
0
 62
7
 10
2.67800000
 20
7.65500000
  0
VERTEX
  8
0
 62
7
 10
2.64200000
 20
7.49300000
  0
VERTEX
  8
0
 62
7
 10
2.68244141
 20
7.47210742
  0
VERTEX
  8
0
 62
7
 10
2.72421875
 20
7.45373437
  0
VERTEX
  8
0
 62
7
 10
2.76726172
 20
7.43796289
  0
VERTEX
  8
0
 62
7
 10
2.81150000
 20
7.42487500
  0
VERTEX
  8
0
 62
7
 10
2.85686328
 20
7.41455273
  0
VERTEX
  8
0
 62
7
 10
2.90328125
 20
7.40707813
  0
VERTEX
  8
0
 62
7
 10
2.95068359
 20
7.40253320
  0
VERTEX
  8
0
 62
7
 10
2.99900000
 20
7.40100000
  0
VERTEX
  8
0
 62
7
 10
3.03996094
 20
7.40211719
  0
VERTEX
  8
0
 62
7
 10
3.08031250
 20
7.40543750
  0
VERTEX
  8
0
 62
7
 10
3.12000781
 20
7.41091406
  0
VERTEX
  8
0
 62
7
 10
3.15900000
 20
7.41850000
  0
VERTEX
  8
0
 62
7
 10
3.19724219
 20
7.42814844
  0
VERTEX
  8
0
 62
7
 10
3.23468750
 20
7.43981250
  0
VERTEX
  8
0
 62
7
 10
3.27128906
 20
7.45344531
  0
VERTEX
  8
0
 62
7
 10
3.30700000
 20
7.46900000
  0
VERTEX
  8
0
 62
7
 10
3.35300000
 20
7.44800000
  0
VERTEX
  8
0
 62
7
 10
3.33437305
 20
7.43016602
  0
VERTEX
  8
0
 62
7
 10
3.31760938
 20
7.41051563
  0
VERTEX
  8
0
 62
7
 10
3.30288477
 20
7.38920117
  0
VERTEX
  8
0
 62
7
 10
3.29037500
 20
7.36637500
  0
VERTEX
  8
0
 62
7
 10
3.28025586
 20
7.34218945
  0
VERTEX
  8
0
 62
7
 10
3.27270313
 20
7.31679688
  0
VERTEX
  8
0
 62
7
 10
3.26789258
 20
7.29034961
  0
VERTEX
  8
0
 62
7
 10
3.26600000
 20
7.26300000
  0
VERTEX
  8
0
 62
7
 10
3.24462500
 20
7.26971875
  0
VERTEX
  8
0
 62
7
 10
3.22250000
 20
7.27475000
  0
VERTEX
  8
0
 62
7
 10
3.19962500
 20
7.27790625
  0
VERTEX
  8
0
 62
7
 10
3.17600000
 20
7.27900000
  0
VERTEX
  8
0
 62
7
 10
3.14421680
 20
7.27697852
  0
VERTEX
  8
0
 62
7
 10
3.11354687
 20
7.27107812
  0
VERTEX
  8
0
 62
7
 10
3.08425977
 20
7.26154492
  0
VERTEX
  8
0
 62
7
 10
3.05662500
 20
7.24862500
  0
VERTEX
  8
0
 62
7
 10
3.03091211
 20
7.23256445
  0
VERTEX
  8
0
 62
7
 10
3.00739063
 20
7.21360937
  0
VERTEX
  8
0
 62
7
 10
2.98633008
 20
7.19200586
  0
VERTEX
  8
0
 62
7
 10
2.96800000
 20
7.16800000
  0
VERTEX
  8
0
 62
7
 10
2.95819141
 20
7.15040820
  0
VERTEX
  8
0
 62
7
 10
2.94615625
 20
7.13451563
  0
VERTEX
  8
0
 62
7
 10
2.93210547
 20
7.12052148
  0
VERTEX
  8
0
 62
7
 10
2.91625000
 20
7.10862500
  0
VERTEX
  8
0
 62
7
 10
2.89880078
 20
7.09902539
  0
VERTEX
  8
0
 62
7
 10
2.87996875
 20
7.09192187
  0
VERTEX
  8
0
 62
7
 10
2.85996484
 20
7.08751367
  0
VERTEX
  8
0
 62
7
 10
2.83900000
 20
7.08600000
  0
VERTEX
  8
0
 62
7
 10
2.77900000
 20
7.09400000
  0
VERTEX
  8
0
 62
7
 10
2.75928516
 20
7.09200391
  0
VERTEX
  8
0
 62
7
 10
2.74090625
 20
7.08628125
  0
VERTEX
  8
0
 62
7
 10
2.72426172
 20
7.07723047
  0
VERTEX
  8
0
 62
7
 10
2.70975000
 20
7.06525000
  0
VERTEX
  8
0
 62
7
 10
2.69776953
 20
7.05073828
  0
VERTEX
  8
0
 62
7
 10
2.68871875
 20
7.03409375
  0
VERTEX
  8
0
 62
7
 10
2.68299609
 20
7.01571484
  0
VERTEX
  8
0
 62
7
 10
2.68100000
 20
6.99600000
  0
VERTEX
  8
0
 62
7
 10
2.69800000
 20
6.87800000
  0
VERTEX
  8
0
 62
7
 10
2.69514453
 20
6.82591992
  0
VERTEX
  8
0
 62
7
 10
2.68678125
 20
6.77560938
  0
VERTEX
  8
0
 62
7
 10
2.67321484
 20
6.72733789
  0
VERTEX
  8
0
 62
7
 10
2.65475000
 20
6.68137500
  0
VERTEX
  8
0
 62
7
 10
2.63169141
 20
6.63799023
  0
VERTEX
  8
0
 62
7
 10
2.60434375
 20
6.59745313
  0
VERTEX
  8
0
 62
7
 10
2.57301172
 20
6.56003320
  0
VERTEX
  8
0
 62
7
 10
2.53800000
 20
6.52600000
  0
VERTEX
  8
0
 62
7
 10
2.52537305
 20
6.51979492
  0
VERTEX
  8
0
 62
7
 10
2.51385938
 20
6.51179687
  0
VERTEX
  8
0
 62
7
 10
2.50363477
 20
6.50218164
  0
VERTEX
  8
0
 62
7
 10
2.49487500
 20
6.49112500
  0
VERTEX
  8
0
 62
7
 10
2.48775586
 20
6.47880273
  0
VERTEX
  8
0
 62
7
 10
2.48245313
 20
6.46539063
  0
VERTEX
  8
0
 62
7
 10
2.47914258
 20
6.45106445
  0
VERTEX
  8
0
 62
7
 10
2.47800000
 20
6.43600000
  0
VERTEX
  8
0
 62
7
 10
2.48157813
 20
6.40992188
  0
VERTEX
  8
0
 62
7
 10
2.49162500
 20
6.38637500
  0
VERTEX
  8
0
 62
7
 10
2.50710938
 20
6.36639063
  0
VERTEX
  8
0
 62
7
 10
2.52700000
 20
6.35100000
  0
VERTEX
  8
0
 62
7
 10
2.54571094
 20
6.34147461
  0
VERTEX
  8
0
 62
7
 10
2.56268750
 20
6.32954688
  0
VERTEX
  8
0
 62
7
 10
2.57769531
 20
6.31543945
  0
VERTEX
  8
0
 62
7
 10
2.59050000
 20
6.29937500
  0
VERTEX
  8
0
 62
7
 10
2.60086719
 20
6.28157617
  0
VERTEX
  8
0
 62
7
 10
2.60856250
 20
6.26226563
  0
VERTEX
  8
0
 62
7
 10
2.61335156
 20
6.24166602
  0
VERTEX
  8
0
 62
7
 10
2.61500000
 20
6.22000000
  0
VERTEX
  8
0
 62
7
 10
2.60800000
 20
6.15600000
  0
VERTEX
  8
0
 62
7
 10
2.61124219
 20
6.11591602
  0
VERTEX
  8
0
 62
7
 10
2.62062500
 20
6.07776563
  0
VERTEX
  8
0
 62
7
 10
2.63563281
 20
6.04207617
  0
VERTEX
  8
0
 62
7
 10
2.65575000
 20
6.00937500
  0
VERTEX
  8
0
 62
7
 10
2.68046094
 20
5.98018945
  0
VERTEX
  8
0
 62
7
 10
2.70925000
 20
5.95504687
  0
VERTEX
  8
0
 62
7
 10
2.74160156
 20
5.93447461
  0
VERTEX
  8
0
 62
7
 10
2.77700000
 20
5.91900000
  0
VERTEX
  8
0
 62
7
 10
2.75406250
 20
5.88462500
  0
VERTEX
  8
0
 62
7
 10
2.73675000
 20
5.84650000
  0
VERTEX
  8
0
 62
7
 10
2.72581250
 20
5.80537500
  0
VERTEX
  8
0
 62
7
 10
2.72200000
 20
5.76200000
  0
VERTEX
  8
0
 62
7
 10
2.72564063
 20
5.71879687
  0
VERTEX
  8
0
 62
7
 10
2.73612500
 20
5.67812500
  0
VERTEX
  8
0
 62
7
 10
2.75279688
 20
5.64064063
  0
VERTEX
  8
0
 62
7
 10
2.77500000
 20
5.60700000
  0
VERTEX
  8
0
 62
7
 10
2.79400000
 20
5.58512500
  0
VERTEX
  8
0
 62
7
 10
2.80850000
 20
5.56025000
  0
VERTEX
  8
0
 62
7
 10
2.81775000
 20
5.53275000
  0
VERTEX
  8
0
 62
7
 10
2.82100000
 20
5.50300000
  0
VERTEX
  8
0
 62
7
 10
2.81936719
 20
5.48531641
  0
VERTEX
  8
0
 62
7
 10
2.81506250
 20
5.46878125
  0
VERTEX
  8
0
 62
7
 10
2.80897656
 20
5.45304297
  0
VERTEX
  8
0
 62
7
 10
2.80200000
 20
5.43775000
  0
VERTEX
  8
0
 62
7
 10
2.79502344
 20
5.42255078
  0
VERTEX
  8
0
 62
7
 10
2.78893750
 20
5.40709375
  0
VERTEX
  8
0
 62
7
 10
2.78463281
 20
5.39102734
  0
VERTEX
  8
0
 62
7
 10
2.78300000
 20
5.37400000
  0
VERTEX
  8
0
 62
7
 10
2.78568359
 20
5.35432813
  0
VERTEX
  8
0
 62
7
 10
2.79321875
 20
5.33606250
  0
VERTEX
  8
0
 62
7
 10
2.80483203
 20
5.31957813
  0
VERTEX
  8
0
 62
7
 10
2.81975000
 20
5.30525000
  0
VERTEX
  8
0
 62
7
 10
2.83719922
 20
5.29345313
  0
VERTEX
  8
0
 62
7
 10
2.85640625
 20
5.28456250
  0
VERTEX
  8
0
 62
7
 10
2.87659766
 20
5.27895313
  0
VERTEX
  8
0
 62
7
 10
2.89700000
 20
5.27700000
  0
VERTEX
  8
0
 62
7
 10
2.95593555
 20
5.26386914
  0
VERTEX
  8
0
 62
7
 10
3.01167188
 20
5.24357813
  0
VERTEX
  8
0
 62
7
 10
3.06372852
 20
5.21665430
  0
VERTEX
  8
0
 62
7
 10
3.11162500
 20
5.18362500
  0
VERTEX
  8
0
 62
7
 10
3.15488086
 20
5.14501758
  0
VERTEX
  8
0
 62
7
 10
3.19301563
 20
5.10135938
  0
VERTEX
  8
0
 62
7
 10
3.22554883
 20
5.05317773
  0
VERTEX
  8
0
 62
7
 10
3.25200000
 20
5.00100000
  0
VERTEX
  8
0
 62
7
 10
3.16164063
 20
5.04521875
  0
VERTEX
  8
0
 62
7
 10
3.06762500
 20
5.08325000
  0
VERTEX
  8
0
 62
7
 10
2.97004688
 20
5.11490625
  0
VERTEX
  8
0
 62
7
 10
2.86900000
 20
5.14000000
  0
VERTEX
  8
0
 62
7
 10
2.82604687
 20
5.14934375
  0
VERTEX
  8
0
 62
7
 10
2.78262500
 20
5.15625000
  0
VERTEX
  8
0
 62
7
 10
2.73864062
 20
5.16053125
  0
VERTEX
  8
0
 62
7
 10
2.69400000
 20
5.16200000
  0
VERTEX
  8
0
 62
7
 10
2.65229297
 20
5.16079492
  0
VERTEX
  8
0
 62
7
 10
2.61121875
 20
5.15723437
  0
VERTEX
  8
0
 62
7
 10
2.57084766
 20
5.15140039
  0
VERTEX
  8
0
 62
7
 10
2.53125000
 20
5.14337500
  0
VERTEX
  8
0
 62
7
 10
2.49249609
 20
5.13324023
  0
VERTEX
  8
0
 62
7
 10
2.45465625
 20
5.12107813
  0
VERTEX
  8
0
 62
7
 10
2.41780078
 20
5.10697070
  0
VERTEX
  8
0
 62
7
 10
2.38200000
 20
5.09100000
  0
VERTEX
  8
0
 62
7
 10
2.26185938
 20
5.02771875
  0
VERTEX
  8
0
 62
7
 10
2.14612500
 20
4.95675000
  0
VERTEX
  8
0
 62
7
 10
2.03507813
 20
4.87865625
  0
VERTEX
  8
0
 62
7
 10
1.92900000
 20
4.79400000
  0
VERTEX
  8
0
 62
7
 10
2.07200000
 20
4.72900000
  0
VERTEX
  8
0
 62
7
 10
2.10062500
 20
4.71719922
  0
VERTEX
  8
0
 62
7
 10
2.12700000
 20
4.70153125
  0
VERTEX
  8
0
 62
7
 10
2.15075000
 20
4.68234766
  0
VERTEX
  8
0
 62
7
 10
2.17150000
 20
4.66000000
  0
VERTEX
  8
0
 62
7
 10
2.18887500
 20
4.63483984
  0
VERTEX
  8
0
 62
7
 10
2.20250000
 20
4.60721875
  0
VERTEX
  8
0
 62
7
 10
2.21200000
 20
4.57748828
  0
VERTEX
  8
0
 62
7
 10
2.21700000
 20
4.54600000
  0
VERTEX
  8
0
 62
7
 10
2.21955273
 20
4.49769141
  0
VERTEX
  8
0
 62
7
 10
2.22560937
 20
4.45034375
  0
VERTEX
  8
0
 62
7
 10
2.23501758
 20
4.40407422
  0
VERTEX
  8
0
 62
7
 10
2.24762500
 20
4.35900000
  0
VERTEX
  8
0
 62
7
 10
2.26327930
 20
4.31523828
  0
VERTEX
  8
0
 62
7
 10
2.28182813
 20
4.27290625
  0
VERTEX
  8
0
 62
7
 10
2.30311914
 20
4.23212109
  0
VERTEX
  8
0
 62
7
 10
2.32700000
 20
4.19300000
  0
VERTEX
  8
0
 62
7
 10
2.36900000
 20
4.15350000
  0
VERTEX
  8
0
 62
7
 10
2.41400000
 20
4.11700000
  0
VERTEX
  8
0
 62
7
 10
2.35402148
 20
4.09508984
  0
VERTEX
  8
0
 62
7
 10
2.29585938
 20
4.06790625
  0
VERTEX
  8
0
 62
7
 10
2.23992383
 20
4.03589453
  0
VERTEX
  8
0
 62
7
 10
2.18662500
 20
3.99950000
  0
VERTEX
  8
0
 62
7
 10
2.13637305
 20
3.95916797
  0
VERTEX
  8
0
 62
7
 10
2.08957813
 20
3.91534375
  0
VERTEX
  8
0
 62
7
 10
2.04665039
 20
3.86847266
  0
VERTEX
  8
0
 62
7
 10
2.00800000
 20
3.81900000
  0
VERTEX
  8
0
 62
7
 10
1.84450000
 20
3.61662500
  0
VERTEX
  8
0
 62
7
 10
1.67500000
 20
3.41800000
  0
VERTEX
  8
0
 62
7
 10
1.70090625
 20
3.38509766
  0
VERTEX
  8
0
 62
7
 10
1.73037500
 20
3.35540625
  0
VERTEX
  8
0
 62
7
 10
1.76303125
 20
3.32894922
  0
VERTEX
  8
0
 62
7
 10
1.79850000
 20
3.30575000
  0
VERTEX
  8
0
 62
7
 10
1.83640625
 20
3.28583203
  0
VERTEX
  8
0
 62
7
 10
1.87637500
 20
3.26921875
  0
VERTEX
  8
0
 62
7
 10
1.91803125
 20
3.25593359
  0
VERTEX
  8
0
 62
7
 10
1.96100000
 20
3.24600000
  0
VERTEX
  8
0
 62
7
 10
1.94918750
 20
3.19728125
  0
VERTEX
  8
0
 62
7
 10
1.94075000
 20
3.14725000
  0
VERTEX
  8
0
 62
7
 10
1.93568750
 20
3.09609375
  0
VERTEX
  8
0
 62
7
 10
1.93400000
 20
3.04400000
  0
VERTEX
  8
0
 62
7
 10
1.93626758
 20
2.98388086
  0
VERTEX
  8
0
 62
7
 10
1.94295313
 20
2.92510937
  0
VERTEX
  8
0
 62
7
 10
1.95388086
 20
2.86781445
  0
VERTEX
  8
0
 62
7
 10
1.96887500
 20
2.81212500
  0
VERTEX
  8
0
 62
7
 10
1.98775977
 20
2.75816992
  0
VERTEX
  8
0
 62
7
 10
2.01035938
 20
2.70607812
  0
VERTEX
  8
0
 62
7
 10
2.03649805
 20
2.65597852
  0
VERTEX
  8
0
 62
7
 10
2.06600000
 20
2.60800000
  0
VERTEX
  8
0
 62
7
 10
2.09150732
 20
2.57075073
  0
VERTEX
  8
0
 62
7
 10
2.11921484
 20
2.53519336
  0
VERTEX
  8
0
 62
7
 10
2.14902588
 20
2.50142603
  0
VERTEX
  8
0
 62
7
 10
2.18084375
 20
2.46954688
  0
VERTEX
  8
0
 62
7
 10
2.21457178
 20
2.43965405
  0
VERTEX
  8
0
 62
7
 10
2.25011328
 20
2.41184570
  0
VERTEX
  8
0
 62
7
 10
2.28737158
 20
2.38621997
  0
VERTEX
  8
0
 62
7
 10
2.32625000
 20
2.36287500
  0
VERTEX
  8
0
 62
7
 10
2.36665186
 20
2.34190894
  0
VERTEX
  8
0
 62
7
 10
2.40848047
 20
2.32341992
  0
VERTEX
  8
0
 62
7
 10
2.45163916
 20
2.30750610
  0
VERTEX
  8
0
 62
7
 10
2.49603125
 20
2.29426563
  0
VERTEX
  8
0
 62
7
 10
2.54156006
 20
2.28379663
  0
VERTEX
  8
0
 62
7
 10
2.58812891
 20
2.27619727
  0
VERTEX
  8
0
 62
7
 10
2.63564111
 20
2.27156567
  0
VERTEX
  8
0
 62
7
 10
2.68400000
 20
2.27000000
  0
VERTEX
  8
0
 62
7
 10
2.72788013
 20
2.27115967
  0
VERTEX
  8
0
 62
7
 10
2.77136914
 20
2.27458984
  0
VERTEX
  8
0
 62
7
 10
2.81442749
 20
2.28021729
  0
VERTEX
  8
0
 62
7
 10
2.85701563
 20
2.28796875
  0
VERTEX
  8
0
 62
7
 10
2.89909399
 20
2.29777100
  0
VERTEX
  8
0
 62
7
 10
2.94062305
 20
2.30955078
  0
VERTEX
  8
0
 62
7
 10
2.98156323
 20
2.32323486
  0
VERTEX
  8
0
 62
7
 10
3.02187500
 20
2.33875000
  0
VERTEX
  8
0
 62
7
 10
3.06151880
 20
2.35602295
  0
VERTEX
  8
0
 62
7
 10
3.10045508
 20
2.37498047
  0
VERTEX
  8
0
 62
7
 10
3.13864429
 20
2.39554932
  0
VERTEX
  8
0
 62
7
 10
3.17604687
 20
2.41765625
  0
VERTEX
  8
0
 62
7
 10
3.21262329
 20
2.44122803
  0
VERTEX
  8
0
 62
7
 10
3.24833398
 20
2.46619141
  0
VERTEX
  8
0
 62
7
 10
3.28313940
 20
2.49247314
  0
VERTEX
  8
0
 62
7
 10
3.31700000
 20
2.52000000
  0
VERTEX
  8
0
 62
7
 10
3.34477783
 20
2.54469141
  0
VERTEX
  8
0
 62
7
 10
3.37108203
 20
2.57071875
  0
VERTEX
  8
0
 62
7
 10
3.39586865
 20
2.59801172
  0
VERTEX
  8
0
 62
7
 10
3.41909375
 20
2.62650000
  0
VERTEX
  8
0
 62
7
 10
3.44071338
 20
2.65611328
  0
VERTEX
  8
0
 62
7
 10
3.46068359
 20
2.68678125
  0
VERTEX
  8
0
 62
7
 10
3.47896045
 20
2.71843359
  0
VERTEX
  8
0
 62
7
 10
3.49550000
 20
2.75100000
  0
VERTEX
  8
0
 62
7
 10
3.51025830
 20
2.78441016
  0
VERTEX
  8
0
 62
7
 10
3.52319141
 20
2.81859375
  0
VERTEX
  8
0
 62
7
 10
3.53425537
 20
2.85348047
  0
VERTEX
  8
0
 62
7
 10
3.54340625
 20
2.88900000
  0
VERTEX
  8
0
 62
7
 10
3.55060010
 20
2.92508203
  0
VERTEX
  8
0
 62
7
 10
3.55579297
 20
2.96165625
  0
VERTEX
  8
0
 62
7
 10
3.55894092
 20
2.99865234
  0
VERTEX
  8
0
 62
7
 10
3.56000000
 20
3.03600000
  0
VERTEX
  8
0
 62
7
 10
3.55614063
 20
3.09690234
  0
VERTEX
  8
0
 62
7
 10
3.54487500
 20
3.15553125
  0
VERTEX
  8
0
 62
7
 10
3.52667187
 20
3.21139453
  0
VERTEX
  8
0
 62
7
 10
3.50200000
 20
3.26400000
  0
VERTEX
  8
0
 62
7
 10
3.47132812
 20
3.31285547
  0
VERTEX
  8
0
 62
7
 10
3.43512500
 20
3.35746875
  0
VERTEX
  8
0
 62
7
 10
3.39385937
 20
3.39734766
  0
VERTEX
  8
0
 62
7
 10
3.34800000
 20
3.43200000
  0
VERTEX
  8
0
 62
7
 10
3.31250000
 20
3.45675000
  0
VERTEX
  8
0
 62
7
 10
3.27400000
 20
3.47700000
  0
VERTEX
  8
0
 62
7
 10
3.33548438
 20
3.48839063
  0
VERTEX
  8
0
 62
7
 10
3.39837500
 20
3.49687500
  0
VERTEX
  8
0
 62
7
 10
3.46257813
 20
3.50217188
  0
VERTEX
  8
0
 62
7
 10
3.52800000
 20
3.50400000
  0
VERTEX
  8
0
 62
7
 10
3.65700000
 20
3.50300000
  0
VERTEX
  8
0
 62
7
 10
3.80214063
 20
3.50154883
  0
VERTEX
  8
0
 62
7
 10
3.94587500
 20
3.49720313
  0
VERTEX
  8
0
 62
7
 10
4.08829688
 20
3.48997461
  0
VERTEX
  8
0
 62
7
 10
4.22950000
 20
3.47987500
  0
VERTEX
  8
0
 62
7
 10
4.36957813
 20
3.46691602
  0
VERTEX
  8
0
 62
7
 10
4.50862500
 20
3.45110938
  0
VERTEX
  8
0
 62
7
 10
4.64673438
 20
3.43246680
  0
VERTEX
  8
0
 62
7
 10
4.78400000
 20
3.41100000
  0
VERTEX
  8
0
 62
7
 10
4.90300000
 20
3.31100000
  0
VERTEX
  8
0
 62
7
 10
4.88421680
 20
3.27360742
  0
VERTEX
  8
0
 62
7
 10
4.86767188
 20
3.23498438
  0
VERTEX
  8
0
 62
7
 10
4.85344727
 20
3.19521289
  0
VERTEX
  8
0
 62
7
 10
4.84162500
 20
3.15437500
  0
VERTEX
  8
0
 62
7
 10
4.83228711
 20
3.11255273
  0
VERTEX
  8
0
 62
7
 10
4.82551563
 20
3.06982812
  0
VERTEX
  8
0
 62
7
 10
4.82139258
 20
3.02628320
  0
VERTEX
  8
0
 62
7
 10
4.82000000
 20
2.98200000
  0
VERTEX
  8
0
 62
7
 10
4.82148462
 20
2.93624170
  0
VERTEX
  8
0
 62
7
 10
4.82587695
 20
2.89127734
  0
VERTEX
  8
0
 62
7
 10
4.83308472
 20
2.84719775
  0
VERTEX
  8
0
 62
7
 10
4.84301563
 20
2.80409375
  0
VERTEX
  8
0
 62
7
 10
4.85557739
 20
2.76205615
  0
VERTEX
  8
0
 62
7
 10
4.87067773
 20
2.72117578
  0
VERTEX
  8
0
 62
7
 10
4.88822437
 20
2.68154346
  0
VERTEX
  8
0
 62
7
 10
4.90812500
 20
2.64325000
  0
VERTEX
  8
0
 62
7
 10
4.93028735
 20
2.60638623
  0
VERTEX
  8
0
 62
7
 10
4.95461914
 20
2.57104297
  0
VERTEX
  8
0
 62
7
 10
4.98102808
 20
2.53731104
  0
VERTEX
  8
0
 62
7
 10
5.00942188
 20
2.50528125
  0
VERTEX
  8
0
 62
7
 10
5.03970825
 20
2.47504443
  0
VERTEX
  8
0
 62
7
 10
5.07179492
 20
2.44669141
  0
VERTEX
  8
0
 62
7
 10
5.10558960
 20
2.42031299
  0
VERTEX
  8
0
 62
7
 10
5.14100000
 20
2.39600000
  0
VERTEX
  8
0
 62
7
 10
5.17500000
 20
2.52900000
  0
VERTEX
  8
0
 62
7
 10
5.18323633
 20
2.55177148
  0
VERTEX
  8
0
 62
7
 10
5.19495313
 20
2.57260937
  0
VERTEX
  8
0
 62
7
 10
5.20978711
 20
2.59117383
  0
VERTEX
  8
0
 62
7
 10
5.22737500
 20
2.60712500
  0
VERTEX
  8
0
 62
7
 10
5.24735352
 20
2.62012305
  0
VERTEX
  8
0
 62
7
 10
5.26935938
 20
2.62982813
  0
VERTEX
  8
0
 62
7
 10
5.29302930
 20
2.63590039
  0
VERTEX
  8
0
 62
7
 10
5.31800000
 20
2.63800000
  0
VERTEX
  8
0
 62
7
 10
5.34175000
 20
2.63587500
  0
VERTEX
  8
0
 62
7
 10
5.36400000
 20
2.63000000
  0
VERTEX
  8
0
 62
7
 10
5.42258203
 20
2.64203711
  0
VERTEX
  8
0
 62
7
 10
5.47884375
 20
2.65992188
  0
VERTEX
  8
0
 62
7
 10
5.53243359
 20
2.68331445
  0
VERTEX
  8
0
 62
7
 10
5.58300000
 20
2.71187500
  0
VERTEX
  8
0
 62
7
 10
5.63019141
 20
2.74526367
  0
VERTEX
  8
0
 62
7
 10
5.67365625
 20
2.78314063
  0
VERTEX
  8
0
 62
7
 10
5.71304297
 20
2.82516602
  0
VERTEX
  8
0
 62
7
 10
5.74800000
 20
2.87100000
  0
VERTEX
  8
0
 62
7
 10
5.84800000
 20
2.81400000
  0
VERTEX
  8
0
 62
7
 10
5.89996875
 20
2.84370117
  0
VERTEX
  8
0
 62
7
 10
5.94837500
 20
2.87854688
  0
VERTEX
  8
0
 62
7
 10
5.99284375
 20
2.91815039
  0
VERTEX
  8
0
 62
7
 10
6.03300000
 20
2.96212500
  0
VERTEX
  8
0
 62
7
 10
6.06846875
 20
3.01008398
  0
VERTEX
  8
0
 62
7
 10
6.09887500
 20
3.06164062
  0
VERTEX
  8
0
 62
7
 10
6.12384375
 20
3.11640820
  0
VERTEX
  8
0
 62
7
 10
6.14300000
 20
3.17400000
  0
VERTEX
  8
0
 62
7
 10
6.68196533
 20
3.08539307
  0
VERTEX
  8
0
 62
7
 10
7.22231641
 20
3.00256641
  0
VERTEX
  8
0
 62
7
 10
7.76417334
 20
2.92551123
  0
VERTEX
  8
0
 62
7
 10
8.30765625
 20
2.85421875
  0
VERTEX
  8
0
 62
7
 10
8.85288525
 20
2.78868018
  0
VERTEX
  8
0
 62
7
 10
9.39998047
 20
2.72888672
  0
VERTEX
  8
0
 62
7
 10
9.94906201
 20
2.67482959
  0
VERTEX
  8
0
 62
7
 10
10.50025000
 20
2.62650000
  0
VERTEX
  8
0
 62
7
 10
11.05366455
 20
2.58388916
  0
VERTEX
  8
0
 62
7
 10
11.60942578
 20
2.54698828
  0
VERTEX
  8
0
 62
7
 10
12.16765381
 20
2.51578857
  0
VERTEX
  8
0
 62
7
 10
12.72846875
 20
2.49028125
  0
VERTEX
  8
0
 62
7
 10
13.29199072
 20
2.47045752
  0
VERTEX
  8
0
 62
7
 10
13.85833984
 20
2.45630859
  0
VERTEX
  8
0
 62
7
 10
14.42763623
 20
2.44782568
  0
VERTEX
  8
0
 62
7
 10
15.00000000
 20
2.44500000
  0
SEQEND
  0
POLYLINE
  8
0
 62
7
 66
1
 70
1
  0
VERTEX
  8
0
 62
7
 10
3.09400000
 20
2.86700000
  0
VERTEX
  8
0
 62
7
 10
3.04923828
 20
2.87122852
  0
VERTEX
  8
0
 62
7
 10
3.00684375
 20
2.88207813
  0
VERTEX
  8
0
 62
7
 10
2.96740234
 20
2.89904492
  0
VERTEX
  8
0
 62
7
 10
2.93150000
 20
2.92162500
  0
VERTEX
  8
0
 62
7
 10
2.89972266
 20
2.94931445
  0
VERTEX
  8
0
 62
7
 10
2.87265625
 20
2.98160938
  0
VERTEX
  8
0
 62
7
 10
2.85088672
 20
3.01800586
  0
VERTEX
  8
0
 62
7
 10
2.83500000
 20
3.05800000
  0
VERTEX
  8
0
 62
7
 10
2.82828125
 20
3.08370313
  0
VERTEX
  8
0
 62
7
 10
2.82325000
 20
3.10987500
  0
VERTEX
  8
0
 62
7
 10
2.82009375
 20
3.13660937
  0
VERTEX
  8
0
 62
7
 10
2.81900000
 20
3.16400000
  0
VERTEX
  8
0
 62
7
 10
2.82266602
 20
3.21623438
  0
VERTEX
  8
0
 62
7
 10
2.83332813
 20
3.26612500
  0
VERTEX
  8
0
 62
7
 10
2.85048242
 20
3.31320313
  0
VERTEX
  8
0
 62
7
 10
2.87362500
 20
3.35700000
  0
VERTEX
  8
0
 62
7
 10
2.90225195
 20
3.39704688
  0
VERTEX
  8
0
 62
7
 10
2.93585938
 20
3.43287500
  0
VERTEX
  8
0
 62
7
 10
2.97394336
 20
3.46401563
  0
VERTEX
  8
0
 62
7
 10
3.01600000
 20
3.49000000
  0
VERTEX
  8
0
 62
7
 10
3.07536523
 20
3.51370508
  0
VERTEX
  8
0
 62
7
 10
3.13635938
 20
3.53451563
  0
VERTEX
  8
0
 62
7
 10
3.19883008
 20
3.55234961
  0
VERTEX
  8
0
 62
7
 10
3.26262500
 20
3.56712500
  0
VERTEX
  8
0
 62
7
 10
3.32759180
 20
3.57875977
  0
VERTEX
  8
0
 62
7
 10
3.39357812
 20
3.58717188
  0
VERTEX
  8
0
 62
7
 10
3.46043164
 20
3.59227930
  0
VERTEX
  8
0
 62
7
 10
3.52800000
 20
3.59400000
  0
VERTEX
  8
0
 62
7
 10
3.65700000
 20
3.59300000
  0
VERTEX
  8
0
 62
7
 10
3.81030078
 20
3.59144922
  0
VERTEX
  8
0
 62
7
 10
3.96203125
 20
3.58678125
  0
VERTEX
  8
0
 62
7
 10
4.11230859
 20
3.57897266
  0
VERTEX
  8
0
 62
7
 10
4.26125000
 20
3.56800000
  0
VERTEX
  8
0
 62
7
 10
4.40897266
 20
3.55383984
  0
VERTEX
  8
0
 62
7
 10
4.55559375
 20
3.53646875
  0
VERTEX
  8
0
 62
7
 10
4.70123047
 20
3.51586328
  0
VERTEX
  8
0
 62
7
 10
4.84600000
 20
3.49200000
  0
VERTEX
  8
0
 62
7
 10
4.86953125
 20
3.55478125
  0
VERTEX
  8
0
 62
7
 10
4.89925000
 20
3.61400000
  0
VERTEX
  8
0
 62
7
 10
4.93459375
 20
3.66946875
  0
VERTEX
  8
0
 62
7
 10
4.97500000
 20
3.72100000
  0
VERTEX
  8
0
 62
7
 10
4.97400000
 20
3.72100000
  0
VERTEX
  8
0
 62
7
 10
4.92700000
 20
3.72000000
  0
VERTEX
  8
0
 62
7
 10
4.84126758
 20
3.72356445
  0
VERTEX
  8
0
 62
7
 10
4.75751562
 20
3.73407812
  0
VERTEX
  8
0
 62
7
 10
4.67603711
 20
3.75127148
  0
VERTEX
  8
0
 62
7
 10
4.59712500
 20
3.77487500
  0
VERTEX
  8
0
 62
7
 10
4.52107227
 20
3.80461914
  0
VERTEX
  8
0
 62
7
 10
4.44817187
 20
3.84023438
  0
VERTEX
  8
0
 62
7
 10
4.37871680
 20
3.88145117
  0
VERTEX
  8
0
 62
7
 10
4.31300000
 20
3.92800000
  0
VERTEX
  8
0
 62
7
 10
4.31400000
 20
3.92800000
  0
VERTEX
  8
0
 62
7
 10
4.34700000
 20
4.03100000
  0
VERTEX
  8
0
 62
7
 10
4.30550049
 20
4.04763086
  0
VERTEX
  8
0
 62
7
 10
4.26541016
 20
4.06635938
  0
VERTEX
  8
0
 62
7
 10
4.22677881
 20
4.08712695
  0
VERTEX
  8
0
 62
7
 10
4.18965625
 20
4.10987500
  0
VERTEX
  8
0
 62
7
 10
4.15409229
 20
4.13454492
  0
VERTEX
  8
0
 62
7
 10
4.12013672
 20
4.16107813
  0
VERTEX
  8
0
 62
7
 10
4.08783936
 20
4.18941602
  0
VERTEX
  8
0
 62
7
 10
4.05725000
 20
4.21950000
  0
VERTEX
  8
0
 62
7
 10
4.02841846
 20
4.25127148
  0
VERTEX
  8
0
 62
7
 10
4.00139453
 20
4.28467187
  0
VERTEX
  8
0
 62
7
 10
3.97622803
 20
4.31964258
  0
VERTEX
  8
0
 62
7
 10
3.95296875
 20
4.35612500
  0
VERTEX
  8
0
 62
7
 10
3.93166650
 20
4.39406055
  0
VERTEX
  8
0
 62
7
 10
3.91237109
 20
4.43339063
  0
VERTEX
  8
0
 62
7
 10
3.89513232
 20
4.47405664
  0
VERTEX
  8
0
 62
7
 10
3.88000000
 20
4.51600000
  0
VERTEX
  8
0
 62
7
 10
3.75960938
 20
4.59307812
  0
VERTEX
  8
0
 62
7
 10
3.63687500
 20
4.66837500
  0
VERTEX
  8
0
 62
7
 10
3.51170312
 20
4.74198438
  0
VERTEX
  8
0
 62
7
 10
3.38400000
 20
4.81400000
  0
VERTEX
  8
0
 62
7
 10
3.32442383
 20
4.85445703
  0
VERTEX
  8
0
 62
7
 10
3.26214063
 20
4.89240625
  0
VERTEX
  8
0
 62
7
 10
3.19744336
 20
4.92758984
  0
VERTEX
  8
0
 62
7
 10
3.13062500
 20
4.95975000
  0
VERTEX
  8
0
 62
7
 10
3.06197852
 20
4.98862891
  0
VERTEX
  8
0
 62
7
 10
2.99179687
 20
5.01396875
  0
VERTEX
  8
0
 62
7
 10
2.92037305
 20
5.03551172
  0
VERTEX
  8
0
 62
7
 10
2.84800000
 20
5.05300000
  0
VERTEX
  8
0
 62
7
 10
2.81029688
 20
5.06103125
  0
VERTEX
  8
0
 62
7
 10
2.77212500
 20
5.06700000
  0
VERTEX
  8
0
 62
7
 10
2.73339063
 20
5.07071875
  0
VERTEX
  8
0
 62
7
 10
2.69400000
 20
5.07200000
  0
VERTEX
  8
0
 62
7
 10
2.65749609
 20
5.07093555
  0
VERTEX
  8
0
 62
7
 10
2.62153125
 20
5.06779688
  0
VERTEX
  8
0
 62
7
 10
2.58617578
 20
5.06266602
  0
VERTEX
  8
0
 62
7
 10
2.55150000
 20
5.05562500
  0
VERTEX
  8
0
 62
7
 10
2.51757422
 20
5.04675586
  0
VERTEX
  8
0
 62
7
 10
2.48446875
 20
5.03614062
  0
VERTEX
  8
0
 62
7
 10
2.45225391
 20
5.02386133
  0
VERTEX
  8
0
 62
7
 10
2.42100000
 20
5.01000000
  0
VERTEX
  8
0
 62
7
 10
2.33795312
 20
4.96731250
  0
VERTEX
  8
0
 62
7
 10
2.25687500
 20
4.92050000
  0
VERTEX
  8
0
 62
7
 10
2.17785938
 20
4.86993750
  0
VERTEX
  8
0
 62
7
 10
2.10100000
 20
4.81600000
  0
VERTEX
  8
0
 62
7
 10
2.14192383
 20
4.79846094
  0
VERTEX
  8
0
 62
7
 10
2.17957812
 20
4.77543750
  0
VERTEX
  8
0
 62
7
 10
2.21341211
 20
4.74744531
  0
VERTEX
  8
0
 62
7
 10
2.24287500
 20
4.71500000
  0
VERTEX
  8
0
 62
7
 10
2.26741602
 20
4.67861719
  0
VERTEX
  8
0
 62
7
 10
2.28648438
 20
4.63881250
  0
VERTEX
  8
0
 62
7
 10
2.29952930
 20
4.59610156
  0
VERTEX
  8
0
 62
7
 10
2.30600000
 20
4.55100000
  0
VERTEX
  8
0
 62
7
 10
2.30823047
 20
4.50976367
  0
VERTEX
  8
0
 62
7
 10
2.31334375
 20
4.46935937
  0
VERTEX
  8
0
 62
7
 10
2.32122266
 20
4.42986914
  0
VERTEX
  8
0
 62
7
 10
2.33175000
 20
4.39137500
  0
VERTEX
  8
0
 62
7
 10
2.34480859
 20
4.35395898
  0
VERTEX
  8
0
 62
7
 10
2.36028125
 20
4.31770313
  0
VERTEX
  8
0
 62
7
 10
2.37805078
 20
4.28268945
  0
VERTEX
  8
0
 62
7
 10
2.39800000
 20
4.24900000
  0
VERTEX
  8
0
 62
7
 10
2.43078516
 20
4.21837305
  0
VERTEX
  8
0
 62
7
 10
2.46603125
 20
4.19035937
  0
VERTEX
  8
0
 62
7
 10
2.50357422
 20
4.16513477
  0
VERTEX
  8
0
 62
7
 10
2.54325000
 20
4.14287500
  0
VERTEX
  8
0
 62
7
 10
2.58489453
 20
4.12375586
  0
VERTEX
  8
0
 62
7
 10
2.62834375
 20
4.10795312
  0
VERTEX
  8
0
 62
7
 10
2.67343359
 20
4.09564258
  0
VERTEX
  8
0
 62
7
 10
2.72000000
 20
4.08700000
  0
VERTEX
  8
0
 62
7
 10
2.64750000
 20
4.07412500
  0
VERTEX
  8
0
 62
7
 10
2.57800000
 20
4.05900000
  0
VERTEX
  8
0
 62
7
 10
2.54016211
 20
4.05410498
  0
VERTEX
  8
0
 62
7
 10
2.50282813
 20
4.04698047
  0
VERTEX
  8
0
 62
7
 10
2.46608008
 20
4.03771729
  0
VERTEX
  8
0
 62
7
 10
2.43000000
 20
4.02640625
  0
VERTEX
  8
0
 62
7
 10
2.39466992
 20
4.01313818
  0
VERTEX
  8
0
 62
7
 10
2.36017188
 20
3.99800391
  0
VERTEX
  8
0
 62
7
 10
2.32658789
 20
3.98109424
  0
VERTEX
  8
0
 62
7
 10
2.29400000
 20
3.96250000
  0
VERTEX
  8
0
 62
7
 10
2.26249023
 20
3.94231201
  0
VERTEX
  8
0
 62
7
 10
2.23214063
 20
3.92062109
  0
VERTEX
  8
0
 62
7
 10
2.20303320
 20
3.89751807
  0
VERTEX
  8
0
 62
7
 10
2.17525000
 20
3.87309375
  0
VERTEX
  8
0
 62
7
 10
2.14887305
 20
3.84743896
  0
VERTEX
  8
0
 62
7
 10
2.12398438
 20
3.82064453
  0
VERTEX
  8
0
 62
7
 10
2.10066602
 20
3.79280127
  0
VERTEX
  8
0
 62
7
 10
2.07900000
 20
3.76400000
  0
VERTEX
  8
0
 62
7
 10
1.94075000
 20
3.59162500
  0
VERTEX
  8
0
 62
7
 10
1.79800000
 20
3.42300000
  0
VERTEX
  8
0
 62
7
 10
1.82328906
 20
3.40259570
  0
VERTEX
  8
0
 62
7
 10
1.85031250
 20
3.38426563
  0
VERTEX
  8
0
 62
7
 10
1.87892969
 20
3.36820898
  0
VERTEX
  8
0
 62
7
 10
1.90900000
 20
3.35462500
  0
VERTEX
  8
0
 62
7
 10
1.94038281
 20
3.34371289
  0
VERTEX
  8
0
 62
7
 10
1.97293750
 20
3.33567188
  0
VERTEX
  8
0
 62
7
 10
2.00652344
 20
3.33070117
  0
VERTEX
  8
0
 62
7
 10
2.04100000
 20
3.32900000
  0
VERTEX
  8
0
 62
7
 10
2.08700000
 20
3.33200000
  0
VERTEX
  8
0
 62
7
 10
2.07280859
 20
3.29887109
  0
VERTEX
  8
0
 62
7
 10
2.06028125
 20
3.26478125
  0
VERTEX
  8
0
 62
7
 10
2.04948828
 20
3.22980078
  0
VERTEX
  8
0
 62
7
 10
2.04050000
 20
3.19400000
  0
VERTEX
  8
0
 62
7
 10
2.03338672
 20
3.15744922
  0
VERTEX
  8
0
 62
7
 10
2.02821875
 20
3.12021875
  0
VERTEX
  8
0
 62
7
 10
2.02506641
 20
3.08237891
  0
VERTEX
  8
0
 62
7
 10
2.02400000
 20
3.04400000
  0
VERTEX
  8
0
 62
7
 10
2.02599219
 20
2.99086914
  0
VERTEX
  8
0
 62
7
 10
2.03187500
 20
2.93882813
  0
VERTEX
  8
0
 62
7
 10
2.04150781
 20
2.88802930
  0
VERTEX
  8
0
 62
7
 10
2.05475000
 20
2.83862500
  0
VERTEX
  8
0
 62
7
 10
2.07146094
 20
2.79076758
  0
VERTEX
  8
0
 62
7
 10
2.09150000
 20
2.74460938
  0
VERTEX
  8
0
 62
7
 10
2.11472656
 20
2.70030273
  0
VERTEX
  8
0
 62
7
 10
2.14100000
 20
2.65800000
  0
VERTEX
  8
0
 62
7
 10
2.16354468
 20
2.62499023
  0
VERTEX
  8
0
 62
7
 10
2.18799805
 20
2.59351563
  0
VERTEX
  8
0
 62
7
 10
2.21427661
 20
2.56365820
  0
VERTEX
  8
0
 62
7
 10
2.24229688
 20
2.53550000
  0
VERTEX
  8
0
 62
7
 10
2.27197534
 20
2.50912305
  0
VERTEX
  8
0
 62
7
 10
2.30322852
 20
2.48460938
  0
VERTEX
  8
0
 62
7
 10
2.33597290
 20
2.46204102
  0
VERTEX
  8
0
 62
7
 10
2.37012500
 20
2.44150000
  0
VERTEX
  8
0
 62
7
 10
2.40560132
 20
2.42306836
  0
VERTEX
  8
0
 62
7
 10
2.44231836
 20
2.40682813
  0
VERTEX
  8
0
 62
7
 10
2.48019263
 20
2.39286133
  0
VERTEX
  8
0
 62
7
 10
2.51914062
 20
2.38125000
  0
VERTEX
  8
0
 62
7
 10
2.55907886
 20
2.37207617
  0
VERTEX
  8
0
 62
7
 10
2.59992383
 20
2.36542188
  0
VERTEX
  8
0
 62
7
 10
2.64159204
 20
2.36136914
  0
VERTEX
  8
0
 62
7
 10
2.68400000
 20
2.36000000
  0
VERTEX
  8
0
 62
7
 10
2.72356934
 20
2.36107690
  0
VERTEX
  8
0
 62
7
 10
2.76275781
 20
2.36425586
  0
VERTEX
  8
0
 62
7
 10
2.80153613
 20
2.36945923
  0
VERTEX
  8
0
 62
7
 10
2.83987500
 20
2.37660938
  0
VERTEX
  8
0
 62
7
 10
2.87774512
 20
2.38562866
  0
VERTEX
  8
0
 62
7
 10
2.91511719
 20
2.39643945
  0
VERTEX
  8
0
 62
7
 10
2.95196191
 20
2.40896411
  0
VERTEX
  8
0
 62
7
 10
2.98825000
 20
2.42312500
  0
VERTEX
  8
0
 62
7
 10
3.02395215
 20
2.43884448
  0
VERTEX
  8
0
 62
7
 10
3.05903906
 20
2.45604492
  0
VERTEX
  8
0
 62
7
 10
3.09348145
 20
2.47464868
  0
VERTEX
  8
0
 62
7
 10
3.12725000
 20
2.49457812
  0
VERTEX
  8
0
 62
7
 10
3.16031543
 20
2.51575562
  0
VERTEX
  8
0
 62
7
 10
3.19264844
 20
2.53810352
  0
VERTEX
  8
0
 62
7
 10
3.22421973
 20
2.56154419
  0
VERTEX
  8
0
 62
7
 10
3.25500000
 20
2.58600000
  0
VERTEX
  8
0
 62
7
 10
3.30299805
 20
2.63002734
  0
VERTEX
  8
0
 62
7
 10
3.34554688
 20
2.67853125
  0
VERTEX
  8
0
 62
7
 10
3.38235352
 20
2.73101953
  0
VERTEX
  8
0
 62
7
 10
3.41312500
 20
2.78700000
  0
VERTEX
  8
0
 62
7
 10
3.43756836
 20
2.84598047
  0
VERTEX
  8
0
 62
7
 10
3.45539063
 20
2.90746875
  0
VERTEX
  8
0
 62
7
 10
3.46629883
 20
2.97097266
  0
VERTEX
  8
0
 62
7
 10
3.47000000
 20
3.03600000
  0
VERTEX
  8
0
 62
7
 10
3.46678516
 20
3.08613672
  0
VERTEX
  8
0
 62
7
 10
3.45740625
 20
3.13428125
  0
VERTEX
  8
0
 62
7
 10
3.44226172
 20
3.18003516
  0
VERTEX
  8
0
 62
7
 10
3.42175000
 20
3.22300000
  0
VERTEX
  8
0
 62
7
 10
3.39626953
 20
3.26277734
  0
VERTEX
  8
0
 62
7
 10
3.36621875
 20
3.29896875
  0
VERTEX
  8
0
 62
7
 10
3.33199609
 20
3.33117578
  0
VERTEX
  8
0
 62
7
 10
3.29400000
 20
3.35900000
  0
VERTEX
  8
0
 62
7
 10
3.26112500
 20
3.38235938
  0
VERTEX
  8
0
 62
7
 10
3.22450000
 20
3.39962500
  0
VERTEX
  8
0
 62
7
 10
3.18487500
 20
3.41032812
  0
VERTEX
  8
0
 62
7
 10
3.14300000
 20
3.41400000
  0
VERTEX
  8
0
 62
7
 10
3.11857422
 20
3.41277759
  0
VERTEX
  8
0
 62
7
 10
3.09487500
 20
3.40918945
  0
VERTEX
  8
0
 62
7
 10
3.07201953
 20
3.40335425
  0
VERTEX
  8
0
 62
7
 10
3.05012500
 20
3.39539063
  0
VERTEX
  8
0
 62
7
 10
3.02930859
 20
3.38541724
  0
VERTEX
  8
0
 62
7
 10
3.00968750
 20
3.37355273
  0
VERTEX
  8
0
 62
7
 10
2.99137891
 20
3.35991577
  0
VERTEX
  8
0
 62
7
 10
2.97450000
 20
3.34462500
  0
VERTEX
  8
0
 62
7
 10
2.95916797
 20
3.32779907
  0
VERTEX
  8
0
 62
7
 10
2.94550000
 20
3.30955664
  0
VERTEX
  8
0
 62
7
 10
2.93361328
 20
3.29001636
  0
VERTEX
  8
0
 62
7
 10
2.92362500
 20
3.26929688
  0
VERTEX
  8
0
 62
7
 10
2.91565234
 20
3.24751685
  0
VERTEX
  8
0
 62
7
 10
2.90981250
 20
3.22479492
  0
VERTEX
  8
0
 62
7
 10
2.90622266
 20
3.20124976
  0
VERTEX
  8
0
 62
7
 10
2.90500000
 20
3.17700000
  0
VERTEX
  8
0
 62
7
 10
2.90718750
 20
3.14460937
  0
VERTEX
  8
0
 62
7
 10
2.91350000
 20
3.11362500
  0
VERTEX
  8
0
 62
7
 10
2.92356250
 20
3.08432812
  0
VERTEX
  8
0
 62
7
 10
2.93700000
 20
3.05700000
  0
VERTEX
  8
0
 62
7
 10
2.94977734
 20
3.04300977
  0
VERTEX
  8
0
 62
7
 10
2.96403125
 20
3.03039062
  0
VERTEX
  8
0
 62
7
 10
2.97964453
 20
3.01929492
  0
VERTEX
  8
0
 62
7
 10
2.99650000
 20
3.00987500
  0
VERTEX
  8
0
 62
7
 10
3.01448047
 20
3.00228320
  0
VERTEX
  8
0
 62
7
 10
3.03346875
 20
2.99667188
  0
VERTEX
  8
0
 62
7
 10
3.05334766
 20
2.99319336
  0
VERTEX
  8
0
 62
7
 10
3.07400000
 20
2.99200000
  0
VERTEX
  8
0
 62
7
 10
3.10052344
 20
2.99401367
  0
VERTEX
  8
0
 62
7
 10
3.12587500
 20
2.99985938
  0
VERTEX
  8
0
 62
7
 10
3.14972656
 20
3.00924414
  0
VERTEX
  8
0
 62
7
 10
3.17175000
 20
3.02187500
  0
VERTEX
  8
0
 62
7
 10
3.19161719
 20
3.03745898
  0
VERTEX
  8
0
 62
7
 10
3.20900000
 20
3.05570313
  0
VERTEX
  8
0
 62
7
 10
3.22357031
 20
3.07631445
  0
VERTEX
  8
0
 62
7
 10
3.23500000
 20
3.09900000
  0
VERTEX
  8
0
 62
7
 10
3.24507813
 20
3.08085938
  0
VERTEX
  8
0
 62
7
 10
3.25262500
 20
3.06112500
  0
VERTEX
  8
0
 62
7
 10
3.25735938
 20
3.04007813
  0
VERTEX
  8
0
 62
7
 10
3.25900000
 20
3.01800000
  0
VERTEX
  8
0
 62
7
 10
3.25539648
 20
2.98846094
  0
VERTEX
  8
0
 62
7
 10
3.24517188
 20
2.96037500
  0
VERTEX
  8
0
 62
7
 10
3.22920508
 20
2.93453906
  0
VERTEX
  8
0
 62
7
 10
3.20837500
 20
2.91175000
  0
VERTEX
  8
0
 62
7
 10
3.18356055
 20
2.89280469
  0
VERTEX
  8
0
 62
7
 10
3.15564063
 20
2.87850000
  0
VERTEX
  8
0
 62
7
 10
3.12549414
 20
2.86963281
  0
VERTEX
  8
0
 62
7
 10
3.09400000
 20
2.86700000
  0
SEQEND
  0
POLYLINE
  8
0
 62
7
 66
1
 70
1
  0
VERTEX
  8
0
 62
7
 10
2.96400000
 20
4.10300000
  0
VERTEX
  8
0
 62
7
 10
3.03535938
 20
4.10071484
  0
VERTEX
  8
0
 62
7
 10
3.10606250
 20
4.09540625
  0
VERTEX
  8
0
 62
7
 10
3.17592188
 20
4.08714453
  0
VERTEX
  8
0
 62
7
 10
3.24475000
 20
4.07600000
  0
VERTEX
  8
0
 62
7
 10
3.31235938
 20
4.06204297
  0
VERTEX
  8
0
 62
7
 10
3.37856250
 20
4.04534375
  0
VERTEX
  8
0
 62
7
 10
3.44317188
 20
4.02597266
  0
VERTEX
  8
0
 62
7
 10
3.50600000
 20
4.00400000
  0
VERTEX
  8
0
 62
7
 10
3.54715625
 20
3.97446875
  0
VERTEX
  8
0
 62
7
 10
3.59225000
 20
3.95075000
  0
VERTEX
  8
0
 62
7
 10
3.64071875
 20
3.93340625
  0
VERTEX
  8
0
 62
7
 10
3.69200000
 20
3.92300000
  0
VERTEX
  8
0
 62
7
 10
3.70330469
 20
3.92323242
  0
VERTEX
  8
0
 62
7
 10
3.71362500
 20
3.92654688
  0
VERTEX
  8
0
 62
7
 10
3.72244531
 20
3.93236914
  0
VERTEX
  8
0
 62
7
 10
3.72925000
 20
3.94012500
  0
VERTEX
  8
0
 62
7
 10
3.73352344
 20
3.94924023
  0
VERTEX
  8
0
 62
7
 10
3.73475000
 20
3.95914063
  0
VERTEX
  8
0
 62
7
 10
3.73241406
 20
3.96925195
  0
VERTEX
  8
0
 62
7
 10
3.72600000
 20
3.97900000
  0
VERTEX
  8
0
 62
7
 10
3.69334570
 20
4.01310742
  0
VERTEX
  8
0
 62
7
 10
3.65845312
 20
4.04485937
  0
VERTEX
  8
0
 62
7
 10
3.62142773
 20
4.07415039
  0
VERTEX
  8
0
 62
7
 10
3.58237500
 20
4.10087500
  0
VERTEX
  8
0
 62
7
 10
3.54140039
 20
4.12492773
  0
VERTEX
  8
0
 62
7
 10
3.49860938
 20
4.14620313
  0
VERTEX
  8
0
 62
7
 10
3.45410742
 20
4.16459570
  0
VERTEX
  8
0
 62
7
 10
3.40800000
 20
4.18000000
  0
VERTEX
  8
0
 62
7
 10
3.35962500
 20
4.18500000
  0
VERTEX
  8
0
 62
7
 10
3.30900000
 20
4.18700000
  0
VERTEX
  8
0
 62
7
 10
3.24021875
 20
4.18351563
  0
VERTEX
  8
0
 62
7
 10
3.17350000
 20
4.17337500
  0
VERTEX
  8
0
 62
7
 10
3.10903125
 20
4.15704687
  0
VERTEX
  8
0
 62
7
 10
3.04700000
 20
4.13500000
  0
VERTEX
  8
0
 62
7
 10
3.00662500
 20
4.11750000
  0
VERTEX
  8
0
 62
7
 10
2.96400000
 20
4.10300000
  0
SEQEND
  0
POLYLINE
  8
0
 62
7
 66
1
 70
1
  0
VERTEX
  8
0
 62
7
 10
3.89400000
 20
7.99600000
  0
VERTEX
  8
0
 62
7
 10
3.89599805
 20
8.04531250
  0
VERTEX
  8
0
 62
7
 10
3.90192188
 20
8.09706250
  0
VERTEX
  8
0
 62
7
 10
3.91166602
 20
8.14984375
  0
VERTEX
  8
0
 62
7
 10
3.92512500
 20
8.20225000
  0
VERTEX
  8
0
 62
7
 10
3.94219336
 20
8.25287500
  0
VERTEX
  8
0
 62
7
 10
3.96276563
 20
8.30031250
  0
VERTEX
  8
0
 62
7
 10
3.98673633
 20
8.34315625
  0
VERTEX
  8
0
 62
7
 10
4.01400000
 20
8.38000000
  0
VERTEX
  8
0
 62
7
 10
4.10862500
 20
8.49300000
  0
VERTEX
  8
0
 62
7
 10
4.19725000
 20
8.61125000
  0
VERTEX
  8
0
 62
7
 10
4.27950000
 20
8.73437500
  0
VERTEX
  8
0
 62
7
 10
4.35500000
 20
8.86200000
  0
VERTEX
  8
0
 62
7
 10
4.37444336
 20
8.90938281
  0
VERTEX
  8
0
 62
7
 10
4.39148438
 20
8.95775000
  0
VERTEX
  8
0
 62
7
 10
4.40606445
 20
9.00705469
  0
VERTEX
  8
0
 62
7
 10
4.41812500
 20
9.05725000
  0
VERTEX
  8
0
 62
7
 10
4.42760742
 20
9.10828906
  0
VERTEX
  8
0
 62
7
 10
4.43445313
 20
9.16012500
  0
VERTEX
  8
0
 62
7
 10
4.43860352
 20
9.21271094
  0
VERTEX
  8
0
 62
7
 10
4.44000000
 20
9.26600000
  0
VERTEX
  8
0
 62
7
 10
4.43637500
 20
9.35225000
  0
VERTEX
  8
0
 62
7
 10
4.42600000
 20
9.43700000
  0
VERTEX
  8
0
 62
7
 10
4.26500000
 20
9.41600000
  0
VERTEX
  8
0
 62
7
 10
4.26950000
 20
9.45625000
  0
VERTEX
  8
0
 62
7
 10
4.27100000
 20
9.49800000
  0
VERTEX
  8
0
 62
7
 10
4.26827734
 20
9.55326367
  0
VERTEX
  8
0
 62
7
 10
4.26028125
 20
9.60710938
  0
VERTEX
  8
0
 62
7
 10
4.24726953
 20
9.65924414
  0
VERTEX
  8
0
 62
7
 10
4.22950000
 20
9.70937500
  0
VERTEX
  8
0
 62
7
 10
4.20723047
 20
9.75720898
  0
VERTEX
  8
0
 62
7
 10
4.18071875
 20
9.80245312
  0
VERTEX
  8
0
 62
7
 10
4.15022266
 20
9.84481445
  0
VERTEX
  8
0
 62
7
 10
4.11600000
 20
9.88400000
  0
VERTEX
  8
0
 62
7
 10
4.09820703
 20
9.91089453
  0
VERTEX
  8
0
 62
7
 10
4.08240625
 20
9.93903125
  0
VERTEX
  8
0
 62
7
 10
4.06871484
 20
9.96833984
  0
VERTEX
  8
0
 62
7
 10
4.05725000
 20
9.99875000
  0
VERTEX
  8
0
 62
7
 10
4.04812891
 20
10.03019141
  0
VERTEX
  8
0
 62
7
 10
4.04146875
 20
10.06259375
  0
VERTEX
  8
0
 62
7
 10
4.03738672
 20
10.09588672
  0
VERTEX
  8
0
 62
7
 10
4.03600000
 20
10.13000000
  0
VERTEX
  8
0
 62
7
 10
4.03839062
 20
10.17439063
  0
VERTEX
  8
0
 62
7
 10
4.04537500
 20
10.21737500
  0
VERTEX
  8
0
 62
7
 10
4.05667188
 20
10.25867188
  0
VERTEX
  8
0
 62
7
 10
4.07200000
 20
10.29800000
  0
VERTEX
  8
0
 62
7
 10
3.99073413
 20
10.27223413
  0
VERTEX
  8
0
 62
7
 10
3.91251367
 20
10.24013867
  0
VERTEX
  8
0
 62
7
 10
3.83764185
 20
10.20201685
  0
VERTEX
  8
0
 62
7
 10
3.76642188
 20
10.15817188
  0
VERTEX
  8
0
 62
7
 10
3.69915698
 20
10.10890698
  0
VERTEX
  8
0
 62
7
 10
3.63615039
 20
10.05452539
  0
VERTEX
  8
0
 62
7
 10
3.57770532
 20
9.99533032
  0
VERTEX
  8
0
 62
7
 10
3.52412500
 20
9.93162500
  0
VERTEX
  8
0
 62
7
 10
3.47571265
 20
9.86371265
  0
VERTEX
  8
0
 62
7
 10
3.43277148
 20
9.79189648
  0
VERTEX
  8
0
 62
7
 10
3.39560474
 20
9.71647974
  0
VERTEX
  8
0
 62
7
 10
3.36451563
 20
9.63776563
  0
VERTEX
  8
0
 62
7
 10
3.33980737
 20
9.55605737
  0
VERTEX
  8
0
 62
7
 10
3.32178320
 20
9.47165820
  0
VERTEX
  8
0
 62
7
 10
3.31074634
 20
9.38487134
  0
VERTEX
  8
0
 62
7
 10
3.30700000
 20
9.29600000
  0
VERTEX
  8
0
 62
7
 10
3.30815625
 20
9.24446875
  0
VERTEX
  8
0
 62
7
 10
3.31175000
 20
9.19350000
  0
VERTEX
  8
0
 62
7
 10
3.31796875
 20
9.14328125
  0
VERTEX
  8
0
 62
7
 10
3.32700000
 20
9.09400000
  0
VERTEX
  8
0
 62
7
 10
3.16100000
 20
9.09500000
  0
VERTEX
  8
0
 62
7
 10
3.17313281
 20
9.00234180
  0
VERTEX
  8
0
 62
7
 10
3.19281250
 20
8.91210938
  0
VERTEX
  8
0
 62
7
 10
3.21971094
 20
8.82466602
  0
VERTEX
  8
0
 62
7
 10
3.25350000
 20
8.74037500
  0
VERTEX
  8
0
 62
7
 10
3.29385156
 20
8.65959961
  0
VERTEX
  8
0
 62
7
 10
3.34043750
 20
8.58270313
  0
VERTEX
  8
0
 62
7
 10
3.39292969
 20
8.51004883
  0
VERTEX
  8
0
 62
7
 10
3.45100000
 20
8.44200000
  0
VERTEX
  8
0
 62
7
 10
3.49500586
 20
8.39217188
  0
VERTEX
  8
0
 62
7
 10
3.53698438
 20
8.34093750
  0
VERTEX
  8
0
 62
7
 10
3.57687695
 20
8.28829688
  0
VERTEX
  8
0
 62
7
 10
3.61462500
 20
8.23425000
  0
VERTEX
  8
0
 62
7
 10
3.65016992
 20
8.17879687
  0
VERTEX
  8
0
 62
7
 10
3.68345313
 20
8.12193750
  0
VERTEX
  8
0
 62
7
 10
3.71441602
 20
8.06367188
  0
VERTEX
  8
0
 62
7
 10
3.74300000
 20
8.00400000
  0
VERTEX
  8
0
 62
7
 10
3.69151953
 20
8.02632031
  0
VERTEX
  8
0
 62
7
 10
3.64221875
 20
8.05262500
  0
VERTEX
  8
0
 62
7
 10
3.59530859
 20
8.08267969
  0
VERTEX
  8
0
 62
7
 10
3.55100000
 20
8.11625000
  0
VERTEX
  8
0
 62
7
 10
3.50950391
 20
8.15310156
  0
VERTEX
  8
0
 62
7
 10
3.47103125
 20
8.19300000
  0
VERTEX
  8
0
 62
7
 10
3.43579297
 20
8.23571094
  0
VERTEX
  8
0
 62
7
 10
3.40400000
 20
8.28100000
  0
VERTEX
  8
0
 62
7
 10
3.36512500
 20
8.33173828
  0
VERTEX
  8
0
 62
7
 10
3.32081250
 20
8.37790625
  0
VERTEX
  8
0
 62
7
 10
3.27153125
 20
8.41905859
  0
VERTEX
  8
0
 62
7
 10
3.21775000
 20
8.45475000
  0
VERTEX
  8
0
 62
7
 10
3.15993750
 20
8.48453516
  0
VERTEX
  8
0
 62
7
 10
3.09856250
 20
8.50796875
  0
VERTEX
  8
0
 62
7
 10
3.03409375
 20
8.52460547
  0
VERTEX
  8
0
 62
7
 10
2.96700000
 20
8.53400000
  0
VERTEX
  8
0
 62
7
 10
2.95300000
 20
8.44700000
  0
VERTEX
  8
0
 62
7
 10
2.91575000
 20
8.45062500
  0
VERTEX
  8
0
 62
7
 10
2.87700000
 20
8.45200000
  0
VERTEX
  8
0
 62
7
 10
2.82757422
 20
8.45009961
  0
VERTEX
  8
0
 62
7
 10
2.77915625
 20
8.44448438
  0
VERTEX
  8
0
 62
7
 10
2.73191016
 20
8.43528320
  0
VERTEX
  8
0
 62
7
 10
2.68600000
 20
8.42262500
  0
VERTEX
  8
0
 62
7
 10
2.64158984
 20
8.40663867
  0
VERTEX
  8
0
 62
7
 10
2.59884375
 20
8.38745313
  0
VERTEX
  8
0
 62
7
 10
2.55792578
 20
8.36519727
  0
VERTEX
  8
0
 62
7
 10
2.51900000
 20
8.34000000
  0
VERTEX
  8
0
 62
7
 10
2.49003125
 20
8.31721875
  0
VERTEX
  8
0
 62
7
 10
2.45750000
 20
8.30025000
  0
VERTEX
  8
0
 62
7
 10
2.42196875
 20
8.28965625
  0
VERTEX
  8
0
 62
7
 10
2.38400000
 20
8.28600000
  0
VERTEX
  8
0
 62
7
 10
2.35164062
 20
8.28873438
  0
VERTEX
  8
0
 62
7
 10
2.32087500
 20
8.29662500
  0
VERTEX
  8
0
 62
7
 10
2.29217188
 20
8.30920312
  0
VERTEX
  8
0
 62
7
 10
2.26600000
 20
8.32600000
  0
VERTEX
  8
0
 62
7
 10
2.27285034
 20
8.27115015
  0
VERTEX
  8
0
 62
7
 10
2.28391211
 20
8.21771680
  0
VERTEX
  8
0
 62
7
 10
2.29901392
 20
8.16587427
  0
VERTEX
  8
0
 62
7
 10
2.31798438
 20
8.11579688
  0
VERTEX
  8
0
 62
7
 10
2.34065210
 20
8.06765894
  0
VERTEX
  8
0
 62
7
 10
2.36684570
 20
8.02163477
  0
VERTEX
  8
0
 62
7
 10
2.39639380
 20
7.97789868
  0
VERTEX
  8
0
 62
7
 10
2.42912500
 20
7.93662500
  0
VERTEX
  8
0
 62
7
 10
2.46486792
 20
7.89798804
  0
VERTEX
  8
0
 62
7
 10
2.50345117
 20
7.86216211
  0
VERTEX
  8
0
 62
7
 10
2.54470337
 20
7.82932153
  0
VERTEX
  8
0
 62
7
 10
2.58845313
 20
7.79964063
  0
VERTEX
  8
0
 62
7
 10
2.63452905
 20
7.77329370
  0
VERTEX
  8
0
 62
7
 10
2.68275977
 20
7.75045508
  0
VERTEX
  8
0
 62
7
 10
2.73297388
 20
7.73129907
  0
VERTEX
  8
0
 62
7
 10
2.78500000
 20
7.71600000
  0
VERTEX
  8
0
 62
7
 10
2.74600000
 20
7.54200000
  0
VERTEX
  8
0
 62
7
 10
2.80535938
 20
7.52010938
  0
VERTEX
  8
0
 62
7
 10
2.86762500
 20
7.50412500
  0
VERTEX
  8
0
 62
7
 10
2.93232813
 20
7.49432813
  0
VERTEX
  8
0
 62
7
 10
2.99900000
 20
7.49100000
  0
VERTEX
  8
0
 62
7
 10
3.06858984
 20
7.49473242
  0
VERTEX
  8
0
 62
7
 10
3.13609375
 20
7.50567188
  0
VERTEX
  8
0
 62
7
 10
3.20111328
 20
7.52343164
  0
VERTEX
  8
0
 62
7
 10
3.26325000
 20
7.54762500
  0
VERTEX
  8
0
 62
7
 10
3.32210547
 20
7.57786523
  0
VERTEX
  8
0
 62
7
 10
3.37728125
 20
7.61376563
  0
VERTEX
  8
0
 62
7
 10
3.42837891
 20
7.65493945
  0
VERTEX
  8
0
 62
7
 10
3.47500000
 20
7.70100000
  0
VERTEX
  8
0
 62
7
 10
3.55400000
 20
7.78225000
  0
VERTEX
  8
0
 62
7
 10
3.63900000
 20
7.85600000
  0
VERTEX
  8
0
 62
7
 10
3.65576367
 20
7.85940430
  0
VERTEX
  8
0
 62
7
 10
3.67279688
 20
7.85998437
  0
VERTEX
  8
0
 62
7
 10
3.68971289
 20
7.85791602
  0
VERTEX
  8
0
 62
7
 10
3.70612500
 20
7.85337500
  0
VERTEX
  8
0
 62
7
 10
3.72164648
 20
7.84653711
  0
VERTEX
  8
0
 62
7
 10
3.73589063
 20
7.83757813
  0
VERTEX
  8
0
 62
7
 10
3.74847070
 20
7.82667383
  0
VERTEX
  8
0
 62
7
 10
3.75900000
 20
7.81400000
  0
VERTEX
  8
0
 62
7
 10
3.75637500
 20
7.78357813
  0
VERTEX
  8
0
 62
7
 10
3.75600000
 20
7.75137500
  0
VERTEX
  8
0
 62
7
 10
3.75787500
 20
7.71823437
  0
VERTEX
  8
0
 62
7
 10
3.76200000
 20
7.68500000
  0
VERTEX
  8
0
 62
7
 10
3.79659375
 20
7.66515625
  0
VERTEX
  8
0
 62
7
 10
3.83475000
 20
7.64700000
  0
VERTEX
  8
0
 62
7
 10
3.87478125
 20
7.63184375
  0
VERTEX
  8
0
 62
7
 10
3.91500000
 20
7.62100000
  0
VERTEX
  8
0
 62
7
 10
3.90737500
 20
7.65375000
  0
VERTEX
  8
0
 62
7
 10
3.90500000
 20
7.68800000
  0
VERTEX
  8
0
 62
7
 10
3.90720313
 20
7.72039063
  0
VERTEX
  8
0
 62
7
 10
3.91362500
 20
7.75137500
  0
VERTEX
  8
0
 62
7
 10
3.92398438
 20
7.78067188
  0
VERTEX
  8
0
 62
7
 10
3.93800000
 20
7.80800000
  0
VERTEX
  8
0
 62
7
 10
3.95718750
 20
7.82553125
  0
VERTEX
  8
0
 62
7
 10
3.97975000
 20
7.83875000
  0
VERTEX
  8
0
 62
7
 10
4.00493750
 20
7.84709375
  0
VERTEX
  8
0
 62
7
 10
4.03200000
 20
7.85000000
  0
VERTEX
  8
0
 62
7
 10
4.05125000
 20
7.84854688
  0
VERTEX
  8
0
 62
7
 10
4.06975000
 20
7.84437500
  0
VERTEX
  8
0
 62
7
 10
4.08712500
 20
7.83776563
  0
VERTEX
  8
0
 62
7
 10
4.10300000
 20
7.82900000
  0
VERTEX
  8
0
 62
7
 10
4.14606250
 20
7.80935938
  0
VERTEX
  8
0
 62
7
 10
4.18650000
 20
7.78512500
  0
VERTEX
  8
0
 62
7
 10
4.22393750
 20
7.75657812
  0
VERTEX
  8
0
 62
7
 10
4.25800000
 20
7.72400000
  0
VERTEX
  8
0
 62
7
 10
4.28960742
 20
7.69797070
  0
VERTEX
  8
0
 62
7
 10
4.32354687
 20
7.67476563
  0
VERTEX
  8
0
 62
7
 10
4.35961914
 20
7.65458398
  0
VERTEX
  8
0
 62
7
 10
4.39762500
 20
7.63762500
  0
VERTEX
  8
0
 62
7
 10
4.43736523
 20
7.62408789
  0
VERTEX
  8
0
 62
7
 10
4.47864062
 20
7.61417188
  0
VERTEX
  8
0
 62
7
 10
4.52125195
 20
7.60807617
  0
VERTEX
  8
0
 62
7
 10
4.56500000
 20
7.60600000
  0
VERTEX
  8
0
 62
7
 10
4.61819531
 20
7.60903711
  0
VERTEX
  8
0
 62
7
 10
4.66956250
 20
7.61792188
  0
VERTEX
  8
0
 62
7
 10
4.71877344
 20
7.63231445
  0
VERTEX
  8
0
 62
7
 10
4.76550000
 20
7.65187500
  0
VERTEX
  8
0
 62
7
 10
4.80941406
 20
7.67626367
  0
VERTEX
  8
0
 62
7
 10
4.85018750
 20
7.70514063
  0
VERTEX
  8
0
 62
7
 10
4.88749219
 20
7.73816602
  0
VERTEX
  8
0
 62
7
 10
4.92100000
 20
7.77500000
  0
VERTEX
  8
0
 62
7
 10
4.85900000
 20
7.90900000
  0
VERTEX
  8
0
 62
7
 10
4.90684424
 20
7.92895361
  0
VERTEX
  8
0
 62
7
 10
4.95276953
 20
7.95233203
  0
VERTEX
  8
0
 62
7
 10
4.99661475
 20
7.97897412
  0
VERTEX
  8
0
 62
7
 10
5.03821875
 20
8.00871875
  0
VERTEX
  8
0
 62
7
 10
5.07742041
 20
8.04140479
  0
VERTEX
  8
0
 62
7
 10
5.11405859
 20
8.07687109
  0
VERTEX
  8
0
 62
7
 10
5.14797217
 20
8.11495654
  0
VERTEX
  8
0
 62
7
 10
5.17900000
 20
8.15550000
  0
VERTEX
  8
0
 62
7
 10
5.20698096
 20
8.19834033
  0
VERTEX
  8
0
 62
7
 10
5.23175391
 20
8.24331641
  0
VERTEX
  8
0
 62
7
 10
5.25315771
 20
8.29026709
  0
VERTEX
  8
0
 62
7
 10
5.27103125
 20
8.33903125
  0
VERTEX
  8
0
 62
7
 10
5.28521338
 20
8.38944775
  0
VERTEX
  8
0
 62
7
 10
5.29554297
 20
8.44135547
  0
VERTEX
  8
0
 62
7
 10
5.30185889
 20
8.49459326
  0
VERTEX
  8
0
 62
7
 10
5.30400000
 20
8.54900000
  0
VERTEX
  8
0
 62
7
 10
5.30232812
 20
8.59718750
  0
VERTEX
  8
0
 62
7
 10
5.29737500
 20
8.64425000
  0
VERTEX
  8
0
 62
7
 10
5.28923438
 20
8.69018750
  0
VERTEX
  8
0
 62
7
 10
5.27800000
 20
8.73500000
  0
VERTEX
  8
0
 62
7
 10
5.24795703
 20
8.72076563
  0
VERTEX
  8
0
 62
7
 10
5.21709375
 20
8.70812500
  0
VERTEX
  8
0
 62
7
 10
5.18543359
 20
8.69717188
  0
VERTEX
  8
0
 62
7
 10
5.15300000
 20
8.68800000
  0
VERTEX
  8
0
 62
7
 10
5.11981641
 20
8.68070313
  0
VERTEX
  8
0
 62
7
 10
5.08590625
 20
8.67537500
  0
VERTEX
  8
0
 62
7
 10
5.05129297
 20
8.67210937
  0
VERTEX
  8
0
 62
7
 10
5.01600000
 20
8.67100000
  0
VERTEX
  8
0
 62
7
 10
4.90100000
 20
8.67600000
  0
VERTEX
  8
0
 62
7
 10
4.84876563
 20
8.67414062
  0
VERTEX
  8
0
 62
7
 10
4.79737500
 20
8.66862500
  0
VERTEX
  8
0
 62
7
 10
4.74729688
 20
8.65954688
  0
VERTEX
  8
0
 62
7
 10
4.69900000
 20
8.64700000
  0
VERTEX
  8
0
 62
7
 10
4.67000000
 20
8.76400000
  0
VERTEX
  8
0
 62
7
 10
4.61428638
 20
8.75514648
  0
VERTEX
  8
0
 62
7
 10
4.56015039
 20
8.74150000
  0
VERTEX
  8
0
 62
7
 10
4.50778687
 20
8.72330664
  0
VERTEX
  8
0
 62
7
 10
4.45739063
 20
8.70081250
  0
VERTEX
  8
0
 62
7
 10
4.40915649
 20
8.67426367
  0
VERTEX
  8
0
 62
7
 10
4.36327930
 20
8.64390625
  0
VERTEX
  8
0
 62
7
 10
4.31995386
 20
8.60998633
  0
VERTEX
  8
0
 62
7
 10
4.27937500
 20
8.57275000
  0
VERTEX
  8
0
 62
7
 10
4.24173755
 20
8.53244336
  0
VERTEX
  8
0
 62
7
 10
4.20723633
 20
8.48931250
  0
VERTEX
  8
0
 62
7
 10
4.17606616
 20
8.44360352
  0
VERTEX
  8
0
 62
7
 10
4.14842188
 20
8.39556250
  0
VERTEX
  8
0
 62
7
 10
4.12449829
 20
8.34543555
  0
VERTEX
  8
0
 62
7
 10
4.10449023
 20
8.29346875
  0
VERTEX
  8
0
 62
7
 10
4.08859253
 20
8.23990820
  0
VERTEX
  8
0
 62
7
 10
4.07700000
 20
8.18500000
  0
VERTEX
  8
0
 62
7
 10
4.07332031
 20
8.14742969
  0
VERTEX
  8
0
 62
7
 10
4.06275000
 20
8.11243750
  0
VERTEX
  8
0
 62
7
 10
4.04599219
 20
8.08072656
  0
VERTEX
  8
0
 62
7
 10
4.02375000
 20
8.05300000
  0
VERTEX
  8
0
 62
7
 10
3.99672656
 20
8.02996094
  0
VERTEX
  8
0
 62
7
 10
3.96562500
 20
8.01231250
  0
VERTEX
  8
0
 62
7
 10
3.93114844
 20
8.00075781
  0
VERTEX
  8
0
 62
7
 10
3.89400000
 20
7.99600000
  0
SEQEND
  0
POLYLINE
  8
0
 62
7
 66
1
 70
1
  0
VERTEX
  8
0
 62
7
 10
4.15400000
 20
6.40800000
  0
VERTEX
  8
0
 62
7
 10
4.13500000
 20
6.43100000
  0
VERTEX
  8
0
 62
7
 10
4.11646094
 20
6.44887891
  0
VERTEX
  8
0
 62
7
 10
4.09618750
 20
6.46490625
  0
VERTEX
  8
0
 62
7
 10
4.07432031
 20
6.47891797
  0
VERTEX
  8
0
 62
7
 10
4.05100000
 20
6.49075000
  0
VERTEX
  8
0
 62
7
 10
4.02636719
 20
6.50023828
  0
VERTEX
  8
0
 62
7
 10
4.00056250
 20
6.50721875
  0
VERTEX
  8
0
 62
7
 10
3.97372656
 20
6.51152734
  0
VERTEX
  8
0
 62
7
 10
3.94600000
 20
6.51300000
  0
VERTEX
  8
0
 62
7
 10
3.91970166
 20
6.51166260
  0
VERTEX
  8
0
 62
7
 10
3.89414453
 20
6.50773828
  0
VERTEX
  8
0
 62
7
 10
3.86946045
 20
6.50135889
  0
VERTEX
  8
0
 62
7
 10
3.84578125
 20
6.49265625
  0
VERTEX
  8
0
 62
7
 10
3.82323877
 20
6.48176221
  0
VERTEX
  8
0
 62
7
 10
3.80196484
 20
6.46880859
  0
VERTEX
  8
0
 62
7
 10
3.78209131
 20
6.45392725
  0
VERTEX
  8
0
 62
7
 10
3.76375000
 20
6.43725000
  0
VERTEX
  8
0
 62
7
 10
3.74707275
 20
6.41890869
  0
VERTEX
  8
0
 62
7
 10
3.73219141
 20
6.39903516
  0
VERTEX
  8
0
 62
7
 10
3.71923779
 20
6.37776123
  0
VERTEX
  8
0
 62
7
 10
3.70834375
 20
6.35521875
  0
VERTEX
  8
0
 62
7
 10
3.69964111
 20
6.33153955
  0
VERTEX
  8
0
 62
7
 10
3.69326172
 20
6.30685547
  0
VERTEX
  8
0
 62
7
 10
3.68933740
 20
6.28129834
  0
VERTEX
  8
0
 62
7
 10
3.68800000
 20
6.25500000
  0
VERTEX
  8
0
 62
7
 10
3.68933740
 20
6.22853687
  0
VERTEX
  8
0
 62
7
 10
3.69326172
 20
6.20285742
  0
VERTEX
  8
0
 62
7
 10
3.69964111
 20
6.17808911
  0
VERTEX
  8
0
 62
7
 10
3.70834375
 20
6.15435938
  0
VERTEX
  8
0
 62
7
 10
3.71923779
 20
6.13179565
  0
VERTEX
  8
0
 62
7
 10
3.73219141
 20
6.11052539
  0
VERTEX
  8
0
 62
7
 10
3.74707275
 20
6.09067603
  0
VERTEX
  8
0
 62
7
 10
3.76375000
 20
6.07237500
  0
VERTEX
  8
0
 62
7
 10
3.78209131
 20
6.05574976
  0
VERTEX
  8
0
 62
7
 10
3.80196484
 20
6.04092773
  0
VERTEX
  8
0
 62
7
 10
3.82323877
 20
6.02803638
  0
VERTEX
  8
0
 62
7
 10
3.84578125
 20
6.01720313
  0
VERTEX
  8
0
 62
7
 10
3.86946045
 20
6.00855542
  0
VERTEX
  8
0
 62
7
 10
3.89414453
 20
6.00222070
  0
VERTEX
  8
0
 62
7
 10
3.91970166
 20
5.99832642
  0
VERTEX
  8
0
 62
7
 10
3.94600000
 20
5.99700000
  0
VERTEX
  8
0
 62
7
 10
3.97246313
 20
5.99832642
  0
VERTEX
  8
0
 62
7
 10
3.99814258
 20
6.00222070
  0
VERTEX
  8
0
 62
7
 10
4.02291089
 20
6.00855542
  0
VERTEX
  8
0
 62
7
 10
4.04664063
 20
6.01720313
  0
VERTEX
  8
0
 62
7
 10
4.06920435
 20
6.02803638
  0
VERTEX
  8
0
 62
7
 10
4.09047461
 20
6.04092773
  0
VERTEX
  8
0
 62
7
 10
4.11032397
 20
6.05574976
  0
VERTEX
  8
0
 62
7
 10
4.12862500
 20
6.07237500
  0
VERTEX
  8
0
 62
7
 10
4.14525024
 20
6.09067603
  0
VERTEX
  8
0
 62
7
 10
4.16007227
 20
6.11052539
  0
VERTEX
  8
0
 62
7
 10
4.17296362
 20
6.13179565
  0
VERTEX
  8
0
 62
7
 10
4.18379688
 20
6.15435938
  0
VERTEX
  8
0
 62
7
 10
4.19244458
 20
6.17808911
  0
VERTEX
  8
0
 62
7
 10
4.19877930
 20
6.20285742
  0
VERTEX
  8
0
 62
7
 10
4.20267358
 20
6.22853687
  0
VERTEX
  8
0
 62
7
 10
4.20400000
 20
6.25500000
  0
VERTEX
  8
0
 62
7
 10
4.20054687
 20
6.29690625
  0
VERTEX
  8
0
 62
7
 10
4.19062500
 20
6.33675000
  0
VERTEX
  8
0
 62
7
 10
4.17489062
 20
6.37396875
  0
VERTEX
  8
0
 62
7
 10
4.15400000
 20
6.40800000
  0
SEQEND
  0
POLYLINE
  8
0
 62
7
 66
1
 70
1
  0
VERTEX
  8
0
 62
7
 10
4.29100000
 20
6.31900000
  0
VERTEX
  8
0
 62
7
 10
4.93600000
 20
6.52200000
  0
VERTEX
  8
0
 62
7
 10
4.94204688
 20
6.52895313
  0
VERTEX
  8
0
 62
7
 10
4.94087500
 20
6.53937500
  0
VERTEX
  8
0
 62
7
 10
4.93501563
 20
6.54885938
  0
VERTEX
  8
0
 62
7
 10
4.92700000
 20
6.55300000
  0
VERTEX
  8
0
 62
7
 10
4.27200000
 20
6.38400000
  0
VERTEX
  8
0
 62
7
 10
4.25759375
 20
6.41604688
  0
VERTEX
  8
0
 62
7
 10
4.24000000
 20
6.44612500
  0
VERTEX
  8
0
 62
7
 10
4.21940625
 20
6.47414063
  0
VERTEX
  8
0
 62
7
 10
4.19600000
 20
6.50000000
  0
VERTEX
  8
0
 62
7
 10
4.19600000
 20
6.50100000
  0
VERTEX
  8
0
 62
7
 10
4.64100000
 20
7.07100000
  0
VERTEX
  8
0
 62
7
 10
4.65293555
 20
7.08457422
  0
VERTEX
  8
0
 62
7
 10
4.66617187
 20
7.09671875
  0
VERTEX
  8
0
 62
7
 10
4.68060352
 20
7.10731641
  0
VERTEX
  8
0
 62
7
 10
4.69612500
 20
7.11625000
  0
VERTEX
  8
0
 62
7
 10
4.71263086
 20
7.12340234
  0
VERTEX
  8
0
 62
7
 10
4.73001563
 20
7.12865625
  0
VERTEX
  8
0
 62
7
 10
4.74817383
 20
7.13189453
  0
VERTEX
  8
0
 62
7
 10
4.76700000
 20
7.13300000
  0
VERTEX
  8
0
 62
7
 10
4.78834766
 20
7.13162109
  0
VERTEX
  8
0
 62
7
 10
4.80878125
 20
7.12759375
  0
VERTEX
  8
0
 62
7
 10
4.82813672
 20
7.12108203
  0
VERTEX
  8
0
 62
7
 10
4.84625000
 20
7.11225000
  0
VERTEX
  8
0
 62
7
 10
4.86295703
 20
7.10126172
  0
VERTEX
  8
0
 62
7
 10
4.87809375
 20
7.08828125
  0
VERTEX
  8
0
 62
7
 10
4.89149609
 20
7.07347266
  0
VERTEX
  8
0
 62
7
 10
4.90300000
 20
7.05700000
  0
VERTEX
  8
0
 62
7
 10
4.91859570
 20
7.02711133
  0
VERTEX
  8
0
 62
7
 10
4.93814063
 20
6.99995313
  0
VERTEX
  8
0
 62
7
 10
4.96127148
 20
6.97591211
  0
VERTEX
  8
0
 62
7
 10
4.98762500
 20
6.95537500
  0
VERTEX
  8
0
 62
7
 10
5.01683789
 20
6.93872852
  0
VERTEX
  8
0
 62
7
 10
5.04854688
 20
6.92635938
  0
VERTEX
  8
0
 62
7
 10
5.08238867
 20
6.91865430
  0
VERTEX
  8
0
 62
7
 10
5.11800000
 20
6.91600000
  0
VERTEX
  8
0
 62
7
 10
5.14200000
 20
6.91737500
  0
VERTEX
  8
0
 62
7
 10
5.16600000
 20
6.92100000
  0
VERTEX
  8
0
 62
7
 10
5.15550000
 20
6.88160938
  0
VERTEX
  8
0
 62
7
 10
5.14800000
 20
6.84137500
  0
VERTEX
  8
0
 62
7
 10
5.14350000
 20
6.80020313
  0
VERTEX
  8
0
 62
7
 10
5.14200000
 20
6.75800000
  0
VERTEX
  8
0
 62
7
 10
5.14545117
 20
6.69585938
  0
VERTEX
  8
0
 62
7
 10
5.15554687
 20
6.63568750
  0
VERTEX
  8
0
 62
7
 10
5.17190039
 20
6.57785938
  0
VERTEX
  8
0
 62
7
 10
5.19412500
 20
6.52275000
  0
VERTEX
  8
0
 62
7
 10
5.22183398
 20
6.47073438
  0
VERTEX
  8
0
 62
7
 10
5.25464063
 20
6.42218750
  0
VERTEX
  8
0
 62
7
 10
5.29215820
 20
6.37748437
  0
VERTEX
  8
0
 62
7
 10
5.33400000
 20
6.33700000
  0
VERTEX
  8
0
 62
7
 10
5.30154297
 20
6.32254492
  0
VERTEX
  8
0
 62
7
 10
5.27196875
 20
6.30348438
  0
VERTEX
  8
0
 62
7
 10
5.24572266
 20
6.28027539
  0
VERTEX
  8
0
 62
7
 10
5.22325000
 20
6.25337500
  0
VERTEX
  8
0
 62
7
 10
5.20499609
 20
6.22324023
  0
VERTEX
  8
0
 62
7
 10
5.19140625
 20
6.19032812
  0
VERTEX
  8
0
 62
7
 10
5.18292578
 20
6.15509570
  0
VERTEX
  8
0
 62
7
 10
5.18000000
 20
6.11800000
  0
VERTEX
  8
0
 62
7
 10
5.18300000
 20
6.08200000
  0
VERTEX
  8
0
 62
7
 10
5.18300000
 20
6.08200000
  0
VERTEX
  8
0
 62
7
 10
5.17977539
 20
6.04985938
  0
VERTEX
  8
0
 62
7
 10
5.17051563
 20
6.01987500
  0
VERTEX
  8
0
 62
7
 10
5.15584180
 20
5.99270313
  0
VERTEX
  8
0
 62
7
 10
5.13637500
 20
5.96900000
  0
VERTEX
  8
0
 62
7
 10
5.11273633
 20
5.94942188
  0
VERTEX
  8
0
 62
7
 10
5.08554688
 20
5.93462500
  0
VERTEX
  8
0
 62
7
 10
5.05542773
 20
5.92526562
  0
VERTEX
  8
0
 62
7
 10
5.02300000
 20
5.92200000
  0
VERTEX
  8
0
 62
7
 10
5.00443750
 20
5.92337500
  0
VERTEX
  8
0
 62
7
 10
4.98625000
 20
5.92700000
  0
VERTEX
  8
0
 62
7
 10
4.96843750
 20
5.93212500
  0
VERTEX
  8
0
 62
7
 10
4.95100000
 20
5.93800000
  0
VERTEX
  8
0
 62
7
 10
4.28800000
 20
6.17900000
  0
VERTEX
  8
0
 62
7
 10
4.29475000
 20
6.21625000
  0
VERTEX
  8
0
 62
7
 10
4.29700000
 20
6.25500000
  0
VERTEX
  8
0
 62
7
 10
4.29550000
 20
6.28737500
  0
VERTEX
  8
0
 62
7
 10
4.29100000
 20
6.31900000
  0
SEQEND
  0
POLYLINE
  8
0
 62
7
 66
1
 70
1
  0
VERTEX
  8
0
 62
7
 10
4.11300000
 20
5.94600000
  0
VERTEX
  8
0
 62
7
 10
4.50600000
 20
5.39600000
  0
VERTEX
  8
0
 62
7
 10
4.51027734
 20
5.39230273
  0
VERTEX
  8
0
 62
7
 10
4.51528125
 20
5.39135938
  0
VERTEX
  8
0
 62
7
 10
4.52051953
 20
5.39264258
  0
VERTEX
  8
0
 62
7
 10
4.52550000
 20
5.39562500
  0
VERTEX
  8
0
 62
7
 10
4.52973047
 20
5.39977930
  0
VERTEX
  8
0
 62
7
 10
4.53271875
 20
5.40457813
  0
VERTEX
  8
0
 62
7
 10
4.53397266
 20
5.40949414
  0
VERTEX
  8
0
 62
7
 10
4.53300000
 20
5.41400000
  0
VERTEX
  8
0
 62
7
 10
4.16900000
 20
5.98400000
  0
VERTEX
  8
0
 62
7
 10
4.19484375
 20
6.00778125
  0
VERTEX
  8
0
 62
7
 10
4.21825000
 20
6.03400000
  0
VERTEX
  8
0
 62
7
 10
4.23903125
 20
6.06246875
  0
VERTEX
  8
0
 62
7
 10
4.25700000
 20
6.09300000
  0
VERTEX
  8
0
 62
7
 10
4.93700000
 20
5.84600000
  0
VERTEX
  8
0
 62
7
 10
4.95935547
 20
5.83578125
  0
VERTEX
  8
0
 62
7
 10
4.97971875
 20
5.82256250
  0
VERTEX
  8
0
 62
7
 10
4.99778516
 20
5.80662500
  0
VERTEX
  8
0
 62
7
 10
5.01325000
 20
5.78825000
  0
VERTEX
  8
0
 62
7
 10
5.02580859
 20
5.76771875
  0
VERTEX
  8
0
 62
7
 10
5.03515625
 20
5.74531250
  0
VERTEX
  8
0
 62
7
 10
5.04098828
 20
5.72131250
  0
VERTEX
  8
0
 62
7
 10
5.04300000
 20
5.69600000
  0
VERTEX
  8
0
 62
7
 10
5.04043750
 20
5.66682813
  0
VERTEX
  8
0
 62
7
 10
5.03300000
 20
5.63962500
  0
VERTEX
  8
0
 62
7
 10
5.02106250
 20
5.61485938
  0
VERTEX
  8
0
 62
7
 10
5.00500000
 20
5.59300000
  0
VERTEX
  8
0
 62
7
 10
4.98749414
 20
5.57596289
  0
VERTEX
  8
0
 62
7
 10
4.97182813
 20
5.55720313
  0
VERTEX
  8
0
 62
7
 10
4.95815430
 20
5.53687305
  0
VERTEX
  8
0
 62
7
 10
4.94662500
 20
5.51512500
  0
VERTEX
  8
0
 62
7
 10
4.93739258
 20
5.49211133
  0
VERTEX
  8
0
 62
7
 10
4.93060938
 20
5.46798438
  0
VERTEX
  8
0
 62
7
 10
4.92642773
 20
5.44289648
  0
VERTEX
  8
0
 62
7
 10
4.92500000
 20
5.41700000
  0
VERTEX
  8
0
 62
7
 10
4.92718750
 20
5.38578125
  0
VERTEX
  8
0
 62
7
 10
4.93350000
 20
5.35550000
  0
VERTEX
  8
0
 62
7
 10
4.94356250
 20
5.32671875
  0
VERTEX
  8
0
 62
7
 10
4.95700000
 20
5.30000000
  0
VERTEX
  8
0
 62
7
 10
4.91485449
 20
5.29786279
  0
VERTEX
  8
0
 62
7
 10
4.87361719
 20
5.29265234
  0
VERTEX
  8
0
 62
7
 10
4.83339941
 20
5.28448291
  0
VERTEX
  8
0
 62
7
 10
4.79431250
 20
5.27346875
  0
VERTEX
  8
0
 62
7
 10
4.75646777
 20
5.25972412
  0
VERTEX
  8
0
 62
7
 10
4.71997656
 20
5.24336328
  0
VERTEX
  8
0
 62
7
 10
4.68495020
 20
5.22450049
  0
VERTEX
  8
0
 62
7
 10
4.65150000
 20
5.20325000
  0
VERTEX
  8
0
 62
7
 10
4.61973730
 20
5.17972607
  0
VERTEX
  8
0
 62
7
 10
4.58977344
 20
5.15404297
  0
VERTEX
  8
0
 62
7
 10
4.56171973
 20
5.12631494
  0
VERTEX
  8
0
 62
7
 10
4.53568750
 20
5.09665625
  0
VERTEX
  8
0
 62
7
 10
4.51178809
 20
5.06518115
  0
VERTEX
  8
0
 62
7
 10
4.49013281
 20
5.03200391
  0
VERTEX
  8
0
 62
7
 10
4.47083301
 20
4.99723877
  0
VERTEX
  8
0
 62
7
 10
4.45400000
 20
4.96100000
  0
VERTEX
  8
0
 62
7
 10
4.43707031
 20
4.98032812
  0
VERTEX
  8
0
 62
7
 10
4.41793750
 20
4.99768750
  0
VERTEX
  8
0
 62
7
 10
4.39683594
 20
5.01289062
  0
VERTEX
  8
0
 62
7
 10
4.37400000
 20
5.02575000
  0
VERTEX
  8
0
 62
7
 10
4.34966406
 20
5.03607813
  0
VERTEX
  8
0
 62
7
 10
4.32406250
 20
5.04368750
  0
VERTEX
  8
0
 62
7
 10
4.29742969
 20
5.04839062
  0
VERTEX
  8
0
 62
7
 10
4.27000000
 20
5.05000000
  0
VERTEX
  8
0
 62
7
 10
4.25000781
 20
5.04858203
  0
VERTEX
  8
0
 62
7
 10
4.23043750
 20
5.04484375
  0
VERTEX
  8
0
 62
7
 10
4.21114844
 20
5.03955859
  0
VERTEX
  8
0
 62
7
 10
4.19200000
 20
5.03350000
  0
VERTEX
  8
0
 62
7
 10
4.17285156
 20
5.02744141
  0
VERTEX
  8
0
 62
7
 10
4.15356250
 20
5.02215625
  0
VERTEX
  8
0
 62
7
 10
4.13399219
 20
5.01841797
  0
VERTEX
  8
0
 62
7
 10
4.11400000
 20
5.01700000
  0
VERTEX
  8
0
 62
7
 10
4.08399609
 20
5.01982031
  0
VERTEX
  8
0
 62
7
 10
4.05584375
 20
5.02793750
  0
VERTEX
  8
0
 62
7
 10
4.03008203
 20
5.04083594
  0
VERTEX
  8
0
 62
7
 10
4.00725000
 20
5.05800000
  0
VERTEX
  8
0
 62
7
 10
3.98788672
 20
5.07891406
  0
VERTEX
  8
0
 62
7
 10
3.97253125
 20
5.10306250
  0
VERTEX
  8
0
 62
7
 10
3.96172266
 20
5.12992969
  0
VERTEX
  8
0
 62
7
 10
3.95600000
 20
5.15900000
  0
VERTEX
  8
0
 62
7
 10
3.98000000
 20
5.90600000
  0
VERTEX
  8
0
 62
7
 10
4.01540625
 20
5.91098438
  0
VERTEX
  8
0
 62
7
 10
4.04950000
 20
5.91962500
  0
VERTEX
  8
0
 62
7
 10
4.08209375
 20
5.93145313
  0
VERTEX
  8
0
 62
7
 10
4.11300000
 20
5.94600000
  0
SEQEND
  0
POLYLINE
  8
0
 62
7
 66
1
 70
1
  0
VERTEX
  8
0
 62
7
 10
2.87300000
 20
5.37200000
  0
VERTEX
  8
0
 62
7
 10
2.88964063
 20
5.40160938
  0
VERTEX
  8
0
 62
7
 10
2.90187500
 20
5.43337500
  0
VERTEX
  8
0
 62
7
 10
2.90942188
 20
5.46720313
  0
VERTEX
  8
0
 62
7
 10
2.91200000
 20
5.50300000
  0
VERTEX
  8
0
 62
7
 10
2.91080078
 20
5.52669922
  0
VERTEX
  8
0
 62
7
 10
2.90728125
 20
5.54971875
  0
VERTEX
  8
0
 62
7
 10
2.90155859
 20
5.57194141
  0
VERTEX
  8
0
 62
7
 10
2.89375000
 20
5.59325000
  0
VERTEX
  8
0
 62
7
 10
2.88397266
 20
5.61352734
  0
VERTEX
  8
0
 62
7
 10
2.87234375
 20
5.63265625
  0
VERTEX
  8
0
 62
7
 10
2.85898047
 20
5.65051953
  0
VERTEX
  8
0
 62
7
 10
2.84400000
 20
5.66700000
  0
VERTEX
  8
0
 62
7
 10
2.83114063
 20
5.68817188
  0
VERTEX
  8
0
 62
7
 10
2.82137500
 20
5.71112500
  0
VERTEX
  8
0
 62
7
 10
2.81517187
 20
5.73576563
  0
VERTEX
  8
0
 62
7
 10
2.81300000
 20
5.76200000
  0
VERTEX
  8
0
 62
7
 10
2.81478320
 20
5.78558008
  0
VERTEX
  8
0
 62
7
 10
2.81995313
 20
5.80814063
  0
VERTEX
  8
0
 62
7
 10
2.82824023
 20
5.82941211
  0
VERTEX
  8
0
 62
7
 10
2.83937500
 20
5.84912500
  0
VERTEX
  8
0
 62
7
 10
2.85308789
 20
5.86700977
  0
VERTEX
  8
0
 62
7
 10
2.86910937
 20
5.88279688
  0
VERTEX
  8
0
 62
7
 10
2.88716992
 20
5.89621680
  0
VERTEX
  8
0
 62
7
 10
2.90700000
 20
5.90700000
  0
VERTEX
  8
0
 62
7
 10
2.94700000
 20
5.92100000
  0
VERTEX
  8
0
 62
7
 10
3.62500000
 20
6.11500000
  0
VERTEX
  8
0
 62
7
 10
3.64029688
 20
6.08354687
  0
VERTEX
  8
0
 62
7
 10
3.65887500
 20
6.05387500
  0
VERTEX
  8
0
 62
7
 10
3.68026563
 20
6.02626562
  0
VERTEX
  8
0
 62
7
 10
3.70400000
 20
6.00100000
  0
VERTEX
  8
0
 62
7
 10
3.30300000
 20
5.45700000
  0
VERTEX
  8
0
 62
7
 10
3.30075195
 20
5.45166992
  0
VERTEX
  8
0
 62
7
 10
3.30114062
 20
5.44642188
  0
VERTEX
  8
0
 62
7
 10
3.30361523
 20
5.44161914
  0
VERTEX
  8
0
 62
7
 10
3.30762500
 20
5.43762500
  0
VERTEX
  8
0
 62
7
 10
3.31261914
 20
5.43480273
  0
VERTEX
  8
0
 62
7
 10
3.31804688
 20
5.43351563
  0
VERTEX
  8
0
 62
7
 10
3.32335742
 20
5.43412695
  0
VERTEX
  8
0
 62
7
 10
3.32800000
 20
5.43700000
  0
VERTEX
  8
0
 62
7
 10
3.75800000
 20
5.95900000
  0
VERTEX
  8
0
 62
7
 10
3.78815625
 20
5.94176563
  0
VERTEX
  8
0
 62
7
 10
3.82000000
 20
5.92762500
  0
VERTEX
  8
0
 62
7
 10
3.85334375
 20
5.91667188
  0
VERTEX
  8
0
 62
7
 10
3.88800000
 20
5.90900000
  0
VERTEX
  8
0
 62
7
 10
3.86400000
 20
5.18600000
  0
VERTEX
  8
0
 62
7
 10
3.85979102
 20
5.15464844
  0
VERTEX
  8
0
 62
7
 10
3.84982813
 20
5.12550000
  0
VERTEX
  8
0
 62
7
 10
3.83473242
 20
5.09916406
  0
VERTEX
  8
0
 62
7
 10
3.81512500
 20
5.07625000
  0
VERTEX
  8
0
 62
7
 10
3.79162695
 20
5.05736719
  0
VERTEX
  8
0
 62
7
 10
3.76485937
 20
5.04312500
  0
VERTEX
  8
0
 62
7
 10
3.73544336
 20
5.03413281
  0
VERTEX
  8
0
 62
7
 10
3.70400000
 20
5.03100000
  0
VERTEX
  8
0
 62
7
 10
3.68076172
 20
5.03293359
  0
VERTEX
  8
0
 62
7
 10
3.65815625
 20
5.03803125
  0
VERTEX
  8
0
 62
7
 10
3.63597266
 20
5.04523828
  0
VERTEX
  8
0
 62
7
 10
3.61400000
 20
5.05350000
  0
VERTEX
  8
0
 62
7
 10
3.59202734
 20
5.06176172
  0
VERTEX
  8
0
 62
7
 10
3.56984375
 20
5.06896875
  0
VERTEX
  8
0
 62
7
 10
3.54723828
 20
5.07406641
  0
VERTEX
  8
0
 62
7
 10
3.52400000
 20
5.07600000
  0
VERTEX
  8
0
 62
7
 10
3.49851953
 20
5.07461914
  0
VERTEX
  8
0
 62
7
 10
3.47390625
 20
5.07057812
  0
VERTEX
  8
0
 62
7
 10
3.45027734
 20
5.06402930
  0
VERTEX
  8
0
 62
7
 10
3.42775000
 20
5.05512500
  0
VERTEX
  8
0
 62
7
 10
3.40644141
 20
5.04401758
  0
VERTEX
  8
0
 62
7
 10
3.38646875
 20
5.03085938
  0
VERTEX
  8
0
 62
7
 10
3.36794922
 20
5.01580273
  0
VERTEX
  8
0
 62
7
 10
3.35100000
 20
4.99900000
  0
VERTEX
  8
0
 62
7
 10
3.33654614
 20
5.03659839
  0
VERTEX
  8
0
 62
7
 10
3.31950977
 20
5.07281836
  0
VERTEX
  8
0
 62
7
 10
3.30000366
 20
5.10754712
  0
VERTEX
  8
0
 62
7
 10
3.27814063
 20
5.14067187
  0
VERTEX
  8
0
 62
7
 10
3.25403345
 20
5.17207983
  0
VERTEX
  8
0
 62
7
 10
3.22779492
 20
5.20165820
  0
VERTEX
  8
0
 62
7
 10
3.19953784
 20
5.22929419
  0
VERTEX
  8
0
 62
7
 10
3.16937500
 20
5.25487500
  0
VERTEX
  8
0
 62
7
 10
3.13741919
 20
5.27828784
  0
VERTEX
  8
0
 62
7
 10
3.10378320
 20
5.29941992
  0
VERTEX
  8
0
 62
7
 10
3.06857983
 20
5.31815845
  0
VERTEX
  8
0
 62
7
 10
3.03192188
 20
5.33439063
  0
VERTEX
  8
0
 62
7
 10
2.99392212
 20
5.34800366
  0
VERTEX
  8
0
 62
7
 10
2.95469336
 20
5.35888477
  0
VERTEX
  8
0
 62
7
 10
2.91434839
 20
5.36692114
  0
VERTEX
  8
0
 62
7
 10
2.87300000
 20
5.37200000
  0
SEQEND
  0
POLYLINE
  8
0
 62
7
 66
1
 70
1
  0
VERTEX
  8
0
 62
7
 10
3.60700000
 20
6.34200000
  0
VERTEX
  8
0
 62
7
 10
3.59850000
 20
6.29925000
  0
VERTEX
  8
0
 62
7
 10
3.59600000
 20
6.25500000
  0
VERTEX
  8
0
 62
7
 10
3.59900000
 20
6.20300000
  0
VERTEX
  8
0
 62
7
 10
2.90400000
 20
6.00300000
  0
VERTEX
  8
0
 62
7
 10
2.88225000
 20
5.99850000
  0
VERTEX
  8
0
 62
7
 10
2.85900000
 20
5.99700000
  0
VERTEX
  8
0
 62
7
 10
2.82690234
 20
6.00022266
  0
VERTEX
  8
0
 62
7
 10
2.79703125
 20
6.00946875
  0
VERTEX
  8
0
 62
7
 10
2.77001953
 20
6.02410547
  0
VERTEX
  8
0
 62
7
 10
2.74650000
 20
6.04350000
  0
VERTEX
  8
0
 62
7
 10
2.72710547
 20
6.06701953
  0
VERTEX
  8
0
 62
7
 10
2.71246875
 20
6.09403125
  0
VERTEX
  8
0
 62
7
 10
2.70322266
 20
6.12390234
  0
VERTEX
  8
0
 62
7
 10
2.70000000
 20
6.15600000
  0
VERTEX
  8
0
 62
7
 10
2.70600000
 20
6.22000000
  0
VERTEX
  8
0
 62
7
 10
2.70339258
 20
6.25491016
  0
VERTEX
  8
0
 62
7
 10
2.69582813
 20
6.28815625
  0
VERTEX
  8
0
 62
7
 10
2.68369336
 20
6.31938672
  0
VERTEX
  8
0
 62
7
 10
2.66737500
 20
6.34825000
  0
VERTEX
  8
0
 62
7
 10
2.64725977
 20
6.37439453
  0
VERTEX
  8
0
 62
7
 10
2.62373438
 20
6.39746875
  0
VERTEX
  8
0
 62
7
 10
2.59718555
 20
6.41712109
  0
VERTEX
  8
0
 62
7
 10
2.56800000
 20
6.43300000
  0
VERTEX
  8
0
 62
7
 10
2.59256445
 20
6.45280713
  0
VERTEX
  8
0
 62
7
 10
2.61596875
 20
6.47394141
  0
VERTEX
  8
0
 62
7
 10
2.63815430
 20
6.49634717
  0
VERTEX
  8
0
 62
7
 10
2.65906250
 20
6.51996875
  0
VERTEX
  8
0
 62
7
 10
2.67863477
 20
6.54475049
  0
VERTEX
  8
0
 62
7
 10
2.69681250
 20
6.57063672
  0
VERTEX
  8
0
 62
7
 10
2.71353711
 20
6.59757178
  0
VERTEX
  8
0
 62
7
 10
2.72875000
 20
6.62550000
  0
VERTEX
  8
0
 62
7
 10
2.74239258
 20
6.65436572
  0
VERTEX
  8
0
 62
7
 10
2.75440625
 20
6.68411328
  0
VERTEX
  8
0
 62
7
 10
2.76473242
 20
6.71468701
  0
VERTEX
  8
0
 62
7
 10
2.77331250
 20
6.74603125
  0
VERTEX
  8
0
 62
7
 10
2.78008789
 20
6.77809033
  0
VERTEX
  8
0
 62
7
 10
2.78500000
 20
6.81080859
  0
VERTEX
  8
0
 62
7
 10
2.78799023
 20
6.84413037
  0
VERTEX
  8
0
 62
7
 10
2.78900000
 20
6.87800000
  0
VERTEX
  8
0
 62
7
 10
2.78821875
 20
6.91004687
  0
VERTEX
  8
0
 62
7
 10
2.78575000
 20
6.94162500
  0
VERTEX
  8
0
 62
7
 10
2.78140625
 20
6.97264063
  0
VERTEX
  8
0
 62
7
 10
2.77500000
 20
7.00300000
  0
VERTEX
  8
0
 62
7
 10
2.80625000
 20
6.99712500
  0
VERTEX
  8
0
 62
7
 10
2.83900000
 20
6.99500000
  0
VERTEX
  8
0
 62
7
 10
2.87217773
 20
6.99733789
  0
VERTEX
  8
0
 62
7
 10
2.90398437
 20
7.00414062
  0
VERTEX
  8
0
 62
7
 10
2.93408008
 20
7.01509180
  0
VERTEX
  8
0
 62
7
 10
2.96212500
 20
7.02987500
  0
VERTEX
  8
0
 62
7
 10
2.98777930
 20
7.04817383
  0
VERTEX
  8
0
 62
7
 10
3.01070313
 20
7.06967188
  0
VERTEX
  8
0
 62
7
 10
3.03055664
 20
7.09405273
  0
VERTEX
  8
0
 62
7
 10
3.04700000
 20
7.12100000
  0
VERTEX
  8
0
 62
7
 10
3.05869531
 20
7.13565039
  0
VERTEX
  8
0
 62
7
 10
3.07193750
 20
7.14876563
  0
VERTEX
  8
0
 62
7
 10
3.08658594
 20
7.16021680
  0
VERTEX
  8
0
 62
7
 10
3.10250000
 20
7.16987500
  0
VERTEX
  8
0
 62
7
 10
3.11953906
 20
7.17761133
  0
VERTEX
  8
0
 62
7
 10
3.13756250
 20
7.18329687
  0
VERTEX
  8
0
 62
7
 10
3.15642969
 20
7.18680273
  0
VERTEX
  8
0
 62
7
 10
3.17600000
 20
7.18800000
  0
VERTEX
  8
0
 62
7
 10
3.21018750
 20
7.18437500
  0
VERTEX
  8
0
 62
7
 10
3.24175000
 20
7.17400000
  0
VERTEX
  8
0
 62
7
 10
3.26993750
 20
7.15762500
  0
VERTEX
  8
0
 62
7
 10
3.29400000
 20
7.13600000
  0
VERTEX
  8
0
 62
7
 10
3.71400000
 20
6.51700000
  0
VERTEX
  8
0
 62
7
 10
3.68892188
 20
6.49262500
  0
VERTEX
  8
0
 62
7
 10
3.66637500
 20
6.46600000
  0
VERTEX
  8
0
 62
7
 10
3.64664062
 20
6.43712500
  0
VERTEX
  8
0
 62
7
 10
3.63000000
 20
6.40600000
  0
VERTEX
  8
0
 62
7
 10
2.98300000
 20
6.62100000
  0
VERTEX
  8
0
 62
7
 10
2.97434375
 20
6.61685937
  0
VERTEX
  8
0
 62
7
 10
2.97000000
 20
6.60737500
  0
VERTEX
  8
0
 62
7
 10
2.97090625
 20
6.59695312
  0
VERTEX
  8
0
 62
7
 10
2.97800000
 20
6.59000000
  0
VERTEX
  8
0
 62
7
 10
3.60700000
 20
6.34200000
  0
SEQEND
  0
POLYLINE
  8
0
 62
7
 66
1
 70
1
  0
VERTEX
  8
0
 62
7
 10
3.38400000
 20
7.16800000
  0
VERTEX
  8
0
 62
7
 10
3.37260938
 20
7.18796875
  0
VERTEX
  8
0
 62
7
 10
3.36412500
 20
7.21000000
  0
VERTEX
  8
0
 62
7
 10
3.35882813
 20
7.23353125
  0
VERTEX
  8
0
 62
7
 10
3.35700000
 20
7.25800000
  0
VERTEX
  8
0
 62
7
 10
3.35937109
 20
7.28549609
  0
VERTEX
  8
0
 62
7
 10
3.36621875
 20
7.31146875
  0
VERTEX
  8
0
 62
7
 10
3.37714453
 20
7.33551953
  0
VERTEX
  8
0
 62
7
 10
3.39175000
 20
7.35725000
  0
VERTEX
  8
0
 62
7
 10
3.40963672
 20
7.37626172
  0
VERTEX
  8
0
 62
7
 10
3.43040625
 20
7.39215625
  0
VERTEX
  8
0
 62
7
 10
3.45366016
 20
7.40453516
  0
VERTEX
  8
0
 62
7
 10
3.47900000
 20
7.41300000
  0
VERTEX
  8
0
 62
7
 10
3.51915430
 20
7.42025586
  0
VERTEX
  8
0
 62
7
 10
3.55667188
 20
7.43410938
  0
VERTEX
  8
0
 62
7
 10
3.59088477
 20
7.45393945
  0
VERTEX
  8
0
 62
7
 10
3.62112500
 20
7.47912500
  0
VERTEX
  8
0
 62
7
 10
3.64672461
 20
7.50904492
  0
VERTEX
  8
0
 62
7
 10
3.66701562
 20
7.54307813
  0
VERTEX
  8
0
 62
7
 10
3.68133008
 20
7.58060352
  0
VERTEX
  8
0
 62
7
 10
3.68900000
 20
7.62100000
  0
VERTEX
  8
0
 62
7
 10
3.72399609
 20
7.59828516
  0
VERTEX
  8
0
 62
7
 10
3.76065625
 20
7.57821875
  0
VERTEX
  8
0
 62
7
 10
3.79886328
 20
7.56091797
  0
VERTEX
  8
0
 62
7
 10
3.83850000
 20
7.54650000
  0
VERTEX
  8
0
 62
7
 10
3.87944922
 20
7.53508203
  0
VERTEX
  8
0
 62
7
 10
3.92159375
 20
7.52678125
  0
VERTEX
  8
0
 62
7
 10
3.96481641
 20
7.52171484
  0
VERTEX
  8
0
 62
7
 10
4.00900000
 20
7.52000000
  0
VERTEX
  8
0
 62
7
 10
4.04803320
 20
7.52134570
  0
VERTEX
  8
0
 62
7
 10
4.08632812
 20
7.52532813
  0
VERTEX
  8
0
 62
7
 10
4.12380273
 20
7.53186523
  0
VERTEX
  8
0
 62
7
 10
4.16037500
 20
7.54087500
  0
VERTEX
  8
0
 62
7
 10
4.19596289
 20
7.55227539
  0
VERTEX
  8
0
 62
7
 10
4.23048438
 20
7.56598438
  0
VERTEX
  8
0
 62
7
 10
4.26385742
 20
7.58191992
  0
VERTEX
  8
0
 62
7
 10
4.29600000
 20
7.60000000
  0
VERTEX
  8
0
 62
7
 10
4.30114063
 20
7.55904297
  0
VERTEX
  8
0
 62
7
 10
4.31312500
 20
7.52059375
  0
VERTEX
  8
0
 62
7
 10
4.33129688
 20
7.48528516
  0
VERTEX
  8
0
 62
7
 10
4.35500000
 20
7.45375000
  0
VERTEX
  8
0
 62
7
 10
4.38357812
 20
7.42662109
  0
VERTEX
  8
0
 62
7
 10
4.41637500
 20
7.40453125
  0
VERTEX
  8
0
 62
7
 10
4.45273438
 20
7.38811328
  0
VERTEX
  8
0
 62
7
 10
4.49200000
 20
7.37800000
  0
VERTEX
  8
0
 62
7
 10
4.51543164
 20
7.36835156
  0
VERTEX
  8
0
 62
7
 10
4.53676563
 20
7.35537500
  0
VERTEX
  8
0
 62
7
 10
4.55568555
 20
7.33939844
  0
VERTEX
  8
0
 62
7
 10
4.57187500
 20
7.32075000
  0
VERTEX
  8
0
 62
7
 10
4.58501758
 20
7.29975781
  0
VERTEX
  8
0
 62
7
 10
4.59479688
 20
7.27675000
  0
VERTEX
  8
0
 62
7
 10
4.60089648
 20
7.25205469
  0
VERTEX
  8
0
 62
7
 10
4.60300000
 20
7.22600000
  0
VERTEX
  8
0
 62
7
 10
4.60168750
 20
7.20465625
  0
VERTEX
  8
0
 62
7
 10
4.59775000
 20
7.18425000
  0
VERTEX
  8
0
 62
7
 10
4.59118750
 20
7.16496875
  0
VERTEX
  8
0
 62
7
 10
4.58200000
 20
7.14700000
  0
VERTEX
  8
0
 62
7
 10
4.12400000
 20
6.55700000
  0
VERTEX
  8
0
 62
7
 10
4.09367188
 20
6.57289063
  0
VERTEX
  8
0
 62
7
 10
4.06137500
 20
6.58587500
  0
VERTEX
  8
0
 62
7
 10
4.02739062
 20
6.59567187
  0
VERTEX
  8
0
 62
7
 10
3.99200000
 20
6.60200000
  0
VERTEX
  8
0
 62
7
 10
3.99700000
 20
7.27800000
  0
VERTEX
  8
0
 62
7
 10
3.99700000
 20
7.27900000
  0
VERTEX
  8
0
 62
7
 10
3.99570703
 20
7.28404688
  0
VERTEX
  8
0
 62
7
 10
3.99228125
 20
7.28787500
  0
VERTEX
  8
0
 62
7
 10
3.98740234
 20
7.29039063
  0
VERTEX
  8
0
 62
7
 10
3.98175000
 20
7.29150000
  0
VERTEX
  8
0
 62
7
 10
3.97600391
 20
7.29110938
  0
VERTEX
  8
0
 62
7
 10
3.97084375
 20
7.28912500
  0
VERTEX
  8
0
 62
7
 10
3.96694922
 20
7.28545313
  0
VERTEX
  8
0
 62
7
 10
3.96500000
 20
7.28000000
  0
VERTEX
  8
0
 62
7
 10
3.92400000
 20
6.60500000
  0
VERTEX
  8
0
 62
7
 10
3.88857813
 20
6.60092188
  0
VERTEX
  8
0
 62
7
 10
3.85437500
 20
6.59337500
  0
VERTEX
  8
0
 62
7
 10
3.82148438
 20
6.58264062
  0
VERTEX
  8
0
 62
7
 10
3.79000000
 20
6.56900000
  0
VERTEX
  8
0
 62
7
 10
3.38400000
 20
7.16800000
  0
SEQEND
  0
POLYLINE
  8
0
 62
7
 66
1
 70
1
  0
VERTEX
  8
0
 62
7
 10
4.88700000
 20
8.38300000
  0
VERTEX
  8
0
 62
7
 10
4.90200000
 20
8.36900000
  0
VERTEX
  8
0
 62
7
 10
4.87263062
 20
8.33146362
  0
VERTEX
  8
0
 62
7
 10
4.84156055
 20
8.29539648
  0
VERTEX
  8
0
 62
7
 10
4.80884692
 20
8.26086157
  0
VERTEX
  8
0
 62
7
 10
4.77454688
 20
8.22792187
  0
VERTEX
  8
0
 62
7
 10
4.73871753
 20
8.19664038
  0
VERTEX
  8
0
 62
7
 10
4.70141602
 20
8.16708008
  0
VERTEX
  8
0
 62
7
 10
4.66269946
 20
8.13930396
  0
VERTEX
  8
0
 62
7
 10
4.62262500
 20
8.11337500
  0
VERTEX
  8
0
 62
7
 10
4.58124976
 20
8.08935620
  0
VERTEX
  8
0
 62
7
 10
4.53863086
 20
8.06731055
  0
VERTEX
  8
0
 62
7
 10
4.49482544
 20
8.04730103
  0
VERTEX
  8
0
 62
7
 10
4.44989063
 20
8.02939062
  0
VERTEX
  8
0
 62
7
 10
4.40388354
 20
8.01364233
  0
VERTEX
  8
0
 62
7
 10
4.35686133
 20
8.00011914
  0
VERTEX
  8
0
 62
7
 10
4.30888110
 20
7.98888403
  0
VERTEX
  8
0
 62
7
 10
4.26000000
 20
7.98000000
  0
VERTEX
  8
0
 62
7
 10
4.24700000
 20
8.05900000
  0
VERTEX
  8
0
 62
7
 10
4.33868945
 20
8.07718750
  0
VERTEX
  8
0
 62
7
 10
4.42757813
 20
8.10231250
  0
VERTEX
  8
0
 62
7
 10
4.51339648
 20
8.13409375
  0
VERTEX
  8
0
 62
7
 10
4.59587500
 20
8.17225000
  0
VERTEX
  8
0
 62
7
 10
4.67474414
 20
8.21650000
  0
VERTEX
  8
0
 62
7
 10
4.74973438
 20
8.26656250
  0
VERTEX
  8
0
 62
7
 10
4.82057617
 20
8.32215625
  0
VERTEX
  8
0
 62
7
 10
4.88700000
 20
8.38300000
  0
SEQEND
  0
POLYLINE
  8
0
 62
7
 66
1
 70
1
  0
VERTEX
  8
0
 62
7
 10
3.84000000
 20
8.50500000
  0
VERTEX
  8
0
 62
7
 10
3.76100000
 20
8.49500000
  0
VERTEX
  8
0
 62
7
 10
3.74787500
 20
8.60718750
  0
VERTEX
  8
0
 62
7
 10
3.73850000
 20
8.71900000
  0
VERTEX
  8
0
 62
7
 10
3.73287500
 20
8.83081250
  0
VERTEX
  8
0
 62
7
 10
3.73100000
 20
8.94300000
  0
VERTEX
  8
0
 62
7
 10
3.73226172
 20
9.03679297
  0
VERTEX
  8
0
 62
7
 10
3.73603125
 20
9.12990625
  0
VERTEX
  8
0
 62
7
 10
3.74228516
 20
9.22231641
  0
VERTEX
  8
0
 62
7
 10
3.75100000
 20
9.31400000
  0
VERTEX
  8
0
 62
7
 10
3.76215234
 20
9.40493359
  0
VERTEX
  8
0
 62
7
 10
3.77571875
 20
9.49509375
  0
VERTEX
  8
0
 62
7
 10
3.79167578
 20
9.58445703
  0
VERTEX
  8
0
 62
7
 10
3.81000000
 20
9.67300000
  0
VERTEX
  8
0
 62
7
 10
3.82900000
 20
9.66500000
  0
VERTEX
  8
0
 62
7
 10
3.82900000
 20
9.66600000
  0
VERTEX
  8
0
 62
7
 10
3.81587500
 20
9.53345312
  0
VERTEX
  8
0
 62
7
 10
3.80650000
 20
9.39987500
  0
VERTEX
  8
0
 62
7
 10
3.80087500
 20
9.26535938
  0
VERTEX
  8
0
 62
7
 10
3.79900000
 20
9.13000000
  0
VERTEX
  8
0
 62
7
 10
3.80160938
 20
8.97215625
  0
VERTEX
  8
0
 62
7
 10
3.80937500
 20
8.81450000
  0
VERTEX
  8
0
 62
7
 10
3.82220313
 20
8.65834375
  0
VERTEX
  8
0
 62
7
 10
3.84000000
 20
8.50500000
  0
SEQEND
  0
POLYLINE
  8
0
 62
7
 66
1
 70
1
  0
VERTEX
  8
0
 62
7
 10
3.43900000
 20
7.92400000
  0
VERTEX
  8
0
 62
7
 10
3.42500000
 20
8.00300000
  0
VERTEX
  8
0
 62
7
 10
3.37571875
 20
7.99512500
  0
VERTEX
  8
0
 62
7
 10
3.32550000
 20
7.98950000
  0
VERTEX
  8
0
 62
7
 10
3.27453125
 20
7.98612500
  0
VERTEX
  8
0
 62
7
 10
3.22300000
 20
7.98500000
  0
VERTEX
  8
0
 62
7
 10
3.15228516
 20
7.98713672
  0
VERTEX
  8
0
 62
7
 10
3.08271875
 20
7.99346875
  0
VERTEX
  8
0
 62
7
 10
3.01441797
 20
8.00387891
  0
VERTEX
  8
0
 62
7
 10
2.94750000
 20
8.01825000
  0
VERTEX
  8
0
 62
7
 10
2.88208203
 20
8.03646484
  0
VERTEX
  8
0
 62
7
 10
2.81828125
 20
8.05840625
  0
VERTEX
  8
0
 62
7
 10
2.75621484
 20
8.08395703
  0
VERTEX
  8
0
 62
7
 10
2.69600000
 20
8.11300000
  0
VERTEX
  8
0
 62
7
 10
2.68700000
 20
8.09500000
  0
VERTEX
  8
0
 62
7
 10
2.74948828
 20
8.05341602
  0
VERTEX
  8
0
 62
7
 10
2.81528125
 20
8.01657813
  0
VERTEX
  8
0
 62
7
 10
2.88412109
 20
7.98473242
  0
VERTEX
  8
0
 62
7
 10
2.95575000
 20
7.95812500
  0
VERTEX
  8
0
 62
7
 10
3.02991016
 20
7.93700195
  0
VERTEX
  8
0
 62
7
 10
3.10634375
 20
7.92160938
  0
VERTEX
  8
0
 62
7
 10
3.18479297
 20
7.91219336
  0
VERTEX
  8
0
 62
7
 10
3.26500000
 20
7.90900000
  0
VERTEX
  8
0
 62
7
 10
3.35312500
 20
7.91275000
  0
VERTEX
  8
0
 62
7
 10
3.43900000
 20
7.92400000
  0
SEQEND
  0
POLYLINE
  8
0
 62
7
 66
1
 70
1
  0
VERTEX
  8
0
 62
7
 10
6.06100000
 20
5.46600000
  0
VERTEX
  8
0
 62
7
 10
6.03878711
 20
5.38257031
  0
VERTEX
  8
0
 62
7
 10
6.01942187
 20
5.29806250
  0
VERTEX
  8
0
 62
7
 10
6.00293945
 20
5.21252344
  0
VERTEX
  8
0
 62
7
 10
5.98937500
 20
5.12600000
  0
VERTEX
  8
0
 62
7
 10
5.97876367
 20
5.03853906
  0
VERTEX
  8
0
 62
7
 10
5.97114063
 20
4.95018750
  0
VERTEX
  8
0
 62
7
 10
5.96654102
 20
4.86099219
  0
VERTEX
  8
0
 62
7
 10
5.96500000
 20
4.77100000
  0
VERTEX
  8
0
 62
7
 10
5.96737500
 20
4.65837500
  0
VERTEX
  8
0
 62
7
 10
5.97500000
 20
4.54500000
  0
VERTEX
  8
0
 62
7
 10
5.89500000
 20
4.53800000
  0
VERTEX
  8
0
 62
7
 10
5.88962500
 20
4.62437500
  0
VERTEX
  8
0
 62
7
 10
5.88800000
 20
4.71000000
  0
VERTEX
  8
0
 62
7
 10
5.89051562
 20
4.81066406
  0
VERTEX
  8
0
 62
7
 10
5.89800000
 20
4.91006250
  0
VERTEX
  8
0
 62
7
 10
5.91035938
 20
5.00805469
  0
VERTEX
  8
0
 62
7
 10
5.92750000
 20
5.10450000
  0
VERTEX
  8
0
 62
7
 10
5.94932813
 20
5.19925781
  0
VERTEX
  8
0
 62
7
 10
5.97575000
 20
5.29218750
  0
VERTEX
  8
0
 62
7
 10
6.00667188
 20
5.38314844
  0
VERTEX
  8
0
 62
7
 10
6.04200000
 20
5.47200000
  0
VERTEX
  8
0
 62
7
 10
6.06100000
 20
5.46600000
  0
SEQEND
  0
POLYLINE
  8
0
 62
7
 66
1
 70
1
  0
VERTEX
  8
0
 62
7
 10
5.37200000
 20
4.25500000
  0
VERTEX
  8
0
 62
7
 10
5.36400000
 20
4.17500000
  0
VERTEX
  8
0
 62
7
 10
5.23442187
 20
4.19254492
  0
VERTEX
  8
0
 62
7
 10
5.10756250
 20
4.21729687
  0
VERTEX
  8
0
 62
7
 10
4.98360938
 20
4.24905664
  0
VERTEX
  8
0
 62
7
 10
4.86275000
 20
4.28762500
  0
VERTEX
  8
0
 62
7
 10
4.74517188
 20
4.33280273
  0
VERTEX
  8
0
 62
7
 10
4.63106250
 20
4.38439063
  0
VERTEX
  8
0
 62
7
 10
4.52060938
 20
4.44218945
  0
VERTEX
  8
0
 62
7
 10
4.41400000
 20
4.50600000
  0
VERTEX
  8
0
 62
7
 10
4.42400000
 20
4.52300000
  0
VERTEX
  8
0
 62
7
 10
4.53409180
 20
4.47272461
  0
VERTEX
  8
0
 62
7
 10
4.64679687
 20
4.42698438
  0
VERTEX
  8
0
 62
7
 10
4.76200977
 20
4.38590820
  0
VERTEX
  8
0
 62
7
 10
4.87962500
 20
4.34962500
  0
VERTEX
  8
0
 62
7
 10
4.99953711
 20
4.31826367
  0
VERTEX
  8
0
 62
7
 10
5.12164063
 20
4.29195313
  0
VERTEX
  8
0
 62
7
 10
5.24583008
 20
4.27082227
  0
VERTEX
  8
0
 62
7
 10
5.37200000
 20
4.25500000
  0
SEQEND
  0
POLYLINE
  8
0
 62
7
 66
1
 70
1
  0
VERTEX
  8
0
 62
7
 10
5.25000000
 20
3.07000000
  0
VERTEX
  8
0
 62
7
 10
5.26800000
 20
3.06100000
  0
VERTEX
  8
0
 62
7
 10
5.31560742
 20
3.13607617
  0
VERTEX
  8
0
 62
7
 10
5.36610937
 20
3.20898438
  0
VERTEX
  8
0
 62
7
 10
5.41940039
 20
3.27961914
  0
VERTEX
  8
0
 62
7
 10
5.47537500
 20
3.34787500
  0
VERTEX
  8
0
 62
7
 10
5.53392773
 20
3.41364648
  0
VERTEX
  8
0
 62
7
 10
5.59495313
 20
3.47682812
  0
VERTEX
  8
0
 62
7
 10
5.65834570
 20
3.53731445
  0
VERTEX
  8
0
 62
7
 10
5.72400000
 20
3.59500000
  0
VERTEX
  8
0
 62
7
 10
5.67300000
 20
3.65600000
  0
VERTEX
  8
0
 62
7
 10
5.60576953
 20
3.59571094
  0
VERTEX
  8
0
 62
7
 10
5.54221875
 20
3.53125000
  0
VERTEX
  8
0
 62
7
 10
5.48255859
 20
3.46285156
  0
VERTEX
  8
0
 62
7
 10
5.42700000
 20
3.39075000
  0
VERTEX
  8
0
 62
7
 10
5.37575391
 20
3.31517969
  0
VERTEX
  8
0
 62
7
 10
5.32903125
 20
3.23637500
  0
VERTEX
  8
0
 62
7
 10
5.28704297
 20
3.15457031
  0
VERTEX
  8
0
 62
7
 10
5.25000000
 20
3.07000000
  0
SEQEND
  0
POLYLINE
  8
0
 62
7
 66
1
 70
1
  0
VERTEX
  8
0
 62
7
 10
5.32300000
 20
4.92900000
  0
VERTEX
  8
0
 62
7
 10
5.25779688
 20
4.97059375
  0
VERTEX
  8
0
 62
7
 10
5.18837500
 20
5.00525000
  0
VERTEX
  8
0
 62
7
 10
5.11501562
 20
5.03278125
  0
VERTEX
  8
0
 62
7
 10
5.03800000
 20
5.05300000
  0
VERTEX
  8
0
 62
7
 10
5.00560937
 20
5.08860937
  0
VERTEX
  8
0
 62
7
 10
4.97612500
 20
5.12637500
  0
VERTEX
  8
0
 62
7
 10
4.94982812
 20
5.16620313
  0
VERTEX
  8
0
 62
7
 10
4.92700000
 20
5.20800000
  0
VERTEX
  8
0
 62
7
 10
4.94753125
 20
5.21064062
  0
VERTEX
  8
0
 62
7
 10
4.96806250
 20
5.21806250
  0
VERTEX
  8
0
 62
7
 10
4.98775000
 20
5.22951563
  0
VERTEX
  8
0
 62
7
 10
5.00575000
 20
5.24425000
  0
VERTEX
  8
0
 62
7
 10
5.02121875
 20
5.26151563
  0
VERTEX
  8
0
 62
7
 10
5.03331250
 20
5.28056250
  0
VERTEX
  8
0
 62
7
 10
5.04118750
 20
5.30064062
  0
VERTEX
  8
0
 62
7
 10
5.04400000
 20
5.32100000
  0
VERTEX
  8
0
 62
7
 10
5.06971289
 20
5.27948828
  0
VERTEX
  8
0
 62
7
 10
5.09801563
 20
5.23978125
  0
VERTEX
  8
0
 62
7
 10
5.12877930
 20
5.20199609
  0
VERTEX
  8
0
 62
7
 10
5.16187500
 20
5.16625000
  0
VERTEX
  8
0
 62
7
 10
5.19717383
 20
5.13266016
  0
VERTEX
  8
0
 62
7
 10
5.23454688
 20
5.10134375
  0
VERTEX
  8
0
 62
7
 10
5.27386523
 20
5.07241797
  0
VERTEX
  8
0
 62
7
 10
5.31500000
 20
5.04600000
  0
VERTEX
  8
0
 62
7
 10
5.31500000
 20
5.04700000
  0
VERTEX
  8
0
 62
7
 10
5.31500000
 20
5.04500000
  0
VERTEX
  8
0
 62
7
 10
5.31712500
 20
4.98662500
  0
VERTEX
  8
0
 62
7
 10
5.32300000
 20
4.92900000
  0
SEQEND
  0
POLYLINE
  8
0
 62
7
 66
1
 70
1
  0
VERTEX
  8
0
 62
7
 10
26.90600000
 20
2.86700000
  0
VERTEX
  8
0
 62
7
 10
26.95076172
 20
2.87122852
  0
VERTEX
  8
0
 62
7
 10
26.99315625
 20
2.88207813
  0
VERTEX
  8
0
 62
7
 10
27.03259766
 20
2.89904492
  0
VERTEX
  8
0
 62
7
 10
27.06850000
 20
2.92162500
  0
VERTEX
  8
0
 62
7
 10
27.10027734
 20
2.94931445
  0
VERTEX
  8
0
 62
7
 10
27.12734375
 20
2.98160938
  0
VERTEX
  8
0
 62
7
 10
27.14911328
 20
3.01800586
  0
VERTEX
  8
0
 62
7
 10
27.16500000
 20
3.05800000
  0
VERTEX
  8
0
 62
7
 10
27.17171875
 20
3.08370313
  0
VERTEX
  8
0
 62
7
 10
27.17675000
 20
3.10987500
  0
VERTEX
  8
0
 62
7
 10
27.17990625
 20
3.13660937
  0
VERTEX
  8
0
 62
7
 10
27.18100000
 20
3.16400000
  0
VERTEX
  8
0
 62
7
 10
27.17733398
 20
3.21623438
  0
VERTEX
  8
0
 62
7
 10
27.16667188
 20
3.26612500
  0
VERTEX
  8
0
 62
7
 10
27.14951758
 20
3.31320313
  0
VERTEX
  8
0
 62
7
 10
27.12637500
 20
3.35700000
  0
VERTEX
  8
0
 62
7
 10
27.09774805
 20
3.39704688
  0
VERTEX
  8
0
 62
7
 10
27.06414063
 20
3.43287500
  0
VERTEX
  8
0
 62
7
 10
27.02605664
 20
3.46401563
  0
VERTEX
  8
0
 62
7
 10
26.98400000
 20
3.49000000
  0
VERTEX
  8
0
 62
7
 10
26.92463477
 20
3.51370508
  0
VERTEX
  8
0
 62
7
 10
26.86364063
 20
3.53451563
  0
VERTEX
  8
0
 62
7
 10
26.80116992
 20
3.55234961
  0
VERTEX
  8
0
 62
7
 10
26.73737500
 20
3.56712500
  0
VERTEX
  8
0
 62
7
 10
26.67240820
 20
3.57875977
  0
VERTEX
  8
0
 62
7
 10
26.60642187
 20
3.58717188
  0
VERTEX
  8
0
 62
7
 10
26.53956836
 20
3.59227930
  0
VERTEX
  8
0
 62
7
 10
26.47200000
 20
3.59400000
  0
VERTEX
  8
0
 62
7
 10
26.34300000
 20
3.59300000
  0
VERTEX
  8
0
 62
7
 10
26.18969922
 20
3.59144922
  0
VERTEX
  8
0
 62
7
 10
26.03796875
 20
3.58678125
  0
VERTEX
  8
0
 62
7
 10
25.88769141
 20
3.57897266
  0
VERTEX
  8
0
 62
7
 10
25.73875000
 20
3.56800000
  0
VERTEX
  8
0
 62
7
 10
25.59102734
 20
3.55383984
  0
VERTEX
  8
0
 62
7
 10
25.44440625
 20
3.53646875
  0
VERTEX
  8
0
 62
7
 10
25.29876953
 20
3.51586328
  0
VERTEX
  8
0
 62
7
 10
25.15400000
 20
3.49200000
  0
VERTEX
  8
0
 62
7
 10
25.13046875
 20
3.55478125
  0
VERTEX
  8
0
 62
7
 10
25.10075000
 20
3.61400000
  0
VERTEX
  8
0
 62
7
 10
25.06540625
 20
3.66946875
  0
VERTEX
  8
0
 62
7
 10
25.02500000
 20
3.72100000
  0
VERTEX
  8
0
 62
7
 10
25.02600000
 20
3.72100000
  0
VERTEX
  8
0
 62
7
 10
25.07300000
 20
3.72000000
  0
VERTEX
  8
0
 62
7
 10
25.15873242
 20
3.72356445
  0
VERTEX
  8
0
 62
7
 10
25.24248438
 20
3.73407812
  0
VERTEX
  8
0
 62
7
 10
25.32396289
 20
3.75127148
  0
VERTEX
  8
0
 62
7
 10
25.40287500
 20
3.77487500
  0
VERTEX
  8
0
 62
7
 10
25.47892773
 20
3.80461914
  0
VERTEX
  8
0
 62
7
 10
25.55182813
 20
3.84023438
  0
VERTEX
  8
0
 62
7
 10
25.62128320
 20
3.88145117
  0
VERTEX
  8
0
 62
7
 10
25.68700000
 20
3.92800000
  0
VERTEX
  8
0
 62
7
 10
25.68600000
 20
3.92800000
  0
VERTEX
  8
0
 62
7
 10
25.65300000
 20
4.03100000
  0
VERTEX
  8
0
 62
7
 10
25.69449951
 20
4.04763086
  0
VERTEX
  8
0
 62
7
 10
25.73458984
 20
4.06635938
  0
VERTEX
  8
0
 62
7
 10
25.77322119
 20
4.08712695
  0
VERTEX
  8
0
 62
7
 10
25.81034375
 20
4.10987500
  0
VERTEX
  8
0
 62
7
 10
25.84590771
 20
4.13454492
  0
VERTEX
  8
0
 62
7
 10
25.87986328
 20
4.16107813
  0
VERTEX
  8
0
 62
7
 10
25.91216064
 20
4.18941602
  0
VERTEX
  8
0
 62
7
 10
25.94275000
 20
4.21950000
  0
VERTEX
  8
0
 62
7
 10
25.97158154
 20
4.25127148
  0
VERTEX
  8
0
 62
7
 10
25.99860547
 20
4.28467187
  0
VERTEX
  8
0
 62
7
 10
26.02377197
 20
4.31964258
  0
VERTEX
  8
0
 62
7
 10
26.04703125
 20
4.35612500
  0
VERTEX
  8
0
 62
7
 10
26.06833350
 20
4.39406055
  0
VERTEX
  8
0
 62
7
 10
26.08762891
 20
4.43339063
  0
VERTEX
  8
0
 62
7
 10
26.10486768
 20
4.47405664
  0
VERTEX
  8
0
 62
7
 10
26.12000000
 20
4.51600000
  0
VERTEX
  8
0
 62
7
 10
26.24039063
 20
4.59307812
  0
VERTEX
  8
0
 62
7
 10
26.36312500
 20
4.66837500
  0
VERTEX
  8
0
 62
7
 10
26.48829688
 20
4.74198438
  0
VERTEX
  8
0
 62
7
 10
26.61600000
 20
4.81400000
  0
VERTEX
  8
0
 62
7
 10
26.67557617
 20
4.85445703
  0
VERTEX
  8
0
 62
7
 10
26.73785937
 20
4.89240625
  0
VERTEX
  8
0
 62
7
 10
26.80255664
 20
4.92758984
  0
VERTEX
  8
0
 62
7
 10
26.86937500
 20
4.95975000
  0
VERTEX
  8
0
 62
7
 10
26.93802148
 20
4.98862891
  0
VERTEX
  8
0
 62
7
 10
27.00820313
 20
5.01396875
  0
VERTEX
  8
0
 62
7
 10
27.07962695
 20
5.03551172
  0
VERTEX
  8
0
 62
7
 10
27.15200000
 20
5.05300000
  0
VERTEX
  8
0
 62
7
 10
27.18970313
 20
5.06103125
  0
VERTEX
  8
0
 62
7
 10
27.22787500
 20
5.06700000
  0
VERTEX
  8
0
 62
7
 10
27.26660938
 20
5.07071875
  0
VERTEX
  8
0
 62
7
 10
27.30600000
 20
5.07200000
  0
VERTEX
  8
0
 62
7
 10
27.34250391
 20
5.07093555
  0
VERTEX
  8
0
 62
7
 10
27.37846875
 20
5.06779688
  0
VERTEX
  8
0
 62
7
 10
27.41382422
 20
5.06266602
  0
VERTEX
  8
0
 62
7
 10
27.44850000
 20
5.05562500
  0
VERTEX
  8
0
 62
7
 10
27.48242578
 20
5.04675586
  0
VERTEX
  8
0
 62
7
 10
27.51553125
 20
5.03614062
  0
VERTEX
  8
0
 62
7
 10
27.54774609
 20
5.02386133
  0
VERTEX
  8
0
 62
7
 10
27.57900000
 20
5.01000000
  0
VERTEX
  8
0
 62
7
 10
27.66204688
 20
4.96731250
  0
VERTEX
  8
0
 62
7
 10
27.74312500
 20
4.92050000
  0
VERTEX
  8
0
 62
7
 10
27.82214062
 20
4.86993750
  0
VERTEX
  8
0
 62
7
 10
27.89900000
 20
4.81600000
  0
VERTEX
  8
0
 62
7
 10
27.85807617
 20
4.79846094
  0
VERTEX
  8
0
 62
7
 10
27.82042188
 20
4.77543750
  0
VERTEX
  8
0
 62
7
 10
27.78658789
 20
4.74744531
  0
VERTEX
  8
0
 62
7
 10
27.75712500
 20
4.71500000
  0
VERTEX
  8
0
 62
7
 10
27.73258398
 20
4.67861719
  0
VERTEX
  8
0
 62
7
 10
27.71351562
 20
4.63881250
  0
VERTEX
  8
0
 62
7
 10
27.70047070
 20
4.59610156
  0
VERTEX
  8
0
 62
7
 10
27.69400000
 20
4.55100000
  0
VERTEX
  8
0
 62
7
 10
27.69176953
 20
4.50976367
  0
VERTEX
  8
0
 62
7
 10
27.68665625
 20
4.46935937
  0
VERTEX
  8
0
 62
7
 10
27.67877734
 20
4.42986914
  0
VERTEX
  8
0
 62
7
 10
27.66825000
 20
4.39137500
  0
VERTEX
  8
0
 62
7
 10
27.65519141
 20
4.35395898
  0
VERTEX
  8
0
 62
7
 10
27.63971875
 20
4.31770313
  0
VERTEX
  8
0
 62
7
 10
27.62194922
 20
4.28268945
  0
VERTEX
  8
0
 62
7
 10
27.60200000
 20
4.24900000
  0
VERTEX
  8
0
 62
7
 10
27.56921484
 20
4.21837305
  0
VERTEX
  8
0
 62
7
 10
27.53396875
 20
4.19035937
  0
VERTEX
  8
0
 62
7
 10
27.49642578
 20
4.16513477
  0
VERTEX
  8
0
 62
7
 10
27.45675000
 20
4.14287500
  0
VERTEX
  8
0
 62
7
 10
27.41510547
 20
4.12375586
  0
VERTEX
  8
0
 62
7
 10
27.37165625
 20
4.10795312
  0
VERTEX
  8
0
 62
7
 10
27.32656641
 20
4.09564258
  0
VERTEX
  8
0
 62
7
 10
27.28000000
 20
4.08700000
  0
VERTEX
  8
0
 62
7
 10
27.35250000
 20
4.07412500
  0
VERTEX
  8
0
 62
7
 10
27.42200000
 20
4.05900000
  0
VERTEX
  8
0
 62
7
 10
27.45983789
 20
4.05410498
  0
VERTEX
  8
0
 62
7
 10
27.49717187
 20
4.04698047
  0
VERTEX
  8
0
 62
7
 10
27.53391992
 20
4.03771729
  0
VERTEX
  8
0
 62
7
 10
27.57000000
 20
4.02640625
  0
VERTEX
  8
0
 62
7
 10
27.60533008
 20
4.01313818
  0
VERTEX
  8
0
 62
7
 10
27.63982813
 20
3.99800391
  0
VERTEX
  8
0
 62
7
 10
27.67341211
 20
3.98109424
  0
VERTEX
  8
0
 62
7
 10
27.70600000
 20
3.96250000
  0
VERTEX
  8
0
 62
7
 10
27.73750977
 20
3.94231201
  0
VERTEX
  8
0
 62
7
 10
27.76785938
 20
3.92062109
  0
VERTEX
  8
0
 62
7
 10
27.79696680
 20
3.89751807
  0
VERTEX
  8
0
 62
7
 10
27.82475000
 20
3.87309375
  0
VERTEX
  8
0
 62
7
 10
27.85112695
 20
3.84743896
  0
VERTEX
  8
0
 62
7
 10
27.87601563
 20
3.82064453
  0
VERTEX
  8
0
 62
7
 10
27.89933398
 20
3.79280127
  0
VERTEX
  8
0
 62
7
 10
27.92100000
 20
3.76400000
  0
VERTEX
  8
0
 62
7
 10
28.05925000
 20
3.59162500
  0
VERTEX
  8
0
 62
7
 10
28.20200000
 20
3.42300000
  0
VERTEX
  8
0
 62
7
 10
28.17671094
 20
3.40259570
  0
VERTEX
  8
0
 62
7
 10
28.14968750
 20
3.38426563
  0
VERTEX
  8
0
 62
7
 10
28.12107031
 20
3.36820898
  0
VERTEX
  8
0
 62
7
 10
28.09100000
 20
3.35462500
  0
VERTEX
  8
0
 62
7
 10
28.05961719
 20
3.34371289
  0
VERTEX
  8
0
 62
7
 10
28.02706250
 20
3.33567188
  0
VERTEX
  8
0
 62
7
 10
27.99347656
 20
3.33070117
  0
VERTEX
  8
0
 62
7
 10
27.95900000
 20
3.32900000
  0
VERTEX
  8
0
 62
7
 10
27.91300000
 20
3.33200000
  0
VERTEX
  8
0
 62
7
 10
27.92719141
 20
3.29887109
  0
VERTEX
  8
0
 62
7
 10
27.93971875
 20
3.26478125
  0
VERTEX
  8
0
 62
7
 10
27.95051172
 20
3.22980078
  0
VERTEX
  8
0
 62
7
 10
27.95950000
 20
3.19400000
  0
VERTEX
  8
0
 62
7
 10
27.96661328
 20
3.15744922
  0
VERTEX
  8
0
 62
7
 10
27.97178125
 20
3.12021875
  0
VERTEX
  8
0
 62
7
 10
27.97493359
 20
3.08237891
  0
VERTEX
  8
0
 62
7
 10
27.97600000
 20
3.04400000
  0
VERTEX
  8
0
 62
7
 10
27.97400781
 20
2.99086914
  0
VERTEX
  8
0
 62
7
 10
27.96812500
 20
2.93882813
  0
VERTEX
  8
0
 62
7
 10
27.95849219
 20
2.88802930
  0
VERTEX
  8
0
 62
7
 10
27.94525000
 20
2.83862500
  0
VERTEX
  8
0
 62
7
 10
27.92853906
 20
2.79076758
  0
VERTEX
  8
0
 62
7
 10
27.90850000
 20
2.74460938
  0
VERTEX
  8
0
 62
7
 10
27.88527344
 20
2.70030273
  0
VERTEX
  8
0
 62
7
 10
27.85900000
 20
2.65800000
  0
VERTEX
  8
0
 62
7
 10
27.83645532
 20
2.62499023
  0
VERTEX
  8
0
 62
7
 10
27.81200195
 20
2.59351563
  0
VERTEX
  8
0
 62
7
 10
27.78572339
 20
2.56365820
  0
VERTEX
  8
0
 62
7
 10
27.75770312
 20
2.53550000
  0
VERTEX
  8
0
 62
7
 10
27.72802466
 20
2.50912305
  0
VERTEX
  8
0
 62
7
 10
27.69677148
 20
2.48460938
  0
VERTEX
  8
0
 62
7
 10
27.66402710
 20
2.46204102
  0
VERTEX
  8
0
 62
7
 10
27.62987500
 20
2.44150000
  0
VERTEX
  8
0
 62
7
 10
27.59439868
 20
2.42306836
  0
VERTEX
  8
0
 62
7
 10
27.55768164
 20
2.40682813
  0
VERTEX
  8
0
 62
7
 10
27.51980737
 20
2.39286133
  0
VERTEX
  8
0
 62
7
 10
27.48085938
 20
2.38125000
  0
VERTEX
  8
0
 62
7
 10
27.44092114
 20
2.37207617
  0
VERTEX
  8
0
 62
7
 10
27.40007617
 20
2.36542188
  0
VERTEX
  8
0
 62
7
 10
27.35840796
 20
2.36136914
  0
VERTEX
  8
0
 62
7
 10
27.31600000
 20
2.36000000
  0
VERTEX
  8
0
 62
7
 10
27.27643066
 20
2.36107690
  0
VERTEX
  8
0
 62
7
 10
27.23724219
 20
2.36425586
  0
VERTEX
  8
0
 62
7
 10
27.19846387
 20
2.36945923
  0
VERTEX
  8
0
 62
7
 10
27.16012500
 20
2.37660938
  0
VERTEX
  8
0
 62
7
 10
27.12225488
 20
2.38562866
  0
VERTEX
  8
0
 62
7
 10
27.08488281
 20
2.39643945
  0
VERTEX
  8
0
 62
7
 10
27.04803809
 20
2.40896411
  0
VERTEX
  8
0
 62
7
 10
27.01175000
 20
2.42312500
  0
VERTEX
  8
0
 62
7
 10
26.97604785
 20
2.43884448
  0
VERTEX
  8
0
 62
7
 10
26.94096094
 20
2.45604492
  0
VERTEX
  8
0
 62
7
 10
26.90651855
 20
2.47464868
  0
VERTEX
  8
0
 62
7
 10
26.87275000
 20
2.49457812
  0
VERTEX
  8
0
 62
7
 10
26.83968457
 20
2.51575562
  0
VERTEX
  8
0
 62
7
 10
26.80735156
 20
2.53810352
  0
VERTEX
  8
0
 62
7
 10
26.77578027
 20
2.56154419
  0
VERTEX
  8
0
 62
7
 10
26.74500000
 20
2.58600000
  0
VERTEX
  8
0
 62
7
 10
26.69700195
 20
2.63002734
  0
VERTEX
  8
0
 62
7
 10
26.65445313
 20
2.67853125
  0
VERTEX
  8
0
 62
7
 10
26.61764648
 20
2.73101953
  0
VERTEX
  8
0
 62
7
 10
26.58687500
 20
2.78700000
  0
VERTEX
  8
0
 62
7
 10
26.56243164
 20
2.84598047
  0
VERTEX
  8
0
 62
7
 10
26.54460938
 20
2.90746875
  0
VERTEX
  8
0
 62
7
 10
26.53370117
 20
2.97097266
  0
VERTEX
  8
0
 62
7
 10
26.53000000
 20
3.03600000
  0
VERTEX
  8
0
 62
7
 10
26.53321484
 20
3.08613672
  0
VERTEX
  8
0
 62
7
 10
26.54259375
 20
3.13428125
  0
VERTEX
  8
0
 62
7
 10
26.55773828
 20
3.18003516
  0
VERTEX
  8
0
 62
7
 10
26.57825000
 20
3.22300000
  0
VERTEX
  8
0
 62
7
 10
26.60373047
 20
3.26277734
  0
VERTEX
  8
0
 62
7
 10
26.63378125
 20
3.29896875
  0
VERTEX
  8
0
 62
7
 10
26.66800391
 20
3.33117578
  0
VERTEX
  8
0
 62
7
 10
26.70600000
 20
3.35900000
  0
VERTEX
  8
0
 62
7
 10
26.73887500
 20
3.38235938
  0
VERTEX
  8
0
 62
7
 10
26.77550000
 20
3.39962500
  0
VERTEX
  8
0
 62
7
 10
26.81512500
 20
3.41032812
  0
VERTEX
  8
0
 62
7
 10
26.85700000
 20
3.41400000
  0
VERTEX
  8
0
 62
7
 10
26.88142578
 20
3.41277759
  0
VERTEX
  8
0
 62
7
 10
26.90512500
 20
3.40918945
  0
VERTEX
  8
0
 62
7
 10
26.92798047
 20
3.40335425
  0
VERTEX
  8
0
 62
7
 10
26.94987500
 20
3.39539063
  0
VERTEX
  8
0
 62
7
 10
26.97069141
 20
3.38541724
  0
VERTEX
  8
0
 62
7
 10
26.99031250
 20
3.37355273
  0
VERTEX
  8
0
 62
7
 10
27.00862109
 20
3.35991577
  0
VERTEX
  8
0
 62
7
 10
27.02550000
 20
3.34462500
  0
VERTEX
  8
0
 62
7
 10
27.04083203
 20
3.32779907
  0
VERTEX
  8
0
 62
7
 10
27.05450000
 20
3.30955664
  0
VERTEX
  8
0
 62
7
 10
27.06638672
 20
3.29001636
  0
VERTEX
  8
0
 62
7
 10
27.07637500
 20
3.26929688
  0
VERTEX
  8
0
 62
7
 10
27.08434766
 20
3.24751685
  0
VERTEX
  8
0
 62
7
 10
27.09018750
 20
3.22479492
  0
VERTEX
  8
0
 62
7
 10
27.09377734
 20
3.20124976
  0
VERTEX
  8
0
 62
7
 10
27.09500000
 20
3.17700000
  0
VERTEX
  8
0
 62
7
 10
27.09281250
 20
3.14460937
  0
VERTEX
  8
0
 62
7
 10
27.08650000
 20
3.11362500
  0
VERTEX
  8
0
 62
7
 10
27.07643750
 20
3.08432812
  0
VERTEX
  8
0
 62
7
 10
27.06300000
 20
3.05700000
  0
VERTEX
  8
0
 62
7
 10
27.05022266
 20
3.04300977
  0
VERTEX
  8
0
 62
7
 10
27.03596875
 20
3.03039062
  0
VERTEX
  8
0
 62
7
 10
27.02035547
 20
3.01929492
  0
VERTEX
  8
0
 62
7
 10
27.00350000
 20
3.00987500
  0
VERTEX
  8
0
 62
7
 10
26.98551953
 20
3.00228320
  0
VERTEX
  8
0
 62
7
 10
26.96653125
 20
2.99667188
  0
VERTEX
  8
0
 62
7
 10
26.94665234
 20
2.99319336
  0
VERTEX
  8
0
 62
7
 10
26.92600000
 20
2.99200000
  0
VERTEX
  8
0
 62
7
 10
26.89947656
 20
2.99401367
  0
VERTEX
  8
0
 62
7
 10
26.87412500
 20
2.99985938
  0
VERTEX
  8
0
 62
7
 10
26.85027344
 20
3.00924414
  0
VERTEX
  8
0
 62
7
 10
26.82825000
 20
3.02187500
  0
VERTEX
  8
0
 62
7
 10
26.80838281
 20
3.03745898
  0
VERTEX
  8
0
 62
7
 10
26.79100000
 20
3.05570313
  0
VERTEX
  8
0
 62
7
 10
26.77642969
 20
3.07631445
  0
VERTEX
  8
0
 62
7
 10
26.76500000
 20
3.09900000
  0
VERTEX
  8
0
 62
7
 10
26.75492188
 20
3.08085938
  0
VERTEX
  8
0
 62
7
 10
26.74737500
 20
3.06112500
  0
VERTEX
  8
0
 62
7
 10
26.74264063
 20
3.04007813
  0
VERTEX
  8
0
 62
7
 10
26.74100000
 20
3.01800000
  0
VERTEX
  8
0
 62
7
 10
26.74460352
 20
2.98846094
  0
VERTEX
  8
0
 62
7
 10
26.75482813
 20
2.96037500
  0
VERTEX
  8
0
 62
7
 10
26.77079492
 20
2.93453906
  0
VERTEX
  8
0
 62
7
 10
26.79162500
 20
2.91175000
  0
VERTEX
  8
0
 62
7
 10
26.81643945
 20
2.89280469
  0
VERTEX
  8
0
 62
7
 10
26.84435938
 20
2.87850000
  0
VERTEX
  8
0
 62
7
 10
26.87450586
 20
2.86963281
  0
VERTEX
  8
0
 62
7
 10
26.90600000
 20
2.86700000
  0
SEQEND
  0
POLYLINE
  8
0
 62
7
 66
1
 70
1
  0
VERTEX
  8
0
 62
7
 10
27.03600000
 20
4.10300000
  0
VERTEX
  8
0
 62
7
 10
26.96464063
 20
4.10071484
  0
VERTEX
  8
0
 62
7
 10
26.89393750
 20
4.09540625
  0
VERTEX
  8
0
 62
7
 10
26.82407813
 20
4.08714453
  0
VERTEX
  8
0
 62
7
 10
26.75525000
 20
4.07600000
  0
VERTEX
  8
0
 62
7
 10
26.68764063
 20
4.06204297
  0
VERTEX
  8
0
 62
7
 10
26.62143750
 20
4.04534375
  0
VERTEX
  8
0
 62
7
 10
26.55682812
 20
4.02597266
  0
VERTEX
  8
0
 62
7
 10
26.49400000
 20
4.00400000
  0
VERTEX
  8
0
 62
7
 10
26.45284375
 20
3.97446875
  0
VERTEX
  8
0
 62
7
 10
26.40775000
 20
3.95075000
  0
VERTEX
  8
0
 62
7
 10
26.35928125
 20
3.93340625
  0
VERTEX
  8
0
 62
7
 10
26.30800000
 20
3.92300000
  0
VERTEX
  8
0
 62
7
 10
26.29669531
 20
3.92323242
  0
VERTEX
  8
0
 62
7
 10
26.28637500
 20
3.92654688
  0
VERTEX
  8
0
 62
7
 10
26.27755469
 20
3.93236914
  0
VERTEX
  8
0
 62
7
 10
26.27075000
 20
3.94012500
  0
VERTEX
  8
0
 62
7
 10
26.26647656
 20
3.94924023
  0
VERTEX
  8
0
 62
7
 10
26.26525000
 20
3.95914063
  0
VERTEX
  8
0
 62
7
 10
26.26758594
 20
3.96925195
  0
VERTEX
  8
0
 62
7
 10
26.27400000
 20
3.97900000
  0
VERTEX
  8
0
 62
7
 10
26.30665430
 20
4.01310742
  0
VERTEX
  8
0
 62
7
 10
26.34154687
 20
4.04485937
  0
VERTEX
  8
0
 62
7
 10
26.37857227
 20
4.07415039
  0
VERTEX
  8
0
 62
7
 10
26.41762500
 20
4.10087500
  0
VERTEX
  8
0
 62
7
 10
26.45859961
 20
4.12492773
  0
VERTEX
  8
0
 62
7
 10
26.50139062
 20
4.14620313
  0
VERTEX
  8
0
 62
7
 10
26.54589258
 20
4.16459570
  0
VERTEX
  8
0
 62
7
 10
26.59200000
 20
4.18000000
  0
VERTEX
  8
0
 62
7
 10
26.64037500
 20
4.18500000
  0
VERTEX
  8
0
 62
7
 10
26.69100000
 20
4.18700000
  0
VERTEX
  8
0
 62
7
 10
26.75978125
 20
4.18351563
  0
VERTEX
  8
0
 62
7
 10
26.82650000
 20
4.17337500
  0
VERTEX
  8
0
 62
7
 10
26.89096875
 20
4.15704687
  0
VERTEX
  8
0
 62
7
 10
26.95300000
 20
4.13500000
  0
VERTEX
  8
0
 62
7
 10
26.99337500
 20
4.11750000
  0
VERTEX
  8
0
 62
7
 10
27.03600000
 20
4.10300000
  0
SEQEND
  0
POLYLINE
  8
0
 62
7
 66
1
 70
1
  0
VERTEX
  8
0
 62
7
 10
26.10600000
 20
7.99600000
  0
VERTEX
  8
0
 62
7
 10
26.10400195
 20
8.04531250
  0
VERTEX
  8
0
 62
7
 10
26.09807813
 20
8.09706250
  0
VERTEX
  8
0
 62
7
 10
26.08833398
 20
8.14984375
  0
VERTEX
  8
0
 62
7
 10
26.07487500
 20
8.20225000
  0
VERTEX
  8
0
 62
7
 10
26.05780664
 20
8.25287500
  0
VERTEX
  8
0
 62
7
 10
26.03723438
 20
8.30031250
  0
VERTEX
  8
0
 62
7
 10
26.01326367
 20
8.34315625
  0
VERTEX
  8
0
 62
7
 10
25.98600000
 20
8.38000000
  0
VERTEX
  8
0
 62
7
 10
25.89137500
 20
8.49300000
  0
VERTEX
  8
0
 62
7
 10
25.80275000
 20
8.61125000
  0
VERTEX
  8
0
 62
7
 10
25.72050000
 20
8.73437500
  0
VERTEX
  8
0
 62
7
 10
25.64500000
 20
8.86200000
  0
VERTEX
  8
0
 62
7
 10
25.62555664
 20
8.90938281
  0
VERTEX
  8
0
 62
7
 10
25.60851562
 20
8.95775000
  0
VERTEX
  8
0
 62
7
 10
25.59393555
 20
9.00705469
  0
VERTEX
  8
0
 62
7
 10
25.58187500
 20
9.05725000
  0
VERTEX
  8
0
 62
7
 10
25.57239258
 20
9.10828906
  0
VERTEX
  8
0
 62
7
 10
25.56554687
 20
9.16012500
  0
VERTEX
  8
0
 62
7
 10
25.56139648
 20
9.21271094
  0
VERTEX
  8
0
 62
7
 10
25.56000000
 20
9.26600000
  0
VERTEX
  8
0
 62
7
 10
25.56362500
 20
9.35225000
  0
VERTEX
  8
0
 62
7
 10
25.57400000
 20
9.43700000
  0
VERTEX
  8
0
 62
7
 10
25.73500000
 20
9.41600000
  0
VERTEX
  8
0
 62
7
 10
25.73050000
 20
9.45625000
  0
VERTEX
  8
0
 62
7
 10
25.72900000
 20
9.49800000
  0
VERTEX
  8
0
 62
7
 10
25.73172266
 20
9.55326367
  0
VERTEX
  8
0
 62
7
 10
25.73971875
 20
9.60710938
  0
VERTEX
  8
0
 62
7
 10
25.75273047
 20
9.65924414
  0
VERTEX
  8
0
 62
7
 10
25.77050000
 20
9.70937500
  0
VERTEX
  8
0
 62
7
 10
25.79276953
 20
9.75720898
  0
VERTEX
  8
0
 62
7
 10
25.81928125
 20
9.80245312
  0
VERTEX
  8
0
 62
7
 10
25.84977734
 20
9.84481445
  0
VERTEX
  8
0
 62
7
 10
25.88400000
 20
9.88400000
  0
VERTEX
  8
0
 62
7
 10
25.90179297
 20
9.91089453
  0
VERTEX
  8
0
 62
7
 10
25.91759375
 20
9.93903125
  0
VERTEX
  8
0
 62
7
 10
25.93128516
 20
9.96833984
  0
VERTEX
  8
0
 62
7
 10
25.94275000
 20
9.99875000
  0
VERTEX
  8
0
 62
7
 10
25.95187109
 20
10.03019141
  0
VERTEX
  8
0
 62
7
 10
25.95853125
 20
10.06259375
  0
VERTEX
  8
0
 62
7
 10
25.96261328
 20
10.09588672
  0
VERTEX
  8
0
 62
7
 10
25.96400000
 20
10.13000000
  0
VERTEX
  8
0
 62
7
 10
25.96160938
 20
10.17439063
  0
VERTEX
  8
0
 62
7
 10
25.95462500
 20
10.21737500
  0
VERTEX
  8
0
 62
7
 10
25.94332813
 20
10.25867188
  0
VERTEX
  8
0
 62
7
 10
25.92800000
 20
10.29800000
  0
VERTEX
  8
0
 62
7
 10
26.00926587
 20
10.27223413
  0
VERTEX
  8
0
 62
7
 10
26.08748633
 20
10.24013867
  0
VERTEX
  8
0
 62
7
 10
26.16235815
 20
10.20201685
  0
VERTEX
  8
0
 62
7
 10
26.23357813
 20
10.15817188
  0
VERTEX
  8
0
 62
7
 10
26.30084302
 20
10.10890698
  0
VERTEX
  8
0
 62
7
 10
26.36384961
 20
10.05452539
  0
VERTEX
  8
0
 62
7
 10
26.42229468
 20
9.99533032
  0
VERTEX
  8
0
 62
7
 10
26.47587500
 20
9.93162500
  0
VERTEX
  8
0
 62
7
 10
26.52428735
 20
9.86371265
  0
VERTEX
  8
0
 62
7
 10
26.56722852
 20
9.79189648
  0
VERTEX
  8
0
 62
7
 10
26.60439526
 20
9.71647974
  0
VERTEX
  8
0
 62
7
 10
26.63548438
 20
9.63776563
  0
VERTEX
  8
0
 62
7
 10
26.66019263
 20
9.55605737
  0
VERTEX
  8
0
 62
7
 10
26.67821680
 20
9.47165820
  0
VERTEX
  8
0
 62
7
 10
26.68925366
 20
9.38487134
  0
VERTEX
  8
0
 62
7
 10
26.69300000
 20
9.29600000
  0
VERTEX
  8
0
 62
7
 10
26.69184375
 20
9.24446875
  0
VERTEX
  8
0
 62
7
 10
26.68825000
 20
9.19350000
  0
VERTEX
  8
0
 62
7
 10
26.68203125
 20
9.14328125
  0
VERTEX
  8
0
 62
7
 10
26.67300000
 20
9.09400000
  0
VERTEX
  8
0
 62
7
 10
26.83900000
 20
9.09500000
  0
VERTEX
  8
0
 62
7
 10
26.82686719
 20
9.00234180
  0
VERTEX
  8
0
 62
7
 10
26.80718750
 20
8.91210938
  0
VERTEX
  8
0
 62
7
 10
26.78028906
 20
8.82466602
  0
VERTEX
  8
0
 62
7
 10
26.74650000
 20
8.74037500
  0
VERTEX
  8
0
 62
7
 10
26.70614844
 20
8.65959961
  0
VERTEX
  8
0
 62
7
 10
26.65956250
 20
8.58270313
  0
VERTEX
  8
0
 62
7
 10
26.60707031
 20
8.51004883
  0
VERTEX
  8
0
 62
7
 10
26.54900000
 20
8.44200000
  0
VERTEX
  8
0
 62
7
 10
26.50499414
 20
8.39217188
  0
VERTEX
  8
0
 62
7
 10
26.46301563
 20
8.34093750
  0
VERTEX
  8
0
 62
7
 10
26.42312305
 20
8.28829688
  0
VERTEX
  8
0
 62
7
 10
26.38537500
 20
8.23425000
  0
VERTEX
  8
0
 62
7
 10
26.34983008
 20
8.17879687
  0
VERTEX
  8
0
 62
7
 10
26.31654688
 20
8.12193750
  0
VERTEX
  8
0
 62
7
 10
26.28558398
 20
8.06367188
  0
VERTEX
  8
0
 62
7
 10
26.25700000
 20
8.00400000
  0
VERTEX
  8
0
 62
7
 10
26.30848047
 20
8.02632031
  0
VERTEX
  8
0
 62
7
 10
26.35778125
 20
8.05262500
  0
VERTEX
  8
0
 62
7
 10
26.40469141
 20
8.08267969
  0
VERTEX
  8
0
 62
7
 10
26.44900000
 20
8.11625000
  0
VERTEX
  8
0
 62
7
 10
26.49049609
 20
8.15310156
  0
VERTEX
  8
0
 62
7
 10
26.52896875
 20
8.19300000
  0
VERTEX
  8
0
 62
7
 10
26.56420703
 20
8.23571094
  0
VERTEX
  8
0
 62
7
 10
26.59600000
 20
8.28100000
  0
VERTEX
  8
0
 62
7
 10
26.63487500
 20
8.33173828
  0
VERTEX
  8
0
 62
7
 10
26.67918750
 20
8.37790625
  0
VERTEX
  8
0
 62
7
 10
26.72846875
 20
8.41905859
  0
VERTEX
  8
0
 62
7
 10
26.78225000
 20
8.45475000
  0
VERTEX
  8
0
 62
7
 10
26.84006250
 20
8.48453516
  0
VERTEX
  8
0
 62
7
 10
26.90143750
 20
8.50796875
  0
VERTEX
  8
0
 62
7
 10
26.96590625
 20
8.52460547
  0
VERTEX
  8
0
 62
7
 10
27.03300000
 20
8.53400000
  0
VERTEX
  8
0
 62
7
 10
27.04700000
 20
8.44700000
  0
VERTEX
  8
0
 62
7
 10
27.08425000
 20
8.45062500
  0
VERTEX
  8
0
 62
7
 10
27.12300000
 20
8.45200000
  0
VERTEX
  8
0
 62
7
 10
27.17242578
 20
8.45009961
  0
VERTEX
  8
0
 62
7
 10
27.22084375
 20
8.44448438
  0
VERTEX
  8
0
 62
7
 10
27.26808984
 20
8.43528320
  0
VERTEX
  8
0
 62
7
 10
27.31400000
 20
8.42262500
  0
VERTEX
  8
0
 62
7
 10
27.35841016
 20
8.40663867
  0
VERTEX
  8
0
 62
7
 10
27.40115625
 20
8.38745313
  0
VERTEX
  8
0
 62
7
 10
27.44207422
 20
8.36519727
  0
VERTEX
  8
0
 62
7
 10
27.48100000
 20
8.34000000
  0
VERTEX
  8
0
 62
7
 10
27.50996875
 20
8.31721875
  0
VERTEX
  8
0
 62
7
 10
27.54250000
 20
8.30025000
  0
VERTEX
  8
0
 62
7
 10
27.57803125
 20
8.28965625
  0
VERTEX
  8
0
 62
7
 10
27.61600000
 20
8.28600000
  0
VERTEX
  8
0
 62
7
 10
27.64835938
 20
8.28873438
  0
VERTEX
  8
0
 62
7
 10
27.67912500
 20
8.29662500
  0
VERTEX
  8
0
 62
7
 10
27.70782812
 20
8.30920312
  0
VERTEX
  8
0
 62
7
 10
27.73400000
 20
8.32600000
  0
VERTEX
  8
0
 62
7
 10
27.72714966
 20
8.27115015
  0
VERTEX
  8
0
 62
7
 10
27.71608789
 20
8.21771680
  0
VERTEX
  8
0
 62
7
 10
27.70098608
 20
8.16587427
  0
VERTEX
  8
0
 62
7
 10
27.68201563
 20
8.11579688
  0
VERTEX
  8
0
 62
7
 10
27.65934790
 20
8.06765894
  0
VERTEX
  8
0
 62
7
 10
27.63315430
 20
8.02163477
  0
VERTEX
  8
0
 62
7
 10
27.60360620
 20
7.97789868
  0
VERTEX
  8
0
 62
7
 10
27.57087500
 20
7.93662500
  0
VERTEX
  8
0
 62
7
 10
27.53513208
 20
7.89798804
  0
VERTEX
  8
0
 62
7
 10
27.49654883
 20
7.86216211
  0
VERTEX
  8
0
 62
7
 10
27.45529663
 20
7.82932153
  0
VERTEX
  8
0
 62
7
 10
27.41154687
 20
7.79964063
  0
VERTEX
  8
0
 62
7
 10
27.36547095
 20
7.77329370
  0
VERTEX
  8
0
 62
7
 10
27.31724023
 20
7.75045508
  0
VERTEX
  8
0
 62
7
 10
27.26702612
 20
7.73129907
  0
VERTEX
  8
0
 62
7
 10
27.21500000
 20
7.71600000
  0
VERTEX
  8
0
 62
7
 10
27.25400000
 20
7.54200000
  0
VERTEX
  8
0
 62
7
 10
27.19464063
 20
7.52010938
  0
VERTEX
  8
0
 62
7
 10
27.13237500
 20
7.50412500
  0
VERTEX
  8
0
 62
7
 10
27.06767188
 20
7.49432813
  0
VERTEX
  8
0
 62
7
 10
27.00100000
 20
7.49100000
  0
VERTEX
  8
0
 62
7
 10
26.93141016
 20
7.49473242
  0
VERTEX
  8
0
 62
7
 10
26.86390625
 20
7.50567188
  0
VERTEX
  8
0
 62
7
 10
26.79888672
 20
7.52343164
  0
VERTEX
  8
0
 62
7
 10
26.73675000
 20
7.54762500
  0
VERTEX
  8
0
 62
7
 10
26.67789453
 20
7.57786523
  0
VERTEX
  8
0
 62
7
 10
26.62271875
 20
7.61376563
  0
VERTEX
  8
0
 62
7
 10
26.57162109
 20
7.65493945
  0
VERTEX
  8
0
 62
7
 10
26.52500000
 20
7.70100000
  0
VERTEX
  8
0
 62
7
 10
26.44600000
 20
7.78225000
  0
VERTEX
  8
0
 62
7
 10
26.36100000
 20
7.85600000
  0
VERTEX
  8
0
 62
7
 10
26.34423633
 20
7.85940430
  0
VERTEX
  8
0
 62
7
 10
26.32720313
 20
7.85998437
  0
VERTEX
  8
0
 62
7
 10
26.31028711
 20
7.85791602
  0
VERTEX
  8
0
 62
7
 10
26.29387500
 20
7.85337500
  0
VERTEX
  8
0
 62
7
 10
26.27835352
 20
7.84653711
  0
VERTEX
  8
0
 62
7
 10
26.26410938
 20
7.83757813
  0
VERTEX
  8
0
 62
7
 10
26.25152930
 20
7.82667383
  0
VERTEX
  8
0
 62
7
 10
26.24100000
 20
7.81400000
  0
VERTEX
  8
0
 62
7
 10
26.24362500
 20
7.78357813
  0
VERTEX
  8
0
 62
7
 10
26.24400000
 20
7.75137500
  0
VERTEX
  8
0
 62
7
 10
26.24212500
 20
7.71823437
  0
VERTEX
  8
0
 62
7
 10
26.23800000
 20
7.68500000
  0
VERTEX
  8
0
 62
7
 10
26.20340625
 20
7.66515625
  0
VERTEX
  8
0
 62
7
 10
26.16525000
 20
7.64700000
  0
VERTEX
  8
0
 62
7
 10
26.12521875
 20
7.63184375
  0
VERTEX
  8
0
 62
7
 10
26.08500000
 20
7.62100000
  0
VERTEX
  8
0
 62
7
 10
26.09262500
 20
7.65375000
  0
VERTEX
  8
0
 62
7
 10
26.09500000
 20
7.68800000
  0
VERTEX
  8
0
 62
7
 10
26.09279688
 20
7.72039063
  0
VERTEX
  8
0
 62
7
 10
26.08637500
 20
7.75137500
  0
VERTEX
  8
0
 62
7
 10
26.07601563
 20
7.78067188
  0
VERTEX
  8
0
 62
7
 10
26.06200000
 20
7.80800000
  0
VERTEX
  8
0
 62
7
 10
26.04281250
 20
7.82553125
  0
VERTEX
  8
0
 62
7
 10
26.02025000
 20
7.83875000
  0
VERTEX
  8
0
 62
7
 10
25.99506250
 20
7.84709375
  0
VERTEX
  8
0
 62
7
 10
25.96800000
 20
7.85000000
  0
VERTEX
  8
0
 62
7
 10
25.94875000
 20
7.84854688
  0
VERTEX
  8
0
 62
7
 10
25.93025000
 20
7.84437500
  0
VERTEX
  8
0
 62
7
 10
25.91287500
 20
7.83776563
  0
VERTEX
  8
0
 62
7
 10
25.89700000
 20
7.82900000
  0
VERTEX
  8
0
 62
7
 10
25.85393750
 20
7.80935938
  0
VERTEX
  8
0
 62
7
 10
25.81350000
 20
7.78512500
  0
VERTEX
  8
0
 62
7
 10
25.77606250
 20
7.75657812
  0
VERTEX
  8
0
 62
7
 10
25.74200000
 20
7.72400000
  0
VERTEX
  8
0
 62
7
 10
25.71039258
 20
7.69797070
  0
VERTEX
  8
0
 62
7
 10
25.67645313
 20
7.67476563
  0
VERTEX
  8
0
 62
7
 10
25.64038086
 20
7.65458398
  0
VERTEX
  8
0
 62
7
 10
25.60237500
 20
7.63762500
  0
VERTEX
  8
0
 62
7
 10
25.56263477
 20
7.62408789
  0
VERTEX
  8
0
 62
7
 10
25.52135937
 20
7.61417188
  0
VERTEX
  8
0
 62
7
 10
25.47874805
 20
7.60807617
  0
VERTEX
  8
0
 62
7
 10
25.43500000
 20
7.60600000
  0
VERTEX
  8
0
 62
7
 10
25.38180469
 20
7.60903711
  0
VERTEX
  8
0
 62
7
 10
25.33043750
 20
7.61792188
  0
VERTEX
  8
0
 62
7
 10
25.28122656
 20
7.63231445
  0
VERTEX
  8
0
 62
7
 10
25.23450000
 20
7.65187500
  0
VERTEX
  8
0
 62
7
 10
25.19058594
 20
7.67626367
  0
VERTEX
  8
0
 62
7
 10
25.14981250
 20
7.70514063
  0
VERTEX
  8
0
 62
7
 10
25.11250781
 20
7.73816602
  0
VERTEX
  8
0
 62
7
 10
25.07900000
 20
7.77500000
  0
VERTEX
  8
0
 62
7
 10
25.14100000
 20
7.90900000
  0
VERTEX
  8
0
 62
7
 10
25.09315576
 20
7.92895361
  0
VERTEX
  8
0
 62
7
 10
25.04723047
 20
7.95233203
  0
VERTEX
  8
0
 62
7
 10
25.00338525
 20
7.97897412
  0
VERTEX
  8
0
 62
7
 10
24.96178125
 20
8.00871875
  0
VERTEX
  8
0
 62
7
 10
24.92257959
 20
8.04140479
  0
VERTEX
  8
0
 62
7
 10
24.88594141
 20
8.07687109
  0
VERTEX
  8
0
 62
7
 10
24.85202783
 20
8.11495654
  0
VERTEX
  8
0
 62
7
 10
24.82100000
 20
8.15550000
  0
VERTEX
  8
0
 62
7
 10
24.79301904
 20
8.19834033
  0
VERTEX
  8
0
 62
7
 10
24.76824609
 20
8.24331641
  0
VERTEX
  8
0
 62
7
 10
24.74684229
 20
8.29026709
  0
VERTEX
  8
0
 62
7
 10
24.72896875
 20
8.33903125
  0
VERTEX
  8
0
 62
7
 10
24.71478662
 20
8.38944775
  0
VERTEX
  8
0
 62
7
 10
24.70445703
 20
8.44135547
  0
VERTEX
  8
0
 62
7
 10
24.69814111
 20
8.49459326
  0
VERTEX
  8
0
 62
7
 10
24.69600000
 20
8.54900000
  0
VERTEX
  8
0
 62
7
 10
24.69767188
 20
8.59718750
  0
VERTEX
  8
0
 62
7
 10
24.70262500
 20
8.64425000
  0
VERTEX
  8
0
 62
7
 10
24.71076563
 20
8.69018750
  0
VERTEX
  8
0
 62
7
 10
24.72200000
 20
8.73500000
  0
VERTEX
  8
0
 62
7
 10
24.75204297
 20
8.72076563
  0
VERTEX
  8
0
 62
7
 10
24.78290625
 20
8.70812500
  0
VERTEX
  8
0
 62
7
 10
24.81456641
 20
8.69717188
  0
VERTEX
  8
0
 62
7
 10
24.84700000
 20
8.68800000
  0
VERTEX
  8
0
 62
7
 10
24.88018359
 20
8.68070313
  0
VERTEX
  8
0
 62
7
 10
24.91409375
 20
8.67537500
  0
VERTEX
  8
0
 62
7
 10
24.94870703
 20
8.67210937
  0
VERTEX
  8
0
 62
7
 10
24.98400000
 20
8.67100000
  0
VERTEX
  8
0
 62
7
 10
25.09900000
 20
8.67600000
  0
VERTEX
  8
0
 62
7
 10
25.15123438
 20
8.67414062
  0
VERTEX
  8
0
 62
7
 10
25.20262500
 20
8.66862500
  0
VERTEX
  8
0
 62
7
 10
25.25270313
 20
8.65954688
  0
VERTEX
  8
0
 62
7
 10
25.30100000
 20
8.64700000
  0
VERTEX
  8
0
 62
7
 10
25.33000000
 20
8.76400000
  0
VERTEX
  8
0
 62
7
 10
25.38571362
 20
8.75514648
  0
VERTEX
  8
0
 62
7
 10
25.43984961
 20
8.74150000
  0
VERTEX
  8
0
 62
7
 10
25.49221313
 20
8.72330664
  0
VERTEX
  8
0
 62
7
 10
25.54260938
 20
8.70081250
  0
VERTEX
  8
0
 62
7
 10
25.59084351
 20
8.67426367
  0
VERTEX
  8
0
 62
7
 10
25.63672070
 20
8.64390625
  0
VERTEX
  8
0
 62
7
 10
25.68004614
 20
8.60998633
  0
VERTEX
  8
0
 62
7
 10
25.72062500
 20
8.57275000
  0
VERTEX
  8
0
 62
7
 10
25.75826245
 20
8.53244336
  0
VERTEX
  8
0
 62
7
 10
25.79276367
 20
8.48931250
  0
VERTEX
  8
0
 62
7
 10
25.82393384
 20
8.44360352
  0
VERTEX
  8
0
 62
7
 10
25.85157813
 20
8.39556250
  0
VERTEX
  8
0
 62
7
 10
25.87550171
 20
8.34543555
  0
VERTEX
  8
0
 62
7
 10
25.89550977
 20
8.29346875
  0
VERTEX
  8
0
 62
7
 10
25.91140747
 20
8.23990820
  0
VERTEX
  8
0
 62
7
 10
25.92300000
 20
8.18500000
  0
VERTEX
  8
0
 62
7
 10
25.92667969
 20
8.14742969
  0
VERTEX
  8
0
 62
7
 10
25.93725000
 20
8.11243750
  0
VERTEX
  8
0
 62
7
 10
25.95400781
 20
8.08072656
  0
VERTEX
  8
0
 62
7
 10
25.97625000
 20
8.05300000
  0
VERTEX
  8
0
 62
7
 10
26.00327344
 20
8.02996094
  0
VERTEX
  8
0
 62
7
 10
26.03437500
 20
8.01231250
  0
VERTEX
  8
0
 62
7
 10
26.06885156
 20
8.00075781
  0
VERTEX
  8
0
 62
7
 10
26.10600000
 20
7.99600000
  0
SEQEND
  0
POLYLINE
  8
0
 62
7
 66
1
 70
1
  0
VERTEX
  8
0
 62
7
 10
25.84600000
 20
6.40800000
  0
VERTEX
  8
0
 62
7
 10
25.86500000
 20
6.43100000
  0
VERTEX
  8
0
 62
7
 10
25.88353906
 20
6.44887891
  0
VERTEX
  8
0
 62
7
 10
25.90381250
 20
6.46490625
  0
VERTEX
  8
0
 62
7
 10
25.92567969
 20
6.47891797
  0
VERTEX
  8
0
 62
7
 10
25.94900000
 20
6.49075000
  0
VERTEX
  8
0
 62
7
 10
25.97363281
 20
6.50023828
  0
VERTEX
  8
0
 62
7
 10
25.99943750
 20
6.50721875
  0
VERTEX
  8
0
 62
7
 10
26.02627344
 20
6.51152734
  0
VERTEX
  8
0
 62
7
 10
26.05400000
 20
6.51300000
  0
VERTEX
  8
0
 62
7
 10
26.08029834
 20
6.51166260
  0
VERTEX
  8
0
 62
7
 10
26.10585547
 20
6.50773828
  0
VERTEX
  8
0
 62
7
 10
26.13053955
 20
6.50135889
  0
VERTEX
  8
0
 62
7
 10
26.15421875
 20
6.49265625
  0
VERTEX
  8
0
 62
7
 10
26.17676123
 20
6.48176221
  0
VERTEX
  8
0
 62
7
 10
26.19803516
 20
6.46880859
  0
VERTEX
  8
0
 62
7
 10
26.21790869
 20
6.45392725
  0
VERTEX
  8
0
 62
7
 10
26.23625000
 20
6.43725000
  0
VERTEX
  8
0
 62
7
 10
26.25292725
 20
6.41890869
  0
VERTEX
  8
0
 62
7
 10
26.26780859
 20
6.39903516
  0
VERTEX
  8
0
 62
7
 10
26.28076221
 20
6.37776123
  0
VERTEX
  8
0
 62
7
 10
26.29165625
 20
6.35521875
  0
VERTEX
  8
0
 62
7
 10
26.30035889
 20
6.33153955
  0
VERTEX
  8
0
 62
7
 10
26.30673828
 20
6.30685547
  0
VERTEX
  8
0
 62
7
 10
26.31066260
 20
6.28129834
  0
VERTEX
  8
0
 62
7
 10
26.31200000
 20
6.25500000
  0
VERTEX
  8
0
 62
7
 10
26.31066260
 20
6.22853687
  0
VERTEX
  8
0
 62
7
 10
26.30673828
 20
6.20285742
  0
VERTEX
  8
0
 62
7
 10
26.30035889
 20
6.17808911
  0
VERTEX
  8
0
 62
7
 10
26.29165625
 20
6.15435938
  0
VERTEX
  8
0
 62
7
 10
26.28076221
 20
6.13179565
  0
VERTEX
  8
0
 62
7
 10
26.26780859
 20
6.11052539
  0
VERTEX
  8
0
 62
7
 10
26.25292725
 20
6.09067603
  0
VERTEX
  8
0
 62
7
 10
26.23625000
 20
6.07237500
  0
VERTEX
  8
0
 62
7
 10
26.21790869
 20
6.05574976
  0
VERTEX
  8
0
 62
7
 10
26.19803516
 20
6.04092773
  0
VERTEX
  8
0
 62
7
 10
26.17676123
 20
6.02803638
  0
VERTEX
  8
0
 62
7
 10
26.15421875
 20
6.01720313
  0
VERTEX
  8
0
 62
7
 10
26.13053955
 20
6.00855542
  0
VERTEX
  8
0
 62
7
 10
26.10585547
 20
6.00222070
  0
VERTEX
  8
0
 62
7
 10
26.08029834
 20
5.99832642
  0
VERTEX
  8
0
 62
7
 10
26.05400000
 20
5.99700000
  0
VERTEX
  8
0
 62
7
 10
26.02753687
 20
5.99832642
  0
VERTEX
  8
0
 62
7
 10
26.00185742
 20
6.00222070
  0
VERTEX
  8
0
 62
7
 10
25.97708911
 20
6.00855542
  0
VERTEX
  8
0
 62
7
 10
25.95335938
 20
6.01720313
  0
VERTEX
  8
0
 62
7
 10
25.93079565
 20
6.02803638
  0
VERTEX
  8
0
 62
7
 10
25.90952539
 20
6.04092773
  0
VERTEX
  8
0
 62
7
 10
25.88967603
 20
6.05574976
  0
VERTEX
  8
0
 62
7
 10
25.87137500
 20
6.07237500
  0
VERTEX
  8
0
 62
7
 10
25.85474976
 20
6.09067603
  0
VERTEX
  8
0
 62
7
 10
25.83992773
 20
6.11052539
  0
VERTEX
  8
0
 62
7
 10
25.82703638
 20
6.13179565
  0
VERTEX
  8
0
 62
7
 10
25.81620313
 20
6.15435938
  0
VERTEX
  8
0
 62
7
 10
25.80755542
 20
6.17808911
  0
VERTEX
  8
0
 62
7
 10
25.80122070
 20
6.20285742
  0
VERTEX
  8
0
 62
7
 10
25.79732642
 20
6.22853687
  0
VERTEX
  8
0
 62
7
 10
25.79600000
 20
6.25500000
  0
VERTEX
  8
0
 62
7
 10
25.79945312
 20
6.29690625
  0
VERTEX
  8
0
 62
7
 10
25.80937500
 20
6.33675000
  0
VERTEX
  8
0
 62
7
 10
25.82510938
 20
6.37396875
  0
VERTEX
  8
0
 62
7
 10
25.84600000
 20
6.40800000
  0
SEQEND
  0
POLYLINE
  8
0
 62
7
 66
1
 70
1
  0
VERTEX
  8
0
 62
7
 10
25.70900000
 20
6.31900000
  0
VERTEX
  8
0
 62
7
 10
25.06400000
 20
6.52200000
  0
VERTEX
  8
0
 62
7
 10
25.05795313
 20
6.52895313
  0
VERTEX
  8
0
 62
7
 10
25.05912500
 20
6.53937500
  0
VERTEX
  8
0
 62
7
 10
25.06498438
 20
6.54885938
  0
VERTEX
  8
0
 62
7
 10
25.07300000
 20
6.55300000
  0
VERTEX
  8
0
 62
7
 10
25.72800000
 20
6.38400000
  0
VERTEX
  8
0
 62
7
 10
25.74240625
 20
6.41604688
  0
VERTEX
  8
0
 62
7
 10
25.76000000
 20
6.44612500
  0
VERTEX
  8
0
 62
7
 10
25.78059375
 20
6.47414063
  0
VERTEX
  8
0
 62
7
 10
25.80400000
 20
6.50000000
  0
VERTEX
  8
0
 62
7
 10
25.80400000
 20
6.50100000
  0
VERTEX
  8
0
 62
7
 10
25.35900000
 20
7.07100000
  0
VERTEX
  8
0
 62
7
 10
25.34706445
 20
7.08457422
  0
VERTEX
  8
0
 62
7
 10
25.33382813
 20
7.09671875
  0
VERTEX
  8
0
 62
7
 10
25.31939648
 20
7.10731641
  0
VERTEX
  8
0
 62
7
 10
25.30387500
 20
7.11625000
  0
VERTEX
  8
0
 62
7
 10
25.28736914
 20
7.12340234
  0
VERTEX
  8
0
 62
7
 10
25.26998438
 20
7.12865625
  0
VERTEX
  8
0
 62
7
 10
25.25182617
 20
7.13189453
  0
VERTEX
  8
0
 62
7
 10
25.23300000
 20
7.13300000
  0
VERTEX
  8
0
 62
7
 10
25.21165234
 20
7.13162109
  0
VERTEX
  8
0
 62
7
 10
25.19121875
 20
7.12759375
  0
VERTEX
  8
0
 62
7
 10
25.17186328
 20
7.12108203
  0
VERTEX
  8
0
 62
7
 10
25.15375000
 20
7.11225000
  0
VERTEX
  8
0
 62
7
 10
25.13704297
 20
7.10126172
  0
VERTEX
  8
0
 62
7
 10
25.12190625
 20
7.08828125
  0
VERTEX
  8
0
 62
7
 10
25.10850391
 20
7.07347266
  0
VERTEX
  8
0
 62
7
 10
25.09700000
 20
7.05700000
  0
VERTEX
  8
0
 62
7
 10
25.08140430
 20
7.02711133
  0
VERTEX
  8
0
 62
7
 10
25.06185938
 20
6.99995313
  0
VERTEX
  8
0
 62
7
 10
25.03872852
 20
6.97591211
  0
VERTEX
  8
0
 62
7
 10
25.01237500
 20
6.95537500
  0
VERTEX
  8
0
 62
7
 10
24.98316211
 20
6.93872852
  0
VERTEX
  8
0
 62
7
 10
24.95145313
 20
6.92635938
  0
VERTEX
  8
0
 62
7
 10
24.91761133
 20
6.91865430
  0
VERTEX
  8
0
 62
7
 10
24.88200000
 20
6.91600000
  0
VERTEX
  8
0
 62
7
 10
24.85800000
 20
6.91737500
  0
VERTEX
  8
0
 62
7
 10
24.83400000
 20
6.92100000
  0
VERTEX
  8
0
 62
7
 10
24.84450000
 20
6.88160938
  0
VERTEX
  8
0
 62
7
 10
24.85200000
 20
6.84137500
  0
VERTEX
  8
0
 62
7
 10
24.85650000
 20
6.80020313
  0
VERTEX
  8
0
 62
7
 10
24.85800000
 20
6.75800000
  0
VERTEX
  8
0
 62
7
 10
24.85454883
 20
6.69585938
  0
VERTEX
  8
0
 62
7
 10
24.84445313
 20
6.63568750
  0
VERTEX
  8
0
 62
7
 10
24.82809961
 20
6.57785938
  0
VERTEX
  8
0
 62
7
 10
24.80587500
 20
6.52275000
  0
VERTEX
  8
0
 62
7
 10
24.77816602
 20
6.47073438
  0
VERTEX
  8
0
 62
7
 10
24.74535938
 20
6.42218750
  0
VERTEX
  8
0
 62
7
 10
24.70784180
 20
6.37748437
  0
VERTEX
  8
0
 62
7
 10
24.66600000
 20
6.33700000
  0
VERTEX
  8
0
 62
7
 10
24.69845703
 20
6.32254492
  0
VERTEX
  8
0
 62
7
 10
24.72803125
 20
6.30348438
  0
VERTEX
  8
0
 62
7
 10
24.75427734
 20
6.28027539
  0
VERTEX
  8
0
 62
7
 10
24.77675000
 20
6.25337500
  0
VERTEX
  8
0
 62
7
 10
24.79500391
 20
6.22324023
  0
VERTEX
  8
0
 62
7
 10
24.80859375
 20
6.19032812
  0
VERTEX
  8
0
 62
7
 10
24.81707422
 20
6.15509570
  0
VERTEX
  8
0
 62
7
 10
24.82000000
 20
6.11800000
  0
VERTEX
  8
0
 62
7
 10
24.81700000
 20
6.08200000
  0
VERTEX
  8
0
 62
7
 10
24.81700000
 20
6.08200000
  0
VERTEX
  8
0
 62
7
 10
24.82022461
 20
6.04985938
  0
VERTEX
  8
0
 62
7
 10
24.82948438
 20
6.01987500
  0
VERTEX
  8
0
 62
7
 10
24.84415820
 20
5.99270313
  0
VERTEX
  8
0
 62
7
 10
24.86362500
 20
5.96900000
  0
VERTEX
  8
0
 62
7
 10
24.88726367
 20
5.94942188
  0
VERTEX
  8
0
 62
7
 10
24.91445313
 20
5.93462500
  0
VERTEX
  8
0
 62
7
 10
24.94457227
 20
5.92526562
  0
VERTEX
  8
0
 62
7
 10
24.97700000
 20
5.92200000
  0
VERTEX
  8
0
 62
7
 10
24.99556250
 20
5.92337500
  0
VERTEX
  8
0
 62
7
 10
25.01375000
 20
5.92700000
  0
VERTEX
  8
0
 62
7
 10
25.03156250
 20
5.93212500
  0
VERTEX
  8
0
 62
7
 10
25.04900000
 20
5.93800000
  0
VERTEX
  8
0
 62
7
 10
25.71200000
 20
6.17900000
  0
VERTEX
  8
0
 62
7
 10
25.70525000
 20
6.21625000
  0
VERTEX
  8
0
 62
7
 10
25.70300000
 20
6.25500000
  0
VERTEX
  8
0
 62
7
 10
25.70450000
 20
6.28737500
  0
VERTEX
  8
0
 62
7
 10
25.70900000
 20
6.31900000
  0
SEQEND
  0
POLYLINE
  8
0
 62
7
 66
1
 70
1
  0
VERTEX
  8
0
 62
7
 10
25.88700000
 20
5.94600000
  0
VERTEX
  8
0
 62
7
 10
25.49400000
 20
5.39600000
  0
VERTEX
  8
0
 62
7
 10
25.48972266
 20
5.39230273
  0
VERTEX
  8
0
 62
7
 10
25.48471875
 20
5.39135938
  0
VERTEX
  8
0
 62
7
 10
25.47948047
 20
5.39264258
  0
VERTEX
  8
0
 62
7
 10
25.47450000
 20
5.39562500
  0
VERTEX
  8
0
 62
7
 10
25.47026953
 20
5.39977930
  0
VERTEX
  8
0
 62
7
 10
25.46728125
 20
5.40457813
  0
VERTEX
  8
0
 62
7
 10
25.46602734
 20
5.40949414
  0
VERTEX
  8
0
 62
7
 10
25.46700000
 20
5.41400000
  0
VERTEX
  8
0
 62
7
 10
25.83100000
 20
5.98400000
  0
VERTEX
  8
0
 62
7
 10
25.80515625
 20
6.00778125
  0
VERTEX
  8
0
 62
7
 10
25.78175000
 20
6.03400000
  0
VERTEX
  8
0
 62
7
 10
25.76096875
 20
6.06246875
  0
VERTEX
  8
0
 62
7
 10
25.74300000
 20
6.09300000
  0
VERTEX
  8
0
 62
7
 10
25.06300000
 20
5.84600000
  0
VERTEX
  8
0
 62
7
 10
25.04064453
 20
5.83578125
  0
VERTEX
  8
0
 62
7
 10
25.02028125
 20
5.82256250
  0
VERTEX
  8
0
 62
7
 10
25.00221484
 20
5.80662500
  0
VERTEX
  8
0
 62
7
 10
24.98675000
 20
5.78825000
  0
VERTEX
  8
0
 62
7
 10
24.97419141
 20
5.76771875
  0
VERTEX
  8
0
 62
7
 10
24.96484375
 20
5.74531250
  0
VERTEX
  8
0
 62
7
 10
24.95901172
 20
5.72131250
  0
VERTEX
  8
0
 62
7
 10
24.95700000
 20
5.69600000
  0
VERTEX
  8
0
 62
7
 10
24.95956250
 20
5.66682813
  0
VERTEX
  8
0
 62
7
 10
24.96700000
 20
5.63962500
  0
VERTEX
  8
0
 62
7
 10
24.97893750
 20
5.61485938
  0
VERTEX
  8
0
 62
7
 10
24.99500000
 20
5.59300000
  0
VERTEX
  8
0
 62
7
 10
25.01250586
 20
5.57596289
  0
VERTEX
  8
0
 62
7
 10
25.02817188
 20
5.55720313
  0
VERTEX
  8
0
 62
7
 10
25.04184570
 20
5.53687305
  0
VERTEX
  8
0
 62
7
 10
25.05337500
 20
5.51512500
  0
VERTEX
  8
0
 62
7
 10
25.06260742
 20
5.49211133
  0
VERTEX
  8
0
 62
7
 10
25.06939063
 20
5.46798438
  0
VERTEX
  8
0
 62
7
 10
25.07357227
 20
5.44289648
  0
VERTEX
  8
0
 62
7
 10
25.07500000
 20
5.41700000
  0
VERTEX
  8
0
 62
7
 10
25.07281250
 20
5.38578125
  0
VERTEX
  8
0
 62
7
 10
25.06650000
 20
5.35550000
  0
VERTEX
  8
0
 62
7
 10
25.05643750
 20
5.32671875
  0
VERTEX
  8
0
 62
7
 10
25.04300000
 20
5.30000000
  0
VERTEX
  8
0
 62
7
 10
25.08514551
 20
5.29786279
  0
VERTEX
  8
0
 62
7
 10
25.12638281
 20
5.29265234
  0
VERTEX
  8
0
 62
7
 10
25.16660059
 20
5.28448291
  0
VERTEX
  8
0
 62
7
 10
25.20568750
 20
5.27346875
  0
VERTEX
  8
0
 62
7
 10
25.24353223
 20
5.25972412
  0
VERTEX
  8
0
 62
7
 10
25.28002344
 20
5.24336328
  0
VERTEX
  8
0
 62
7
 10
25.31504980
 20
5.22450049
  0
VERTEX
  8
0
 62
7
 10
25.34850000
 20
5.20325000
  0
VERTEX
  8
0
 62
7
 10
25.38026270
 20
5.17972607
  0
VERTEX
  8
0
 62
7
 10
25.41022656
 20
5.15404297
  0
VERTEX
  8
0
 62
7
 10
25.43828027
 20
5.12631494
  0
VERTEX
  8
0
 62
7
 10
25.46431250
 20
5.09665625
  0
VERTEX
  8
0
 62
7
 10
25.48821191
 20
5.06518115
  0
VERTEX
  8
0
 62
7
 10
25.50986719
 20
5.03200391
  0
VERTEX
  8
0
 62
7
 10
25.52916699
 20
4.99723877
  0
VERTEX
  8
0
 62
7
 10
25.54600000
 20
4.96100000
  0
VERTEX
  8
0
 62
7
 10
25.56292969
 20
4.98032812
  0
VERTEX
  8
0
 62
7
 10
25.58206250
 20
4.99768750
  0
VERTEX
  8
0
 62
7
 10
25.60316406
 20
5.01289062
  0
VERTEX
  8
0
 62
7
 10
25.62600000
 20
5.02575000
  0
VERTEX
  8
0
 62
7
 10
25.65033594
 20
5.03607813
  0
VERTEX
  8
0
 62
7
 10
25.67593750
 20
5.04368750
  0
VERTEX
  8
0
 62
7
 10
25.70257031
 20
5.04839062
  0
VERTEX
  8
0
 62
7
 10
25.73000000
 20
5.05000000
  0
VERTEX
  8
0
 62
7
 10
25.74999219
 20
5.04858203
  0
VERTEX
  8
0
 62
7
 10
25.76956250
 20
5.04484375
  0
VERTEX
  8
0
 62
7
 10
25.78885156
 20
5.03955859
  0
VERTEX
  8
0
 62
7
 10
25.80800000
 20
5.03350000
  0
VERTEX
  8
0
 62
7
 10
25.82714844
 20
5.02744141
  0
VERTEX
  8
0
 62
7
 10
25.84643750
 20
5.02215625
  0
VERTEX
  8
0
 62
7
 10
25.86600781
 20
5.01841797
  0
VERTEX
  8
0
 62
7
 10
25.88600000
 20
5.01700000
  0
VERTEX
  8
0
 62
7
 10
25.91600391
 20
5.01982031
  0
VERTEX
  8
0
 62
7
 10
25.94415625
 20
5.02793750
  0
VERTEX
  8
0
 62
7
 10
25.96991797
 20
5.04083594
  0
VERTEX
  8
0
 62
7
 10
25.99275000
 20
5.05800000
  0
VERTEX
  8
0
 62
7
 10
26.01211328
 20
5.07891406
  0
VERTEX
  8
0
 62
7
 10
26.02746875
 20
5.10306250
  0
VERTEX
  8
0
 62
7
 10
26.03827734
 20
5.12992969
  0
VERTEX
  8
0
 62
7
 10
26.04400000
 20
5.15900000
  0
VERTEX
  8
0
 62
7
 10
26.02000000
 20
5.90600000
  0
VERTEX
  8
0
 62
7
 10
25.98459375
 20
5.91098438
  0
VERTEX
  8
0
 62
7
 10
25.95050000
 20
5.91962500
  0
VERTEX
  8
0
 62
7
 10
25.91790625
 20
5.93145313
  0
VERTEX
  8
0
 62
7
 10
25.88700000
 20
5.94600000
  0
SEQEND
  0
POLYLINE
  8
0
 62
7
 66
1
 70
1
  0
VERTEX
  8
0
 62
7
 10
27.12700000
 20
5.37200000
  0
VERTEX
  8
0
 62
7
 10
27.11035938
 20
5.40160938
  0
VERTEX
  8
0
 62
7
 10
27.09812500
 20
5.43337500
  0
VERTEX
  8
0
 62
7
 10
27.09057813
 20
5.46720313
  0
VERTEX
  8
0
 62
7
 10
27.08800000
 20
5.50300000
  0
VERTEX
  8
0
 62
7
 10
27.08919922
 20
5.52669922
  0
VERTEX
  8
0
 62
7
 10
27.09271875
 20
5.54971875
  0
VERTEX
  8
0
 62
7
 10
27.09844141
 20
5.57194141
  0
VERTEX
  8
0
 62
7
 10
27.10625000
 20
5.59325000
  0
VERTEX
  8
0
 62
7
 10
27.11602734
 20
5.61352734
  0
VERTEX
  8
0
 62
7
 10
27.12765625
 20
5.63265625
  0
VERTEX
  8
0
 62
7
 10
27.14101953
 20
5.65051953
  0
VERTEX
  8
0
 62
7
 10
27.15600000
 20
5.66700000
  0
VERTEX
  8
0
 62
7
 10
27.16885938
 20
5.68817188
  0
VERTEX
  8
0
 62
7
 10
27.17862500
 20
5.71112500
  0
VERTEX
  8
0
 62
7
 10
27.18482812
 20
5.73576563
  0
VERTEX
  8
0
 62
7
 10
27.18700000
 20
5.76200000
  0
VERTEX
  8
0
 62
7
 10
27.18521680
 20
5.78558008
  0
VERTEX
  8
0
 62
7
 10
27.18004688
 20
5.80814063
  0
VERTEX
  8
0
 62
7
 10
27.17175977
 20
5.82941211
  0
VERTEX
  8
0
 62
7
 10
27.16062500
 20
5.84912500
  0
VERTEX
  8
0
 62
7
 10
27.14691211
 20
5.86700977
  0
VERTEX
  8
0
 62
7
 10
27.13089062
 20
5.88279688
  0
VERTEX
  8
0
 62
7
 10
27.11283008
 20
5.89621680
  0
VERTEX
  8
0
 62
7
 10
27.09300000
 20
5.90700000
  0
VERTEX
  8
0
 62
7
 10
27.05300000
 20
5.92100000
  0
VERTEX
  8
0
 62
7
 10
26.37500000
 20
6.11500000
  0
VERTEX
  8
0
 62
7
 10
26.35970312
 20
6.08354687
  0
VERTEX
  8
0
 62
7
 10
26.34112500
 20
6.05387500
  0
VERTEX
  8
0
 62
7
 10
26.31973437
 20
6.02626562
  0
VERTEX
  8
0
 62
7
 10
26.29600000
 20
6.00100000
  0
VERTEX
  8
0
 62
7
 10
26.69700000
 20
5.45700000
  0
VERTEX
  8
0
 62
7
 10
26.69924805
 20
5.45166992
  0
VERTEX
  8
0
 62
7
 10
26.69885938
 20
5.44642188
  0
VERTEX
  8
0
 62
7
 10
26.69638477
 20
5.44161914
  0
VERTEX
  8
0
 62
7
 10
26.69237500
 20
5.43762500
  0
VERTEX
  8
0
 62
7
 10
26.68738086
 20
5.43480273
  0
VERTEX
  8
0
 62
7
 10
26.68195313
 20
5.43351563
  0
VERTEX
  8
0
 62
7
 10
26.67664258
 20
5.43412695
  0
VERTEX
  8
0
 62
7
 10
26.67200000
 20
5.43700000
  0
VERTEX
  8
0
 62
7
 10
26.24200000
 20
5.95900000
  0
VERTEX
  8
0
 62
7
 10
26.21184375
 20
5.94176563
  0
VERTEX
  8
0
 62
7
 10
26.18000000
 20
5.92762500
  0
VERTEX
  8
0
 62
7
 10
26.14665625
 20
5.91667188
  0
VERTEX
  8
0
 62
7
 10
26.11200000
 20
5.90900000
  0
VERTEX
  8
0
 62
7
 10
26.13600000
 20
5.18600000
  0
VERTEX
  8
0
 62
7
 10
26.14020898
 20
5.15464844
  0
VERTEX
  8
0
 62
7
 10
26.15017188
 20
5.12550000
  0
VERTEX
  8
0
 62
7
 10
26.16526758
 20
5.09916406
  0
VERTEX
  8
0
 62
7
 10
26.18487500
 20
5.07625000
  0
VERTEX
  8
0
 62
7
 10
26.20837305
 20
5.05736719
  0
VERTEX
  8
0
 62
7
 10
26.23514063
 20
5.04312500
  0
VERTEX
  8
0
 62
7
 10
26.26455664
 20
5.03413281
  0
VERTEX
  8
0
 62
7
 10
26.29600000
 20
5.03100000
  0
VERTEX
  8
0
 62
7
 10
26.31923828
 20
5.03293359
  0
VERTEX
  8
0
 62
7
 10
26.34184375
 20
5.03803125
  0
VERTEX
  8
0
 62
7
 10
26.36402734
 20
5.04523828
  0
VERTEX
  8
0
 62
7
 10
26.38600000
 20
5.05350000
  0
VERTEX
  8
0
 62
7
 10
26.40797266
 20
5.06176172
  0
VERTEX
  8
0
 62
7
 10
26.43015625
 20
5.06896875
  0
VERTEX
  8
0
 62
7
 10
26.45276172
 20
5.07406641
  0
VERTEX
  8
0
 62
7
 10
26.47600000
 20
5.07600000
  0
VERTEX
  8
0
 62
7
 10
26.50148047
 20
5.07461914
  0
VERTEX
  8
0
 62
7
 10
26.52609375
 20
5.07057812
  0
VERTEX
  8
0
 62
7
 10
26.54972266
 20
5.06402930
  0
VERTEX
  8
0
 62
7
 10
26.57225000
 20
5.05512500
  0
VERTEX
  8
0
 62
7
 10
26.59355859
 20
5.04401758
  0
VERTEX
  8
0
 62
7
 10
26.61353125
 20
5.03085938
  0
VERTEX
  8
0
 62
7
 10
26.63205078
 20
5.01580273
  0
VERTEX
  8
0
 62
7
 10
26.64900000
 20
4.99900000
  0
VERTEX
  8
0
 62
7
 10
26.66345386
 20
5.03659839
  0
VERTEX
  8
0
 62
7
 10
26.68049023
 20
5.07281836
  0
VERTEX
  8
0
 62
7
 10
26.69999634
 20
5.10754712
  0
VERTEX
  8
0
 62
7
 10
26.72185938
 20
5.14067187
  0
VERTEX
  8
0
 62
7
 10
26.74596655
 20
5.17207983
  0
VERTEX
  8
0
 62
7
 10
26.77220508
 20
5.20165820
  0
VERTEX
  8
0
 62
7
 10
26.80046216
 20
5.22929419
  0
VERTEX
  8
0
 62
7
 10
26.83062500
 20
5.25487500
  0
VERTEX
  8
0
 62
7
 10
26.86258081
 20
5.27828784
  0
VERTEX
  8
0
 62
7
 10
26.89621680
 20
5.29941992
  0
VERTEX
  8
0
 62
7
 10
26.93142017
 20
5.31815845
  0
VERTEX
  8
0
 62
7
 10
26.96807813
 20
5.33439063
  0
VERTEX
  8
0
 62
7
 10
27.00607788
 20
5.34800366
  0
VERTEX
  8
0
 62
7
 10
27.04530664
 20
5.35888477
  0
VERTEX
  8
0
 62
7
 10
27.08565161
 20
5.36692114
  0
VERTEX
  8
0
 62
7
 10
27.12700000
 20
5.37200000
  0
SEQEND
  0
POLYLINE
  8
0
 62
7
 66
1
 70
1
  0
VERTEX
  8
0
 62
7
 10
26.39300000
 20
6.34200000
  0
VERTEX
  8
0
 62
7
 10
26.40150000
 20
6.29925000
  0
VERTEX
  8
0
 62
7
 10
26.40400000
 20
6.25500000
  0
VERTEX
  8
0
 62
7
 10
26.40100000
 20
6.20300000
  0
VERTEX
  8
0
 62
7
 10
27.09600000
 20
6.00300000
  0
VERTEX
  8
0
 62
7
 10
27.11775000
 20
5.99850000
  0
VERTEX
  8
0
 62
7
 10
27.14100000
 20
5.99700000
  0
VERTEX
  8
0
 62
7
 10
27.17309766
 20
6.00022266
  0
VERTEX
  8
0
 62
7
 10
27.20296875
 20
6.00946875
  0
VERTEX
  8
0
 62
7
 10
27.22998047
 20
6.02410547
  0
VERTEX
  8
0
 62
7
 10
27.25350000
 20
6.04350000
  0
VERTEX
  8
0
 62
7
 10
27.27289453
 20
6.06701953
  0
VERTEX
  8
0
 62
7
 10
27.28753125
 20
6.09403125
  0
VERTEX
  8
0
 62
7
 10
27.29677734
 20
6.12390234
  0
VERTEX
  8
0
 62
7
 10
27.30000000
 20
6.15600000
  0
VERTEX
  8
0
 62
7
 10
27.29400000
 20
6.22000000
  0
VERTEX
  8
0
 62
7
 10
27.29660742
 20
6.25491016
  0
VERTEX
  8
0
 62
7
 10
27.30417188
 20
6.28815625
  0
VERTEX
  8
0
 62
7
 10
27.31630664
 20
6.31938672
  0
VERTEX
  8
0
 62
7
 10
27.33262500
 20
6.34825000
  0
VERTEX
  8
0
 62
7
 10
27.35274023
 20
6.37439453
  0
VERTEX
  8
0
 62
7
 10
27.37626563
 20
6.39746875
  0
VERTEX
  8
0
 62
7
 10
27.40281445
 20
6.41712109
  0
VERTEX
  8
0
 62
7
 10
27.43200000
 20
6.43300000
  0
VERTEX
  8
0
 62
7
 10
27.40743555
 20
6.45280713
  0
VERTEX
  8
0
 62
7
 10
27.38403125
 20
6.47394141
  0
VERTEX
  8
0
 62
7
 10
27.36184570
 20
6.49634717
  0
VERTEX
  8
0
 62
7
 10
27.34093750
 20
6.51996875
  0
VERTEX
  8
0
 62
7
 10
27.32136523
 20
6.54475049
  0
VERTEX
  8
0
 62
7
 10
27.30318750
 20
6.57063672
  0
VERTEX
  8
0
 62
7
 10
27.28646289
 20
6.59757178
  0
VERTEX
  8
0
 62
7
 10
27.27125000
 20
6.62550000
  0
VERTEX
  8
0
 62
7
 10
27.25760742
 20
6.65436572
  0
VERTEX
  8
0
 62
7
 10
27.24559375
 20
6.68411328
  0
VERTEX
  8
0
 62
7
 10
27.23526758
 20
6.71468701
  0
VERTEX
  8
0
 62
7
 10
27.22668750
 20
6.74603125
  0
VERTEX
  8
0
 62
7
 10
27.21991211
 20
6.77809033
  0
VERTEX
  8
0
 62
7
 10
27.21500000
 20
6.81080859
  0
VERTEX
  8
0
 62
7
 10
27.21200977
 20
6.84413037
  0
VERTEX
  8
0
 62
7
 10
27.21100000
 20
6.87800000
  0
VERTEX
  8
0
 62
7
 10
27.21178125
 20
6.91004687
  0
VERTEX
  8
0
 62
7
 10
27.21425000
 20
6.94162500
  0
VERTEX
  8
0
 62
7
 10
27.21859375
 20
6.97264063
  0
VERTEX
  8
0
 62
7
 10
27.22500000
 20
7.00300000
  0
VERTEX
  8
0
 62
7
 10
27.19375000
 20
6.99712500
  0
VERTEX
  8
0
 62
7
 10
27.16100000
 20
6.99500000
  0
VERTEX
  8
0
 62
7
 10
27.12782227
 20
6.99733789
  0
VERTEX
  8
0
 62
7
 10
27.09601563
 20
7.00414062
  0
VERTEX
  8
0
 62
7
 10
27.06591992
 20
7.01509180
  0
VERTEX
  8
0
 62
7
 10
27.03787500
 20
7.02987500
  0
VERTEX
  8
0
 62
7
 10
27.01222070
 20
7.04817383
  0
VERTEX
  8
0
 62
7
 10
26.98929688
 20
7.06967188
  0
VERTEX
  8
0
 62
7
 10
26.96944336
 20
7.09405273
  0
VERTEX
  8
0
 62
7
 10
26.95300000
 20
7.12100000
  0
VERTEX
  8
0
 62
7
 10
26.94130469
 20
7.13565039
  0
VERTEX
  8
0
 62
7
 10
26.92806250
 20
7.14876563
  0
VERTEX
  8
0
 62
7
 10
26.91341406
 20
7.16021680
  0
VERTEX
  8
0
 62
7
 10
26.89750000
 20
7.16987500
  0
VERTEX
  8
0
 62
7
 10
26.88046094
 20
7.17761133
  0
VERTEX
  8
0
 62
7
 10
26.86243750
 20
7.18329687
  0
VERTEX
  8
0
 62
7
 10
26.84357031
 20
7.18680273
  0
VERTEX
  8
0
 62
7
 10
26.82400000
 20
7.18800000
  0
VERTEX
  8
0
 62
7
 10
26.78981250
 20
7.18437500
  0
VERTEX
  8
0
 62
7
 10
26.75825000
 20
7.17400000
  0
VERTEX
  8
0
 62
7
 10
26.73006250
 20
7.15762500
  0
VERTEX
  8
0
 62
7
 10
26.70600000
 20
7.13600000
  0
VERTEX
  8
0
 62
7
 10
26.28600000
 20
6.51700000
  0
VERTEX
  8
0
 62
7
 10
26.31107813
 20
6.49262500
  0
VERTEX
  8
0
 62
7
 10
26.33362500
 20
6.46600000
  0
VERTEX
  8
0
 62
7
 10
26.35335938
 20
6.43712500
  0
VERTEX
  8
0
 62
7
 10
26.37000000
 20
6.40600000
  0
VERTEX
  8
0
 62
7
 10
27.01700000
 20
6.62100000
  0
VERTEX
  8
0
 62
7
 10
27.02565625
 20
6.61685937
  0
VERTEX
  8
0
 62
7
 10
27.03000000
 20
6.60737500
  0
VERTEX
  8
0
 62
7
 10
27.02909375
 20
6.59695312
  0
VERTEX
  8
0
 62
7
 10
27.02200000
 20
6.59000000
  0
VERTEX
  8
0
 62
7
 10
26.39300000
 20
6.34200000
  0
SEQEND
  0
POLYLINE
  8
0
 62
7
 66
1
 70
1
  0
VERTEX
  8
0
 62
7
 10
26.61600000
 20
7.16800000
  0
VERTEX
  8
0
 62
7
 10
26.62739063
 20
7.18796875
  0
VERTEX
  8
0
 62
7
 10
26.63587500
 20
7.21000000
  0
VERTEX
  8
0
 62
7
 10
26.64117188
 20
7.23353125
  0
VERTEX
  8
0
 62
7
 10
26.64300000
 20
7.25800000
  0
VERTEX
  8
0
 62
7
 10
26.64062891
 20
7.28549609
  0
VERTEX
  8
0
 62
7
 10
26.63378125
 20
7.31146875
  0
VERTEX
  8
0
 62
7
 10
26.62285547
 20
7.33551953
  0
VERTEX
  8
0
 62
7
 10
26.60825000
 20
7.35725000
  0
VERTEX
  8
0
 62
7
 10
26.59036328
 20
7.37626172
  0
VERTEX
  8
0
 62
7
 10
26.56959375
 20
7.39215625
  0
VERTEX
  8
0
 62
7
 10
26.54633984
 20
7.40453516
  0
VERTEX
  8
0
 62
7
 10
26.52100000
 20
7.41300000
  0
VERTEX
  8
0
 62
7
 10
26.48084570
 20
7.42025586
  0
VERTEX
  8
0
 62
7
 10
26.44332813
 20
7.43410938
  0
VERTEX
  8
0
 62
7
 10
26.40911523
 20
7.45393945
  0
VERTEX
  8
0
 62
7
 10
26.37887500
 20
7.47912500
  0
VERTEX
  8
0
 62
7
 10
26.35327539
 20
7.50904492
  0
VERTEX
  8
0
 62
7
 10
26.33298437
 20
7.54307813
  0
VERTEX
  8
0
 62
7
 10
26.31866992
 20
7.58060352
  0
VERTEX
  8
0
 62
7
 10
26.31100000
 20
7.62100000
  0
VERTEX
  8
0
 62
7
 10
26.27600391
 20
7.59828516
  0
VERTEX
  8
0
 62
7
 10
26.23934375
 20
7.57821875
  0
VERTEX
  8
0
 62
7
 10
26.20113672
 20
7.56091797
  0
VERTEX
  8
0
 62
7
 10
26.16150000
 20
7.54650000
  0
VERTEX
  8
0
 62
7
 10
26.12055078
 20
7.53508203
  0
VERTEX
  8
0
 62
7
 10
26.07840625
 20
7.52678125
  0
VERTEX
  8
0
 62
7
 10
26.03518359
 20
7.52171484
  0
VERTEX
  8
0
 62
7
 10
25.99100000
 20
7.52000000
  0
VERTEX
  8
0
 62
7
 10
25.95196680
 20
7.52134570
  0
VERTEX
  8
0
 62
7
 10
25.91367188
 20
7.52532813
  0
VERTEX
  8
0
 62
7
 10
25.87619727
 20
7.53186523
  0
VERTEX
  8
0
 62
7
 10
25.83962500
 20
7.54087500
  0
VERTEX
  8
0
 62
7
 10
25.80403711
 20
7.55227539
  0
VERTEX
  8
0
 62
7
 10
25.76951563
 20
7.56598438
  0
VERTEX
  8
0
 62
7
 10
25.73614258
 20
7.58191992
  0
VERTEX
  8
0
 62
7
 10
25.70400000
 20
7.60000000
  0
VERTEX
  8
0
 62
7
 10
25.69885938
 20
7.55904297
  0
VERTEX
  8
0
 62
7
 10
25.68687500
 20
7.52059375
  0
VERTEX
  8
0
 62
7
 10
25.66870313
 20
7.48528516
  0
VERTEX
  8
0
 62
7
 10
25.64500000
 20
7.45375000
  0
VERTEX
  8
0
 62
7
 10
25.61642188
 20
7.42662109
  0
VERTEX
  8
0
 62
7
 10
25.58362500
 20
7.40453125
  0
VERTEX
  8
0
 62
7
 10
25.54726563
 20
7.38811328
  0
VERTEX
  8
0
 62
7
 10
25.50800000
 20
7.37800000
  0
VERTEX
  8
0
 62
7
 10
25.48456836
 20
7.36835156
  0
VERTEX
  8
0
 62
7
 10
25.46323437
 20
7.35537500
  0
VERTEX
  8
0
 62
7
 10
25.44431445
 20
7.33939844
  0
VERTEX
  8
0
 62
7
 10
25.42812500
 20
7.32075000
  0
VERTEX
  8
0
 62
7
 10
25.41498242
 20
7.29975781
  0
VERTEX
  8
0
 62
7
 10
25.40520313
 20
7.27675000
  0
VERTEX
  8
0
 62
7
 10
25.39910352
 20
7.25205469
  0
VERTEX
  8
0
 62
7
 10
25.39700000
 20
7.22600000
  0
VERTEX
  8
0
 62
7
 10
25.39831250
 20
7.20465625
  0
VERTEX
  8
0
 62
7
 10
25.40225000
 20
7.18425000
  0
VERTEX
  8
0
 62
7
 10
25.40881250
 20
7.16496875
  0
VERTEX
  8
0
 62
7
 10
25.41800000
 20
7.14700000
  0
VERTEX
  8
0
 62
7
 10
25.87600000
 20
6.55700000
  0
VERTEX
  8
0
 62
7
 10
25.90632813
 20
6.57289063
  0
VERTEX
  8
0
 62
7
 10
25.93862500
 20
6.58587500
  0
VERTEX
  8
0
 62
7
 10
25.97260938
 20
6.59567187
  0
VERTEX
  8
0
 62
7
 10
26.00800000
 20
6.60200000
  0
VERTEX
  8
0
 62
7
 10
26.00300000
 20
7.27800000
  0
VERTEX
  8
0
 62
7
 10
26.00300000
 20
7.27900000
  0
VERTEX
  8
0
 62
7
 10
26.00429297
 20
7.28404688
  0
VERTEX
  8
0
 62
7
 10
26.00771875
 20
7.28787500
  0
VERTEX
  8
0
 62
7
 10
26.01259766
 20
7.29039063
  0
VERTEX
  8
0
 62
7
 10
26.01825000
 20
7.29150000
  0
VERTEX
  8
0
 62
7
 10
26.02399609
 20
7.29110938
  0
VERTEX
  8
0
 62
7
 10
26.02915625
 20
7.28912500
  0
VERTEX
  8
0
 62
7
 10
26.03305078
 20
7.28545313
  0
VERTEX
  8
0
 62
7
 10
26.03500000
 20
7.28000000
  0
VERTEX
  8
0
 62
7
 10
26.07600000
 20
6.60500000
  0
VERTEX
  8
0
 62
7
 10
26.11142188
 20
6.60092188
  0
VERTEX
  8
0
 62
7
 10
26.14562500
 20
6.59337500
  0
VERTEX
  8
0
 62
7
 10
26.17851562
 20
6.58264062
  0
VERTEX
  8
0
 62
7
 10
26.21000000
 20
6.56900000
  0
VERTEX
  8
0
 62
7
 10
26.61600000
 20
7.16800000
  0
SEQEND
  0
POLYLINE
  8
0
 62
7
 66
1
 70
1
  0
VERTEX
  8
0
 62
7
 10
25.11300000
 20
8.38300000
  0
VERTEX
  8
0
 62
7
 10
25.09800000
 20
8.36900000
  0
VERTEX
  8
0
 62
7
 10
25.12736938
 20
8.33146362
  0
VERTEX
  8
0
 62
7
 10
25.15843945
 20
8.29539648
  0
VERTEX
  8
0
 62
7
 10
25.19115308
 20
8.26086157
  0
VERTEX
  8
0
 62
7
 10
25.22545313
 20
8.22792187
  0
VERTEX
  8
0
 62
7
 10
25.26128247
 20
8.19664038
  0
VERTEX
  8
0
 62
7
 10
25.29858398
 20
8.16708008
  0
VERTEX
  8
0
 62
7
 10
25.33730054
 20
8.13930396
  0
VERTEX
  8
0
 62
7
 10
25.37737500
 20
8.11337500
  0
VERTEX
  8
0
 62
7
 10
25.41875024
 20
8.08935620
  0
VERTEX
  8
0
 62
7
 10
25.46136914
 20
8.06731055
  0
VERTEX
  8
0
 62
7
 10
25.50517456
 20
8.04730103
  0
VERTEX
  8
0
 62
7
 10
25.55010938
 20
8.02939062
  0
VERTEX
  8
0
 62
7
 10
25.59611646
 20
8.01364233
  0
VERTEX
  8
0
 62
7
 10
25.64313867
 20
8.00011914
  0
VERTEX
  8
0
 62
7
 10
25.69111890
 20
7.98888403
  0
VERTEX
  8
0
 62
7
 10
25.74000000
 20
7.98000000
  0
VERTEX
  8
0
 62
7
 10
25.75300000
 20
8.05900000
  0
VERTEX
  8
0
 62
7
 10
25.66131055
 20
8.07718750
  0
VERTEX
  8
0
 62
7
 10
25.57242188
 20
8.10231250
  0
VERTEX
  8
0
 62
7
 10
25.48660352
 20
8.13409375
  0
VERTEX
  8
0
 62
7
 10
25.40412500
 20
8.17225000
  0
VERTEX
  8
0
 62
7
 10
25.32525586
 20
8.21650000
  0
VERTEX
  8
0
 62
7
 10
25.25026563
 20
8.26656250
  0
VERTEX
  8
0
 62
7
 10
25.17942383
 20
8.32215625
  0
VERTEX
  8
0
 62
7
 10
25.11300000
 20
8.38300000
  0
SEQEND
  0
POLYLINE
  8
0
 62
7
 66
1
 70
1
  0
VERTEX
  8
0
 62
7
 10
26.16000000
 20
8.50500000
  0
VERTEX
  8
0
 62
7
 10
26.23900000
 20
8.49500000
  0
VERTEX
  8
0
 62
7
 10
26.25212500
 20
8.60718750
  0
VERTEX
  8
0
 62
7
 10
26.26150000
 20
8.71900000
  0
VERTEX
  8
0
 62
7
 10
26.26712500
 20
8.83081250
  0
VERTEX
  8
0
 62
7
 10
26.26900000
 20
8.94300000
  0
VERTEX
  8
0
 62
7
 10
26.26773828
 20
9.03679297
  0
VERTEX
  8
0
 62
7
 10
26.26396875
 20
9.12990625
  0
VERTEX
  8
0
 62
7
 10
26.25771484
 20
9.22231641
  0
VERTEX
  8
0
 62
7
 10
26.24900000
 20
9.31400000
  0
VERTEX
  8
0
 62
7
 10
26.23784766
 20
9.40493359
  0
VERTEX
  8
0
 62
7
 10
26.22428125
 20
9.49509375
  0
VERTEX
  8
0
 62
7
 10
26.20832422
 20
9.58445703
  0
VERTEX
  8
0
 62
7
 10
26.19000000
 20
9.67300000
  0
VERTEX
  8
0
 62
7
 10
26.17100000
 20
9.66500000
  0
VERTEX
  8
0
 62
7
 10
26.17100000
 20
9.66600000
  0
VERTEX
  8
0
 62
7
 10
26.18412500
 20
9.53345312
  0
VERTEX
  8
0
 62
7
 10
26.19350000
 20
9.39987500
  0
VERTEX
  8
0
 62
7
 10
26.19912500
 20
9.26535938
  0
VERTEX
  8
0
 62
7
 10
26.20100000
 20
9.13000000
  0
VERTEX
  8
0
 62
7
 10
26.19839063
 20
8.97215625
  0
VERTEX
  8
0
 62
7
 10
26.19062500
 20
8.81450000
  0
VERTEX
  8
0
 62
7
 10
26.17779688
 20
8.65834375
  0
VERTEX
  8
0
 62
7
 10
26.16000000
 20
8.50500000
  0
SEQEND
  0
POLYLINE
  8
0
 62
7
 66
1
 70
1
  0
VERTEX
  8
0
 62
7
 10
26.56100000
 20
7.92400000
  0
VERTEX
  8
0
 62
7
 10
26.57500000
 20
8.00300000
  0
VERTEX
  8
0
 62
7
 10
26.62428125
 20
7.99512500
  0
VERTEX
  8
0
 62
7
 10
26.67450000
 20
7.98950000
  0
VERTEX
  8
0
 62
7
 10
26.72546875
 20
7.98612500
  0
VERTEX
  8
0
 62
7
 10
26.77700000
 20
7.98500000
  0
VERTEX
  8
0
 62
7
 10
26.84771484
 20
7.98713672
  0
VERTEX
  8
0
 62
7
 10
26.91728125
 20
7.99346875
  0
VERTEX
  8
0
 62
7
 10
26.98558203
 20
8.00387891
  0
VERTEX
  8
0
 62
7
 10
27.05250000
 20
8.01825000
  0
VERTEX
  8
0
 62
7
 10
27.11791797
 20
8.03646484
  0
VERTEX
  8
0
 62
7
 10
27.18171875
 20
8.05840625
  0
VERTEX
  8
0
 62
7
 10
27.24378516
 20
8.08395703
  0
VERTEX
  8
0
 62
7
 10
27.30400000
 20
8.11300000
  0
VERTEX
  8
0
 62
7
 10
27.31300000
 20
8.09500000
  0
VERTEX
  8
0
 62
7
 10
27.25051172
 20
8.05341602
  0
VERTEX
  8
0
 62
7
 10
27.18471875
 20
8.01657813
  0
VERTEX
  8
0
 62
7
 10
27.11587891
 20
7.98473242
  0
VERTEX
  8
0
 62
7
 10
27.04425000
 20
7.95812500
  0
VERTEX
  8
0
 62
7
 10
26.97008984
 20
7.93700195
  0
VERTEX
  8
0
 62
7
 10
26.89365625
 20
7.92160938
  0
VERTEX
  8
0
 62
7
 10
26.81520703
 20
7.91219336
  0
VERTEX
  8
0
 62
7
 10
26.73500000
 20
7.90900000
  0
VERTEX
  8
0
 62
7
 10
26.64687500
 20
7.91275000
  0
VERTEX
  8
0
 62
7
 10
26.56100000
 20
7.92400000
  0
SEQEND
  0
POLYLINE
  8
0
 62
7
 66
1
 70
1
  0
VERTEX
  8
0
 62
7
 10
23.93900000
 20
5.46600000
  0
VERTEX
  8
0
 62
7
 10
23.96121289
 20
5.38257031
  0
VERTEX
  8
0
 62
7
 10
23.98057813
 20
5.29806250
  0
VERTEX
  8
0
 62
7
 10
23.99706055
 20
5.21252344
  0
VERTEX
  8
0
 62
7
 10
24.01062500
 20
5.12600000
  0
VERTEX
  8
0
 62
7
 10
24.02123633
 20
5.03853906
  0
VERTEX
  8
0
 62
7
 10
24.02885938
 20
4.95018750
  0
VERTEX
  8
0
 62
7
 10
24.03345898
 20
4.86099219
  0
VERTEX
  8
0
 62
7
 10
24.03500000
 20
4.77100000
  0
VERTEX
  8
0
 62
7
 10
24.03262500
 20
4.65837500
  0
VERTEX
  8
0
 62
7
 10
24.02500000
 20
4.54500000
  0
VERTEX
  8
0
 62
7
 10
24.10500000
 20
4.53800000
  0
VERTEX
  8
0
 62
7
 10
24.11037500
 20
4.62437500
  0
VERTEX
  8
0
 62
7
 10
24.11200000
 20
4.71000000
  0
VERTEX
  8
0
 62
7
 10
24.10948438
 20
4.81066406
  0
VERTEX
  8
0
 62
7
 10
24.10200000
 20
4.91006250
  0
VERTEX
  8
0
 62
7
 10
24.08964063
 20
5.00805469
  0
VERTEX
  8
0
 62
7
 10
24.07250000
 20
5.10450000
  0
VERTEX
  8
0
 62
7
 10
24.05067187
 20
5.19925781
  0
VERTEX
  8
0
 62
7
 10
24.02425000
 20
5.29218750
  0
VERTEX
  8
0
 62
7
 10
23.99332813
 20
5.38314844
  0
VERTEX
  8
0
 62
7
 10
23.95800000
 20
5.47200000
  0
VERTEX
  8
0
 62
7
 10
23.93900000
 20
5.46600000
  0
SEQEND
  0
POLYLINE
  8
0
 62
7
 66
1
 70
1
  0
VERTEX
  8
0
 62
7
 10
24.62800000
 20
4.25500000
  0
VERTEX
  8
0
 62
7
 10
24.63600000
 20
4.17500000
  0
VERTEX
  8
0
 62
7
 10
24.76557813
 20
4.19254492
  0
VERTEX
  8
0
 62
7
 10
24.89243750
 20
4.21729687
  0
VERTEX
  8
0
 62
7
 10
25.01639063
 20
4.24905664
  0
VERTEX
  8
0
 62
7
 10
25.13725000
 20
4.28762500
  0
VERTEX
  8
0
 62
7
 10
25.25482813
 20
4.33280273
  0
VERTEX
  8
0
 62
7
 10
25.36893750
 20
4.38439063
  0
VERTEX
  8
0
 62
7
 10
25.47939063
 20
4.44218945
  0
VERTEX
  8
0
 62
7
 10
25.58600000
 20
4.50600000
  0
VERTEX
  8
0
 62
7
 10
25.57600000
 20
4.52300000
  0
VERTEX
  8
0
 62
7
 10
25.46590820
 20
4.47272461
  0
VERTEX
  8
0
 62
7
 10
25.35320313
 20
4.42698438
  0
VERTEX
  8
0
 62
7
 10
25.23799023
 20
4.38590820
  0
VERTEX
  8
0
 62
7
 10
25.12037500
 20
4.34962500
  0
VERTEX
  8
0
 62
7
 10
25.00046289
 20
4.31826367
  0
VERTEX
  8
0
 62
7
 10
24.87835938
 20
4.29195313
  0
VERTEX
  8
0
 62
7
 10
24.75416992
 20
4.27082227
  0
VERTEX
  8
0
 62
7
 10
24.62800000
 20
4.25500000
  0
SEQEND
  0
POLYLINE
  8
0
 62
7
 66
1
 70
1
  0
VERTEX
  8
0
 62
7
 10
24.75000000
 20
3.07000000
  0
VERTEX
  8
0
 62
7
 10
24.73200000
 20
3.06100000
  0
VERTEX
  8
0
 62
7
 10
24.68439258
 20
3.13607617
  0
VERTEX
  8
0
 62
7
 10
24.63389062
 20
3.20898438
  0
VERTEX
  8
0
 62
7
 10
24.58059961
 20
3.27961914
  0
VERTEX
  8
0
 62
7
 10
24.52462500
 20
3.34787500
  0
VERTEX
  8
0
 62
7
 10
24.46607227
 20
3.41364648
  0
VERTEX
  8
0
 62
7
 10
24.40504688
 20
3.47682812
  0
VERTEX
  8
0
 62
7
 10
24.34165430
 20
3.53731445
  0
VERTEX
  8
0
 62
7
 10
24.27600000
 20
3.59500000
  0
VERTEX
  8
0
 62
7
 10
24.32700000
 20
3.65600000
  0
VERTEX
  8
0
 62
7
 10
24.39423047
 20
3.59571094
  0
VERTEX
  8
0
 62
7
 10
24.45778125
 20
3.53125000
  0
VERTEX
  8
0
 62
7
 10
24.51744141
 20
3.46285156
  0
VERTEX
  8
0
 62
7
 10
24.57300000
 20
3.39075000
  0
VERTEX
  8
0
 62
7
 10
24.62424609
 20
3.31517969
  0
VERTEX
  8
0
 62
7
 10
24.67096875
 20
3.23637500
  0
VERTEX
  8
0
 62
7
 10
24.71295703
 20
3.15457031
  0
VERTEX
  8
0
 62
7
 10
24.75000000
 20
3.07000000
  0
SEQEND
  0
POLYLINE
  8
0
 62
7
 66
1
 70
1
  0
VERTEX
  8
0
 62
7
 10
24.67700000
 20
4.92900000
  0
VERTEX
  8
0
 62
7
 10
24.74220313
 20
4.97059375
  0
VERTEX
  8
0
 62
7
 10
24.81162500
 20
5.00525000
  0
VERTEX
  8
0
 62
7
 10
24.88498438
 20
5.03278125
  0
VERTEX
  8
0
 62
7
 10
24.96200000
 20
5.05300000
  0
VERTEX
  8
0
 62
7
 10
24.99439063
 20
5.08860937
  0
VERTEX
  8
0
 62
7
 10
25.02387500
 20
5.12637500
  0
VERTEX
  8
0
 62
7
 10
25.05017188
 20
5.16620313
  0
VERTEX
  8
0
 62
7
 10
25.07300000
 20
5.20800000
  0
VERTEX
  8
0
 62
7
 10
25.05246875
 20
5.21064062
  0
VERTEX
  8
0
 62
7
 10
25.03193750
 20
5.21806250
  0
VERTEX
  8
0
 62
7
 10
25.01225000
 20
5.22951563
  0
VERTEX
  8
0
 62
7
 10
24.99425000
 20
5.24425000
  0
VERTEX
  8
0
 62
7
 10
24.97878125
 20
5.26151563
  0
VERTEX
  8
0
 62
7
 10
24.96668750
 20
5.28056250
  0
VERTEX
  8
0
 62
7
 10
24.95881250
 20
5.30064062
  0
VERTEX
  8
0
 62
7
 10
24.95600000
 20
5.32100000
  0
VERTEX
  8
0
 62
7
 10
24.93028711
 20
5.27948828
  0
VERTEX
  8
0
 62
7
 10
24.90198438
 20
5.23978125
  0
VERTEX
  8
0
 62
7
 10
24.87122070
 20
5.20199609
  0
VERTEX
  8
0
 62
7
 10
24.83812500
 20
5.16625000
  0
VERTEX
  8
0
 62
7
 10
24.80282617
 20
5.13266016
  0
VERTEX
  8
0
 62
7
 10
24.76545313
 20
5.10134375
  0
VERTEX
  8
0
 62
7
 10
24.72613477
 20
5.07241797
  0
VERTEX
  8
0
 62
7
 10
24.68500000
 20
5.04600000
  0
VERTEX
  8
0
 62
7
 10
24.68500000
 20
5.04700000
  0
VERTEX
  8
0
 62
7
 10
24.68500000
 20
5.04500000
  0
VERTEX
  8
0
 62
7
 10
24.68287500
 20
4.98662500
  0
VERTEX
  8
0
 62
7
 10
24.67700000
 20
4.92900000
  0
SEQEND
  0
ENDSEC
  0
EOF
