  0
SECTION
  2
HEADER
  9
$ACADVER
  1
AC1006
  9
$ATTMODE
 70
     1
  9
$AUNITS
 70
     0
  9
$AUPREC
 70
     4
  9
$AXISMODE
 70
     0
  9
$AXISUNIT
 10
0
 20
0
  9
$BLIPMODE
 70
     1
  9
$CHAMFERA
 40
0
  9
$CHAMFERB
 40
0
  9
$CLAYER
  7
0
  9
$COORDS
 70
     1
  9
$DIMASZ
 40
0
  9
$DIMCEN
 40
0
  9
$DIMDLI
 40
0.38
  9
$DIMEXE
 40
0
  9
$DIMEXO
 40
0
  9
$DIMLIM
 70
     0
  9
$DIMSCALE
 40
1
  9
$DIMSE1
 70
     0
  9
$DIMSE2
 70
     0
  9
$DIMTAD
 70
     0
  9
$DIMTIH
 70
     1
  9
$DIMTM
 40
0
  9
$DIMTOH
 70
     1
  9
$DIMTOL
 70
     0
  9
$DIMTP
 40
0
  9
$DIMTSZ
 40
0
  9
$DIMTXT
 40
0.25
  9
$DRAGMODE
 70
     2
  9
$ELEVATION
 40
0
  9
$FILLETRAD
 40
0
  9
$FILLMODE
 70
     1
  9
$GRIDMODE
 70
     1
  9
$GRIDUNIT
 10
1
 20
1
  9
$INSBASE
 10
0
 20
0
  9
$LIMCHECK
 70
     0
  9
$LTSCALE
 40
1
  9
$LUNITS
 70
     2
  9
$LUPREC
 70
     4
  9
$MENU
  1
acad
  9
$ORTHOMODE
 70
     0
  9
$OSMODE
 70
     0
  9
$QTEXTMODE
 70
     0
  9
$REGENMODE
 70
     1
  9
$SKETCHINC
 40
0.1
  9
$SNAPANG
 50
0
  9
$SNAPBASE
 10
0
 20
0
  9
$SNAPISOPAIR
 70
     0
  9
$SNAPMODE
 70
     0
  9
$SNAPSTYLE
 70
     0
  9
$SNAPUNIT
 10
0.25
 20
0.25
  9
$TEXTSIZE
 40
0.25
  9
$TEXTSTYLE
  8
STANDARD
  9
$THICKNESS
 40
0
  9
$TRACEWID
 40
0.05
  9
$EXTMAX
 10
3.82326954293606
 20
8.16524768454675
  9
$EXTMIN
 10
-0.000877946852615441
 20
0.119394765140074
  9
$LIMMAX
 10
3.82326954293606
 20
8.16524768454675
  9
$LIMMIN
 10
-0.000877946852615441
 20
0.119394765140074
  9
$VIEWCTR
 10
15
 20
13
  9
$VIEWDIR
 10
0
 20
0
 30
1
  9
$VIEWSIZE
 40
27.04
  0
ENDSEC
  0
SECTION
  2
TABLES
  0
TABLE
  2
LTYPE
 70
     9
  0
LTYPE
  2
CONTINUOUS
 70
    64
  3
Solid line
 72
    65
 73
     0
 40
0
  0
LTYPE
  2
HIDDEN
 70
    64
  3
_ _ _ _ _ _ _ _ _ _ _ _ _ _ _ _ _ _ _ _ 
 72
    65
 73
     2
 40
0.375
 49
0.25
 49
-0.125
  0
LTYPE
  2
DASHED
 70
    64
  3
__ __ __ __ __ __ __ __ __ __ __ __ __  
 72
    65
 73
     2
 40
0.75
 49
0.5
 49
-0.25
  0
LTYPE
  2
CENTER
 70
    64
  3
____ _ ____ _ ____ _ ____ _ ____ _ ____ 
 72
    65
 73
     4
 40
2
 49
1.25
 49
-0.25
 49
0.25
 49
-0.25
  0
LTYPE
  2
PHANTOM
 70
    64
  3
_____ _ _ _____ _ _ _____ _ _ _____ _ _ 
 72
    65
 73
     6
 40
2.5
 49
1.25
 49
-0.25
 49
0.25
 49
-0.25
 49
0.25
 49
-0.25
  0
LTYPE
  2
DOT
 70
    64
  3
........................................
 72
    65
 73
     2
 40
0.25
 49
0
 49
-0.25
  0
LTYPE
  2
DASHDOT
 70
    64
  3
__ . __ . __ . __ . __ . __ . __ . __ . 
 72
    65
 73
     4
 40
1
 49
0.5
 49
-0.25
 49
0
 49
-0.25
  0
LTYPE
  2
BORDER
 70
    64
  3
__ __ . __ __ . __ __ . __ __ . __ __ . 
 72
    65
 73
     6
 40
1.75
 49
0.5
 49
-0.25
 49
0.5
 49
-0.25
 49
0
 49
-0.25
  0
LTYPE
  2
DIVIDE
 70
    64
  3
__ . . __ . . __ . . __ . . __ . . __ . 
 72
    65
 73
     6
 40
1.25
 49
0.5
 49
-0.25
 49
0
 49
-0.25
 49
0
 49
-0.25
  0
ENDTAB
  0
TABLE
  2
LAYER
 70
     4
  0
LAYER
  2
0
 70
     0
 62
     7
  6
CONTINUOUS
  0
LAYER
  2
0090010010
 70
    64
 62
    10
  6
CONTINUOUS
  0
LAYER
  2
0060010010
 70
    64
 62
    10
  6
CONTINUOUS
  0
LAYER
  2
0030010003
 70
    64
 62
     3
  6
CONTINUOUS
  0
ENDTAB
  0
TABLE
  2
STYLE
 70
1
  0
STYLE
  2
STANDARD
 70
     0
 40
0
 41
1
 50
0
 71
     0
 42
0.2
  3
txt
  4

  0
ENDTAB
  0
TABLE
  2
VIEW
 70
     0
  0
ENDTAB
  0
ENDSEC
  0
SECTION
  2
BLOCKS
  0
ENDSEC
  0
SECTION
  2
ENTITIES
  0
LINE
  8
0090010010
 10
0
 20
24.5
 11
0
 21
0
  0
LINE
  8
0090010010
 10
0
 20
0
 11
30
 21
0
  0
LINE
  8
0090010010
 10
30
 20
0
 11
30
 21
24.5
  0
ARC
  8
0090010010
 10
30
 20
62.3750000000001
 40
37.8750000000001
 50
258.578813725001
 51
270
  0
ARC
  8
0090010010
 10
15
 20
-11.8750000000001
 40
37.8750000000001
 50
78.5788137250007
 51
101.421186274999
  0
ARC
  8
0090010010
 10
0
 20
62.3750000000001
 40
37.8750000000001
 50
270
 51
281.421186274999
  0
ARC
  8
0060010010
 10
4.17035720531502
 20
4.02644033971916
 40
0.411561923314355
 50
158.341205689608
 51
233.988068768481
  0
ARC
  8
0060010010
 10
4.21941225896983
 20
4.05899002242136
 40
0.447759077550647
 50
111.22764960126
 51
164.541088477571
  0
ARC
  8
0060010010
 10
4.23126020343727
 20
4.12453415193114
 40
0.392495652012823
 50
25.924092427901
 51
116.310836806386
  0
ARC
  8
0060010010
 10
4.99396905095704
 20
4.07067706073975
 40
0.467640856955889
 50
82.0295725532167
 51
151.17753740309
  0
ARC
  8
0060010010
 10
5.04556789538753
 20
4.65241466914164
 40
0.119351494383459
 50
276.371583262585
 51
7.3555848829766
  0
ARC
  8
0060010010
 10
5.60249756973783
 20
4.60193417010878
 40
0.44346325292719
 50
139.989441442914
 51
171.472219376111
  0
LINE
  8
0060010010
 10
5.26283754483406
 20
4.88704945237041
 11
5.22304709367102
 21
4.92683990365829
  0
ARC
  8
0060010010
 10
6.12085119306114
 20
4.44269428465677
 40
1.02002410818572
 50
121.277663624276
 51
151.663999114199
  0
LINE
  8
0060010010
 10
5.59126898972144
 20
5.31446941115783
 11
5.55389236175792
 21
5.3454781692693
  0
ARC
  8
0060010010
 10
6.45718988123859
 20
4.54989592944506
 40
1.20370158636752
 50
112.152061424029
 51
138.627908756918
  0
LINE
  8
0060010010
 10
6.00331494885195
 20
5.66474796212685
 11
5.98498424277647
 21
5.68924147539774
  0
ARC
  8
0060010010
 10
6.5453946931166
 20
5.12106502361369
 40
0.798050345036164
 50
92.941555972837
 51
134.605744065634
  0
ARC
  8
0060010010
 10
7.48108991173468
 20
5.75700021092783
 40
0.989840775637663
 50
120.061631921095
 51
170.635380175055
  0
ARC
  8
0060010010
 10
7.33909613355437
 20
7.62272953590801
 40
1.06928023311152
 50
185.849023515968
 51
250.675249227404
  0
ARC
  8
0060010010
 10
6.81291788423895
 20
6.42960646687735
 40
1.21009792363166
 50
61.9327224084441
 51
116.372678108988
  0
ARC
  8
0060010010
 10
8.56036683066294
 20
7.6917274022012
 40
1.19400926598851
 50
179.927135975777
 51
189.367072375101
  0
ARC
  8
0060010010
 10
20.5184670478159
 20
18.6672024787389
 40
17.1290887873336
 50
217.032698569383
 51
219.841202444473
  0
ARC
  8
0060010010
 10
14.7950517541068
 20
14.6464464171911
 40
10.1413258869738
 50
200.472726864108
 51
218.373549185776
  0
ARC
  8
0060010010
 10
15.8815320907024
 20
14.5869666998959
 40
11.1468987179565
 50
178.772143053423
 51
198.232466093496
  0
ARC
  8
0060010010
 10
12.8806588903956
 20
14.6635732991745
 40
8.14508226779965
 50
149.718854644942
 51
178.858559155968
  0
ARC
  8
0060010010
 10
12.4609525594785
 20
14.8411615499685
 40
7.6933130280864
 50
118.590612870737
 51
149.284842781808
  0
ARC
  8
0060010010
 10
11.2463198709218
 20
17.2374006117445
 40
5.0086500017324
 50
77.983570023724
 51
119.508013217101
  0
ARC
  8
0060010010
 10
11.7496845290533
 20
17.6605705378729
 40
4.50811605468175
 50
43.8635599205055
 51
83.1280838785436
  0
ARC
  8
0060010010
 10
18.2503154709468
 20
17.6605705378729
 40
4.50811605468175
 50
96.8719161214572
 51
136.136440079494
  0
ARC
  8
0060010010
 10
18.7536801290782
 20
17.2374006117445
 40
5.00865000173241
 50
60.4919867828953
 51
102.016429976277
  0
ARC
  8
0060010010
 10
17.5390474405215
 20
14.8411615499685
 40
7.69331302808639
 50
54.668567064672
 51
61.4093871292611
  0
ARC
  8
0060010010
 10
21.6823340987429
 20
20.1785973552289
 40
0.987468632825452
 50
57.1445700436182
 51
71.9602008805987
  0
ARC
  8
0060010010
 10
23.2939565732382
 20
20.9812103163536
 40
1.0762361421938
 50
134.916246930546
 51
178.567647901828
  0
ARC
  8
0060010010
 10
22.2304054480051
 20
20.9264529065473
 40
0.871493708562593
 50
1.18306749526776
 51
69.6089681467609
  0
ARC
  8
0060010010
 10
23.5220161290368
 20
20.2976953032825
 40
0.771324600615054
 50
74.2305152924641
 51
123.01853673979
  0
ARC
  8
0060010010
 10
24.5288078789804
 20
20.5237310283333
 40
0.949738778076685
 50
126.489601043331
 51
147.072362034699
  0
LINE
  8
0060010010
 10
23.9640201855008
 20
21.2872875801857
 11
24.0079961241717
 21
21.2452936204022
  0
ARC
  8
0060010010
 10
24.6832840662652
 20
20.6172154893103
 40
0.922223369630612
 50
103.002249944256
 51
137.074429403087
  0
LINE
  8
0060010010
 10
24.4757936605376
 20
21.5157941864892
 11
24.5337429467365
 21
21.4696224801999
  0
ARC
  8
0060010010
 10
24.9531454210528
 20
20.8530794386348
 40
0.745670005810155
 50
83.6663749935087
 51
124.225436747721
  0
LINE
  8
0060010010
 10
25.0354059577592
 20
21.5941981616919
 11
25.0559182104608
 21
21.5506810513696
  0
ARC
  8
0060010010
 10
25.1859656518668
 20
21.0991989859966
 40
0.469838687604244
 50
356.206887965569
 51
106.068815310622
  0
ARC
  8
0060010010
 10
25.5927294641745
 20
20.3652875386439
 40
0.705563137492051
 50
58.5727013143043
 51
84.955019530346
  0
LINE
  8
0060010010
 10
25.9606215484959
 20
20.9673463026208
 11
25.9550678942636
 21
20.8914116225106
  0
ARC
  8
0060010010
 10
25.7136018613201
 20
20.341758470641
 40
0.600353589500057
 50
7.92772239102016
 51
66.283818550377
  0
LINE
  8
0060010010
 10
26.3082177786105
 20
20.4245615100205
 11
26.2606120229763
 21
20.3884516290312
  0
ARC
  8
0060010010
 10
25.575902060993
 20
20.0380047805904
 40
0.769181854714084
 50
333.897116959862
 51
27.1041815065015
  0
LINE
  8
0060010010
 10
26.2666315489724
 20
19.6995767970295
 11
26.1784051381037
 21
19.7148438349877
  0
ARC
  8
0060010010
 10
25.6279035449555
 20
20.0086600887894
 40
0.624003201159025
 50
240.305861533225
 51
331.910061587909
  0
ARC
  8
0060010010
 10
24.7957679278079
 20
19.7743496938006
 40
0.606847143580729
 50
281.537704644072
 51
329.527185675916
  0
ARC
  8
0060010010
 10
24.370097016902
 20
18.8365423510545
 40
0.645804412109085
 50
332.381578303423
 51
32.1045070600633
  0
ARC
  8
0060010010
 10
24.8802959074788
 20
19.1958785528534
 40
0.661631958090164
 50
211.271600555752
 51
275.378602005428
  0
ARC
  8
0060010010
 10
23.6724252843579
 20
19.2009732701664
 40
0.730830922679184
 50
315.971394148333
 51
331.515830849411
  0
ARC
  8
0060010010
 10
17.1193411096044
 20
14.6635732991745
 40
8.14508226779965
 50
1.14144084403889
 51
29.6506785680279
  0
ARC
  8
0060010010
 10
14.1184679092976
 20
14.5869666998959
 40
11.1468987179565
 50
341.767533906503
 51
1.22785694658143
  0
ARC
  8
0060010010
 10
15.2049482458932
 20
14.6464464171911
 40
10.1413258869738
 50
321.626450814222
 51
339.527273135891
  0
ARC
  8
0060010010
 10
9.48153295218415
 20
18.6672024787389
 40
17.1290887873336
 50
302.383710204902
 51
322.967301430617
  0
ARC
  8
0060010010
 10
8.61734803308848
 20
18.272822821608
 40
17.2845234222773
 50
291.670589083958
 51
305.504575103443
  0
ARC
  8
0060010010
 10
21.3826519669115
 20
18.272822821608
 40
17.2845234222773
 50
234.495424896557
 51
248.329410916042
  0
ARC
  8
0060010010
 10
20.5184670478159
 20
18.6672024787389
 40
17.1290887873336
 50
234.987086312547
 51
237.616289795098
  0
ARC
  8
0060010010
 10
10.2070214647771
 20
5.41039356886017
 40
0.911136648914981
 50
277.210480572026
 51
302.045450830228
  0
ARC
  8
0060010010
 10
9.558071643787
 20
3.73530970082322
 40
1.08504377195729
 50
0.0686183943338532
 51
45.2928059867066
  0
ARC
  8
0060010010
 10
10.3209988991264
 20
4.43240036764917
 40
0.766735902049187
 50
225.308794952855
 51
294.841723377127
  0
ARC
  8
0060010010
 10
9.00522191809533
 20
4.12376884203899
 40
0.811742310376428
 50
282.364910632733
 51
343.065217453555
  0
ARC
  8
0060010010
 10
9.70031132674157
 20
3.92602739171065
 40
0.791167736806939
 50
166.587683570506
 51
228.787353992462
  0
ARC
  8
0060010010
 10
8.72971658092336
 20
4.77605887988666
 40
0.696164362856311
 50
234.858181662104
 51
286.782088748662
  0
ARC
  8
0060010010
 10
8.02612258113674
 20
4.7515160192474
 40
0.623272687091074
 50
286.76251723682
 51
299.074824191946
  0
ARC
  8
0060010010
 10
7.62160856157169
 20
3.72117486032291
 40
0.727556324707917
 50
339.975073292364
 51
36.5769673533948
  0
ARC
  8
0060010010
 10
8.21809899863699
 20
4.10910185929786
 40
0.642987332246291
 50
213.786037285853
 51
277.783555153161
  0
ARC
  8
0060010010
 10
7.13840335510331
 20
4.11523624499771
 40
0.6554555139877
 50
268.226512675743
 51
326.297965815204
  0
ARC
  8
0060010010
 10
5.70924211956426
 20
4.44894464131486
 40
1.72126577897986
 50
298.904814298725
 51
324.936077142021
  0
LINE
  8
0060010010
 10
6.54122616292829
 20
2.94210741272155
 11
6.46526184690202
 21
3.02651558599733
  0
ARC
  8
0060010010
 10
5.98229583170046
 20
3.87437288684689
 40
0.975765430030998
 50
254.115744802736
 51
299.66719097818
  0
LINE
  8
0060010010
 10
5.71523378732505
 20
2.93586554063292
 11
5.70336036750587
 21
2.97971981075246
  0
ARC
  8
0060010010
 10
5.64614271959136
 20
3.65979880546839
 40
0.682481720111751
 50
221.745238175354
 51
274.809187214796
  0
ARC
  8
0060010010
 10
4.85058797005013
 20
4.27668083555738
 40
1.10890052129841
 50
264.80989804881
 51
284.964799340841
  0
LINE
  8
0060010010
 10
4.75027623420156
 20
3.17232676109262
 11
4.71132511008359
 21
3.2433542541155
  0
ARC
  8
0060010010
 10
4.54264561622689
 20
3.85592643962035
 40
0.635371902197401
 50
194.808697766686
 51
285.395566329079
  0
ARC
  8
0060010010
 10
4.16118510394646
 20
4.44518071979771
 40
0.666839866970461
 50
257.009495735954
 51
296.710583406511
  0
LINE
  8
0060010010
 10
4.46091896158322
 20
3.84950041731376
 11
4.41502491457073
 21
3.93576468159097
  0
ARC
  8
0060010010
 10
5.08880818683078
 20
3.44488917662676
 40
0.833632208681581
 50
115.208017099625
 51
143.925307000245
  0
LINE
  8
0060010010
 10
4.73375931478539
 20
4.19913247809561
 11
4.69394724130887
 21
4.28215398112861
  0
ARC
  8
0060010010
 10
4.99396905095704
 20
4.07067706073975
 40
0.36706344699754
 50
97.5339256045936
 51
144.821069343791
  0
ARC
  8
0060010010
 10
6.82511462955009
 20
2.87191136818146
 40
1.75113185673113
 50
133.644177451339
 51
145.46057220193
  0
LINE
  8
0060010010
 10
5.38264388622393
 20
3.86475623738646
 11
5.4428667867882
 21
3.81372600325769
  0
ARC
  8
0060010010
 10
5.96371393266459
 20
3.39886168123478
 40
0.665878483700378
 50
141.462034130678
 51
163.035792449778
  0
ARC
  8
0060010010
 10
5.01424596840144
 20
3.63754901466982
 40
0.315701652807157
 50
276.855239235945
 51
351.914960524123
  0
ARC
  8
0060010010
 10
5.64614271959136
 20
3.65979880546839
 40
0.682481720111751
 50
209.463775233011
 51
212.540169391859
  0
ARC
  8
0060010010
 10
4.85058797005013
 20
4.27668083555738
 40
1.00832311134006
 50
267.80194575067
 51
282.614781531818
  0
LINE
  8
0060010010
 10
4.81191487214271
 20
3.26909962872553
 11
4.75844385762649
 21
3.36660418594894
  0
ARC
  8
0060010010
 10
4.54264561622689
 20
3.85592643962035
 40
0.534794492239053
 50
186.497727060441
 51
293.79817798015
  0
ARC
  8
0060010010
 10
4.17035720531502
 20
4.02644033971916
 40
0.310984513356006
 50
157.343634917548
 51
191.987690191702
  0
ARC
  8
0060010010
 10
4.21941225896983
 20
4.05899002242136
 40
0.347181667592299
 50
110.482948336574
 51
165.44625634851
  0
ARC
  8
0060010010
 10
4.36359974686602
 20
4.06802966888825
 40
0.16428550798958
 50
171.979179159765
 51
259.973336034164
  0
ARC
  8
0060010010
 10
4.16118510394646
 20
4.44518071979771
 40
0.566262457012113
 50
238.59972209093
 51
287.875222818644
  0
LINE
  8
0060010010
 10
5.70654199462554
 20
4.31680184976085
 11
5.73087127871103
 21
4.21514545452894
  0
ARC
  8
0060010010
 10
5.89799155548722
 20
5.21298980092283
 40
1.01174232220462
 50
260.492269764331
 51
295.32930302751
  0
LINE
  8
0060010010
 10
6.33083534427237
 20
4.29851247422188
 11
6.37394676929973
 21
4.14752344592041
  0
ARC
  8
0060010010
 10
6.33615393714177
 20
4.91847662506226
 40
0.771878942964141
 50
272.806445107262
 51
311.73067340938
  0
ARC
  8
0060010010
 10
7.21589586660975
 20
4.94098472735169
 40
0.701557503795157
 50
191.999755941227
 51
238.558086509745
  0
ARC
  8
0060010010
 10
7.05356376293398
 20
4.28340235424566
 40
0.732343510456148
 50
75.5270725838174
 51
135.673387979241
  0
ARC
  8
0060010010
 10
6.89757622369291
 20
6.62541320255722
 40
1.04829254302472
 50
247.494429732885
 51
306.413448897646
  0
ARC
  8
0060010010
 10
7.48108991173468
 20
5.75700021092783
 40
0.989840775637664
 50
176.549760200409
 51
185.800836874869
  0
ARC
  8
0060010010
 10
6.5453946931166
 20
5.12106502361369
 40
0.697472935077818
 50
94.3045951397746
 51
127.440116504806
  0
LINE
  8
0060010010
 10
6.12137863799575
 20
5.67485097519229
 11
6.16682890314587
 21
5.61412027185574
  0
ARC
  8
0060010010
 10
6.45718988123859
 20
4.54989592944506
 40
1.10312417640917
 50
105.261030390945
 51
133.231899133125
  0
LINE
  8
0060010010
 10
5.70160183338534
 20
5.35361830098869
 11
5.77347154095565
 21
5.29399306192847
  0
ARC
  8
0060010010
 10
6.12085119306114
 20
4.44269428465677
 40
0.919446698227368
 50
112.198330058303
 51
147.04839599722
  0
LINE
  8
0060010010
 10
5.34931560135509
 20
4.94280933303265
 11
5.40788489037212
 21
4.88424004383185
  0
ARC
  8
0060010010
 10
5.60249756973783
 20
4.60193417010878
 40
0.342885842968842
 50
124.581142840627
 51
169.632252366484
  0
ARC
  8
0060010010
 10
5.04556789538753
 20
4.65241466914164
 40
0.219928904341806
 50
281.304719028518
 51
2.92615287387387
  0
ARC
  8
0060010010
 10
5.50751408223978
 20
4.94288400875788
 40
0.656955843054171
 50
230.391534166255
 51
287.635160756202
  0
ARC
  8
0060010010
 10
6.82511462955009
 20
2.87191136818146
 40
1.65055444677279
 50
131.270588242687
 51
142.309525538726
  0
LINE
  8
0060010010
 10
5.51898931895581
 20
3.88105291166602
 11
5.58876947834155
 21
3.82192427724899
  0
ARC
  8
0060010010
 10
5.96371393266459
 20
3.39886168123478
 40
0.56530107374203
 50
131.549363299887
 51
162.331231123101
  0
ARC
  8
0060010010
 10
5.01424596840144
 20
3.63754901466982
 40
0.416279062765504
 50
298.465323282468
 51
350.722536858257
  0
ARC
  8
0060010010
 10
5.64614271959136
 20
3.65979880546839
 40
0.581904310153403
 50
221.845582087422
 51
282.990276019939
  0
LINE
  8
0060010010
 10
5.7769464788056
 20
3.09278645749832
 11
5.79691194277051
 21
3.01904436270901
  0
ARC
  8
0060010010
 10
5.98229583170046
 20
3.87437288684689
 40
0.875188020072651
 50
257.770865081077
 51
304.92368130745
  0
LINE
  8
0060010010
 10
6.48332767655089
 20
3.15679281401567
 11
6.56120833903857
 21
3.07025528168512
  0
ARC
  8
0060010010
 10
5.70924211956426
 20
4.44894464131486
 40
1.62068836902151
 50
301.71414640956
 51
324.842431252846
  0
ARC
  8
0060010010
 10
7.63201916558166
 20
3.8624638094795
 40
0.6910443581857
 50
151.22607820407
 51
210.118127821005
  0
ARC
  8
0060010010
 10
6.33615393714177
 20
4.91847662506226
 40
0.872456352922489
 50
267.499781788523
 51
303.686434288831
  0
LINE
  8
0060010010
 10
6.29809460592945
 20
4.04685080221023
 11
6.26494722360785
 21
4.16294279045461
  0
ARC
  8
0060010010
 10
5.89799155548722
 20
5.21298980092283
 40
1.11231973216297
 50
261.645927010559
 51
289.262781775437
  0
ARC
  8
0060010010
 10
7.21589586660975
 20
4.94098472735169
 40
0.701557503795158
 50
266.934336801379
 51
276.493856493391
  0
ARC
  8
0060010010
 10
7.58144853256583
 20
4.44921969320511
 40
0.352221530590852
 50
215.651036793502
 51
288.512247051164
  0
ARC
  8
0060010010
 10
7.13840335510331
 20
4.11523624499771
 40
0.554878104029353
 50
268.573209532209
 51
359.998692304215
  0
ARC
  8
0060010010
 10
7.63201916558166
 20
3.8624638094795
 40
0.590466948227352
 50
140.199521029326
 51
210.753609084413
  0
ARC
  8
0060010010
 10
7.05356376293398
 20
4.28340235424566
 40
0.6317661004978
 50
51.2002463328928
 51
130.654407908287
  0
ARC
  8
0060010010
 10
7.58144853256583
 20
4.44921969320511
 40
0.352221530590851
 50
112.013217284258
 51
197.931799441733
  0
ARC
  8
0060010010
 10
7.21589586660975
 20
4.94098472735169
 40
0.600980093836809
 50
197.257541852045
 51
272.903380586058
  0
ARC
  8
0060010010
 10
7.64806788002274
 20
4.4593173944597
 40
0.185123795487495
 50
357.921673755824
 51
19.3161143468018
  0
ARC
  8
0060010010
 10
7.58144853256583
 20
4.44921969320511
 40
0.251644120632503
 50
16.4672625119042
 51
0.770525590721454
  0
ARC
  8
0060010010
 10
7.75073112482212
 20
5.0149609865266
 40
0.414050962146588
 50
103.82373155006
 51
188.034488909965
  0
ARC
  8
0060010010
 10
7.32171866931195
 20
4.99515517785432
 40
0.535651564475093
 50
330.777533338975
 51
51.9591475453128
  0
ARC
  8
0060010010
 10
7.58144853256583
 20
4.44921969320511
 40
0.352221530590851
 50
53.8552796755612
 51
91.6413986087532
  0
ARC
  8
0060010010
 10
7.05356376293398
 20
4.28340235424566
 40
0.732343510456148
 50
45.0054531141462
 51
66.9123210348302
  0
ARC
  8
0060010010
 10
8.91840011677915
 20
4.16112593844138
 40
0.816237885847843
 50
125.025851008621
 51
162.519154413019
  0
ARC
  8
0060010010
 10
8.72971658092336
 20
4.77605887988666
 40
0.69616436285631
 50
212.08105486635
 51
225.83237344645
  0
ARC
  8
0060010010
 10
8.02612258113674
 20
4.7515160192474
 40
0.522695277132728
 50
281.688156164379
 51
294.714169049115
  0
ARC
  8
0060010010
 10
7.62160856157169
 20
3.72117486032291
 40
0.727556324707915
 50
45.4499392664327
 51
65.1736611703709
  0
ARC
  8
0060010010
 10
7.58223162623726
 20
4.44940102628496
 40
0.351477930881816
 50
348.860118777332
 51
36.9775099302124
  0
ARC
  8
0060010010
 10
7.32171866931195
 20
4.99515517785432
 40
0.63622897443344
 50
328.297950562669
 51
338.285811168917
  0
ARC
  8
0060010010
 10
8.24170319261006
 20
4.33013672826224
 40
0.541070207279252
 50
67.3667634138326
 51
127.43583398499
  0
ARC
  8
0060010010
 10
8.21809899863699
 20
4.10910185929786
 40
0.542409922287943
 50
208.070392692494
 51
271.181905815525
  0
ARC
  8
0060010010
 10
7.13840335510331
 20
4.11523624499771
 40
0.655455513987701
 50
336.499395260409
 51
4.50620264553118
  0
ARC
  8
0060010010
 10
7.58144853256583
 20
4.44921969320511
 40
0.352221530590852
 50
306.677233554487
 51
332.407838979884
  0
ARC
  8
0060010010
 10
7.62160856157169
 20
3.72117486032291
 40
0.626978914749567
 50
345.74673775317
 51
64.2891304178372
  0
ARC
  8
0060010010
 10
8.91840011677915
 20
4.16112593844138
 40
0.715660475889494
 50
93.6358208188911
 51
158.711919809299
  0
ARC
  8
0060010010
 10
9.50233462117904
 20
5.64233440077622
 40
0.99212500764742
 50
230.630954881551
 51
242.847511785398
  0
ARC
  8
0060010010
 10
9.52079909947154
 20
4.7737944378403
 40
0.471446228403171
 50
181.731853041884
 51
228.428203345425
  0
ARC
  8
0060010010
 10
8.72971658092336
 20
4.77605887988666
 40
0.595586952897962
 50
216.600402362898
 51
323.416617676607
  0
ARC
  8
0060010010
 10
9.50233462117904
 20
5.64233440077622
 40
0.992125007647419
 50
198.050745393743
 51
213.535394379
  0
ARC
  8
0060010010
 10
8.90592975112064
 20
4.60973176414831
 40
0.536569227938515
 50
115.449927701061
 51
143.589919098634
  0
ARC
  8
0060010010
 10
8.24170319261006
 20
4.33013672826224
 40
0.6416476172376
 50
68.7649607037106
 51
89.8336487433994
  0
ARC
  8
0060010010
 10
9.73477700623773
 20
3.99488902088988
 40
1.78270273849467
 50
131.263674256852
 51
146.771181776238
  0
ARC
  8
0060010010
 10
7.32171866931195
 20
4.99515517785432
 40
0.63622897443344
 50
14.5475564300331
 51
56.855031876961
  0
ARC
  8
0060010010
 10
8.45859868985996
 20
5.81212528500359
 40
0.838660269729919
 50
149.216478444857
 51
199.81278045971
  0
ARC
  8
0060010010
 10
7.96931185710134
 20
6.76087834033439
 40
0.568656971939525
 50
246.008982503111
 51
289.293740444946
  0
ARC
  8
0060010010
 10
9.11508314592438
 20
6.87667356837367
 40
1.15901283956203
 50
214.262955691761
 51
230.809393633714
  0
ARC
  8
0060010010
 10
7.55390889176803
 20
5.71824781579506
 40
0.868657297770736
 50
309.700218271106
 51
17.4256521220896
  0
ARC
  8
0060010010
 10
8.45859868985996
 20
5.81212528500359
 40
0.83866026972992
 50
231.589807847285
 51
245.347485197301
  0
ARC
  8
0060010010
 10
9.00522191809533
 20
4.12376884203899
 40
0.71116490041808
 50
286.54154507
 51
17.0219430917349
  0
ARC
  8
0060010010
 10
9.70031132674157
 20
3.92602739171065
 40
0.69059032684859
 50
160.38680464516
 51
224.49414899059
  0
ARC
  8
0060010010
 10
8.72971658092336
 20
4.77605887988666
 40
0.696164362856311
 50
297.371976147796
 51
323.580750106052
  0
ARC
  8
0060010010
 10
9.52079909947154
 20
4.7737944378403
 40
0.47144622840317
 50
240.676939089189
 51
290.413036669646
  0
ARC
  8
0060010010
 10
10.3209988991264
 20
4.43240036764917
 40
0.666158492090839
 50
219.705431103521
 51
289.209912042547
  0
ARC
  8
0060010010
 10
9.558071643787
 20
3.73530970082322
 40
0.984466361998946
 50
3.96215651355079
 51
65.2866713544508
  0
ARC
  8
0060010010
 10
9.52079909947154
 20
4.7737944378403
 40
0.471446228403169
 50
302.811995317497
 51
342.191598365735
  0
ARC
  8
0060010010
 10
9.00522191809533
 20
4.12376884203899
 40
0.811742310376428
 50
351.717288313392
 51
18.2194417680031
  0
ARC
  8
0060010010
 10
9.5228452144624
 20
4.76705813808377
 40
0.373715626468913
 50
12.6757547891638
 51
172.549995118877
  0
ARC
  8
0060010010
 10
8.788049218971
 20
4.78645404640447
 40
1.10118456768262
 50
356.244425184223
 51
3.25940946006066
  0
ARC
  8
0060010010
 10
9.52079909947154
 20
4.7737944378403
 40
0.370868818444823
 50
173.540968369388
 51
350.77288072127
  0
ARC
  8
0060010010
 10
8.788049218971
 20
4.78645404640447
 40
1.20176197764097
 50
357.369903205281
 51
3.63925205624414
  0
ARC
  8
0060010010
 10
9.558071643787
 20
3.73530970082322
 40
1.08504377195729
 50
52.8246756513366
 51
66.6258446036258
  0
ARC
  8
0060010010
 10
10.2070214647771
 20
5.41039356886017
 40
0.810559238956633
 50
270.473211030422
 51
321.589767723272
  0
ARC
  8
0060010010
 10
10.2790333110305
 20
4.58488064921496
 40
0.648650453344844
 50
29.7552246783989
 51
105.528039056892
  0
ARC
  8
0060010010
 10
9.43769112633222
 20
5.64189036492297
 40
0.795278021209691
 50
307.983480159167
 51
327.094800937555
  0
ARC
  8
0060010010
 10
9.5228452144624
 20
4.76705813808377
 40
0.47429303642726
 50
11.6378581799715
 51
31.5263589407767
  0
ARC
  8
0060010010
 10
10.2070214647771
 20
5.41039356886017
 40
0.911136648914981
 50
308.764763516734
 51
325.731271214402
  0
ARC
  8
0060010010
 10
20.5184670478159
 20
18.6672024787389
 40
17.0285113773752
 50
235.107514772888
 51
237.625508529737
  0
ARC
  8
0060010010
 10
21.3826519669115
 20
18.272822821608
 40
17.183946012319
 50
234.486289305901
 51
248.196095981251
  0
ARC
  8
0060010010
 10
8.61734803308848
 20
18.272822821608
 40
17.183946012319
 50
291.803904018749
 51
305.5137106941
  0
ARC
  8
0060010010
 10
9.48153295218415
 20
18.6672024787389
 40
17.0285113773752
 50
302.374491470264
 51
322.97126545909
  0
ARC
  8
0060010010
 10
15.2049482458932
 20
14.6464464171911
 40
10.0407484770154
 50
321.619741751928
 51
339.516053959131
  0
ARC
  8
0060010010
 10
14.1184679092976
 20
14.5869666998959
 40
11.0463213079982
 50
341.777736381532
 51
1.22825068910379
  0
ARC
  8
0060010010
 10
17.1193411096044
 20
14.6635732991745
 40
8.04450485784131
 50
1.14090108390339
 51
29.4946880847445
  0
ARC
  8
0060010010
 10
23.6724252843579
 20
19.2009732701664
 40
0.730830922679183
 50
278.905601114237
 51
307.892554213334
  0
ARC
  8
0060010010
 10
24.2950107517684
 20
18.8850818261872
 40
0.651519662852296
 50
144.284345879203
 51
218.561671910056
  0
ARC
  8
0060010010
 10
23.5747373065496
 20
20.1334872463081
 40
0.8888987520111
 50
237.512139445593
 51
282.427125255345
  0
ARC
  8
0060010010
 10
22.1067424081391
 20
19.2634591230808
 40
0.997819592077599
 50
314.314941124458
 51
6.92096471747762
  0
ARC
  8
0060010010
 10
23.212830305357
 20
19.3628300143349
 40
0.91037366352858
 50
181.19197508022
 51
243.302743417587
  0
ARC
  8
0060010010
 10
21.7542605401126
 20
20.0407299919941
 40
0.886745784302526
 50
248.338708820119
 51
308.201814032038
  0
ARC
  8
0060010010
 10
22.29964592334
 20
19.3866365034757
 40
0.889109864655318
 50
115.716252839303
 51
191.025082686745
  0
ARC
  8
0060010010
 10
22.3442543515427
 20
21.0324521717528
 40
0.948094684293445
 50
174.395154081489
 51
243.001338609639
  0
ARC
  8
0060010010
 10
21.6823340987429
 20
20.1785973552289
 40
0.987468632825453
 50
86.5113359680418
 51
106.571752680949
  0
ARC
  8
0060010010
 10
17.5390474405215
 20
14.8411615499685
 40
7.59273561812805
 50
56.3853268701166
 51
61.4154742728258
  0
ARC
  8
0060010010
 10
18.7536801290782
 20
17.2374006117445
 40
4.90807259177406
 50
60.4826035271266
 51
102.069207927405
  0
ARC
  8
0060010010
 10
18.2503154709468
 20
17.6605705378729
 40
4.4075386447234
 50
96.8132114376657
 51
137.514185292949
  0
ARC
  8
0060010010
 10
11.7496845290533
 20
17.6605705378729
 40
4.40753864472341
 50
42.4858147070508
 51
83.186788562335
  0
ARC
  8
0060010010
 10
11.2463198709218
 20
17.2374006117445
 40
4.90807259177405
 50
77.930792072596
 51
119.517396472873
  0
ARC
  8
0060010010
 10
12.4609525594785
 20
14.8411615499685
 40
7.59273561812805
 50
118.584525727174
 51
149.281968719751
  0
ARC
  8
0060010010
 10
12.8806588903956
 20
14.6635732991745
 40
8.04450485784131
 50
149.721568299653
 51
178.85909891611
  0
ARC
  8
0060010010
 10
15.8815320907024
 20
14.5869666998959
 40
11.0463213079982
 50
178.771749310906
 51
198.222263618468
  0
ARC
  8
0060010010
 10
14.7950517541068
 20
14.6464464171911
 40
10.0407484770154
 50
200.483946040869
 51
218.38025824807
  0
ARC
  8
0060010010
 10
20.5184670478159
 20
18.6672024787389
 40
17.0285113773752
 50
217.028734540909
 51
219.482624523724
  0
ARC
  8
0060010010
 10
8.56036683066294
 20
7.6917274022012
 40
1.19400926598851
 50
119.440096513044
 51
172.879991141559
  0
ARC
  8
0060010010
 10
7.09730217876665
 20
7.70001730014828
 40
1.35343382740161
 50
358.468153563048
 51
49.6552450203769
  0
ARC
  8
0060010010
 10
8.98691399572173
 20
6.85788134122694
 40
0.96828173237282
 50
54.3955897121208
 51
123.658469928814
  0
ARC
  8
0060010010
 10
8.37409621918452
 20
7.77416030761108
 40
1.18358959076694
 50
296.72829121455
 51
353.742303601916
  0
ARC
  8
0060010010
 10
8.50506483008143
 20
5.63551229566045
 40
1.15359862487793
 50
20.0703162777522
 51
69.6397117787276
  0
ARC
  8
0060010010
 10
10.1962080138433
 20
5.39454916452279
 40
0.88020009504537
 50
105.61686317437
 51
133.653679047863
  0
ARC
  8
0060010010
 10
9.43769112633222
 20
5.64189036492297
 40
0.79527802120969
 50
336.57666734488
 51
49.0176765239283
  0
ARC
  8
0060010010
 10
10.2790333110305
 20
4.58488064921496
 40
0.749227863303193
 50
24.6492457800643
 51
98.5663371450391
  0
ARC
  8
0060010010
 10
9.5228452144624
 20
4.76705813808377
 40
0.47429303642726
 50
43.6995341519754
 51
100.853706678844
  0
ARC
  8
0060010010
 10
10.1962080138433
 20
5.39454916452279
 40
0.779622685087023
 50
109.696973216204
 51
191.969186804628
  0
ARC
  8
0060010010
 10
9.43769112633222
 20
5.64189036492297
 40
0.694700611251343
 50
308.037126216615
 51
44.4702183536521
  0
ARC
  8
0060010010
 10
9.5228452144624
 20
4.76705813808377
 40
0.474293036427261
 50
113.067765067972
 51
167.647264749798
  0
ARC
  8
0060010010
 10
9.50233462117904
 20
5.64233440077622
 40
0.891547597689071
 50
168.776323170255
 51
240.220276306256
  0
ARC
  8
0060010010
 10
8.67905712832097
 20
5.06876101782853
 40
0.748857593858493
 50
31.3842680306735
 51
93.9218808620741
  0
ARC
  8
0060010010
 10
10.1962080138433
 20
5.39454916452279
 40
0.88020009504537
 50
175.817355900367
 51
192.540761638918
  0
ARC
  8
0060010010
 10
7.96931185710134
 20
6.76087834033439
 40
0.468079561981178
 50
181.899178990934
 51
351.538797305919
  0
ARC
  8
0060010010
 10
7.96703991024311
 20
6.72124707641485
 40
0.466174833264299
 50
356.403638997995
 51
177.034337298857
  0
ARC
  8
0060010010
 10
6.81291788423895
 20
6.42960646687735
 40
1.21009792363166
 50
41.4782698473482
 51
55.4187517447131
  0
ARC
  8
0060010010
 10
8.56036683066294
 20
7.6917274022012
 40
1.09343185603016
 50
123.188405447642
 51
194.069966607522
  0
ARC
  8
0060010010
 10
7.09730217876665
 20
7.70001730014828
 40
1.25285641744326
 50
337.059714760874
 51
46.3663644675708
  0
ARC
  8
0060010010
 10
7.96703991024311
 20
6.72124707641485
 40
0.566752243222646
 50
59.9233773600191
 51
115.894361771435
  0
ARC
  8
0060010010
 10
7.96703991024311
 20
6.72124707641485
 40
0.566752243222647
 50
126.26203532243
 51
177.742337578562
  0
ARC
  8
0060010010
 10
7.48108991173468
 20
5.75700021092783
 40
0.989840775637664
 50
94.6568044923917
 51
111.345104553731
  0
ARC
  8
0060010010
 10
7.33909613355437
 20
7.62272953590801
 40
0.968702823153175
 50
190.06616330926
 51
256.976794323039
  0
ARC
  8
0060010010
 10
6.81291788423895
 20
6.42960646687735
 40
1.10952051367332
 50
42.4330268959089
 51
112.668782719929
  0
ARC
  8
0060010010
 10
7.96931185710134
 20
6.76087834033439
 40
0.568656971939526
 50
191.897514624869
 51
235.857838191326
  0
ARC
  8
0060010010
 10
8.45859868985996
 20
5.81212528500359
 40
0.939237679688267
 50
149.400381052171
 51
173.70227455467
  0
ARC
  8
0060010010
 10
6.89757622369291
 20
6.62541320255722
 40
0.947715133066367
 50
251.208457161734
 51
311.457856687841
  0
ARC
  8
0060010010
 10
7.48108991173468
 20
5.75700021092783
 40
0.889263365679316
 50
94.3997205726074
 51
181.855017694244
  0
ARC
  8
0060010010
 10
8.67905712832097
 20
5.06876101782853
 40
0.849435003816841
 50
62.0193787544773
 51
90.8617145375947
  0
ARC
  8
0060010010
 10
9.11508314592438
 20
6.87667356837367
 40
1.05843542960368
 50
267.969923374793
 51
292.738670970106
  0
ARC
  8
0060010010
 10
8.50506483008143
 20
5.63551229566045
 40
1.05302121491959
 50
14.5750254135614
 51
75.8057090225259
  0
ARC
  8
0060010010
 10
8.37409621918452
 20
7.77416030761108
 40
1.18358959076694
 50
276.808730061141
 51
289.19680310872
  0
ARC
  8
0060010010
 10
7.96931185710134
 20
6.76087834033439
 40
0.568656971939526
 50
299.60658532376
 51
343.452391287748
  0
ARC
  8
0060010010
 10
9.11508314592438
 20
6.87667356837367
 40
1.05843542960368
 50
215.206022560686
 51
244.911169917283
  0
ARC
  8
0060010010
 10
8.98691399572173
 20
6.85788134122694
 40
0.867704322414473
 50
58.3346117677841
 51
129.052653257307
  0
ARC
  8
0060010010
 10
7.09730217876665
 20
7.70001730014828
 40
1.3534338274016
 50
336.129982219738
 51
352.856538061489
  0
ARC
  8
0060010010
 10
7.96703991024311
 20
6.72124707641485
 40
0.566752243222647
 50
358.14920912533
 51
49.519257946942
  0
ARC
  8
0060010010
 10
8.37409621918452
 20
7.77416030761108
 40
1.0830121808086
 50
278.463674465349
 51
350.553495057278
  0
ARC
  8
0060010010
 10
23.5220161290368
 20
20.2976953032825
 40
0.771324600615053
 50
132.711167666596
 51
156.641453283146
  0
ARC
  8
0060010010
 10
22.6896991598344
 20
20.0998333527949
 40
0.51876875617379
 50
76.1470987603793
 51
121.101403450948
  0
ARC
  8
0060010010
 10
23.2939565732382
 20
20.9812103163536
 40
0.975658732235454
 50
138.824216803575
 51
206.620943171434
  0
ARC
  8
0060010010
 10
22.2304054480051
 20
20.9264529065473
 40
0.770916298604243
 50
355.38693630055
 51
64.7228311346043
  0
ARC
  8
0060010010
 10
23.2939565732382
 20
20.9812103163536
 40
1.0762361421938
 50
185.279597833916
 51
207.575579038603
  0
ARC
  8
0060010010
 10
22.6896991598344
 20
20.0998333527949
 40
0.518768756173791
 50
132.38688969837
 51
168.77309227464
  0
ARC
  8
0060010010
 10
22.3442543515427
 20
21.0324521717528
 40
0.847517274335097
 50
179.092571706731
 51
258.884084713431
  0
ARC
  8
0060010010
 10
21.6823340987429
 20
20.1785973552289
 40
0.886891222867108
 50
52.4961672215777
 51
102.072375156954
  0
ARC
  8
0060010010
 10
22.6964595011667
 20
20.0838408368702
 40
0.417310014819253
 50
204.634445664015
 51
21.1949686810259
  0
ARC
  8
0060010010
 10
22.6896991598344
 20
20.0998333527949
 40
0.41819134621544
 50
18.8165214485662
 51
207.012892896475
  0
ARC
  8
0060010010
 10
23.1235519232233
 20
20.8459267188296
 40
0.697040203203208
 50
277.086464291532
 51
4.39463054983217
  0
ARC
  8
0060010010
 10
22.6964595011667
 20
20.0838408368702
 40
0.517887424777601
 50
7.80948104311235
 51
20.9639652438323
  0
ARC
  8
0060010010
 10
22.6896991598344
 20
20.0998333527949
 40
0.518768756173789
 50
19.0470852375422
 51
64.9910528822867
  0
ARC
  8
0060010010
 10
23.5220161290368
 20
20.2976953032825
 40
0.670747190656703
 50
63.7630704837409
 51
156.051369622244
  0
ARC
  8
0060010010
 10
23.5747373065496
 20
20.1334872463081
 40
0.788321342052751
 50
218.880908470407
 51
294.846330141232
  0
ARC
  8
0060010010
 10
22.6964595011667
 20
20.0838408368702
 40
0.517887424777604
 50
300.726180365193
 51
356.629339013016
  0
ARC
  8
0060010010
 10
23.1235519232233
 20
20.8459267188296
 40
0.797617613161558
 50
276.471530732377
 51
286.175970095079
  0
ARC
  8
0060010010
 10
23.0375669689298
 20
19.2509709521496
 40
0.884354516659336
 50
10.8957864675242
 51
69.6047935446085
  0
ARC
  8
0060010010
 10
23.212830305357
 20
19.3628300143349
 40
0.809796253570231
 50
174.514427861252
 51
238.070183323438
  0
ARC
  8
0060010010
 10
21.7542605401126
 20
20.0407299919941
 40
0.886745784302525
 50
317.376250043302
 51
329.925332098018
  0
ARC
  8
0060010010
 10
22.6964595011667
 20
20.0838408368702
 40
0.517887424777603
 50
250.26995585895
 51
289.284777476149
  0
ARC
  8
0060010010
 10
23.5747373065496
 20
20.1334872463081
 40
0.888898752011101
 50
217.284782572575
 51
227.916652933729
  0
ARC
  8
0060010010
 10
22.1067424081391
 20
19.2634591230808
 40
0.89724218211925
 50
319.062872453356
 51
13.5562558379709
  0
ARC
  8
0060010010
 10
22.29964592334
 20
19.3866365034757
 40
0.788532454696968
 50
108.851497224539
 51
186.948040656622
  0
ARC
  8
0060010010
 10
22.3442543515427
 20
21.0324521717528
 40
0.948094684293446
 50
251.591654697326
 51
259.466368009307
  0
ARC
  8
0060010010
 10
22.6896991598344
 20
20.0998333527949
 40
0.518768756173792
 50
179.944595312945
 51
206.782329107497
  0
ARC
  8
0060010010
 10
22.6964595011667
 20
20.0838408368702
 40
0.5178874247776
 50
204.865449101206
 51
239.081648861254
  0
ARC
  8
0060010010
 10
21.7542605401126
 20
20.0407299919941
 40
0.786168374344176
 50
252.427320447698
 51
329.31590970503
  0
ARC
  8
0060010010
 10
24.184403294493
 20
20.1050309335659
 40
0.504218623926662
 50
157.928250071932
 51
193.823305691442
  0
ARC
  8
0060010010
 10
23.7889316043034
 20
19.8046230192228
 40
0.49510988407786
 50
9.71111699230741
 51
98.3377287379764
  0
ARC
  8
0060010010
 10
24.3187824443596
 20
19.5131290021806
 40
0.377335802610367
 50
96.3655131361497
 51
158.729374926583
  0
ARC
  8
0060010010
 10
24.184403294493
 20
20.1050309335659
 40
0.504218623926663
 50
239.527510246292
 51
244.47735888724
  0
ARC
  8
0060010010
 10
23.0375669689298
 20
19.2509709521496
 40
0.98493192661769
 50
25.2079768605597
 51
48.1428390771747
  0
ARC
  8
0060010010
 10
24.1852107326135
 20
20.0902891136529
 40
0.588948113741237
 50
320.283208428162
 51
26.8235742499783
  0
ARC
  8
0060010010
 10
24.3187824443596
 20
19.5131290021806
 40
0.377335802610366
 50
32.1556758079019
 51
80.8037050610756
  0
ARC
  8
0060010010
 10
23.7889316043034
 20
19.8046230192228
 40
0.595687294036209
 50
7.81433896369117
 51
30.3605471727117
  0
ARC
  8
0060010010
 10
24.6909415429595
 20
19.9309659633291
 40
0.425545953398929
 50
87.3268684730319
 51
155.755709260487
  0
ARC
  8
0060010010
 10
24.3188213800786
 20
19.5160298636153
 40
0.276538494740661
 50
175.183585646813
 51
3.27844470382923
  0
ARC
  8
0060010010
 10
24.3187824443596
 20
19.5131290021806
 40
0.276758392652019
 50
3.87756129790755
 51
174.584469052735
  0
ARC
  8
0060010010
 10
24.7957679278079
 20
19.7743496938006
 40
0.50626973362238
 50
250.415996117825
 51
330.023484186517
  0
ARC
  8
0060010010
 10
24.3188213800786
 20
19.5160298636153
 40
0.377115904699009
 50
324.561483188794
 51
3.358342072423
  0
ARC
  8
0060010010
 10
24.3187824443596
 20
19.5131290021806
 40
0.377335802610368
 50
3.7977189515779
 51
15.3241000351102
  0
ARC
  8
0060010010
 10
24.1852107326135
 20
20.0902891136529
 40
0.689525523699581
 50
316.178364161014
 51
330.141415932425
  0
ARC
  8
0060010010
 10
24.8318261803608
 20
19.2804126694272
 40
0.469114901910208
 50
30.9102534878009
 51
95.9488959566073
  0
ARC
  8
0060010010
 10
24.8802959074788
 20
19.1958785528534
 40
0.561054548131817
 50
203.607245457591
 51
269.626771369947
  0
ARC
  8
0060010010
 10
23.6724252843579
 20
19.2009732701664
 40
0.730830922679189
 50
341.675062414254
 51
355.847461833678
  0
ARC
  8
0060010010
 10
24.3188213800786
 20
19.5160298636153
 40
0.377115904699012
 50
282.639073563883
 51
308.031216956052
  0
ARC
  8
0060010010
 10
24.7957679278079
 20
19.7743496938006
 40
0.60684714358073
 50
246.229031879738
 51
270.715703229483
  0
ARC
  8
0060010010
 10
24.370097016902
 20
18.8365423510545
 40
0.545227002150737
 50
338.287498742386
 51
37.3801386062355
  0
ARC
  8
0060010010
 10
24.2950107517684
 20
18.8850818261872
 40
0.550942252893948
 50
124.239195487062
 51
212.313101645593
  0
ARC
  8
0060010010
 10
24.3188213800786
 20
19.5160298636153
 40
0.377115904699012
 50
207.732098033639
 51
267.088128207724
  0
ARC
  8
0060010010
 10
23.6724252843579
 20
19.2009732701664
 40
0.630253512720835
 50
284.421087548172
 51
354.393566190036
  0
LINE
  8
0060010010
 10
26.118875104706
 20
19.8272172977775
 11
26.2052478897259
 21
19.8122710183757
  0
ARC
  8
0060010010
 10
25.575902060993
 20
20.0380047805904
 40
0.668604444755731
 50
340.268105046718
 51
34.265687198808
  0
LINE
  8
0060010010
 10
26.128460593805
 20
20.4144499576929
 11
26.1974818714971
 21
20.4668039239305
  0
ARC
  8
0060010010
 10
25.7136018613201
 20
20.341758470641
 40
0.499776179541716
 50
14.4895195351689
 51
74.2569670551647
  0
LINE
  8
0060010010
 10
25.8492028411774
 20
20.822787164067
 11
25.8555946367903
 21
20.9101816857451
  0
ARC
  8
0060010010
 10
25.5927294641745
 20
20.3652875386439
 40
0.604985727533708
 50
64.246636027776
 51
107.585973672155
  0
ARC
  8
0060010010
 10
24.8758758496262
 20
21.1082519049497
 40
0.559344062180331
 50
329.183964320351
 51
342.708799321831
  0
LINE
  8
0060010010
 10
25.3562497902156
 20
20.8217093128294
 11
25.3922735019861
 21
20.7986671187418
  0
LINE
  8
0060010010
 10
25.1323263678107
 20
20.3630106969541
 11
25.1722705480128
 21
20.3269850809578
  0
ARC
  8
0060010010
 10
24.7054467693448
 20
20.5776481493529
 40
0.529864524371093
 50
288.614339717176
 51
331.766230767158
  0
ARC
  8
0060010010
 10
24.1852107326135
 20
20.0902891136529
 40
0.689525523699581
 50
339.614638431793
 51
358.771145144119
  0
ARC
  8
0060010010
 10
24.8318261803608
 20
19.2804126694272
 40
0.569692311868552
 50
58.9132066510063
 51
90.0275779385933
  0
ARC
  8
0060010010
 10
24.7822828680011
 20
20.466549088522
 40
0.778263247229406
 50
296.207233134009
 51
308.860158348096
  0
LINE
  8
0060010010
 10
25.2705821491338
 20
19.8605313544305
 11
25.2341136540646
 21
19.9345142808757
  0
ARC
  8
0060010010
 10
25.0450143853661
 20
20.5970432936952
 40
0.688987101657069
 50
285.929824933853
 51
311.471429583737
  0
ARC
  8
0060010010
 10
25.554558983881
 20
20.1562633878532
 40
0.0923725537742175
 50
128.770330528265
 51
234.785746271082
  0
LINE
  8
0060010010
 10
25.2735636331934
 20
20.7552060744732
 11
25.2111609216666
 21
20.7951213225119
  0
ARC
  8
0060010010
 10
24.8758758496262
 20
21.1082519049497
 40
0.458766652221982
 50
316.9568700142
 51
357.794454633976
  0
ARC
  8
0060010010
 10
25.5674413296328
 20
21.0142927781508
 40
0.245307770423674
 50
100.984483632674
 51
161.877301020015
  0
ARC
  8
0060010010
 10
25.1859656518668
 20
21.0991989859966
 40
0.369261277645899
 50
24.9744377782317
 51
119.230413198487
  0
LINE
  8
0060010010
 10
25.0056468967208
 20
21.4214396378568
 11
24.9695769222268
 21
21.4979627327214
  0
ARC
  8
0060010010
 10
24.9531454210528
 20
20.8530794386348
 40
0.645092595851802
 50
88.5404304641644
 51
130.708303453536
  0
LINE
  8
0060010010
 10
24.532410696552
 20
21.3420853167407
 11
24.4524730969506
 21
21.4057764441449
  0
ARC
  8
0060010010
 10
24.6832840662652
 20
20.6172154893103
 40
0.821645959672263
 50
106.314698433695
 51
144.205088246128
  0
LINE
  8
0060010010
 10
24.0168340760128
 20
21.0977844162482
 11
23.958829380294
 21
21.1531748623168
  0
ARC
  8
0060010010
 10
24.5288078789804
 20
20.5237310283333
 40
0.849161368118336
 50
132.161695938461
 51
145.462102943363
  0
ARC
  8
0060010010
 10
23.5220161290368
 20
20.2976953032825
 40
0.77132460061505
 50
59.5809089565765
 51
66.5219539828115
  0
ARC
  8
0060010010
 10
23.1235519232233
 20
20.8459267188296
 40
0.797617613161559
 50
326.034062715986
 51
8.42890876624348
  0
ARC
  8
0060010010
 10
24.1852107326135
 20
20.0902891136529
 40
0.689525523699582
 50
7.53025733545974
 51
31.5070424787095
  0
ARC
  8
0060010010
 10
24.7054467693448
 20
20.5776481493529
 40
0.429287114412747
 50
292.364531603468
 51
321.416212651401
  0
LINE
  8
0060010010
 10
25.041019208812
 20
20.3099196217901
 11
24.978019837954
 21
20.3667386910777
  0
ARC
  8
0060010010
 10
24.5084316922964
 20
21.0306564232333
 40
0.813203407280611
 50
305.271719593981
 51
340.200934710815
  0
ARC
  8
0060010010
 10
4.23126020343727
 20
4.12453415193114
 40
0.291918242054474
 50
22.8423878595966
 51
117.178269389701
  0
ARC
  8
0060010010
 10
4.41877773530561
 20
4.02547644219076
 40
0.227483103125106
 50
69.0041215593767
 51
163.271912548708
  0
LINE
  8
0030010003
 10
4.76059954466276
 20
3.74054714703344
 11
4.75348105292464
 21
3.75923744064735
  0
ARC
  8
0060010010
 10
5.50751408223978
 20
4.94288400875788
 40
0.757533253012519
 50
222.14504710453
 51
264.488525553041
  0
ARC
  8
0030010003
 10
3.60070535064317
 20
6.34227102522246
 40
2.82859582104151
 50
294.050611367259
 51
310.420806950751
  0
ARC
  8
0030010003
 10
4.08057353998859
 20
5.86965007256781
 40
2.2350647942626
 50
287.713250743603
 51
310.436231432138
  0
LINE
  8
0060010010
 10
5.61652246247603
 20
4.13910028596202
 11
5.53023955186957
 21
4.1684789793061
  0
LINE
  8
0030010003
 10
5.94499215328128
 20
3.51800615586054
 11
5.9406109405838
 21
3.53752038080799
  0
ARC
  8
0030010003
 10
5.66370267135038
 20
5.05238367670266
 40
1.55994812385238
 50
280.388385866187
 51
326.663287377012
  0
LINE
  8
0060010010
 10
7.02630091542879
 20
4.1951013094882
 11
6.96696975524904
 21
4.1951013094882
  0
ARC
  8
0030010003
 10
5.51429773988876
 20
5.12951786988616
 40
1.6480894849243
 50
284.99122743244
 51
324.646481963655
  0
LINE
  8
0060010010
 10
6.82005961384983
 20
4.19251837295369
 11
6.85847536566335
 21
4.17590082899131
  0
LINE
  8
0030010003
 10
5.99242779341398
 20
4.84327024407522
 11
6.00584944620185
 21
4.82844259299887
  0
ARC
  8
0030010003
 10
7.69071632021493
 20
3.07520497952575
 40
2.45157881781723
 50
92.9442688607422
 51
133.846807636867
  0
ARC
  8
0060010010
 10
8.45859868985996
 20
5.81212528500359
 40
0.939237679688267
 50
181.850537967776
 51
197.893380009499
  0
ARC
  8
0060010010
 10
7.75073112482212
 20
5.0149609865266
 40
0.514628372104936
 50
124.982016465644
 51
182.500853065586
  0
ARC
  8
0030010003
 10
7.68568040053859
 20
2.85607978283594
 40
2.5907618744419
 50
95.0931547142173
 51
130.420523826942
  0
LINE
  8
0030010003
 10
24.775759591433
 20
21.0438519975201
 11
24.7851578766927
 21
21.0261977562682
  0
LINE
  8
0030010003
 10
25.8923830177874
 20
20.2260776055837
 11
25.8741593729819
 21
20.2178375345888
  0
ARC
  8
0030010003
 10
25.3099378493993
 20
19.9283574447895
 40
0.634148760200709
 50
27.16059288991
 51
91.5263467385865
  0
ARC
  8
0060010010
 10
24.5084316922964
 20
21.0306564232333
 40
0.913780817238958
 50
313.059842058471
 51
329.164934529065
  0
ARC
  8
0060010010
 10
24.5084316922964
 20
21.0306564232333
 40
0.913780817238954
 50
334.399802387976
 51
345.292858740707
  0
ARC
  8
0030010003
 10
25.2857091575531
 20
19.98449684548
 40
0.653004162577798
 50
21.712710309855
 51
85.8902965525106
  0
ARC
  8
0030010003
 10
25.2362066773762
 20
20.076736593441
 40
1.07113198241884
 50
115.459285456813
 51
170.469415436459
  0
ARC
  8
0060010010
 10
23.7889316043034
 20
19.8046230192228
 40
0.595687294036211
 50
48.9845117936597
 51
90.3712418697548
  0
ARC
  8
0030010003
 10
25.3491609572533
 20
20.0770360859243
 40
1.10408665933976
 50
120.719281903531
 51
172.261146578482
  0
ARC
  8
0060010010
 10
24.6909415429595
 20
19.9309659633291
 40
0.526123363357279
 50
81.017836088262
 51
145.929042926837
  0
ARC
  8
0060010010
 10
25.6279035449555
 20
20.0086600887894
 40
0.523425791200674
 50
223.719835600072
 51
339.717771547498
  0
ARC
  8
0060010010
 10
25.2991559484877
 20
19.9690483014645
 40
0.325932826167292
 50
261.256254849094
 51
52.6894326563641
  0
ENDSEC
  0
EOF
