  0
SECTION
  2
HEADER
  9
$ACADVER
  1
AC1006
  9
$ATTMODE
 70
     1
  9
$AUNITS
 70
     0
  9
$AUPREC
 70
     4
  9
$AXISMODE
 70
     0
  9
$AXISUNIT
 10
0
 20
0
  9
$BLIPMODE
 70
     1
  9
$CHAMFERA
 40
0
  9
$CHAMFERB
 40
0
  9
$CLAYER
  7
0
  9
$COORDS
 70
     1
  9
$DIMASZ
 40
0.154729385739991
  9
$DIMCEN
 40
0.0625
  9
$DIMDLI
 40
0.38
  9
$DIMEXE
 40
0.0625
  9
$DIMEXO
 40
0.0625
  9
$DIMLIM
 70
     0
  9
$DIMSCALE
 40
1
  9
$DIMSE1
 70
     0
  9
$DIMSE2
 70
     0
  9
$DIMTAD
 70
     0
  9
$DIMTIH
 70
     1
  9
$DIMTM
 40
0
  9
$DIMTOH
 70
     1
  9
$DIMTOL
 70
     0
  9
$DIMTP
 40
0
  9
$DIMTSZ
 40
0
  9
$DIMTXT
 40
0.25
  9
$DRAGMODE
 70
     2
  9
$ELEVATION
 40
0
  9
$FILLETRAD
 40
0
  9
$FILLMODE
 70
     1
  9
$GRIDMODE
 70
     1
  9
$GRIDUNIT
 10
1
 20
1
  9
$INSBASE
 10
0
 20
0
  9
$LIMCHECK
 70
     0
  9
$LTSCALE
 40
1
  9
$LUNITS
 70
     2
  9
$LUPREC
 70
     4
  9
$MENU
  1
acad
  9
$ORTHOMODE
 70
     0
  9
$OSMODE
 70
     0
  9
$QTEXTMODE
 70
     0
  9
$REGENMODE
 70
     1
  9
$SKETCHINC
 40
0.1
  9
$SNAPANG
 50
0
  9
$SNAPBASE
 10
0
 20
0
  9
$SNAPISOPAIR
 70
     0
  9
$SNAPMODE
 70
     0
  9
$SNAPSTYLE
 70
     0
  9
$SNAPUNIT
 10
0.5
 20
0.5
  9
$TEXTSIZE
 40
0.25
  9
$TEXTSTYLE
  8
STANDARD
  9
$THICKNESS
 40
0
  9
$TRACEWID
 40
0.05
  9
$EXTMAX
 10
30
 20
22.4865831842576
  9
$EXTMIN
 10
0
 20
0
  9
$LIMMAX
 10
30
 20
22.4865831842576
  9
$LIMMIN
 10
0
 20
0
  9
$VIEWCTR
 10
24
 20
11.9999999999994
  9
$VIEWDIR
 10
0
 20
0
 30
1
  9
$VIEWSIZE
 40
37.3816306374123
  0
ENDSEC
  0
SECTION
  2
TABLES
  0
TABLE
  2
LTYPE
 70
     9
  0
LTYPE
  2
CONTINUOUS
 70
    64
  3
Solid line
 72
    65
 73
     0
 40
0
  0
LTYPE
  2
HIDDEN
 70
    64
  3
_ _ _ _ _ _ _ _ _ _ _ _ _ _ _ _ _ _ _ _ 
 72
    65
 73
     2
 40
0.375
 49
0.25
 49
-0.125
  0
LTYPE
  2
DASHED
 70
    64
  3
__ __ __ __ __ __ __ __ __ __ __ __ __  
 72
    65
 73
     2
 40
0.75
 49
0.5
 49
-0.25
  0
LTYPE
  2
CENTER
 70
    64
  3
____ _ ____ _ ____ _ ____ _ ____ _ ____ 
 72
    65
 73
     4
 40
2
 49
1.25
 49
-0.25
 49
0.25
 49
-0.25
  0
LTYPE
  2
PHANTOM
 70
    64
  3
_____ _ _ _____ _ _ _____ _ _ _____ _ _ 
 72
    65
 73
     6
 40
2.5
 49
1.25
 49
-0.25
 49
0.25
 49
-0.25
 49
0.25
 49
-0.25
  0
LTYPE
  2
DOT
 70
    64
  3
........................................
 72
    65
 73
     2
 40
0.25
 49
0
 49
-0.25
  0
LTYPE
  2
DASHDOT
 70
    64
  3
__ . __ . __ . __ . __ . __ . __ . __ . 
 72
    65
 73
     4
 40
1
 49
0.5
 49
-0.25
 49
0
 49
-0.25
  0
LTYPE
  2
BORDER
 70
    64
  3
__ __ . __ __ . __ __ . __ __ . __ __ . 
 72
    65
 73
     6
 40
1.75
 49
0.5
 49
-0.25
 49
0.5
 49
-0.25
 49
0
 49
-0.25
  0
LTYPE
  2
DIVIDE
 70
    64
  3
__ . . __ . . __ . . __ . . __ . . __ . 
 72
    65
 73
     6
 40
1.25
 49
0.5
 49
-0.25
 49
0
 49
-0.25
 49
0
 49
-0.25
  0
ENDTAB
  0
TABLE
  2
LAYER
 70
     8
  0
LAYER
  2
0
 70
     0
 62
     7
  6
CONTINUOUS
  0
LAYER
  2
0010010010
 70
    64
 62
    10
  6
CONTINUOUS
  0
LAYER
  2
0010010003
 70
    64
 62
     3
  6
CONTINUOUS
  0
LAYER
  2
0010010006
 70
    64
 62
     6
  6
CONTINUOUS
  0
LAYER
  2
0010010012
 70
    64
 62
    12
  6
CONTINUOUS
  0
LAYER
  2
0090010010
 70
    64
 62
    10
  6
CONTINUOUS
  0
LAYER
  2
0010010004
 70
    64
 62
     4
  6
CONTINUOUS
  0
LAYER
  2
0030010003
 70
    64
 62
     3
  6
CONTINUOUS
  0
ENDTAB
  0
TABLE
  2
STYLE
 70
1
  0
STYLE
  2
STANDARD
 70
     0
 40
0
 41
1
 50
0
 71
     0
 42
0.2
  3
txt
  4

  0
ENDTAB
  0
TABLE
  2
VIEW
 70
     0
  0
ENDTAB
  0
ENDSEC
  0
SECTION
  2
BLOCKS
  0
ENDSEC
  0
SECTION
  2
ENTITIES
  0
ARC
  8
0010010010
 10
4.38346999627236
 20
6.24564319685103
 40
0.123347792531246
 50
102.445264074799
 51
183.789414208871
  0
ARC
  8
0010010010
 10
4.52358552204983
 20
6.46523831618798
 40
0.348051208576597
 50
220.870340711466
 51
244.274874694435
  0
ARC
  8
0010010003
 10
3.94480918081748
 20
6.16926661482821
 40
0.428064527936952
 50
335.134899340568
 51
357.645876596834
  0
ARC
  8
0010010010
 10
3.98586831737266
 20
5.70699681565399
 40
0.447564036242366
 50
39.1013240730568
 51
60.9330574034823
  0
ARC
  8
0010010010
 10
4.3686329110312
 20
5.89473601504931
 40
0.262156658089948
 50
129.096669396964
 51
201.927238092712
  0
ARC
  8
0010010010
 10
3.76048357369309
 20
5.61270981884945
 40
0.408775631655865
 50
314.64077782077
 51
26.7719875644654
  0
LINE
  8
0010010006
 10
4.04771370746267
 20
5.32185527222802
 11
3.95270115016277
 21
5.41198650700459
  0
ARC
  8
0010010010
 10
3.32044712148491
 20
5.68978040979498
 40
0.690590044242528
 50
295.209661531734
 51
336.280719904765
  0
LINE
  8
0010010006
 10
3.61459142522605
 20
5.06496544695915
 11
3.53535664709121
 21
5.14048824482149
  0
ARC
  8
0010010010
 10
3.25232976324823
 20
5.37045286290759
 40
0.364675119180558
 50
236.279038222607
 51
320.905497890882
  0
ARC
  8
0010010010
 10
2.89478492101931
 20
5.28146401751469
 40
0.264560239902303
 50
305.890667071906
 51
349.097058101252
  0
ARC
  8
0010010010
 10
3.56299158375029
 20
5.27966970295963
 40
0.411261743125958
 50
137.092975108607
 51
186.737026926828
  0
LINE
  8
0010010006
 10
3.26175904105578
 20
5.55966108957857
 11
3.16254779178284
 21
5.65344902830459
  0
ARC
  8
0010010010
 10
3.51977297984487
 20
5.50085216284583
 40
0.388452877880694
 50
92.060137588733
 51
156.86914693871
  0
LINE
  8
0010010006
 10
3.50580870610428
 20
5.88905396267769
 11
3.48359405914817
 21
5.98223473761473
  0
ARC
  8
0010010010
 10
3.70795993257335
 20
5.72164552316162
 40
0.343870300908832
 50
79.9654833251366
 51
130.728269090248
  0
ARC
  8
0010010010
 10
3.80711437231609
 20
6.57298892183329
 40
0.514232487178977
 50
265.623850016465
 51
303.838552334201
  0
ARC
  8
0010010010
 10
3.87825183457306
 20
5.89452330116173
 40
0.330891076376304
 50
49.4273843362867
 51
125.492779485037
  0
ARC
  8
0010010010
 10
3.39722137597536
 20
6.49640359984356
 40
0.440465489313301
 50
231.154800206039
 51
310.990283360697
  0
LINE
  8
0010010006
 10
3.12095330570981
 20
6.15334995880801
 11
3.16111466021197
 21
6.26928463333664
  0
ARC
  8
0010010010
 10
3.11524782489444
 20
6.86531334161901
 40
0.597790923048179
 50
219.649064291511
 51
274.40047071375
  0
LINE
  8
0010010006
 10
2.6549684737821
 20
6.48387277400933
 11
2.73704124124699
 21
6.57556685523934
  0
ARC
  8
0010010010
 10
2.91631849190166
 20
6.96482361040909
 40
0.428557060433704
 50
201.761231952972
 51
245.270952563389
  0
ARC
  8
0010010010
 10
2.25267133631799
 20
6.72355891852797
 40
0.278111935053475
 50
17.2305660265465
 51
64.1994990927097
  0
ARC
  8
0010010010
 10
2.76754840700307
 20
6.48340682795307
 40
0.629073518358416
 50
72.8625460675679
 51
128.759347881317
  0
LINE
  8
0010010006
 10
2.95291439236904
 20
7.08454985832865
 11
2.98223251621768
 21
7.22588043688377
  0
ARC
  8
0010010010
 10
2.89216936106623
 20
6.46446741491048
 40
0.766721045717621
 50
37.0515456086309
 51
83.2541568735696
  0
LINE
  8
0010010006
 10
3.50408465076009
 20
6.92644234949589
 11
3.59448619653202
 21
7.04041625450797
  0
ARC
  8
0010010010
 10
3.09417574623854
 20
6.41219061953335
 40
0.803105220448812
 50
11.6217430781887
 51
51.4666553357164
  0
ARC
  8
0010010010
 10
4.22543492842549
 20
6.63370476104353
 40
0.349756295929624
 50
189.832757431589
 51
251.675333912598
  0
ARC
  8
0010010010
 10
3.82938042280846
 20
6.31479566597289
 40
0.286390995708751
 50
357.3760512213
 51
29.0629582493247
  0
ARC
  8
0010010010
 10
4.40695688986127
 20
6.81888847313567
 40
0.49019882319113
 50
170.317859247761
 51
228.119588069021
  0
LINE
  8
0010010006
 10
3.92374048822077
 20
6.90133115288092
 11
4.02154558516929
 21
6.89511148592752
  0
ARC
  8
0010010006
 10
4.32715070251078
 20
7.06328670601328
 40
0.348822866790876
 50
150.521105220093
 51
208.824092984398
  0
LINE
  8
0010010006
 10
4.02348748220229
 20
7.23494345953053
 11
4.11618809110486
 21
7.23505649979632
  0
ARC
  8
0010010010
 10
4.30911372389006
 20
7.30479338769727
 40
0.205142714517671
 50
155.021694196568
 51
199.873418615974
  0
ARC
  8
0010010010
 10
3.97320308309115
 20
7.48473242870823
 40
0.176617722396879
 50
328.107331950173
 51
23.5262686705172
  0
ARC
  8
0010010010
 10
4.2035317759919
 20
7.21845883207834
 40
0.343648343984637
 50
9.83564212120422
 51
101.479494423209
  0
LINE
  8
0010010006
 10
4.54212911654712
 20
7.2771616879911
 11
4.66342379427002
 21
7.30556845448987
  0
ARC
  8
0010010010
 10
3.74682277210067
 20
7.02782292554598
 40
0.957757804818223
 50
343.484351536817
 51
16.8576913310211
  0
LINE
  8
0010010006
 10
4.66506552956309
 20
6.7555542144203
 11
4.78140771771745
 21
6.72806375902546
  0
ARC
  8
0010010010
 10
4.3480060162023
 20
6.8064333092932
 40
0.440430268357426
 50
271.155501180222
 51
349.750287299894
  0
ARC
  8
0010010012
 10
7.20016654456988
 20
9.72302370595201
 40
0.603960427254428
 50
100.897777869248
 51
146.545504754193
  0
ARC
  8
0010010006
 10
9.08010391367934
 20
2.02965198337287
 40
8.52300477864689
 50
99.2832170580509
 51
103.53086790652
  0
ARC
  8
0010010006
 10
24.0000000000001
 20
-147.358889963455
 40
158.63900847431
 50
95.5111898856472
 51
95.8955979831457
  0
ARC
  8
0010010006
 10
24.0000000000001
 20
-147.358889963455
 40
158.63900847431
 50
84.4888101143528
 51
95.5111898856472
  0
ARC
  8
0010010006
 10
24.0000000000001
 20
-147.358889963455
 40
158.63900847431
 50
84.1044020168544
 51
84.4888101143528
  0
ARC
  8
0010010006
 10
38.9198960863207
 20
2.02965198337287
 40
8.52300477864689
 50
76.4691320934803
 51
80.7167829419485
  0
ARC
  8
0010010012
 10
40.7998334554301
 20
9.72302370595202
 40
0.603960427254428
 50
33.4544952458068
 51
79.1022221307516
  0
ARC
  8
0010010012
 10
40.972806463075
 20
9.77968616530757
 40
0.431097977535487
 50
5.77749817576546
 51
39.8580712002596
  0
ARC
  8
0010010006
 10
41.1555808164588
 20
9.79546629962352
 40
0.247678250560943
 50
311.858807452021
 51
6.40189921756024
  0
ARC
  8
0010010006
 10
40.7716936725215
 20
10.2404461895896
 40
0.835334992263082
 50
291.263296136719
 51
311.10305991778
  0
LINE
  8
0010010006
 10
41.0746315090876
 20
9.46197768241067
 11
41.0747014672878
 21
9.85341744646464
  0
ARC
  8
0010010006
 10
40.8792444740201
 20
9.8718534083439
 40
0.196324529561751
 50
354.611669465909
 51
25.7932420814187
  0
ARC
  8
0010010006
 10
40.5869600354113
 20
9.73562524772764
 40
0.518784694265001
 50
25.2935421482431
 51
57.3677901798076
  0
ARC
  8
0010010006
 10
40.4312979898826
 20
9.27542496460731
 40
0.99717784343153
 50
64.109921119319
 51
84.9138743954931
  0
ARC
  8
0010010006
 10
40.3922563466151
 20
8.90571476012224
 40
1.36890714425571
 50
84.6580565350798
 51
112.172417908918
  0
ARC
  8
0010010006
 10
40.2541158408969
 20
9.34754175409263
 40
0.908448393407038
 50
114.62141027169
 51
126.921812176962
  0
ARC
  8
0010010006
 10
39.8795726344056
 20
9.82444243185007
 40
0.302467080087777
 50
124.468944842917
 51
192.396229373977
  0
ARC
  8
0010010006
 10
39.9972830629614
 20
9.84840351709309
 40
0.422581129445098
 50
192.143151138928
 51
209.871058031902
  0
ARC
  8
0010010006
 10
27.2941581593565
 20
5.08762659983758
 40
13.1491104591887
 50
6.31007177043705
 51
20.2461872461687
  0
ARC
  8
0010010006
 10
13.2194109020628
 20
3.98311586325202
 40
27.2636831997899
 50
4.17009198635265
 51
5.36617891292644
  0
ARC
  8
0010010006
 10
40.1115034560181
 20
5.65010040999578
 40
0.435004335361085
 50
46.5045827076845
 51
94.74107939328
  0
ARC
  8
0010010006
 10
40.101539927075
 20
5.7173210109284
 40
0.367216265789003
 50
94.0586854534545
 51
158.84024623538
  0
ARC
  8
0010010006
 10
40.0081682816468
 20
5.73125610297946
 40
0.275888138328747
 50
154.535450189928
 51
280.533933863634
  0
ARC
  8
0010010006
 10
39.7921858642993
 20
5.50411627381927
 40
0.270044713355635
 50
350.601419421164
 51
20.7303365768954
  0
ARC
  8
0010010006
 10
40.1022572004296
 20
5.6385944254815
 40
0.0694253989549925
 50
59.0074088983145
 51
214.067929117893
  0
ARC
  8
0010010006
 10
40.0684781839128
 20
5.57806036663261
 40
0.138728651152056
 50
355.872102283149
 51
59.9218917432415
  0
ARC
  8
0010010006
 10
39.8886205945992
 20
5.6242723556941
 40
0.323150494418229
 50
317.107124511924
 51
349.984946146595
  0
ARC
  8
0010010006
 10
39.7004653594908
 20
5.69167517581276
 40
0.51294524535642
 50
306.459751995625
 51
325.930809132853
  0
ARC
  8
0010010006
 10
39.7075735521766
 20
4.87010060507915
 40
0.50590066818735
 50
53.9506164889075
 51
121.202752483586
  0
LINE
  8
0010010006
 10
39.4454825540228
 20
5.30281736551161
 11
39.3941361007521
 21
5.37122324824027
  0
ARC
  8
0010010006
 10
39.4606291672077
 20
4.75701456428538
 40
0.617797406381947
 50
96.1786697038097
 51
142.24084114077
  0
LINE
  8
0010010006
 10
38.9722036658528
 20
5.13531889278089
 11
38.9310794577291
 21
5.18016275068488
  0
ARC
  8
0010010006
 10
39.0930861847491
 20
4.61298718843066
 40
0.589859557876364
 50
105.941339319613
 51
140.130501533572
  0
ARC
  8
0010010006
 10
38.1325158961736
 20
4.82359851583119
 40
0.53476295599729
 50
18.2550218315748
 51
29.9591141466476
  0
LINE
  8
0010010006
 10
38.5958248846271
 20
5.0906494479119
 11
38.53875572042
 21
5.06806592886277
  0
ARC
  8
0010010006
 10
38.138009662481
 20
4.97021202212704
 40
0.41252004801838
 50
13.7219343385339
 51
55.3627952995753
  0
LINE
  8
0010010006
 10
38.3724770336471
 20
5.30962009786417
 11
38.3436490065617
 21
5.30590464080669
  0
ARC
  8
0010010006
 10
38.147790977545
 20
5.23018091392496
 40
0.209986786115659
 50
21.137777589234
 51
58.6286140495689
  0
ARC
  8
0010010006
 10
38.2750879625433
 20
5.53389910461522
 40
0.125721725084047
 50
189.537879331595
 51
261.777061823426
  0
LINE
  8
0010010006
 10
38.1511041806563
 20
5.51306706229808
 11
38.1159314183489
 21
5.63391668684841
  0
ARC
  8
0010010006
 10
38.4483861635875
 20
4.94991749318897
 40
0.76051367808766
 50
115.921861747905
 51
156.838213863683
  0
LINE
  8
0010010006
 10
37.7491715022115
 20
5.2490494237401
 11
37.6114491456121
 21
5.25378388277717
  0
ARC
  8
0010010006
 10
38.1360038753878
 20
5.01635986860912
 40
0.575784531777071
 50
155.647536696086
 51
212.02917219531
  0
LINE
  8
0010010006
 10
37.6478663144637
 20
4.71099197794468
 11
37.5652717193334
 21
4.68258552450398
  0
ARC
  8
0010010006
 10
38.0561829291639
 20
4.75607900636138
 40
0.496382018019215
 50
188.514419410389
 51
253.952568268295
  0
ARC
  8
0010010006
 10
35.4891356052574
 20
11.9483973636785
 40
8.04506865856162
 50
280.065280004419
 51
287.579412503074
  0
LINE
  8
0010010006
 10
36.8951731109257
 20
4.0271482037527
 11
36.8853414798904
 21
4.04696963999698
  0
ARC
  8
0010010006
 10
36.7377111209005
 20
4.328205667657
 40
0.317629384896077
 50
297.696509247192
 51
350.909276613167
  0
ARC
  8
0010010006
 10
37.2083260714097
 20
4.23035457820939
 40
0.164052662167487
 50
62.0598038300943
 51
163.108851057941
  0
ARC
  8
0010010006
 10
36.7709420046558
 20
4.2475216097097
 40
0.529884338971379
 50
13.95237124569
 51
90.727284908108
  0
LINE
  8
0010010006
 10
36.7642160898129
 20
4.77736326035323
 11
36.7729178518395
 21
4.88781156777366
  0
ARC
  8
0010010006
 10
36.5840773709364
 20
4.28585404048201
 40
0.630883184029165
 50
72.5828038448381
 51
127.017017731839
  0
LINE
  8
0010010006
 10
36.2042527597208
 20
4.78958696238175
 11
36.1653571741551
 21
4.85726665453248
  0
ARC
  8
0010010006
 10
36.3933836754583
 20
4.12459636765356
 40
0.767334239149974
 50
107.287532611618
 51
138.834755567287
  0
ARC
  8
0010010006
 10
35.2785142812515
 20
4.78118933505464
 40
0.558165273665158
 50
344.250034779078
 51
6.52414190430557
  0
LINE
  8
0010010006
 10
35.8330649149263
 20
4.84460910655038
 11
35.797577458402
 21
4.85559653152887
  0
ARC
  8
0010010006
 10
35.5178413077757
 20
4.9155948716828
 40
0.286098085957354
 50
347.894496414304
 51
31.3110108941542
  0
ARC
  8
0010010006
 10
35.7962662768095
 20
5.10824747125992
 40
0.0555803964411078
 50
158.940167267935
 51
232.292721513336
  0
LINE
  8
0010010006
 10
35.7443983350598
 20
5.12821987940728
 11
35.7681817662017
 21
5.22079260007186
  0
ARC
  8
0010010006
 10
35.5625816848328
 20
4.71876882447668
 40
0.542493561917327
 50
67.7288140998338
 51
148.414974228466
  0
LINE
  8
0010010006
 10
35.1004510313616
 20
5.00290703704942
 11
35.0000759692518
 21
5.05890832295835
  0
ARC
  8
0010010006
 10
35.38734284326
 20
4.65554356128131
 40
0.559176861705503
 50
133.833573617915
 51
185.484337912899
  0
LINE
  8
0010010006
 10
34.8307256913131
 20
4.60210098625536
 11
34.7918039680025
 21
4.61232072502579
  0
ARC
  8
0010010006
 10
35.1894578399244
 20
4.34328930184759
 40
0.480110933547458
 50
145.919812197949
 51
204.548265269883
  0
ARC
  8
0010010006
 10
34.8800759371117
 20
-1.60195165376496
 40
5.74718498276267
 50
91.2695287168909
 51
101.217973743715
  0
ARC
  8
0010010006
 10
34.0647010694871
 20
2.27690302358073
 40
1.78438677718193
 50
99.7665957445613
 51
118.925439689775
  0
ARC
  8
0010010006
 10
33.7873330288663
 20
2.62208911737688
 40
1.35023767742995
 50
115.706844870202
 51
138.677614711321
  0
ARC
  8
0010010006
 10
24
 20
84.3055590189729
 40
81.2668701200227
 50
274.668956597904
 51
276.197536686928
  0
ARC
  8
0010010006
 10
30.7102702746728
 20
3.71493292575922
 40
0.417583478379741
 50
196.153054344619
 51
256.812307325846
  0
ARC
  8
0010010006
 10
29.8955861081366
 20
3.65640081494637
 40
0.417583478379741
 50
289.661495064497
 51
352.065812466065
  0
ARC
  8
0010010006
 10
24
 20
84.3055590189729
 40
81.2668701200227
 50
271.912603391793
 51
274.259559959973
  0
ARC
  8
0010010006
 10
26.8356211914327
 20
3.48291629440621
 40
0.417583478379741
 50
193.667585643062
 51
252.820913866649
  0
ARC
  8
0010010006
 10
26.0191651332628
 20
3.45976884792053
 40
0.417583478379741
 50
290.036114187876
 51
349.580343764507
  0
ARC
  8
0010010006
 10
24
 20
84.3055590189729
 40
81.2668701200227
 50
268.475374691538
 51
271.524625308462
  0
ARC
  8
0010010006
 10
21.9808348667372
 20
3.45976884792053
 40
0.417583478379741
 50
190.419656235493
 51
249.963885812124
  0
ARC
  8
0010010006
 10
21.1643788085674
 20
3.48291629440621
 40
0.417583478379741
 50
287.179086133351
 51
346.332414356938
  0
ARC
  8
0010010006
 10
24
 20
84.3055590189729
 40
81.2668701200227
 50
265.740440040027
 51
268.087396608207
  0
ARC
  8
0010010006
 10
18.1044138918634
 20
3.65640081494637
 40
0.417583478379741
 50
187.934187533935
 51
250.338504935503
  0
ARC
  8
0010010006
 10
17.2897297253272
 20
3.71493292575921
 40
0.417583478379741
 50
283.187692674154
 51
343.846945655381
  0
ARC
  8
0010010006
 10
24
 20
84.3055590189729
 40
81.2668701200227
 50
263.802463313073
 51
265.331043402096
  0
ARC
  8
0010010006
 10
14.2126669711338
 20
2.62208911737688
 40
1.35023767742995
 50
41.3223852886783
 51
64.2931551297982
  0
ARC
  8
0010010006
 10
13.9352989305129
 20
2.27690302358073
 40
1.78438677718193
 50
61.074560310225
 51
80.2334042554387
  0
ARC
  8
0010010006
 10
13.1199240628883
 20
-1.60195165376496
 40
5.74718498276267
 50
78.7820262562854
 51
88.7304712831091
  0
ARC
  8
0010010006
 10
12.8105421600756
 20
4.34328930184759
 40
0.480110933547458
 50
335.451734730118
 51
34.0801878020508
  0
LINE
  8
0010010006
 10
13.2081960319975
 20
4.61232072502579
 11
13.1692743086869
 21
4.60210098625535
  0
ARC
  8
0010010006
 10
12.61265715674
 20
4.65554356128131
 40
0.559176861705503
 50
354.515662087101
 51
46.1664263820853
  0
LINE
  8
0010010006
 10
12.9999240307482
 20
5.05890832295835
 11
12.8995489686384
 21
5.00290703704942
  0
ARC
  8
0010010006
 10
12.4374183151672
 20
4.71876882447668
 40
0.542493561917327
 50
31.5850257715344
 51
112.271185900166
  0
LINE
  8
0010010006
 10
12.2318182337983
 20
5.22079260007186
 11
12.2556016649402
 21
5.12821987940727
  0
ARC
  8
0010010006
 10
12.2037337231905
 20
5.10824747125993
 40
0.0555803964411078
 50
307.707278486664
 51
21.0598327320647
  0
ARC
  8
0010010006
 10
12.4821586922243
 20
4.9155948716828
 40
0.286098085957354
 50
148.688989105846
 51
192.105503585696
  0
LINE
  8
0010010006
 10
12.202422541598
 20
4.85559653152887
 11
12.1669350850737
 21
4.84460910655038
  0
ARC
  8
0010010006
 10
12.7214857187485
 20
4.78118933505463
 40
0.558165273665158
 50
173.475858095695
 51
195.749965220922
  0
ARC
  8
0010010006
 10
11.6066163245417
 20
4.12459636765356
 40
0.767334239149974
 50
41.1652444327131
 51
72.7124673883821
  0
LINE
  8
0010010006
 10
11.834642825845
 20
4.85726665453249
 11
11.7957472402792
 21
4.78958696238175
  0
ARC
  8
0010010006
 10
11.4159226290636
 20
4.28585404048201
 40
0.630883184029165
 50
52.9829822681613
 51
107.417196155162
  0
LINE
  8
0010010006
 10
11.2270821481605
 20
4.88781156777365
 11
11.2357839101871
 21
4.77736326035323
  0
ARC
  8
0010010006
 10
11.2290579953443
 20
4.2475216097097
 40
0.529884338971379
 50
89.272715091892
 51
166.04762875431
  0
ARC
  8
0010010006
 10
10.7916739285903
 20
4.23035457820939
 40
0.164052662167487
 50
16.8911489420596
 51
117.940196169906
  0
ARC
  8
0010010006
 10
11.2622888790995
 20
4.328205667657
 40
0.317629384896077
 50
189.090723386833
 51
242.303490752808
  0
LINE
  8
0010010006
 10
11.1146585201096
 20
4.04696963999698
 11
11.1048268890743
 21
4.0271482037527
  0
ARC
  8
0010010006
 10
12.5108643947426
 20
11.9483973636785
 40
8.04506865856162
 50
252.420587496927
 51
259.934719995581
  0
ARC
  8
0010010006
 10
9.94381707083606
 20
4.75607900636138
 40
0.496382018019215
 50
286.047431731705
 51
351.485580589612
  0
LINE
  8
0010010006
 10
10.4347282806666
 20
4.68258552450398
 11
10.3521336855363
 21
4.71099197794467
  0
ARC
  8
0010010006
 10
9.8639961246122
 20
5.01635986860912
 40
0.575784531777071
 50
327.97082780469
 51
24.3524633039142
  0
LINE
  8
0010010006
 10
10.3885508543879
 20
5.25378388277717
 11
10.2508284977885
 21
5.2490494237401
  0
ARC
  8
0010010006
 10
9.5516138364125
 20
4.94991749318897
 40
0.76051367808766
 50
23.1617861363169
 51
64.0781382520947
  0
LINE
  8
0010010006
 10
9.88406858165108
 20
5.63391668684842
 11
9.84889581934374
 21
5.51306706229809
  0
ARC
  8
0010010006
 10
9.72491203745673
 20
5.53389910461522
 40
0.125721725084047
 50
278.222938176574
 51
350.462120668405
  0
ARC
  8
0010010006
 10
9.85220902245503
 20
5.23018091392496
 40
0.209986786115659
 50
121.371385950431
 51
158.862222410766
  0
LINE
  8
0010010006
 10
9.65635099343828
 20
5.30590464080669
 11
9.62752296635293
 21
5.30962009786416
  0
ARC
  8
0010010006
 10
9.86199033751896
 20
4.97021202212704
 40
0.41252004801838
 50
124.637204700425
 51
166.278065661466
  0
LINE
  8
0010010006
 10
9.46124427957997
 20
5.06806592886277
 11
9.40417511537293
 21
5.09064944791191
  0
ARC
  8
0010010006
 10
9.8674841038264
 20
4.82359851583119
 40
0.53476295599729
 50
150.040885853352
 51
161.744978168425
  0
ARC
  8
0010010006
 10
8.9069138152509
 20
4.61298718843066
 40
0.589859557876364
 50
39.8694984664279
 51
74.0586606803866
  0
LINE
  8
0010010006
 10
9.06892054227087
 20
5.18016275068487
 11
9.02779633414722
 21
5.13531889278089
  0
ARC
  8
0010010006
 10
8.53937083279229
 20
4.75701456428537
 40
0.617797406381947
 50
37.7591588592297
 51
83.8213302961903
  0
LINE
  8
0010010006
 10
8.60586389924786
 20
5.37122324824026
 11
8.55451744597721
 21
5.3028173655116
  0
ARC
  8
0010010006
 10
8.29242644782341
 20
4.87010060507915
 40
0.50590066818735
 50
58.7972475164143
 51
126.049383511093
  0
ARC
  8
0010010006
 10
8.29953464050918
 20
5.69167517581275
 40
0.51294524535642
 50
214.069190867147
 51
233.540248004376
  0
ARC
  8
0010010006
 10
8.1113794054008
 20
5.62427235569409
 40
0.323150494418229
 50
190.015053853405
 51
222.892875488076
  0
ARC
  8
0010010006
 10
7.93152181608715
 20
5.57806036663261
 40
0.138728651152056
 50
120.078108256759
 51
184.127897716851
  0
ARC
  8
0010010006
 10
7.8977427995704
 20
5.6385944254815
 40
0.0694253989549925
 50
325.932070882107
 51
120.992591101686
  0
ARC
  8
0010010006
 10
8.20781413570066
 20
5.50411627381927
 40
0.270044713355635
 50
159.269663423105
 51
189.398580578836
  0
ARC
  8
0010010006
 10
7.99183171835318
 20
5.73125610297946
 40
0.275888138328747
 50
259.466066136366
 51
25.4645498100723
  0
ARC
  8
0010010006
 10
7.89846007292498
 20
5.71732101092839
 40
0.367216265789003
 50
21.1597537646196
 51
85.9413145465455
  0
ARC
  8
0010010006
 10
7.88849654398187
 20
5.65010040999578
 40
0.435004335361085
 50
85.25892060672
 51
133.495417292316
  0
ARC
  8
0010010006
 10
34.7805890979372
 20
3.98311586325203
 40
27.2636831997899
 50
174.633821087074
 51
175.829908013647
  0
ARC
  8
0010010006
 10
20.7058418406435
 20
5.08762659983758
 40
13.1491104591887
 50
159.753812753831
 51
173.689928229563
  0
ARC
  8
0010010006
 10
8.00271693703856
 20
9.84840351709308
 40
0.422581129445098
 50
330.128941968098
 51
347.856848861072
  0
ARC
  8
0010010006
 10
8.12042736559444
 20
9.82444243185007
 40
0.302467080087777
 50
347.603770626024
 51
55.5310551570831
  0
ARC
  8
0010010006
 10
7.74588415910308
 20
9.34754175409262
 40
0.908448393407038
 50
53.0781878230378
 51
65.3785897283104
  0
ARC
  8
0010010006
 10
7.60774365338495
 20
8.90571476012224
 40
1.36890714425571
 50
67.827582091082
 51
95.3419434649203
  0
ARC
  8
0010010006
 10
7.56870201011736
 20
9.27542496460731
 40
0.99717784343153
 50
95.0861256045069
 51
115.890078880681
  0
ARC
  8
0010010006
 10
7.41303996458875
 20
9.73562524772764
 40
0.518784694265001
 50
122.632209820192
 51
154.706457851757
  0
ARC
  8
0010010006
 10
7.1207555259799
 20
9.8718534083439
 40
0.196324529561751
 50
154.206757918581
 51
185.388330534091
  0
LINE
  8
0010010006
 10
6.92529853271225
 20
9.85341744646463
 11
6.92536849091237
 21
9.46197768241066
  0
ARC
  8
0010010006
 10
7.22830632747855
 20
10.2404461895896
 40
0.835334992263082
 50
228.89694008222
 51
248.736703863281
  0
ARC
  8
0010010006
 10
6.84441918354123
 20
9.79546629962352
 40
0.247678250560943
 50
173.59810078244
 51
228.141192547979
  0
ARC
  8
0010010012
 10
7.02719353692501
 20
9.77968616530757
 40
0.431097977535487
 50
140.14192879974
 51
174.222501824235
  0
ARC
  8
0010010012
 10
8.00271693703856
 20
9.84840351709308
 40
0.332581129445098
 50
305.400933589384
 51
347.892064771363
  0
ARC
  8
0010010006
 10
7.71590549033723
 20
10.2482314724026
 40
0.824639363449151
 50
279.994379248933
 51
305.551507470938
  0
ARC
  8
0010010012
 10
7.3874533180218
 20
12.4501290063851
 40
3.05069032342787
 50
274.807900916107
 51
278.892322785988
  0
ARC
  8
0010010012
 10
13.5486812740861
 20
7.80199967123287
 40
6.12058400151673
 50
160.705988409055
 51
164.766796863327
  0
ARC
  8
0010010006
 10
7.29556808782024
 20
10.6385882732649
 40
0.943321856977673
 50
275.083761785425
 51
300.325106635641
  0
ARC
  8
0010010006
 10
7.34216932171945
 20
10.1221465487611
 40
0.424782777322388
 50
230.843657675127
 51
274.995416630752
  0
ARC
  8
0010010006
 10
7.22891217550672
 20
9.91586712842947
 40
0.197915174194789
 50
175.465519664812
 51
218.46413982244
  0
ARC
  8
0010010012
 10
7.41303996458875
 20
9.73562524772764
 40
0.428784694265001
 50
123.323805338925
 51
152.816184529877
  0
ARC
  8
0010010012
 10
7.56870201011736
 20
9.27542496460731
 40
0.907177843431532
 50
95.0735202267499
 51
115.547128831497
  0
ARC
  8
0010010006
 10
7.60774365338495
 20
8.90571476012224
 40
1.27890714425571
 50
67.9145505575501
 51
95.3510045850406
  0
ARC
  8
0010010006
 10
7.74588415910308
 20
9.34754175409262
 40
0.818448393407039
 50
52.9349136596535
 51
65.2451384956896
  0
ARC
  8
0010010006
 10
8.12042736559444
 20
9.82444243185007
 40
0.212467080087775
 50
347.551692194488
 51
56.0183928201266
  0
ARC
  8
0010010012
 10
7.06360701505273
 20
3.94263901897098
 40
0.441503063852282
 50
191.36836579125
 51
325.72349956385
  0
LINE
  8
0010010012
 10
6.63076617244213
 20
3.85561166488564
 11
6.62780389733862
 21
5.01983049710794
  0
ARC
  8
0010010003
 10
6.43726287091907
 20
5.15930374995363
 40
0.236132740227993
 50
323.796416286892
 51
35.7062148339934
  0
ARC
  8
0010010003
 10
6.55488785113863
 20
5.52131621513607
 40
0.236132740227998
 50
288.29378516602
 51
4.19384205384643
  0
ARC
  8
0010010003
 10
6.91530242208324
 20
5.56755891819332
 40
0.128230389747429
 50
110.735961245942
 51
193.058940948586
  0
ARC
  8
0010010003
 10
6.82662445320519
 20
5.77119155006262
 40
0.094233795677314
 50
297.338450230247
 51
65.2127689603903
  0
ARC
  8
0010010003
 10
7.15865314856943
 20
6.16926661482844
 40
0.428064527936951
 50
169.106587415294
 51
226.893412584716
  0
ARC
  8
0010010003
 10
6.65605363902488
 20
6.29615453678781
 40
0.094233795677316
 50
330.787231039615
 51
98.6615497697522
  0
ARC
  8
0010010003
 10
6.60810336497555
 20
6.51302039888913
 40
0.128230389747428
 50
277.26906266141
 51
285.264038754078
  0
LINE
  8
0010010012
 10
6.62432822903037
 20
6.38582060863306
 11
6.61628630760455
 21
9.54641712449862
  0
ARC
  8
0010010006
 10
7.22830632747855
 20
10.2404461895896
 40
0.925334992263083
 50
228.592982345482
 51
266.597887076315
  0
ARC
  8
0010010006
 10
7.3874533180218
 20
12.4501290063851
 40
3.14069032342787
 50
266.091874808796
 51
278.907819453346
  0
ARC
  8
0010010006
 10
7.71590549033723
 20
10.2482314724026
 40
0.914639363449152
 50
279.939146968897
 51
303.286865659424
  0
ARC
  8
0010010012
 10
20.7058418406435
 20
5.08762659983758
 40
13.2391104591887
 50
160.606838448674
 51
173.693139440051
  0
ARC
  8
0010010012
 10
34.7805890979372
 20
3.98311586325203
 40
27.3536831997899
 50
174.63226960703
 51
176.161500993354
  0
ARC
  8
0010010006
 10
8.02212435193405
 20
5.57913780014228
 40
0.583351646332816
 50
156.227522157941
 51
188.821938291456
  0
ARC
  8
0010010006
 10
8.06801630514521
 20
5.53927421355804
 40
0.624315930136936
 50
184.556932083119
 51
194.241818376206
  0
ARC
  8
0010010012
 10
34.7805890979372
 20
3.98311586325203
 40
27.3536831997899
 50
177.060854889051
 51
180.60562196747
  0
ARC
  8
0010010010
 10
8.1113794054008
 20
5.62427235569409
 40
0.413150494418229
 50
189.414242969395
 51
221.910177980817
  0
ARC
  8
0010010010
 10
8.29953464050918
 20
5.69167517581275
 40
0.602945245356421
 50
214.714843517675
 51
244.310161933137
  0
ARC
  8
0010010006
 10
7.82946739062326
 20
4.98525950125989
 40
0.264846123652609
 50
359.429592129623
 51
38.003746828433
  0
ARC
  8
0010010006
 10
8.49498690617969
 20
4.9945438548088
 40
0.400863810251453
 50
181.704126906992
 51
198.14724682452
  0
ARC
  8
0010010006
 10
8.40789355203855
 20
5.76379405571414
 40
0.941146887951124
 50
211.290954498428
 51
251.807809105965
  0
ARC
  8
0010010010
 10
8.06801630514521
 20
5.53927421355804
 40
0.534315930136936
 50
184.196452657419
 51
209.646379286433
  0
ARC
  8
0010010010
 10
8.02212435193405
 20
5.57913780014228
 40
0.493351646332816
 50
142.571240340328
 51
189.210033571668
  0
ARC
  8
0010010010
 10
7.88849654398187
 20
5.65010040999578
 40
0.345004335361085
 50
85.1688140902378
 51
138.438513426404
  0
ARC
  8
0010010006
 10
7.89846007292498
 20
5.71732101092839
 40
0.277216265789002
 50
20.4405396832903
 51
86.0507215141008
  0
ARC
  8
0010010010
 10
7.99183171835318
 20
5.73125610297946
 40
0.185888138328746
 50
281.787892824343
 51
26.4778519190712
  0
ARC
  8
0010010006
 10
7.8977427995704
 20
5.6385944254815
 40
0.159425398954993
 50
325.932070882107
 51
120.713132521209
  0
ARC
  8
0010010006
 10
7.93152181608715
 20
5.57806036663261
 40
0.228728651152056
 50
120.243156820798
 51
185.360313803627
  0
ARC
  8
0010010010
 10
10.3586886094668
 20
3.33011191914961
 40
0.367117088286398
 50
19.6358141522418
 51
68.8034737449029
  0
ARC
  8
0010010010
 10
19.3669345035267
 20
47.1367297855686
 40
44.361281607123
 50
257.522114333827
 51
258.458754441768
  0
ARC
  8
0010010006
 10
9.12079040877422
 20
3.65263681317739
 40
0.682984639201961
 50
14.4690257079897
 51
32.3184659686232
  0
ARC
  8
0010010006
 10
9.77888055325798
 20
4.03149200094368
 40
0.082061119148198
 50
180.026871969083
 51
189.620869628172
  0
ARC
  8
0010010006
 10
11.1236336579881
 20
7.60907672375571
 40
3.85164726256582
 50
248.257084026613
 51
267.456418757024
  0
LINE
  8
0010010006
 10
10.9527002990903
 20
3.76122428089271
 11
10.9544084278162
 21
3.79065643146838
  0
ARC
  8
0010010010
 10
11.9299870742185
 20
9.94448056076802
 40
6.23067453087277
 50
248.538213465042
 51
260.991747093756
  0
ARC
  8
0010010010
 10
9.77888055325798
 20
4.03149200094368
 40
0.172061119148196
 50
138.35460640045
 51
196.905115986586
  0
ARC
  8
0010010010
 10
9.12079040877422
 20
3.65263681317739
 40
0.592984639201961
 50
344.690959949823
 51
33.6776716736597
  0
LINE
  8
0010010006
 10
9.69273344638443
 20
3.49607390550547
 11
9.55067448513583
 21
3.55469968124918
  0
ARC
  8
0010010010
 10
9.20457317915392
 20
3.58344275455412
 40
0.347292784643445
 50
289.552105153302
 51
355.252585783468
  0
LINE
  8
0010010006
 10
9.32079955960558
 20
3.2561757278733
 11
9.22242759568498
 21
3.35490702479643
  0
ARC
  8
0010010010
 10
8.76066075653606
 20
3.9791143654893
 40
0.7764427975791
 50
261.15100696823
 51
306.492745572976
  0
ARC
  8
0010010010
 10
8.59580548372039
 20
3.36013050391278
 40
0.155018643746601
 50
287.035324110909
 51
358.881217102525
  0
ARC
  8
0010010010
 10
9.02570596706634
 20
3.38795808376841
 40
0.276637423653081
 50
141.472405581612
 51
186.403724856052
  0
LINE
  8
0010010006
 10
8.80929022699056
 20
3.56027317774703
 11
8.72146853748586
 21
3.61100791299533
  0
ARC
  8
0010010010
 10
9.22330569101161
 20
3.45736720429785
 40
0.524829492338125
 50
120.726654350771
 51
162.977690358801
  0
LINE
  8
0010010006
 10
8.95514780328306
 20
3.90851833560182
 11
8.8413644115712
 21
3.97387135200908
  0
ARC
  8
0010010010
 10
9.17757475367806
 20
3.64812970172616
 40
0.468129273671977
 50
83.0188008041867
 51
135.906050388137
  0
ARC
  8
0010010006
 10
9.28313880537825
 20
4.43854310576794
 40
0.329369944810033
 50
261.503177393706
 51
313.483503400852
  0
ARC
  8
0010010010
 10
9.32624265279762
 20
3.80727680029687
 40
0.433102748801987
 50
64.9250181356845
 51
107.578148397385
  0
ARC
  8
0010010010
 10
8.93621257820011
 20
4.70882984968729
 40
0.553174719966223
 50
232.558814202765
 51
297.944938110986
  0
LINE
  8
0010010006
 10
8.59991181605468
 20
4.26962139326812
 11
8.64829015426005
 21
4.37266564869774
  0
ARC
  8
0010010010
 10
8.72168104279095
 20
4.9019420177948
 40
0.534340432125364
 50
208.892982083634
 51
262.105552291896
  0
LINE
  8
0010010006
 10
8.25385332224174
 20
4.64376200057882
 11
8.33602757189757
 21
4.72739550918667
  0
ARC
  8
0010010006
 10
8.49498690617969
 20
4.9945438548088
 40
0.310863810251453
 50
181.988688123129
 51
239.246393212304
  0
ARC
  8
0010010010
 10
7.82946739062326
 20
4.98525950125989
 40
0.354846123652609
 50
359.757266533969
 51
43.8076645690836
  0
ARC
  8
0010010010
 10
8.29242644782341
 20
4.87010060507915
 40
0.415900668187349
 50
47.6099978569303
 51
119.829579517235
  0
LINE
  8
0010010006
 10
8.57281566533581
 20
5.17727360601099
 11
8.64545120621859
 21
5.27404169757457
  0
ARC
  8
0010010010
 10
8.53937083279229
 20
4.75701456428537
 40
0.527797406381947
 50
25.8784239815706
 51
78.4053228302641
  0
LINE
  8
0010010006
 10
9.01424187786149
 20
4.98737860822106
 11
9.09544700379137
 21
5.07592866898638
  0
ARC
  8
0010010010
 10
8.9069138152509
 20
4.61298718843066
 40
0.499859557876365
 50
353.16459867913
 51
67.8413608088713
  0
ARC
  8
0010010010
 10
9.62679608612419
 20
4.55980022522279
 40
0.223664521348154
 50
181.61537005766
 51
259.158486424266
  0
ARC
  8
0010010010
 10
9.51665609171194
 20
4.41008349503866
 40
0.0976081701078883
 50
314.217408432633
 51
51.8455599161925
  0
ARC
  8
0010010006
 10
9.8674841038264
 20
4.82359851583119
 40
0.44476295599729
 50
159.977340849065
 51
229.215308315867
  0
LINE
  8
0010010006
 10
9.44960382785334
 20
4.97588167964165
 11
9.54091217967992
 21
4.93974896363866
  0
ARC
  8
0010010006
 10
9.86199033751896
 20
4.97021202212704
 40
0.322520048018381
 50
130.453765564435
 51
185.419850373381
  0
LINE
  8
0010010006
 10
9.65272828967076
 20
5.21562713312095
 11
9.73488604726639
 21
5.20503835368833
  0
ARC
  8
0010010010
 10
9.85220902245503
 20
5.23018091392496
 40
0.119986786115659
 50
127.807612584024
 51
192.095654817863
  0
ARC
  8
0010010010
 10
9.72491203745673
 20
5.53389910461522
 40
0.215721725084046
 50
284.426279600925
 51
350.462120668405
  0
ARC
  8
0010010010
 10
9.5516138364125
 20
4.94991749318897
 40
0.670513678087659
 50
17.9790171598735
 51
54.8489151224008
  0
LINE
  8
0010010006
 10
10.1893860772135
 20
5.15688406383832
 11
10.3275499243475
 21
5.16163369992364
  0
ARC
  8
0010010010
 10
9.8639961246122
 20
5.01635986860912
 40
0.485784531777073
 50
314.090868884132
 51
17.400548796428
  0
LINE
  8
0010010006
 10
10.2020041960895
 20
4.66745134918024
 11
10.3281584231913
 21
4.62406359271921
  0
ARC
  8
0010010010
 10
9.94381707083606
 20
4.75607900636138
 40
0.406382018019215
 50
269.937643361305
 51
341.043182250747
  0
ARC
  8
0010010006
 10
9.92517888735133
 20
4.09998256899396
 40
0.250376721037714
 50
85.8324059378793
 51
130.189389021963
  0
ARC
  8
0010010010
 10
12.5108643947426
 20
11.9483973636785
 40
8.13506865856162
 50
250.262855970464
 51
260.232850200535
  0
ARC
  8
0010010006
 10
11.5369423278553
 20
4.31547292314838
 40
0.5590954988521
 50
223.411497384377
 51
267.443754517754
  0
LINE
  8
0010010006
 10
11.5120066122979
 20
3.75693376881243
 11
11.502426996198
 21
3.6686954153446
  0
ARC
  8
0010010006
 10
11.8343377819651
 20
4.43811255497855
 40
0.837954357033253
 50
246.665622644743
 51
273.083935995855
  0
LINE
  8
0010010006
 10
11.8794187638764
 20
3.60137172919023
 11
11.9055094718805
 21
3.55547479974445
  0
ARC
  8
0010010006
 10
12.2522425952375
 20
3.02552688040375
 40
0.633299815290098
 50
123.195830418706
 51
135.364116630071
  0
ARC
  8
0010010010
 10
-115.242633310166
 20
-737.216051586474
 40
751.503012585221
 50
80.2672068018598
 51
80.3296498134452
  0
ARC
  8
0010010010
 10
10.9656414715076
 20
3.31361207191025
 40
0.296276648313951
 50
84.450527302345
 51
151.830661383257
  0
ARC
  8
0010010010
 10
14.2126669711338
 20
2.62208911737688
 40
1.26023767742995
 50
39.7557178786546
 51
64.4076212948367
  0
ARC
  8
0010010006
 10
24
 20
84.3055590189729
 40
81.3568701200228
 50
263.777330520837
 51
265.34050733925
  0
ARC
  8
0010010010
 10
17.2897297253272
 20
3.71493292575921
 40
0.507583478379741
 50
281.516156655692
 51
319.46038330765
  0
ARC
  8
0010010010
 10
18.1044138918634
 20
3.65640081494637
 40
0.507583478379741
 50
212.320749881667
 51
251.777659521908
  0
ARC
  8
0010010006
 10
24
 20
84.3055590189729
 40
81.3568701200228
 50
265.732291730107
 51
268.097525285893
  0
ARC
  8
0010010010
 10
21.1643788085674
 20
3.48291629440621
 40
0.507583478379741
 50
285.390133331966
 51
321.945852009207
  0
ARC
  8
0010010010
 10
21.9808348667372
 20
3.45976884792053
 40
0.507583478379741
 50
214.806218583224
 51
251.697634051765
  0
ARC
  8
0010010006
 10
24
 20
84.3055590189729
 40
81.3568701200228
 50
268.46555854634
 51
271.534441453661
  0
ARC
  8
0010010010
 10
26.0191651332628
 20
3.45976884792053
 40
0.507583478379741
 50
288.302365948235
 51
325.193781416776
  0
ARC
  8
0010010010
 10
26.8356211914327
 20
3.48291629440621
 40
0.507583478379741
 50
218.054147990793
 51
254.609866668034
  0
ARC
  8
0010010006
 10
24
 20
84.3055590189729
 40
81.3568701200228
 50
271.902474714107
 51
274.267708269894
  0
ARC
  8
0010010010
 10
29.8955861081366
 20
3.65640081494637
 40
0.507583478379741
 50
288.222340478093
 51
327.679250118333
  0
ARC
  8
0010010010
 10
30.7102702746728
 20
3.71493292575922
 40
0.507583478379741
 50
220.53961669235
 51
258.483843344309
  0
ARC
  8
0010010006
 10
24
 20
84.3055590189729
 40
81.3568701200228
 50
274.65949266075
 51
276.222669479163
  0
ARC
  8
0010010010
 10
33.7873330288663
 20
2.62208911737688
 40
1.26023767742995
 50
115.592378705163
 51
140.244282121345
  0
ARC
  8
0010010010
 10
34.0647010694871
 20
2.27690302358073
 40
1.69438677718193
 50
99.7283941087228
 51
119.011312893839
  0
ARC
  8
0010010006
 10
34.8800759371117
 20
-1.60195165376496
 40
5.65718498276267
 50
90.7530146385064
 51
101.229623181072
  0
ARC
  8
0010010006
 10
35.1894578399244
 20
4.34328930184759
 40
0.480110933547458
 50
216.941233039026
 51
237.43452503875
  0
ARC
  8
0010010010
 10
36.2545841770414
 20
-7.05201577188131
 40
11.070086196439
 50
96.8667763723522
 51
102.357227009335
  0
ARC
  8
0010010006
 10
34.2768991114197
 20
1.92832953067145
 40
1.87458472233291
 50
102.051044641779
 51
125.705627667517
  0
ARC
  8
0010010010
 10
48.9011948401226
 20
-64.2116352259118
 40
69.4639219281072
 50
101.450761155372
 51
103.078197501292
  0
ARC
  8
0010010006
 10
35.048581089845
 20
3.90563955895396
 40
0.0718921047768186
 50
329.963878925737
 51
58.9767310593544
  0
ARC
  8
0010010010
 10
35.1894578399244
 20
4.34328930184759
 40
0.390110933547458
 50
155.067127046426
 51
254.565231468714
  0
LINE
  8
0010010006
 10
34.8357043483662
 20
4.50774296609269
 11
34.953548122794
 21
4.47680053888409
  0
ARC
  8
0010010010
 10
35.38734284326
 20
4.65554356128131
 40
0.469176861705501
 50
141.820898779627
 51
202.393873861552
  0
LINE
  8
0010010006
 10
35.0185311665438
 20
4.94555196577616
 11
35.1391306928019
 21
4.8782670405317
  0
ARC
  8
0010010010
 10
35.5625816848328
 20
4.71876882447668
 40
0.452493561917327
 50
77.5141875118598
 51
159.360477246865
  0
ARC
  8
0010010010
 10
35.7962662768095
 20
5.10824747125992
 40
0.145580396441108
 50
158.940167267935
 51
223.652701538141
  0
ARC
  8
0010010010
 10
35.5178413077757
 20
4.9155948716828
 40
0.196098085957354
 50
323.56934872093
 51
28.0324704345989
  0
LINE
  8
0010010006
 10
35.6756171651955
 20
4.79914214251092
 11
35.7466620910284
 21
4.77714561559283
  0
ARC
  8
0010010006
 10
35.2785142812515
 20
4.78118933505464
 40
0.46816527366516
 50
312.907396702791
 51
359.505108660028
  0
LINE
  8
0010010006
 10
35.5972484244031
 20
4.43827933307829
 11
35.689045056186
 21
4.42070125502278
  0
ARC
  8
0010010006
 10
35.2922043822298
 20
4.48247614110576
 40
0.401620040656032
 50
296.172885580897
 51
351.151966769524
  0
ARC
  8
0010010006
 10
35.5999372656934
 20
3.95949804099398
 40
0.208497074556355
 50
128.779120339708
 51
192.827770756814
  0
ARC
  8
0010010010
 10
35.3624026808597
 20
4.14003369288796
 40
0.229396335357244
 50
278.58442710881
 51
318.197725647979
  0
ARC
  8
0010010010
 10
34.6191124550782
 20
4.79965036334406
 40
1.22316285271977
 50
318.372828150128
 51
337.14386487925
  0
ARC
  8
0010010010
 10
36.3933836754583
 20
4.12459636765356
 40
0.677334239149974
 50
113.327050219249
 51
162.829961268791
  0
LINE
  8
0010010006
 10
36.1251734925914
 20
4.74656499172664
 11
36.1820160603987
 21
4.64765691683073
  0
ARC
  8
0010010010
 10
36.5840773709364
 20
4.28585404048201
 40
0.540883184029165
 50
80.087092272242
 51
138.016905705647
  0
LINE
  8
0010010006
 10
36.6771909647459
 20
4.81866214610111
 11
36.6658461791848
 21
4.67466690014476
  0
ARC
  8
0010010010
 10
36.7709420046558
 20
4.2475216097097
 40
0.439884338971379
 50
31.4053149870234
 51
103.822626813655
  0
ARC
  8
0010010010
 10
37.2083260714097
 20
4.23035457820939
 40
0.254052662167488
 50
104.111779927174
 51
164.755717058639
  0
ARC
  8
0010010010
 10
36.7377111209005
 20
4.328205667657
 40
0.227629384896076
 50
275.074831548621
 51
352.15962474113
  0
LINE
  8
0010010006
 10
36.7578464776334
 20
4.10146858582563
 11
36.8088986320746
 21
3.99854293485755
  0
ARC
  8
0010010010
 10
36.4630576721447
 20
4.31547292314838
 40
0.469095498852101
 50
260.679161148788
 51
317.497736507809
  0
LINE
  8
0010010006
 10
36.3870816815596
 20
3.8525709509146
 11
36.4006040873793
 21
3.72801535160848
  0
ARC
  8
0010010010
 10
36.1656622180349
 20
4.43811255497855
 40
0.747954357033253
 50
241.08630736079
 51
288.307249098305
  0
ARC
  8
0010010010
 10
35.5720947791735
 20
3.29455645373621
 40
0.541068200316539
 50
64.617038994885
 51
109.387466707038
  0
ARC
  8
0010010006
 10
35.5883728211642
 20
3.94372096101956
 40
0.240065344187429
 50
215.315743416949
 51
277.826481237495
  0
ARC
  8
0010010006
 10
35.6610500888947
 20
3.08448686164811
 40
0.622690184299059
 50
55.4035451279717
 51
93.681845173766
  0
LINE
  8
0010010006
 10
36.0146091003266
 20
3.5970676758205
 11
35.9712211386996
 21
3.5207426403601
  0
ARC
  8
0010010010
 10
35.7477574047625
 20
3.02552688040374
 40
0.543299815290098
 50
20.5640259355313
 51
65.7129520893401
  0
LINE
  8
0010010006
 10
36.2564382973968
 20
3.2163630372583
 11
36.1042292613637
 21
3.14750321806311
  0
ARC
  8
0010010010
 10
35.9457162682241
 20
2.95876150466094
 40
0.246474751997147
 50
340.992082180632
 51
49.9750888336983
  0
ARC
  8
0010010010
 10
36.4698131068288
 20
2.82135757298579
 40
0.296614768473831
 50
168.895563279697
 51
223.589318930891
  0
ARC
  8
0010010010
 10
36.221062245464
 20
3.47303576256934
 40
0.856860841588902
 50
230.474050722219
 51
272.26823310159
  0
LINE
  8
0010010006
 10
35.675732335899
 20
2.81210778496343
 11
35.5813174618185
 21
2.7168753290775
  0
ARC
  8
0010010010
 10
35.7772299473474
 20
3.06653960138536
 40
0.400807691187063
 50
175.055319004708
 51
240.738639625992
  0
LINE
  8
0010010006
 10
35.3779139090696
 20
3.10108677042764
 11
35.2219916743361
 21
3.08073352094723
  0
ARC
  8
0010010010
 10
35.9205444440357
 20
3.22767828241913
 40
0.713840833084663
 50
145.544854798785
 51
191.879313102653
  0
ARC
  8
0010010010
 10
35.1680086476618
 20
3.60383405633906
 40
0.166249665373679
 50
9.59377805841297
 51
70.3730690439102
  0
ARC
  8
0010010010
 10
29.7919794119751
 20
25.1558474542256
 40
22.0741783387483
 50
280.042486460327
 51
284.245286410057
  0
LINE
  8
0010010006
 10
33.6412391573221
 20
3.41987384493643
 11
33.6470945050563
 21
3.3849406742888
  0
ARC
  8
0010010006
 10
32.595528409713
 20
13.7882371164207
 40
10.4563075756095
 50
275.771858195062
 51
284.499890297032
  0
ARC
  8
0010010006
 10
35.1680086476618
 20
3.60383405633906
 40
0.0762496653736803
 50
31.721000307888
 51
53.316872434641
  0
ARC
  8
0010010006
 10
35.9205444440357
 20
3.22767828241913
 40
0.803840833084663
 50
148.813721463466
 51
162.675035034635
  0
ARC
  8
0010010010
 10
36.9520067657036
 20
-13.3634018887957
 40
16.9263130397363
 50
96.100595319559
 51
101.9348166992
  0
ARC
  8
0010010010
 10
33.6063817532397
 20
2.82808487455782
 40
0.400065735892385
 50
112.750874007829
 51
154.140342315231
  0
ARC
  8
0010010010
 10
32.9228624023334
 20
2.61145482346483
 40
0.507583478379741
 50
50.4046486673738
 51
93.6564353856109
  0
ARC
  8
0010010006
 10
24
 20
89.1309787430942
 40
86.4712234762715
 50
272.896312052679
 51
275.901262708756
  0
ARC
  8
0010010010
 10
28.5353685120204
 20
2.29057333962781
 40
0.507583478379741
 50
109.100411417896
 51
145.109774159173
  0
ARC
  8
0010010010
 10
27.7188793925905
 20
2.26862300811228
 40
0.507583478379741
 50
37.9701407331899
 51
70.5388325744938
  0
ARC
  8
0010010006
 10
24
 20
89.1309787430942
 40
86.4712234762715
 50
270.184349512956
 51
272.577048542357
  0
ARC
  8
0010010010
 10
24.4083920601582
 20
2.16959452562101
 40
0.507583478379741
 50
104.859647462243
 51
143.569816712991
  0
ARC
  8
0010010010
 10
23.5916079398418
 20
2.16959452562101
 40
0.507583478379741
 50
36.4301832870086
 51
75.1403525377567
  0
ARC
  8
0010010006
 10
24
 20
89.1309787430942
 40
86.4712234762715
 50
267.422951457643
 51
269.815650487044
  0
ARC
  8
0010010010
 10
20.2811206074096
 20
2.26862300811228
 40
0.507583478379741
 50
109.461167425506
 51
142.02985926681
  0
ARC
  8
0010010010
 10
19.4646314879796
 20
2.29057333962782
 40
0.507583478379741
 50
34.8902258408273
 51
70.8995885821037
  0
ARC
  8
0010010006
 10
24
 20
89.1309787430942
 40
86.4712234762715
 50
264.098737291244
 51
267.103687947321
  0
ARC
  8
0010010010
 10
15.0771375976666
 20
2.61145482346483
 40
0.507583478379741
 50
86.3435646143892
 51
129.595351332626
  0
ARC
  8
0010010010
 10
14.3936182467604
 20
2.82808487455782
 40
0.400065735892385
 50
25.8596576847691
 51
67.249125992171
  0
ARC
  8
0010010010
 10
11.0479932342964
 20
-13.3634018887957
 40
16.9263130397363
 50
78.0651833008005
 51
83.899404680441
  0
ARC
  8
0010010006
 10
12.0794555559643
 20
3.22767828241913
 40
0.803840833084663
 50
17.3249649653652
 51
31.1862785365336
  0
ARC
  8
0010010006
 10
12.8319913523382
 20
3.60383405633905
 40
0.0762496653736803
 50
126.683127565359
 51
148.278999692112
  0
ARC
  8
0010010006
 10
15.404471590287
 20
13.7882371164207
 40
10.4563075756095
 50
255.500109702968
 51
264.228141804938
  0
LINE
  8
0010010006
 10
14.3529054949437
 20
3.3849406742888
 11
14.3587608426779
 21
3.41987384493643
  0
ARC
  8
0010010010
 10
18.2080205880249
 20
25.1558474542256
 40
22.0741783387483
 50
255.754713589943
 51
259.957513539673
  0
ARC
  8
0010010010
 10
12.8319913523382
 20
3.60383405633905
 40
0.166249665373679
 50
109.62693095609
 51
170.406221941587
  0
ARC
  8
0010010010
 10
12.0794555559643
 20
3.22767828241913
 40
0.713840833084663
 50
348.120686897347
 51
34.4551452012148
  0
LINE
  8
0010010006
 10
12.7780083256639
 20
3.08073352094723
 11
12.6220860909304
 21
3.10108677042764
  0
ARC
  8
0010010010
 10
12.2227700526526
 20
3.06653960138536
 40
0.400807691187063
 50
299.261360374008
 51
4.94468099529182
  0
LINE
  8
0010010006
 10
12.4186825381815
 20
2.71687532907749
 11
12.324267664101
 21
2.81210778496343
  0
ARC
  8
0010010010
 10
11.778937754536
 20
3.47303576256934
 40
0.856860841588902
 50
267.73176689841
 51
309.525949277782
  0
ARC
  8
0010010010
 10
11.5301868931713
 20
2.82135757298579
 40
0.296614768473831
 50
316.410681069109
 51
11.104436720303
  0
ARC
  8
0010010010
 10
12.0542837317759
 20
2.95876150466094
 40
0.246474751997147
 50
130.024911166302
 51
199.007917819368
  0
LINE
  8
0010010006
 10
11.8957707386363
 20
3.1475032180631
 11
11.7435617026032
 21
3.2163630372583
  0
ARC
  8
0010010010
 10
12.2522425952375
 20
3.02552688040375
 40
0.543299815290098
 50
114.28704791066
 51
159.435974064469
  0
LINE
  8
0010010006
 10
12.0287788613005
 20
3.52074264036011
 11
11.9853908996734
 21
3.5970676758205
  0
ARC
  8
0010010006
 10
12.3389499111053
 20
3.0844868616481
 40
0.622690184299059
 50
86.318154826234
 51
124.596454872028
  0
ARC
  8
0010010006
 10
12.4116271788358
 20
3.94372096101956
 40
0.240065344187429
 50
262.173518762505
 51
324.684256583051
  0
ARC
  8
0010010010
 10
12.4279052208265
 20
3.29455645373621
 40
0.541068200316539
 50
70.6125332929622
 51
115.382961005115
  0
ARC
  8
0010010010
 10
11.8343377819651
 20
4.43811255497855
 40
0.747954357033253
 50
251.692750901695
 51
298.91369263921
  0
LINE
  8
0010010006
 10
11.5993959126207
 20
3.72801535160848
 11
11.6129183184404
 21
3.8525709509146
  0
ARC
  8
0010010010
 10
11.5369423278553
 20
4.31547292314838
 40
0.469095498852101
 50
222.502263492191
 51
279.320838851212
  0
LINE
  8
0010010006
 10
11.1911013679254
 20
3.99854293485755
 11
11.2421535223666
 21
4.10146858582563
  0
ARC
  8
0010010010
 10
11.2622888790995
 20
4.328205667657
 40
0.227629384896076
 50
187.84037525887
 51
264.925168451379
  0
ARC
  8
0010010010
 10
10.7916739285903
 20
4.23035457820939
 40
0.254052662167488
 50
15.2442829413613
 51
75.8882200728258
  0
ARC
  8
0010010010
 10
11.2290579953443
 20
4.2475216097097
 40
0.439884338971379
 50
76.1773731863448
 51
148.594685012977
  0
LINE
  8
0010010006
 10
11.3341538208153
 20
4.67466690014476
 11
11.3228090352541
 21
4.8186621461011
  0
ARC
  8
0010010010
 10
11.4159226290636
 20
4.28585404048201
 40
0.540883184029165
 50
41.9830942943534
 51
99.912907727758
  0
LINE
  8
0010010006
 10
11.8179839396013
 20
4.64765691683073
 11
11.8748265074086
 21
4.74656499172664
  0
ARC
  8
0010010010
 10
11.6066163245417
 20
4.12459636765356
 40
0.677334239149974
 50
17.1700387312088
 51
66.6729497807511
  0
ARC
  8
0010010010
 10
13.3808875449218
 20
4.79965036334405
 40
1.22316285271977
 50
202.85613512075
 51
221.627171849872
  0
ARC
  8
0010010010
 10
12.6375973191403
 20
4.14003369288796
 40
0.229396335357244
 50
221.802274352021
 51
261.41557289119
  0
ARC
  8
0010010006
 10
12.4000627343066
 20
3.95949804099398
 40
0.208497074556355
 50
347.172229243186
 51
51.2208796602918
  0
ARC
  8
0010010006
 10
12.7077956177702
 20
4.48247614110575
 40
0.401620040656032
 50
188.848033230476
 51
243.827114419103
  0
LINE
  8
0010010006
 10
12.310954943814
 20
4.42070125502278
 11
12.4027515755969
 21
4.43827933307829
  0
ARC
  8
0010010006
 10
12.7214857187485
 20
4.78118933505463
 40
0.46816527366516
 50
180.494891339972
 51
227.092603297209
  0
LINE
  8
0010010006
 10
12.2533379089716
 20
4.77714561559282
 11
12.3243828348045
 21
4.79914214251091
  0
ARC
  8
0010010010
 10
12.4821586922243
 20
4.9155948716828
 40
0.196098085957354
 50
151.967529565401
 51
216.43065127907
  0
ARC
  8
0010010010
 10
12.2037337231905
 20
5.10824747125993
 40
0.145580396441108
 50
316.34729846186
 51
21.0598327320649
  0
ARC
  8
0010010010
 10
12.4374183151672
 20
4.71876882447668
 40
0.452493561917327
 50
20.6395227531347
 51
102.48581248814
  0
LINE
  8
0010010006
 10
12.8608693071981
 20
4.8782670405317
 11
12.9814688334562
 21
4.94555196577616
  0
ARC
  8
0010010010
 10
12.61265715674
 20
4.65554356128131
 40
0.469176861705501
 50
337.606126138448
 51
38.1791012203735
  0
LINE
  8
0010010006
 10
13.046451877206
 20
4.47680053888408
 11
13.1642956516338
 21
4.50774296609269
  0
ARC
  8
0010010010
 10
12.8105421600756
 20
4.34328930184759
 40
0.390110933547458
 50
285.434768531286
 51
24.9328729535735
  0
ARC
  8
0010010006
 10
12.951418910155
 20
3.90563955895395
 40
0.0718921047768186
 50
121.023268940646
 51
210.036121074263
  0
ARC
  8
0010010010
 10
-0.901194840122646
 20
-64.2116352259118
 40
69.4639219281072
 50
76.9218024987084
 51
78.5492388446285
  0
ARC
  8
0010010006
 10
13.7231008885803
 20
1.92832953067145
 40
1.87458472233291
 50
54.2943723324835
 51
77.9489553582214
  0
ARC
  8
0010010010
 10
11.7454158229586
 20
-7.05201577188131
 40
11.070086196439
 50
77.6427729906646
 51
83.1332236276478
  0
ARC
  8
0010010006
 10
12.8105421600756
 20
4.34328930184759
 40
0.480110933547458
 50
302.56547496125
 51
323.058766960974
  0
ARC
  8
0010010006
 10
13.1199240628883
 20
-1.60195165376496
 40
5.65718498276267
 50
78.7703768189283
 51
89.2469853614936
  0
ARC
  8
0010010010
 10
13.9352989305129
 20
2.27690302358073
 40
1.69438677718193
 50
60.9886871061606
 51
80.2716058912772
  0
ARC
  8
0090010010
 10
24
 20
-48.5
 40
72.5
 50
80.4727166185476
 51
99.5272833814524
  0
ARC
  8
0090010010
 10
48
 20
94.5
 40
72.5
 50
260.472716618548
 51
268.413208213676
  0
ARC
  8
0010010010
 10
-7.81944441737534
 20
7.27935606245167
 40
55.7963256436392
 50
352.503651843535
 51
15.3269354565363
  0
LINE
  8
0090010010
 10
47.4999999999998
 20
0
 11
0.500000000000007
 21
0
  0
ARC
  8
0010010010
 10
55.8194444173753
 20
7.27935606245168
 40
55.7963256436392
 50
164.673064543464
 51
187.496348156465
  0
ARC
  8
0090010010
 10
0
 20
94.5
 40
72.5
 50
271.586791786324
 51
279.527283381452
  0
LINE
  8
0010010006
 10
2.19059818328532
 20
6.91258646884531
 11
0.0456371457854674
 21
6.91258646884533
  0
ARC
  8
0010010006
 10
2.76754840700307
 20
6.48340682795307
 40
0.719073518358415
 50
80.71967031706
 51
143.355312206708
  0
LINE
  8
0010010006
 10
2.91004876753936
 20
7.32100187247752
 11
2.88350980684074
 21
7.1930684927991
  0
ARC
  8
0010010006
 10
2.89216936106623
 20
6.46446741491048
 40
0.856721045717621
 50
44.719223346533
 51
88.8041744591948
  0
LINE
  8
0010010006
 10
3.57717696631118
 20
7.1634207814686
 11
3.50092401222887
 21
7.0672847378727
  0
ARC
  8
0010010006
 10
3.09417574623854
 20
6.41219061953335
 40
0.893105220448812
 50
34.0350219609247
 51
57.2611287204243
  0
ARC
  8
0010010006
 10
4.40695688986127
 20
6.81888847313567
 40
0.58019882319113
 50
162.234400673014
 51
170.758996024864
  0
LINE
  8
0010010006
 10
3.89392721108572
 20
6.99340884903382
 11
3.8544261459759
 21
6.99592081903286
  0
ARC
  8
0010010006
 10
4.32715070251078
 20
7.06328670601328
 40
0.438822866790875
 50
143.406444362764
 51
189.16274667754
  0
LINE
  8
0010010006
 10
4.01465892670701
 20
7.32493276079454
 11
3.97482661104107
 21
7.32488418877756
  0
ARC
  8
0010010006
 10
4.30911372389006
 20
7.30479338769727
 40
0.295142714517672
 50
153.688542654296
 51
176.087321953468
  0
ARC
  8
0010010006
 10
3.97320308309115
 20
7.48473242870823
 40
0.0866177223968793
 50
325.454974424803
 51
108.97451050008
  0
ARC
  8
0010010006
 10
4.2035317759919
 20
7.21845883207834
 40
0.433648343984637
 50
22.463228327951
 51
126.590175029453
  0
LINE
  8
0010010006
 10
4.72174050154943
 20
7.41166122270245
 11
4.60427702732432
 21
7.3841517099432
  0
ARC
  8
0010010006
 10
3.74682277210067
 20
7.02782292554598
 40
1.04775780481822
 50
353.685614335586
 51
21.4902307330288
  0
LINE
  8
0010010006
 10
5.18264787483381
 20
6.91258646884527
 11
4.78822422044064
 21
6.91258646884528
  0
ARC
  8
0010010003
 10
5.27574178986098
 20
6.89797376092824
 40
0.0942337956773133
 50
42.7872310395979
 51
171.079221982874
  0
ARC
  8
0010010003
 10
5.55173116469337
 20
7.33676377530095
 40
0.428064527936951
 50
241.106587415297
 51
298.893412584716
  0
ARC
  8
0010010003
 10
5.82772053952583
 20
6.89797376092827
 40
0.0942337956773146
 50
8.92077801709673
 51
137.212768960397
  0
LINE
  8
0010010006
 10
6.53298761803172
 20
6.91258646884526
 11
5.920814454553
 21
6.91258646884527
  0
LINE
  8
0010010006
 10
6.53298761803172
 20
6.91258646884526
 11
6.52593789716096
 21
9.6832331889705
  0
ARC
  8
0010010006
 10
6.84441918354123
 20
9.79546629962352
 40
0.337678250560944
 50
173.683813922777
 51
199.412506516656
  0
ARC
  8
0010010006
 10
7.02719353692501
 20
9.77968616530757
 40
0.521097977535488
 50
140.702383019384
 51
174.170202608596
  0
ARC
  8
0010010006
 10
7.20016654456988
 20
9.72302370595201
 40
0.693960427254429
 50
100.897777869248
 51
146.135191608037
  0
LINE
  8
0010010006
 10
7.06896821890525
 20
10.4044692826036
 11
7.10443182374759
 21
10.413002811655
  0
ARC
  8
0010010006
 10
9.08010391367934
 20
2.02965198337287
 40
8.61300477864689
 50
99.2654688111785
 51
103.26071640551
  0
ARC
  8
0010010006
 10
24.0000000000001
 20
-147.358889963455
 40
158.72900847431
 50
84.4897684022964
 51
95.8965562710893
  0
ARC
  8
0010010006
 10
24.0000000000001
 20
-147.358889963455
 40
158.72900847431
 50
84.1034437289108
 51
84.4897684022964
  0
ARC
  8
0010010006
 10
38.9198960863207
 20
2.02965198337287
 40
8.61300477864689
 50
77.1327425927736
 51
80.7345311888214
  0
LINE
  8
0010010006
 10
40.8379522752326
 20
10.4263722819877
 11
40.9704607165372
 21
10.3956806856692
  0
ARC
  8
0010010006
 10
40.7998334554301
 20
9.72302370595202
 40
0.693960427254429
 50
33.8648083919629
 51
75.7664726614996
  0
ARC
  8
0010010006
 10
40.972806463075
 20
9.77968616530757
 40
0.521097977535488
 50
5.82979739140387
 51
39.2976169806163
  0
ARC
  8
0010010006
 10
41.1555808164588
 20
9.79546629962352
 40
0.337678250560944
 50
340.587493483344
 51
6.31618607722294
  0
LINE
  8
0010010006
 10
41.4670123819683
 20
6.91258646884526
 11
41.4740621028391
 21
9.6832331889705
  0
LINE
  8
0010010006
 10
41.4670123819683
 20
6.91258646884526
 11
42.079185545447
 21
6.91258646884526
  0
ARC
  8
0010010003
 10
42.1722794604742
 20
6.89797376092828
 40
0.0942337956773146
 50
42.7872310396029
 51
171.079221982903
  0
ARC
  8
0010010003
 10
42.4482688353066
 20
7.33676377530095
 40
0.428064527936951
 50
241.106587415284
 51
298.893412584703
  0
ARC
  8
0010010003
 10
42.724258210139
 20
6.89797376092824
 40
0.0942337956773133
 50
8.92077801712577
 51
137.212768960402
  0
LINE
  8
0010010006
 10
42.8173521251662
 20
6.91258646884527
 11
43.2117757795594
 21
6.91258646884527
  0
ARC
  8
0010010006
 10
44.2531772278993
 20
7.02782292554599
 40
1.04775780481822
 50
158.509769266971
 51
186.314385664414
  0
LINE
  8
0010010006
 10
43.2782594984506
 20
7.41166122270246
 11
43.3957229726757
 21
7.3841517099432
  0
ARC
  8
0010010006
 10
43.7964682240081
 20
7.21845883207835
 40
0.433648343984637
 50
53.409824970547
 51
157.536771672049
  0
ARC
  8
0010010006
 10
44.0267969169089
 20
7.48473242870823
 40
0.0866177223968793
 50
71.0254894999198
 51
214.545025575197
  0
ARC
  8
0010010006
 10
43.69088627611
 20
7.30479338769727
 40
0.295142714517672
 50
3.91267804653211
 51
26.311457345704
  0
LINE
  8
0010010006
 10
43.985341073293
 20
7.32493276079455
 11
44.0251733889589
 21
7.32488418877757
  0
ARC
  8
0010010006
 10
43.6728492974892
 20
7.0632867060133
 40
0.438822866790875
 50
350.83725332246
 51
36.5935556372363
  0
LINE
  8
0010010006
 10
44.1060727889143
 20
6.99340884903383
 11
44.1455738540241
 21
6.99592081903287
  0
ARC
  8
0010010006
 10
43.5930431101387
 20
6.81888847313567
 40
0.58019882319113
 50
9.24100397513632
 51
17.7655993269865
  0
ARC
  8
0010010006
 10
44.9058242537615
 20
6.41219061953336
 40
0.893105220448812
 50
122.738871279576
 51
145.964978039075
  0
LINE
  8
0010010006
 10
44.4228230336888
 20
7.1634207814686
 11
44.4990759877711
 21
7.0672847378727
  0
ARC
  8
0010010006
 10
45.1078306389338
 20
6.46446741491049
 40
0.856721045717621
 50
91.1958255408052
 51
135.280776653467
  0
LINE
  8
0010010006
 10
45.0899512324607
 20
7.32100187247753
 11
45.1164901931593
 21
7.1930684927991
  0
ARC
  8
0010010006
 10
45.2324515929969
 20
6.48340682795308
 40
0.719073518358415
 50
36.6446877932921
 51
99.28032968294
  0
LINE
  8
0010010006
 10
45.8094018167147
 20
6.91258646884531
 11
47.9543628542145
 21
6.91258646884531
  0
ARC
  8
0010010003
 10
5.98139487703689
 20
6.56232116984953
 40
0.236132740227995
 50
0.293785166016236
 51
76.1938420538425
  0
ARC
  8
0010010003
 10
6.04878968040542
 20
6.91938557722465
 40
0.128230389747427
 50
229.015261443809
 51
265.058940948595
  0
LINE
  8
0010010004
 10
5.96468875608391
 20
6.82258646884527
 11
6.53321661686934
 21
6.82258646884526
  0
LINE
  8
0010010006
 10
6.53321661686934
 20
6.82258646884526
 11
6.53427104955046
 21
6.40817850814961
  0
ARC
  8
0010010003
 10
6.60810336497555
 20
6.51302039888913
 40
0.128230389747428
 50
202.941059051402
 51
234.845823097439
  0
ARC
  8
0010010003
 10
6.28934107317785
 20
6.33858516201568
 40
0.236132740227996
 50
31.8061579461752
 51
107.706214833991
  0
ARC
  8
0010010006
 10
35.7477574047625
 20
3.02552688040374
 40
0.633299815290098
 50
12.8846203492261
 51
35.2050777086619
  0
LINE
  8
0010010006
 10
36.3651114179019
 20
3.16674542913982
 11
36.245051068454
 21
3.11242977107539
  0
ARC
  8
0010010006
 10
35.9457162682241
 20
2.95876150466094
 40
0.336474751997147
 50
342.2272069139
 51
27.1744159860987
  0
ARC
  8
0010010006
 10
36.4698131068288
 20
2.82135757298579
 40
0.20661476847383
 50
170.332372754326
 51
223.589318930891
  0
LINE
  8
0010010006
 10
36.3891394519307
 20
2.54121200992037
 11
36.3201619458055
 21
2.67889988608932
  0
ARC
  8
0010010006
 10
36.221062245464
 20
3.47303576256934
 40
0.946860841588903
 50
235.47084274754
 51
280.224754032124
  0
LINE
  8
0010010006
 10
35.684357325138
 20
2.69297596881487
 11
35.6006879460051
 21
2.60858205805799
  0
ARC
  8
0010010006
 10
35.7772299473474
 20
3.06653960138536
 40
0.490807691187064
 50
187.910686213823
 51
248.918417672909
  0
LINE
  8
0010010006
 10
35.2910928747743
 20
2.99899009066564
 11
35.1553995573847
 21
2.98127741520037
  0
ARC
  8
0010010006
 10
35.9205444440357
 20
3.22767828241913
 40
0.803840833084663
 50
169.50856296628
 51
197.850201376136
  0
ARC
  8
0010010006
 10
36.9520067657036
 20
-13.3634018887957
 40
16.8363130397363
 50
96.2121648775789
 51
101.903995859042
  0
ARC
  8
0010010006
 10
33.6063817532397
 20
2.82808487455782
 40
0.310065735892385
 50
114.228173713047
 51
186.194077378535
  0
ARC
  8
0010010006
 10
32.9228624023334
 20
2.61145482346483
 40
0.417583478379741
 50
26.0180863196423
 51
93.4263493899015
  0
ARC
  8
0010010006
 10
24
 20
89.1309787430942
 40
86.5612234762715
 50
272.905217445111
 51
275.900038324344
  0
ARC
  8
0010010006
 10
28.5353685120204
 20
2.29057333962781
 40
0.417583478379741
 50
110.773968781243
 51
169.496336506904
  0
ARC
  8
0010010006
 10
27.7188793925905
 20
2.26862300811228
 40
0.417583478379741
 50
13.5835783854585
 51
68.2474861122425
  0
ARC
  8
0010010006
 10
24
 20
89.1309787430942
 40
86.5612234762715
 50
270.192403454185
 51
272.564856127858
  0
ARC
  8
0010010006
 10
24.4083920601582
 20
2.16959452562101
 40
0.417583478379741
 50
106.373184962456
 51
167.956379060723
  0
ARC
  8
0010010006
 10
23.5916079398418
 20
2.16959452562101
 40
0.417583478379741
 50
12.0436209392772
 51
73.6268150375438
  0
ARC
  8
0010010006
 10
24
 20
89.1309787430942
 40
86.5612234762715
 50
267.435143872142
 51
269.807596545815
  0
ARC
  8
0010010006
 10
20.2811206074096
 20
2.26862300811228
 40
0.417583478379741
 50
111.752513887757
 51
166.416421614542
  0
ARC
  8
0010010006
 10
19.4646314879796
 20
2.29057333962782
 40
0.417583478379741
 50
10.5036634930959
 51
69.2260312187567
  0
ARC
  8
0010010006
 10
24
 20
89.1309787430942
 40
86.5612234762715
 50
264.099961675656
 51
267.094782554889
  0
ARC
  8
0010010006
 10
15.0771375976666
 20
2.61145482346483
 40
0.417583478379741
 50
86.5736506100975
 51
153.981913680358
  0
ARC
  8
0010010006
 10
14.3936182467604
 20
2.82808487455782
 40
0.310065735892385
 50
353.805922621466
 51
65.7718262869531
  0
ARC
  8
0010010006
 10
11.0479932342964
 20
-13.3634018887957
 40
16.8363130397363
 50
78.0960041409585
 51
83.7878351224211
  0
ARC
  8
0010010006
 10
12.0794555559643
 20
3.22767828241913
 40
0.803840833084663
 50
342.149798623864
 51
10.49143703372
  0
LINE
  8
0010010006
 10
12.7089071252257
 20
2.99899009066564
 11
12.8446004426153
 21
2.98127741520037
  0
ARC
  8
0010010006
 10
12.2227700526526
 20
3.06653960138536
 40
0.490807691187064
 50
291.081582327091
 51
352.089313786177
  0
LINE
  8
0010010006
 10
12.315642674862
 20
2.69297596881488
 11
12.3993120539949
 21
2.60858205805799
  0
ARC
  8
0010010006
 10
11.778937754536
 20
3.47303576256934
 40
0.946860841588903
 50
259.775245967876
 51
304.529157252461
  0
LINE
  8
0010010006
 10
11.6108605480693
 20
2.54121200992038
 11
11.6798380541945
 21
2.67889988608932
  0
ARC
  8
0010010006
 10
11.5301868931713
 20
2.82135757298579
 40
0.20661476847383
 50
316.410681069109
 51
9.66762724567386
  0
ARC
  8
0010010006
 10
12.0542837317759
 20
2.95876150466094
 40
0.336474751997147
 50
152.825584013901
 51
197.7727930861
  0
LINE
  8
0010010006
 10
11.6348885820981
 20
3.16674542913982
 11
11.754948931546
 21
3.1124297710754
  0
ARC
  8
0010010006
 10
12.2522425952375
 20
3.02552688040375
 40
0.633299815290098
 50
144.794922291338
 51
167.115379650774
  0
ARC
  8
0010010006
 10
-115.242633310166
 20
-737.216051586474
 40
751.413012585221
 50
80.271199016556
 51
80.329380612232
  0
ARC
  8
0010010006
 10
10.9656414715076
 20
3.31361207191025
 40
0.206276648313951
 50
85.2688497384957
 51
151.830661383257
  0
LINE
  8
0010010006
 10
10.6731593372281
 20
3.28817450443779
 11
10.7837970116902
 21
3.41099096116934
  0
LINE
  8
0010010006
 10
10.6196906702232
 20
3.42323444543224
 11
10.6731593372281
 21
3.28817450443779
  0
ARC
  8
0010010006
 10
10.3586886094668
 20
3.33011191914961
 40
0.277117088286398
 50
19.6358141522418
 51
67.3421586105466
  0
ARC
  8
0010010006
 10
19.3669345035267
 20
47.1367297855686
 40
44.4512816071229
 50
257.570983672252
 51
258.448258488775
  0
ARC
  8
0010010006
 10
9.12079040877422
 20
3.65263681317739
 40
0.682984639201961
 50
336.187088109445
 51
6.27056373211207
  0
LINE
  8
0010010006
 10
9.61444212321733
 20
3.43102087884868
 11
9.7456316802648
 21
3.37688075643907
  0
ARC
  8
0010010006
 10
9.20457317915392
 20
3.58344275455412
 40
0.437292784643445
 50
281.819024217113
 51
339.600861883008
  0
LINE
  8
0010010006
 10
9.21097811750965
 20
3.23888643040277
 11
9.29413995040557
 21
3.15542082405433
  0
ARC
  8
0010010006
 10
8.76066075653606
 20
3.9791143654893
 40
0.8664427975791
 50
252.303412243793
 51
301.314223121735
  0
ARC
  8
0010010006
 10
8.71707411284117
 20
3.0946292605255
 40
0.227583672687322
 50
116.689579090832
 51
164.9635726708
  0
ARC
  8
0010010006
 10
8.59580548372039
 20
3.36013050391278
 40
0.0650186437466018
 50
287.035324110909
 51
355.12417820479
  0
ARC
  8
0010010006
 10
9.02570596706634
 20
3.38795808376841
 40
0.366637423653081
 50
157.673290182021
 51
185.219558634127
  0
LINE
  8
0010010006
 10
8.61827277139595
 20
3.56668541334874
 11
8.68655435191785
 21
3.52723903137122
  0
ARC
  8
0010010006
 10
9.22330569101161
 20
3.45736720429785
 40
0.614829492338124
 50
134.426115379829
 51
169.758213381444
  0
ARC
  8
0010010006
 10
17.2140407047791
 20
44.3853875740681
 40
41.3554004127429
 50
256.43989777641
 51
258.250816951774
  0
ARC
  8
0010010006
 10
34.7805890979372
 20
3.98311586325203
 40
27.2636831997899
 50
179.580373902603
 51
180.661998772298
  0
ARC
  8
0010010006
 10
7.06360701505273
 20
3.94263901897098
 40
0.531503063852282
 50
190.371384407936
 51
328.902104533662
  0
LINE
  8
0010010006
 10
6.54078791085033
 20
3.84695364308119
 11
6.53859814326527
 21
4.70756535929075
  0
ARC
  8
0010010003
 10
6.5102293632032
 20
4.79742759032014
 40
0.0942337956773167
 50
258.787231039608
 51
287.520485557161
  0
ARC
  8
0010010003
 10
6.54486356799839
 20
4.28021652741468
 40
0.428064527936952
 50
97.1065874152889
 51
154.893412584717
  0
ARC
  8
0010010003
 10
6.06366917419054
 20
4.47298262168826
 40
0.0942337956773123
 50
225.338450230225
 51
353.212768960394
  0
ARC
  8
0010010003
 10
5.89740603213088
 20
4.32571891767805
 40
0.12823038974743
 50
38.7359612459565
 51
121.058940948597
  0
ARC
  8
0010010003
 10
5.74205238061493
 20
4.65420376283211
 40
0.236132740227994
 50
216.293785166008
 51
292.193842053842
  0
ARC
  8
0010010003
 10
5.3614099487722
 20
4.65420376283208
 40
0.236132740227996
 50
247.806157946162
 51
323.706214834001
  0
ARC
  8
0010010003
 10
5.20605629725629
 20
4.325718917678
 40
0.128230389747428
 50
58.9410590514215
 51
141.264038754083
  0
ARC
  8
0010010003
 10
5.03979315519662
 20
4.47298262168818
 40
0.0942337956773126
 50
186.787231039605
 51
314.661549769737
  0
ARC
  8
0010010003
 10
4.55859876138881
 20
4.28021652741452
 40
0.428064527936954
 50
25.1065874152947
 51
82.893412584715
  0
ARC
  8
0010010003
 10
4.5932329661839
 20
4.79742759031998
 40
0.0942337956773129
 50
153.338450230274
 51
281.212768960403
  0
ARC
  8
0010010003
 10
4.40179872443663
 20
4.91004624780178
 40
0.128230389747433
 50
326.735961245919
 51
49.0589409486116
  0
ARC
  8
0010010003
 10
4.66619945846798
 20
5.15930374995348
 40
0.236132740227995
 50
144.293785166012
 51
220.193842053831
  0
ARC
  8
0010010003
 10
4.54857447824835
 20
5.52131621513592
 40
0.236132740227995
 50
175.806157946163
 51
251.706214833996
  0
ARC
  8
0010010003
 10
4.18815990730374
 20
5.56755891819313
 40
0.128230389747427
 50
346.941059051419
 51
58.5271895880626
  0
ARC
  8
0010010006
 10
3.76048357369309
 20
5.61270981884945
 40
0.498775631655865
 50
304.553222937265
 51
7.39712229887892
  0
LINE
  8
0010010006
 10
3.97592382318474
 20
5.26590411805496
 11
4.04337491483268
 21
5.20191836343448
  0
ARC
  8
0010010006
 10
3.32044712148491
 20
5.68978040979498
 40
0.780590044242528
 50
290.606895470994
 51
327.110514067592
  0
LINE
  8
0010010006
 10
3.53623991561452
 20
5.01531276465733
 11
3.59517914360833
 21
4.95913471372162
  0
ARC
  8
0010010006
 10
3.25232976324823
 20
5.37045286290759
 40
0.454675119180558
 50
215.346768858939
 51
308.639938510024
  0
ARC
  8
0010010006
 10
2.89478492101931
 20
5.28146401751469
 40
0.174560239902303
 50
265.624382297107
 51
345.20607153159
  0
ARC
  8
0010010006
 10
3.56299158375029
 20
5.27966970295963
 40
0.501261743125958
 50
147.3563652369
 51
184.895667873434
  0
LINE
  8
0010010006
 10
3.05851029297888
 20
5.62795011742217
 11
3.14090822278567
 21
5.55005641032239
  0
ARC
  8
0010010006
 10
3.51977297984487
 20
5.50085216284583
 40
0.478452877880694
 50
134.418345657604
 51
164.594799685864
  0
LINE
  8
0010010006
 10
0.0416204326955523
 20
5.84258646884533
 11
3.18490760322993
 21
5.84258646884518
  0
LINE
  8
0010010003
 10
5.36722275165928
 20
5.79375967897359
 11
5.38537415952088
 21
5.81407194962539
  0
ARC
  8
0010010003
 10
5.55173116469348
 20
5.64714601195735
 40
0.235666972307005
 50
141.528721434689
 51
134.902193016913
  0
LINE
  8
0010010006
 10
4.61045759800617
 20
5.38947669205587
 11
4.57258812580243
 21
5.3788155384301
  0
ARC
  8
0010010006
 10
4.54857447824835
 20
5.52131621513595
 40
0.14450985478671
 50
177.912086128106
 51
279.565387802558
  0
ARC
  8
0010010006
 10
4.18815990730374
 20
5.56755891819317
 40
0.219853275188717
 50
349.257992640298
 51
66.3787103197914
  0
ARC
  8
0010010006
 10
3.94480918081749
 20
6.16926661482826
 40
0.519687413378235
 50
309.626104207915
 51
14.3738957920894
  0
ARC
  8
0010010006
 10
4.49535896441131
 20
6.51302039888901
 40
0.219853275188714
 50
257.621289680212
 51
334.742007359699
  0
ARC
  8
0010010006
 10
4.81412125620905
 20
6.33858516201559
 40
0.144509854786711
 50
35.9391169072811
 51
146.087913871911
  0
LINE
  8
0010010006
 10
4.93112237750349
 20
6.423401644767
 11
5.32355421522379
 21
5.88326555831152
  0
ARC
  8
0010010006
 10
5.55173116469348
 20
5.64714601195735
 40
0.328355235133834
 50
134.019951904843
 51
155.914114170741
  0
LINE
  8
0010010006
 10
5.25196426441448
 20
5.78114961615109
 11
4.65420392503808
 21
5.95807296353723
  0
ARC
  8
0010010006
 10
4.64899200461574
 20
5.94046374562734
 40
0.0183643314576488
 50
73.5124671206148
 51
250.487592369666
  0
LINE
  8
0010010006
 10
4.64285811619154
 20
5.9231540927514
 11
5.23044930571754
 21
5.71493338196652
  0
ARC
  8
0010010006
 10
5.55173116469348
 20
5.64714601195735
 40
0.328355235133835
 50
168.085885829262
 51
189.980048095148
  0
LINE
  8
0010010006
 10
5.22834454772288
 20
5.59024033206414
 11
4.61045759800617
 21
5.38947669205587
  0
LINE
  8
0010010006
 10
5.50591972197283
 20
4.67231745396441
 11
5.50435677112087
 21
4.63300696800638
  0
ARC
  8
0010010006
 10
5.36140994877216
 20
4.6542037628321
 40
0.14450985478671
 50
249.912086128106
 51
351.565387802558
  0
ARC
  8
0010010006
 10
5.20605629725625
 20
4.32571891767802
 40
0.219853275188717
 50
61.2579926402975
 51
138.378710319791
  0
ARC
  8
0010010006
 10
4.55859876138876
 20
4.28021652741456
 40
0.519687413378235
 50
21.6261042079149
 51
86.3738957920894
  0
ARC
  8
0010010006
 10
4.40179872443661
 20
4.91004624780181
 40
0.219853275188714
 50
329.621289680212
 51
46.7420073596986
  0
ARC
  8
0010010006
 10
4.66619945846796
 20
5.15930374995352
 40
0.144509854786711
 50
107.939116907281
 51
218.087913871911
  0
LINE
  8
0010010006
 10
4.62168952469892
 20
5.29678816334774
 11
5.25665757639792
 21
5.50310178982339
  0
ARC
  8
0010010006
 10
5.55173116469348
 20
5.64714601195735
 40
0.328355235133834
 50
206.019951904843
 51
227.914114170741
  0
LINE
  8
0010010006
 10
5.33165309718067
 20
5.40346013908077
 11
4.9786708913337
 21
4.88962859417805
  0
ARC
  8
0010010006
 10
4.99380768078992
 20
4.87923021570617
 40
0.0183643314576488
 50
145.512467120615
 51
322.487592369665
  0
LINE
  8
0010010006
 10
5.00837466318772
 20
4.86804756424471
 11
5.38797999031581
 21
5.36253625574768
  0
ARC
  8
0010010006
 10
5.55173116469348
 20
5.64714601195735
 40
0.328355235133835
 50
240.085885829262
 51
261.980048095148
  0
LINE
  8
0010010006
 10
5.50591972197279
 20
5.32200224044136
 11
5.50591972197283
 21
4.67231745396441
  0
LINE
  8
0010010006
 10
6.46469170270576
 20
5.30233814981514
 11
6.50159521816025
 21
5.28870408700457
  0
ARC
  8
0010010006
 10
6.43726287091902
 20
5.15930374995357
 40
0.14450985478671
 50
321.912086128106
 51
63.5653878025576
  0
ARC
  8
0010010006
 10
6.7016636049504
 20
4.91004624780189
 40
0.219853275188717
 50
133.257992640298
 51
210.378710319791
  0
ARC
  8
0010010006
 10
6.54486356799828
 20
4.28021652741462
 40
0.519687413378235
 50
93.6261042079149
 51
158.373895792089
  0
ARC
  8
0010010006
 10
5.89740603213079
 20
4.32571891767803
 40
0.219853275188714
 50
41.6212896802122
 51
118.742007359699
  0
ARC
  8
0010010006
 10
5.74205238061486
 20
4.65420376283211
 40
0.144509854786711
 50
179.939116907281
 51
290.087913871911
  0
LINE
  8
0010010006
 10
5.59754260741413
 20
4.65435732048167
 11
5.59754260741412
 21
5.32200224044135
  0
ARC
  8
0010010006
 10
5.55173116469348
 20
5.64714601195735
 40
0.328355235133834
 50
278.019951904843
 51
299.914114170741
  0
LINE
  8
0010010006
 10
5.71548233907117
 20
5.36253625574769
 11
6.09508767781023
 21
4.86804754911981
  0
ARC
  8
0010010006
 10
6.10965464859706
 20
4.87923021570619
 40
0.0183643314576488
 50
217.512467120615
 51
34.4875923696654
  0
LINE
  8
0010010006
 10
6.12479142725662
 20
4.88962860989461
 11
5.7718092322063
 21
5.40346013908078
  0
ARC
  8
0010010006
 10
5.55173116469348
 20
5.64714601195735
 40
0.328355235133835
 50
312.085885829262
 51
333.980048095148
  0
LINE
  8
0010010006
 10
5.84680475298902
 20
5.50310178982334
 11
6.46469170270576
 21
5.30233814981514
  0
LINE
  8
0010010006
 10
6.16178325029313
 20
6.40887159155821
 11
6.18615382800032
 21
6.43975576329456
  0
ARC
  8
0010010006
 10
6.28934107317789
 20
6.33858516201563
 40
0.14450985478671
 50
33.9120861281058
 51
135.565387802558
  0
ARC
  8
0010010006
 10
6.60810336497561
 20
6.51302039888906
 40
0.219853275188717
 50
205.257992640298
 51
282.378710319791
  0
ARC
  8
0010010006
 10
7.15865314856945
 20
6.16926661482833
 40
0.519687413378235
 50
165.626104207915
 51
230.373895792089
  0
ARC
  8
0010010006
 10
6.91530242208323
 20
5.56755891819323
 40
0.219853275188714
 50
113.621289680212
 51
190.742007359699
  0
ARC
  8
0010010006
 10
6.55488785113862
 20
5.52131621513599
 40
0.144509854786711
 50
251.939116907281
 51
2.08791387191059
  0
LINE
  8
0010010006
 10
6.51008583336307
 20
5.38392670558844
 11
5.87511778166407
 21
5.59024033206408
  0
ARC
  8
0010010006
 10
5.55173116469348
 20
5.64714601195735
 40
0.328355235133834
 50
350.019951904843
 51
11.9141141707414
  0
LINE
  8
0010010006
 10
5.87301302366942
 20
5.71493338196654
 11
6.46060423116805
 21
5.92315409912024
  0
ARC
  8
0010010006
 10
6.45447032477122
 20
5.94046374562735
 40
0.0183643314576488
 50
289.512467120615
 51
106.487592369665
  0
LINE
  8
0010010006
 10
6.44925838606521
 20
5.95807295812568
 11
5.85149806497248
 21
5.78114961615111
  0
ARC
  8
0010010006
 10
5.55173116469348
 20
5.64714601195735
 40
0.328355235133835
 50
24.0858858292622
 51
45.9800480951476
  0
LINE
  8
0010010006
 10
5.77990811416322
 20
5.88326555831148
 11
6.16178325029313
 21
6.40887159155821
  0
LINE
  8
0010010006
 10
5.01580355048956
 20
6.46272617239312
 11
4.99396188038359
 21
6.49544770305115
  0
ARC
  8
0010010006
 10
5.12206745235002
 20
6.5623211698495
 40
0.14450985478671
 50
105.912086128106
 51
207.565387802558
  0
ARC
  8
0010010006
 10
5.05467264898146
 20
6.91938557722461
 40
0.219853275188717
 50
277.257992640298
 51
354.378710319791
  0
ARC
  8
0010010006
 10
5.55173116469348
 20
7.33676377530095
 40
0.519687413378235
 50
237.626104207915
 51
302.373895792089
  0
ARC
  8
0010010006
 10
6.0487896804055
 20
6.91938557722461
 40
0.219853275188714
 50
185.621289680212
 51
262.742007359699
  0
ARC
  8
0010010006
 10
5.98139487703695
 20
6.5623211698495
 40
0.144509854786711
 50
323.939116907281
 51
74.0879138719106
  0
LINE
  8
0010010006
 10
6.09821548048781
 20
6.47725622560186
 11
5.70578364276751
 21
5.93712013914639
  0
ARC
  8
0010010006
 10
5.55173116469348
 20
5.64714601195735
 40
0.328355235133834
 50
62.0199519048434
 51
83.9141141707414
  0
LINE
  8
0010010006
 10
5.58654309913168
 20
5.97365066684065
 11
5.57008909811738
 21
6.5968268538314
  0
ARC
  8
0010010006
 10
5.5517311646935
 20
6.59634213711967
 40
0.0183643314576488
 50
1.51246712061482
 51
178.487592369665
  0
LINE
  8
0010010006
 10
5.53337323076634
 20
6.59682683477034
 11
5.51691923025529
 21
5.97365066684065
  0
ARC
  8
0010010006
 10
5.55173116469348
 20
5.64714601195735
 40
0.328355235133835
 50
96.0858858292622
 51
117.980048095148
  0
LINE
  8
0010010006
 10
5.39767868661951
 20
5.93712013914642
 11
5.01580355048956
 21
6.46272617239312
  0
LINE
  8
0010010004
 10
2.41260771237956
 20
6.8225864688453
 11
0.0456371457854674
 21
6.82258646884533
  0
ARC
  8
0010010006
 10
2.25267133631799
 20
6.72355891852797
 40
0.188111935053475
 50
16.3026779796804
 51
31.7644828713158
  0
ARC
  8
0010010006
 10
2.91631849190166
 20
6.96482361040909
 40
0.518557060433705
 50
201.311030038806
 51
232.152900235188
  0
LINE
  8
0010010006
 10
2.59815449377015
 20
6.55534455695383
 11
2.53921319525923
 21
6.4894936251478
  0
ARC
  8
0010010006
 10
3.11524782489444
 20
6.86531334161901
 40
0.687790923048179
 50
213.121456604016
 51
220.067824636365
  0
LINE
  8
0010010006
 10
0.0296971407071709
 20
6.42258646884533
 11
2.588893125142
 21
6.4225864688453
  0
LINE
  8
0010010006
 10
0.0311518940541617
 20
6.33258646884533
 11
2.68020939802606
 21
6.33258646884521
  0
ARC
  8
0010010006
 10
3.11524782489444
 20
6.86531334161901
 40
0.687790923048179
 50
230.76404285059
 51
263.356765620595
  0
LINE
  8
0010010006
 10
3.03567956328341
 20
6.1821404165322
 11
3.01656249515716
 21
6.12695475114238
  0
ARC
  8
0010010006
 10
3.39722137597536
 20
6.49640359984356
 40
0.530465489313301
 50
224.143803358522
 51
271.155243719848
  0
ARC
  8
0010010006
 10
3.51977297984487
 20
5.50085216284583
 40
0.478452877880694
 50
103.520204346791
 51
115.530642161982
  0
LINE
  8
0010010006
 10
0.0393747957553927
 20
5.93258646884533
 11
3.31356278277502
 21
5.93258646884518
  0
ARC
  8
0010010006
 10
7.29556808782024
 20
10.6385882732649
 40
1.03332185697767
 50
275.080011616362
 51
288.413334188691
  0
ARC
  8
0010010006
 10
13.5486812740861
 20
7.80199967123287
 40
6.21058400151672
 50
162.610129235328
 51
165.054828524792
  0
ARC
  8
0010010012
 10
7.3874533180218
 20
12.4501290063851
 40
3.05069032342787
 50
266.084274021866
 51
273.020090320627
  0
ARC
  8
0010010006
 10
7.22830632747855
 20
10.2404461895896
 40
0.835334992263082
 50
255.231934913111
 51
266.624647338465
  0
LINE
  8
0010010006
 10
7.01537372379581
 20
9.43270597410502
 11
7.01532158533389
 21
9.72443828282005
  0
ARC
  8
0010010006
 10
7.34216932171945
 20
10.1221465487611
 40
0.514782777322388
 50
230.585681409999
 51
275.003334405234
  0
LINE
  8
0010010006
 10
8.20274483861256
 20
4.72016023956656
 11
8.14538078694673
 21
4.66177751104918
  0
ARC
  8
0010010006
 10
8.72168104279095
 20
4.9019420177948
 40
0.624340432125363
 50
202.623202567918
 51
209.408152962286
  0
ARC
  8
0010010010
 10
15.9556005432371
 20
39.1357631030244
 40
35.4052656605546
 50
256.228966334359
 51
257.309792745886
  0
ARC
  8
0010010006
 10
34.7805890979372
 20
3.98311586325203
 40
27.2636831997899
 50
177.974197070375
 51
178.391867752983
  0
ARC
  8
0010010010
 10
6.47504085496542
 20
-1.06596449359942
 40
6.105368143036
 50
76.6285480571517
 51
80.0122110202493
  0
ARC
  8
0010010006
 10
8.40789355203855
 20
5.76379405571414
 40
1.03114688795113
 50
239.657274382086
 51
256.631392848904
  0
ARC
  8
0010010006
 10
8.49498690617969
 20
4.9945438548088
 40
0.400863810251453
 50
215.706133339363
 51
223.194795290672
  0
LINE
  8
0010010006
 10
8.50404229629342
 20
4.27719535910184
 11
8.51995494509996
 21
4.31108877315884
  0
ARC
  8
0010010006
 10
8.72168104279095
 20
4.9019420177948
 40
0.624340432125363
 50
221.830749776847
 51
251.149331021198
  0
ARC
  8
0010010006
 10
15.9556005432371
 20
39.1357631030244
 40
35.4952656605546
 50
256.260532699777
 51
257.472642996365
  0
ARC
  8
0010010006
 10
34.7805890979372
 20
3.98311586325203
 40
27.2636831997899
 50
178.585408970019
 51
178.859879915079
  0
ARC
  8
0010010010
 10
10.4467538120767
 20
14.019491245438
 40
9.93410575595403
 50
252.879345208583
 51
258.72257388958
  0
ARC
  8
0010010006
 10
10.4467538120767
 20
14.019491245438
 40
10.024105755954
 50
253.027565350277
 51
259.29921902098
  0
ARC
  8
0010010006
 10
34.7805890979372
 20
3.98311586325203
 40
27.2636831997899
 50
179.056645562516
 51
179.386214519749
  0
ARC
  8
0010010010
 10
17.2140407047791
 20
44.3853875740681
 40
41.2654004127429
 50
256.410946545988
 51
258.154459916658
  0
ARC
  8
0010010006
 10
9.17757475367806
 20
3.64812970172616
 40
0.558129273671977
 50
129.898078830975
 51
141.081724166474
  0
ARC
  8
0010010006
 10
8.93621257820011
 20
4.70882984968729
 40
0.643174719966222
 50
236.953596156997
 51
259.551999854579
  0
LINE
  8
0030010003
 10
3.95843407507141
 20
5.85705386633461
 11
3.88707086808528
 21
5.89321036905064
  0
ARC
  8
0030010003
 10
3.04866859023335
 20
6.31799080586828
 40
1.01987062886884
 50
293.239367253532
 51
333.130733462625
  0
LINE
  8
0030010003
 10
3.45108235429668
 20
5.38086794192691
 11
3.44170824886065
 21
5.39853503414023
  0
ARC
  8
0030010003
 10
2.74948390476765
 20
6.46957412659456
 40
1.27526439616276
 50
302.875030512834
 51
333.130733462625
  0
LINE
  8
0030010003
 10
3.71384855214862
 20
6.45422324530686
 11
3.6546511160152
 21
6.40041187517721
  0
ARC
  8
0030010003
 10
2.7772158959875
 20
5.60280991006364
 40
1.18577462449577
 50
42.2713143839316
 51
82.2259604217085
  0
LINE
  8
0030010003
 10
2.93895030986043
 20
6.79764150405006
 11
2.93761166396425
 21
6.77768635365813
  0
ARC
  8
0030010003
 10
2.93757526538221
 20
5.74857901669872
 40
1.04906338851144
 50
42.2713143839316
 51
89.9249003743085
  0
LINE
  8
0030010003
 10
4.2841416074817
 20
6.54704091617864
 11
4.21594937880381
 21
6.58887176541628
  0
ARC
  8
0030010003
 10
3.51942813071031
 20
7.01613563235101
 40
0.81712683289299
 50
328.473987314084
 51
9.79149806550564
  0
LINE
  8
0030010003
 10
4.34394628943857
 20
7.16036484600671
 11
4.32465199507812
 21
7.15509889831115
  0
ARC
  8
0030010003
 10
3.68408749529242
 20
6.91512938590708
 40
0.703956006510553
 50
328.473987314084
 51
20.3875023190274
  0
LINE
  8
0030010003
 10
9.19063899705014
 20
4.40943221564077
 11
9.22518503284573
 21
4.48158879129961
  0
ARC
  8
0030010003
 10
10.4371757451072
 20
7.0130832888028
 40
2.80666810960913
 50
227.595151978688
 51
244.41653648302
  0
LINE
  8
0030010003
 10
8.52994435138179
 20
4.92688312018237
 11
8.54445737365783
 21
4.94064437682612
  0
ARC
  8
0030010003
 10
10.0288413012002
 20
6.16019193622578
 40
1.94106741302445
 50
219.447921890572
 51
244.41653648302
  0
LINE
  8
0030010003
 10
9.82697756811565
 20
4.53521849489996
 11
9.76004268387735
 21
4.5790331188514
  0
ARC
  8
0030010003
 10
8.93456766313073
 20
5.1193773358751
 40
0.986600670356346
 50
326.791811894097
 51
359.907303127382
  0
LINE
  8
0030010003
 10
9.94106903213886
 20
5.11975872342859
 11
9.92116704227906
 21
5.11778114925289
  0
ARC
  8
0030010003
 10
9.16654747452711
 20
4.96752664820571
 40
0.789340387875848
 50
326.791811894097
 51
11.1197295037214
  0
LINE
  8
0030010003
 10
9.45735878630951
 20
3.9166037401086
 11
9.37842420224955
 21
3.92961648152927
  0
ARC
  8
0030010003
 10
8.99695110100609
 20
3.99250413571202
 40
0.466622016989352
 50
272.592586755299
 51
350.638716525811
  0
LINE
  8
0030010003
 10
9.0180581578614
 20
3.52635973867381
 11
9.01552167422209
 21
3.54619824292054
  0
ARC
  8
0030010003
 10
8.91343725479991
 20
4.00627179026634
 40
0.471263087517062
 50
282.510512963915
 51
350.638716525811
  0
LINE
  8
0030010003
 10
12.5227537743025
 20
3.47583642677909
 11
12.4452837578277
 21
3.49579630021033
  0
ARC
  8
0030010003
 10
11.7352083022879
 20
3.67874470869309
 40
0.813264803959969
 50
296.313471112807
 51
345.55216686504
  0
LINE
  8
0030010003
 10
12.095713915518
 20
2.94974858786004
 11
12.0854102280492
 21
2.96689017543367
  0
ARC
  8
0030010003
 10
11.5301549402536
 20
3.73157597605423
 40
0.945014713269396
 50
305.984231949667
 51
345.55216686504
  0
LINE
  8
0030010003
 10
12.1709480581049
 20
4.07807471841213
 11
12.1110885536848
 21
4.02500081022197
  0
ARC
  8
0030010003
 10
11.2648714780181
 20
3.27470981102394
 40
1.13093762985735
 50
41.5615209673362
 51
85.9953357271773
  0
LINE
  8
0030010003
 10
11.3439699367284
 20
4.422885769004
 11
11.3438535407184
 21
4.40288610770765
  0
ARC
  8
0030010003
 10
11.40089464146
 20
3.395313564065
 40
1.02914773398767
 50
41.5615209673362
 51
93.1707893988334
  0
LINE
  8
0030010003
 10
12.8028810609767
 20
4.13973889560596
 11
12.7257812946117
 21
4.16108429385612
  0
ARC
  8
0030010003
 10
12.0149090734918
 20
4.35789229185886
 40
0.737612840748944
 50
344.525024340503
 51
37.5845439047167
  0
LINE
  8
0030010003
 10
12.6142596642118
 20
4.82120879940778
 11
12.5994334723793
 21
4.80778553468765
  0
ARC
  8
0030010003
 10
12.1402869414842
 20
4.32318089582969
 40
0.687518679478717
 50
344.525024340503
 51
46.4176730175
  0
ARC
  8
0010010010
 10
43.6165300037277
 20
6.24564319685103
 40
0.123347792531246
 50
356.210585791129
 51
77.5547359252013
  0
ARC
  8
0010010010
 10
43.6519939837977
 20
6.8064333092932
 40
0.440430268357426
 50
190.249712700107
 51
268.844498819778
  0
LINE
  8
0010010006
 10
43.2185922822826
 20
6.72806375902546
 11
43.3349344704369
 21
6.7555542144203
  0
ARC
  8
0010010010
 10
44.2531772278993
 20
7.02782292554599
 40
0.957757804818223
 50
163.142308668979
 51
196.515648463183
  0
LINE
  8
0010010006
 10
43.33657620573
 20
7.30556845448988
 11
43.4578708834529
 21
7.2771616879911
  0
ARC
  8
0010010010
 10
43.7964682240081
 20
7.21845883207835
 40
0.343648343984637
 50
78.5205055767906
 51
170.164357878796
  0
ARC
  8
0010010010
 10
44.0267969169089
 20
7.48473242870823
 40
0.176617722396879
 50
156.473731329483
 51
211.892668049827
  0
ARC
  8
0010010010
 10
43.69088627611
 20
7.30479338769727
 40
0.205142714517671
 50
340.126581384026
 51
24.9783058034316
  0
LINE
  8
0010010006
 10
43.8838119088951
 20
7.23505649979632
 11
43.9765125177977
 21
7.23494345953053
  0
ARC
  8
0010010006
 10
43.6728492974892
 20
7.0632867060133
 40
0.348822866790876
 50
331.175907015602
 51
29.4788947799069
  0
LINE
  8
0010010006
 10
43.9784544148307
 20
6.89511148592753
 11
44.0762595117792
 21
6.90133115288093
  0
ARC
  8
0010010010
 10
43.5930431101387
 20
6.81888847313567
 40
0.49019882319113
 50
311.880411930979
 51
9.68214075223949
  0
ARC
  8
0010010010
 10
44.1706195771915
 20
6.31479566597289
 40
0.286390995708751
 50
150.937041750675
 51
182.6239487787
  0
ARC
  8
0010010010
 10
43.7745650715745
 20
6.63370476104354
 40
0.349756295929624
 50
288.324666087402
 51
350.167242568411
  0
ARC
  8
0010010010
 10
44.9058242537615
 20
6.41219061953336
 40
0.803105220448812
 50
128.533344664284
 51
168.378256921811
  0
LINE
  8
0010010006
 10
44.405513803468
 20
7.04041625450797
 11
44.4959153492399
 21
6.92644234949589
  0
ARC
  8
0010010010
 10
45.1078306389338
 20
6.46446741491049
 40
0.766721045717621
 50
96.7458431264304
 51
142.948454391369
  0
LINE
  8
0010010006
 10
45.0177674837823
 20
7.22588043688376
 11
45.047085607631
 21
7.08454985832865
  0
ARC
  8
0010010010
 10
45.2324515929969
 20
6.48340682795308
 40
0.629073518358416
 50
51.2406521186834
 51
107.137453932432
  0
ARC
  8
0010010010
 10
45.747328663682
 20
6.72355891852797
 40
0.278111935053475
 50
115.80050090729
 51
162.769433973454
  0
ARC
  8
0010010010
 10
45.0836815080983
 20
6.96482361040908
 40
0.428557060433704
 50
294.729047436611
 51
338.238768047028
  0
LINE
  8
0010010006
 10
45.262958758753
 20
6.57556685523934
 11
45.3450315262179
 21
6.48387277400933
  0
ARC
  8
0010010010
 10
44.8847521751056
 20
6.86531334161902
 40
0.597790923048179
 50
265.59952928625
 51
320.350935708489
  0
LINE
  8
0010010006
 10
44.838885339788
 20
6.26928463333665
 11
44.8790466942902
 21
6.15334995880802
  0
ARC
  8
0010010010
 10
44.6027786240246
 20
6.49640359984356
 40
0.440465489313301
 50
229.009716639303
 51
308.845199793961
  0
ARC
  8
0010010010
 10
44.1217481654269
 20
5.89452330116173
 40
0.330891076376304
 50
54.5072205149629
 51
130.572615663713
  0
ARC
  8
0010010010
 10
44.1928856276839
 20
6.57298892183329
 40
0.514232487178977
 50
236.161447665799
 51
274.376149983535
  0
ARC
  8
0010010010
 10
44.2920400674267
 20
5.72164552316162
 40
0.343870300908832
 50
49.2717309097524
 51
100.034516674863
  0
LINE
  8
0010010006
 10
44.5164059408518
 20
5.98223473761473
 11
44.4941912938957
 21
5.88905396267769
  0
ARC
  8
0010010010
 10
44.4802270201551
 20
5.50085216284583
 40
0.388452877880694
 50
23.1308530612902
 51
87.939862411267
  0
LINE
  8
0010010006
 10
44.8374522082172
 20
5.65344902830459
 11
44.7382409589442
 21
5.55966108957858
  0
ARC
  8
0010010010
 10
44.4370084162497
 20
5.27966970295963
 40
0.411261743125958
 50
353.262973073172
 51
42.9070248913929
  0
ARC
  8
0010010010
 10
45.1052150789807
 20
5.28146401751469
 40
0.264560239902303
 50
190.902941898748
 51
234.109332928094
  0
ARC
  8
0010010010
 10
44.7476702367518
 20
5.37045286290759
 40
0.364675119180558
 50
219.094502109118
 51
303.720961777393
  0
LINE
  8
0010010006
 10
44.4646433529088
 20
5.14048824482149
 11
44.385408574774
 21
5.06496544695915
  0
ARC
  8
0010010010
 10
44.6795528785151
 20
5.68978040979498
 40
0.690590044242528
 50
203.719280095235
 51
244.790338468266
  0
LINE
  8
0010010006
 10
44.0472988498372
 20
5.41198650700459
 11
43.9522862925373
 21
5.32185527222803
  0
ARC
  8
0010010010
 10
44.2395164263069
 20
5.61270981884946
 40
0.408775631655865
 50
153.228012435535
 51
225.35922217923
  0
ARC
  8
0010010010
 10
43.6313670889688
 20
5.8947360150493
 40
0.262156658089948
 50
338.072761907288
 51
50.9033306030358
  0
ARC
  8
0010010010
 10
44.0141316826273
 20
5.70699681565399
 40
0.447564036242366
 50
119.066942596518
 51
140.898675926943
  0
ARC
  8
0010010003
 10
44.0551908191825
 20
6.16926661482821
 40
0.428064527936952
 50
182.354123403166
 51
204.865100659432
  0
ARC
  8
0010010010
 10
43.4764144779502
 20
6.46523831618799
 40
0.348051208576597
 50
295.725125305565
 51
319.129659288534
  0
ARC
  8
0010010012
 10
39.9972830629614
 20
9.84840351709309
 40
0.332581129445098
 50
192.107935228637
 51
234.599066410616
  0
ARC
  8
0010010006
 10
39.8795726344056
 20
9.82444243185007
 40
0.212467080087775
 50
123.981607179873
 51
192.448307805512
  0
ARC
  8
0010010006
 10
40.2541158408969
 20
9.34754175409263
 40
0.818448393407039
 50
114.75486150431
 51
127.065086340347
  0
ARC
  8
0010010006
 10
40.3922563466151
 20
8.90571476012224
 40
1.27890714425571
 50
84.6489954149594
 51
112.08544944245
  0
ARC
  8
0010010012
 10
40.4312979898826
 20
9.27542496460731
 40
0.907177843431532
 50
64.4528711685032
 51
84.9264797732502
  0
ARC
  8
0010010012
 10
40.5869600354113
 20
9.73562524772764
 40
0.428784694265001
 50
27.1838154701229
 51
56.676194661075
  0
ARC
  8
0010010006
 10
40.7710878244933
 20
9.91586712842948
 40
0.197915174194789
 50
321.53586017756
 51
4.53448033518771
  0
ARC
  8
0010010006
 10
40.6578306782806
 20
10.1221465487611
 40
0.424782777322388
 50
265.004583369248
 51
309.156342324873
  0
ARC
  8
0010010006
 10
40.7044319121798
 20
10.6385882732649
 40
0.943321856977673
 50
239.674893364359
 51
264.916238214575
  0
ARC
  8
0010010012
 10
34.4513187259139
 20
7.80199967123287
 40
6.12058400151673
 50
15.233203136673
 51
19.2940115909447
  0
ARC
  8
0010010012
 10
40.6125466819782
 20
12.4501290063851
 40
3.05069032342787
 50
261.107677214012
 51
265.192099083893
  0
ARC
  8
0010010006
 10
40.2840945096628
 20
10.2482314724026
 40
0.824639363449151
 50
234.448492529063
 51
260.005620751067
  0
ARC
  8
0010010012
 10
40.9363929849473
 20
3.94263901897098
 40
0.441503063852282
 50
214.27650043615
 51
348.63163420875
  0
ARC
  8
0010010012
 10
13.2194109020628
 20
3.98311586325202
 40
27.3536831997899
 50
359.39437803253
 51
2.9391451109492
  0
ARC
  8
0010010006
 10
39.9319836948548
 20
5.53927421355804
 40
0.624315930136936
 50
345.758181623795
 51
355.443067916881
  0
ARC
  8
0010010006
 10
39.977875648066
 20
5.57913780014228
 40
0.583351646332816
 50
351.178061708544
 51
23.7724778420591
  0
ARC
  8
0010010012
 10
13.2194109020628
 20
3.98311586325202
 40
27.3536831997899
 50
3.83849900664598
 51
5.36773039297009
  0
ARC
  8
0010010012
 10
27.2941581593565
 20
5.08762659983758
 40
13.2391104591887
 50
6.30686055994954
 51
19.3931615513261
  0
ARC
  8
0010010006
 10
40.2840945096628
 20
10.2482314724026
 40
0.914639363449152
 50
236.713134340576
 51
260.060853031103
  0
ARC
  8
0010010006
 10
40.6125466819782
 20
12.4501290063851
 40
3.14069032342787
 50
261.092180546654
 51
273.908125191204
  0
ARC
  8
0010010006
 10
40.7716936725215
 20
10.2404461895896
 40
0.925334992263083
 50
273.402112923685
 51
311.407017654518
  0
LINE
  8
0010010012
 10
41.3837136923955
 20
9.54641712449863
 11
41.3756717709696
 21
6.38582060863306
  0
ARC
  8
0010010003
 10
41.3918966350244
 20
6.51302039888914
 40
0.128230389747428
 50
254.735961245922
 51
262.730937338591
  0
ARC
  8
0010010003
 10
41.3439463609751
 20
6.29615453678781
 40
0.094233795677316
 50
81.3384502302478
 51
209.212768960385
  0
ARC
  8
0010010003
 10
40.8413468514306
 20
6.16926661482844
 40
0.428064527936951
 50
313.106587415285
 51
10.8934125847062
  0
ARC
  8
0010010003
 10
41.1733755467948
 20
5.77119155006262
 40
0.094233795677314
 50
114.78723103961
 51
242.661549769753
  0
ARC
  8
0010010003
 10
41.0846975779168
 20
5.56755891819332
 40
0.128230389747429
 50
346.941059051414
 51
69.264038754058
  0
ARC
  8
0010010003
 10
41.4451121488614
 20
5.52131621513607
 40
0.236132740227998
 50
175.806157946154
 51
251.706214833981
  0
ARC
  8
0010010003
 10
41.5627371290809
 20
5.15930374995363
 40
0.236132740227993
 50
144.293785166007
 51
216.203583713108
  0
LINE
  8
0010010012
 10
41.3721961026614
 20
5.01983049710794
 11
41.3692338275579
 21
3.85561166488564
  0
ARC
  8
0010010010
 10
39.8886205945992
 20
5.6242723556941
 40
0.413150494418229
 50
318.089822019183
 51
350.585757030605
  0
ARC
  8
0010010006
 10
40.0684781839128
 20
5.57806036663261
 40
0.228728651152056
 50
354.639686196373
 51
59.7568431792024
  0
ARC
  8
0010010006
 10
40.1022572004296
 20
5.6385944254815
 40
0.159425398954993
 50
59.286867478791
 51
214.067929117894
  0
ARC
  8
0010010010
 10
40.0081682816468
 20
5.73125610297946
 40
0.185888138328746
 50
153.522148080929
 51
258.212107175657
  0
ARC
  8
0010010006
 10
40.101539927075
 20
5.7173210109284
 40
0.277216265789002
 50
93.9492784858992
 51
159.55946031671
  0
ARC
  8
0010010010
 10
40.1115034560181
 20
5.65010040999578
 40
0.345004335361085
 50
41.5614865735959
 51
94.8311859097622
  0
ARC
  8
0010010010
 10
39.977875648066
 20
5.57913780014228
 40
0.493351646332816
 50
350.789966428333
 51
37.4287596596719
  0
ARC
  8
0010010010
 10
39.9319836948548
 20
5.53927421355804
 40
0.534315930136936
 50
330.353620713567
 51
355.803547342581
  0
ARC
  8
0010010006
 10
39.5921064479615
 20
5.76379405571414
 40
0.941146887951124
 50
288.192190894035
 51
328.709045501572
  0
ARC
  8
0010010006
 10
39.5050130938203
 20
4.99454385480881
 40
0.400863810251453
 50
341.85275317548
 51
358.295873093008
  0
ARC
  8
0010010006
 10
40.1705326093767
 20
4.98525950125988
 40
0.264846123652609
 50
141.996253171567
 51
180.570407870377
  0
ARC
  8
0010010010
 10
39.7004653594908
 20
5.69167517581276
 40
0.602945245356421
 50
295.689838066863
 51
325.285156482325
  0
ARC
  8
0010010006
 10
35.7477574047625
 20
3.02552688040374
 40
0.633299815290098
 50
44.6358833699295
 51
56.8041695812943
  0
LINE
  8
0010010006
 10
36.1205812361236
 20
3.60137172919023
 11
36.0944905281195
 21
3.55547479974446
  0
ARC
  8
0010010006
 10
36.1656622180349
 20
4.43811255497855
 40
0.837954357033253
 50
266.916064004145
 51
293.334377355257
  0
LINE
  8
0010010006
 10
36.4879933877021
 20
3.75693376881243
 11
36.497573003802
 21
3.6686954153446
  0
ARC
  8
0010010006
 10
36.4630576721447
 20
4.31547292314838
 40
0.5590954988521
 50
272.556245482246
 51
316.588502615623
  0
ARC
  8
0010010010
 10
35.4891356052574
 20
11.9483973636785
 40
8.13506865856162
 50
279.767149799465
 51
289.737144029536
  0
ARC
  8
0010010006
 10
38.0748211126487
 20
4.09998256899396
 40
0.250376721037714
 50
49.8106109780368
 51
94.1675940621208
  0
ARC
  8
0010010010
 10
38.0561829291639
 20
4.75607900636138
 40
0.406382018019215
 50
198.956817749253
 51
270.062356638695
  0
LINE
  8
0010010006
 10
37.7979958039105
 20
4.66745134918024
 11
37.6718415768087
 21
4.62406359271921
  0
ARC
  8
0010010010
 10
38.1360038753878
 20
5.01635986860912
 40
0.485784531777073
 50
162.599451203572
 51
225.909131115868
  0
LINE
  8
0010010006
 10
37.8106139227865
 20
5.15688406383832
 11
37.6724500756525
 21
5.16163369992364
  0
ARC
  8
0010010010
 10
38.4483861635875
 20
4.94991749318897
 40
0.670513678087659
 50
125.151084877599
 51
162.020982840127
  0
ARC
  8
0010010010
 10
38.2750879625433
 20
5.53389910461522
 40
0.215721725084046
 50
189.537879331595
 51
255.573720399075
  0
ARC
  8
0010010010
 10
38.147790977545
 20
5.23018091392496
 40
0.119986786115659
 50
347.904345182137
 51
52.1923874159762
  0
LINE
  8
0010010006
 10
38.3472717103292
 20
5.21562713312096
 11
38.2651139527336
 21
5.20503835368833
  0
ARC
  8
0010010006
 10
38.138009662481
 20
4.97021202212704
 40
0.322520048018381
 50
354.580149626619
 51
49.5462344355653
  0
LINE
  8
0010010006
 10
38.5503961721467
 20
4.97588167964165
 11
38.4590878203201
 21
4.93974896363866
  0
ARC
  8
0010010006
 10
38.1325158961736
 20
4.82359851583119
 40
0.44476295599729
 50
310.784691684133
 51
20.0226591509349
  0
ARC
  8
0010010010
 10
38.4833439082881
 20
4.41008349503867
 40
0.0976081701078883
 50
128.154440083808
 51
225.782591567367
  0
ARC
  8
0010010010
 10
38.3732039138758
 20
4.55980022522279
 40
0.223664521348154
 50
280.841513575734
 51
358.38462994234
  0
ARC
  8
0010010010
 10
39.0930861847491
 20
4.61298718843066
 40
0.499859557876365
 50
112.158639191129
 51
186.83540132087
  0
LINE
  8
0010010006
 10
38.9045529962086
 20
5.07592866898639
 11
38.9857581221385
 21
4.98737860822106
  0
ARC
  8
0010010010
 10
39.4606291672077
 20
4.75701456428538
 40
0.527797406381947
 50
101.594677169736
 51
154.121576018429
  0
LINE
  8
0010010006
 10
39.3545487937814
 20
5.27404169757457
 11
39.4271843346642
 21
5.17727360601098
  0
ARC
  8
0010010010
 10
39.7075735521766
 20
4.87010060507915
 40
0.415900668187349
 50
60.1704204827649
 51
132.39000214307
  0
ARC
  8
0010010010
 10
40.1705326093767
 20
4.98525950125988
 40
0.354846123652609
 50
136.192335430916
 51
180.242733466031
  0
ARC
  8
0010010006
 10
39.5050130938203
 20
4.99454385480881
 40
0.310863810251453
 50
300.753606787696
 51
358.011311876871
  0
LINE
  8
0010010006
 10
39.7461466777583
 20
4.64376200057882
 11
39.6639724281024
 21
4.72739550918668
  0
ARC
  8
0010010010
 10
39.2783189572091
 20
4.9019420177948
 40
0.534340432125364
 50
277.894447708104
 51
331.107017916366
  0
LINE
  8
0010010006
 10
39.4000881839453
 20
4.26962139326813
 11
39.35170984574
 21
4.37266564869775
  0
ARC
  8
0010010010
 10
39.0637874217999
 20
4.70882984968729
 40
0.553174719966223
 50
242.055061889014
 51
307.441185797236
  0
ARC
  8
0010010010
 10
38.6737573472024
 20
3.80727680029687
 40
0.433102748801987
 50
72.4218516026151
 51
115.074981864316
  0
ARC
  8
0010010006
 10
38.7168611946218
 20
4.43854310576794
 40
0.329369944810033
 50
226.516496599148
 51
278.496822606294
  0
ARC
  8
0010010010
 10
38.8224252463219
 20
3.64812970172616
 40
0.468129273671977
 50
44.0939496118632
 51
96.9811991958133
  0
LINE
  8
0010010006
 10
39.1586355884288
 20
3.97387135200908
 11
39.0448521967169
 21
3.90851833560183
  0
ARC
  8
0010010010
 10
38.7766943089884
 20
3.45736720429784
 40
0.524829492338125
 50
17.0223096411986
 51
59.2733456492291
  0
LINE
  8
0010010006
 10
39.2785314625141
 20
3.61100791299533
 11
39.1907097730094
 21
3.56027317774704
  0
ARC
  8
0010010010
 10
38.9742940329337
 20
3.3879580837684
 40
0.276637423653081
 50
353.596275143948
 51
38.5275944183878
  0
ARC
  8
0010010010
 10
39.4041945162796
 20
3.36013050391279
 40
0.155018643746601
 50
181.118782897475
 51
252.964675889091
  0
ARC
  8
0010010010
 10
39.2393392434639
 20
3.9791143654893
 40
0.7764427975791
 50
233.507254427024
 51
278.84899303177
  0
LINE
  8
0010010006
 10
38.6792004403944
 20
3.25617572787331
 11
38.777572404315
 21
3.35490702479643
  0
ARC
  8
0010010010
 10
38.7954268208461
 20
3.58344275455413
 40
0.347292784643445
 50
184.747414216532
 51
250.447894846698
  0
LINE
  8
0010010006
 10
38.3072665536156
 20
3.49607390550547
 11
38.4493255148642
 21
3.55469968124918
  0
ARC
  8
0010010010
 10
38.8792095912258
 20
3.65263681317739
 40
0.592984639201961
 50
146.32232832634
 51
195.309040050177
  0
ARC
  8
0010010010
 10
38.221119446742
 20
4.03149200094369
 40
0.172061119148196
 50
343.094884013414
 51
41.6453935995498
  0
ARC
  8
0010010010
 10
36.0700129257816
 20
9.94448056076802
 40
6.23067453087277
 50
279.008252906244
 51
291.461786534958
  0
LINE
  8
0010010006
 10
37.0472997009097
 20
3.76122428089271
 11
37.0455915721839
 21
3.79065643146838
  0
ARC
  8
0010010006
 10
36.876366342012
 20
7.60907672375571
 40
3.85164726256582
 50
272.543581242977
 51
291.742915973387
  0
ARC
  8
0010010006
 10
38.221119446742
 20
4.03149200094369
 40
0.082061119148198
 50
350.379130371828
 51
359.973128030917
  0
ARC
  8
0010010006
 10
38.8792095912258
 20
3.65263681317739
 40
0.682984639201961
 50
147.681534031377
 51
165.53097429201
  0
ARC
  8
0010010010
 10
28.6330654964733
 20
47.1367297855686
 40
44.361281607123
 50
281.541245558232
 51
282.477885666173
  0
ARC
  8
0010010010
 10
37.6413113905332
 20
3.33011191914961
 40
0.367117088286398
 50
111.196526255097
 51
160.364185847758
  0
ARC
  8
0010010010
 10
37.0343585284924
 20
3.31361207191024
 40
0.296276648313951
 50
28.1693386167426
 51
95.549472697655
  0
ARC
  8
0010010003
 10
42.0186051229631
 20
6.56232116984954
 40
0.236132740227995
 50
103.806157946158
 51
179.706214833984
  0
ARC
  8
0010010003
 10
41.7106589268222
 20
6.33858516201568
 40
0.236132740227996
 50
72.2937851660088
 51
148.193842053825
  0
ARC
  8
0010010003
 10
41.3918966350244
 20
6.51302039888914
 40
0.128230389747428
 50
305.154176902562
 51
337.058940948598
  0
LINE
  8
0010010006
 10
41.4657289504496
 20
6.40817850814961
 11
41.4667833831307
 21
6.82258646884527
  0
LINE
  8
0010010004
 10
41.4667833831307
 20
6.82258646884527
 11
42.0353112439161
 21
6.82258646884527
  0
ARC
  8
0010010003
 10
41.9512103195946
 20
6.91938557722465
 40
0.128230389747427
 50
274.941059051405
 51
310.984738556191
  0
ARC
  8
0010010006
 10
37.0343585284924
 20
3.31361207191024
 40
0.206276648313951
 50
28.1693386167427
 51
94.7311502615043
  0
LINE
  8
0010010006
 10
37.3268406627719
 20
3.2881745044378
 11
37.2162029883098
 21
3.41099096116934
  0
LINE
  8
0010010006
 10
37.3803093297768
 20
3.42323444543225
 11
37.3268406627719
 21
3.2881745044378
  0
ARC
  8
0010010006
 10
37.6413113905332
 20
3.33011191914961
 40
0.277117088286398
 50
112.657841389454
 51
160.364185847758
  0
ARC
  8
0010010006
 10
28.6330654964733
 20
47.1367297855686
 40
44.4512816071229
 50
281.551741511225
 51
282.429016327748
  0
ARC
  8
0010010006
 10
38.8792095912258
 20
3.65263681317739
 40
0.682984639201961
 50
173.729436267888
 51
203.812911890555
  0
LINE
  8
0010010006
 10
38.3855578767827
 20
3.43102087884868
 11
38.2543683197352
 21
3.37688075643907
  0
ARC
  8
0010010006
 10
38.7954268208461
 20
3.58344275455413
 40
0.437292784643445
 50
200.399138116992
 51
258.180975782887
  0
LINE
  8
0010010006
 10
38.7890218824904
 20
3.23888643040277
 11
38.7058600495944
 21
3.15542082405433
  0
ARC
  8
0010010006
 10
39.2393392434639
 20
3.9791143654893
 40
0.8664427975791
 50
238.685776878265
 51
287.696587756207
  0
ARC
  8
0010010006
 10
39.2829258871588
 20
3.0946292605255
 40
0.227583672687322
 50
15.0364273292
 51
63.3104209091681
  0
ARC
  8
0010010006
 10
39.4041945162796
 20
3.36013050391279
 40
0.0650186437466018
 50
184.875821795211
 51
252.964675889091
  0
ARC
  8
0010010006
 10
38.9742940329337
 20
3.3879580837684
 40
0.366637423653081
 50
354.780441365873
 51
22.326709817979
  0
LINE
  8
0010010006
 10
39.3817272286041
 20
3.56668541334874
 11
39.3134456480822
 21
3.52723903137122
  0
ARC
  8
0010010006
 10
38.7766943089884
 20
3.45736720429784
 40
0.614829492338124
 50
10.2417866185559
 51
45.5738846201712
  0
ARC
  8
0010010006
 10
30.7859592952209
 20
44.3853875740681
 40
41.3554004127429
 50
281.749183048226
 51
283.56010222359
  0
ARC
  8
0010010006
 10
13.2194109020628
 20
3.98311586325202
 40
27.2636831997899
 50
359.338001227702
 51
0.419626097396986
  0
ARC
  8
0010010006
 10
40.9363929849473
 20
3.94263901897098
 40
0.531503063852282
 50
211.097895466338
 51
349.628615592064
  0
LINE
  8
0010010006
 10
41.4592120891497
 20
3.84695364308119
 11
41.4614018567348
 21
4.70756535929075
  0
ARC
  8
0010010003
 10
41.4897706367968
 20
4.79742759032015
 40
0.0942337956773167
 50
252.479514442839
 51
281.212768960392
  0
ARC
  8
0010010003
 10
41.4551364320016
 20
4.28021652741468
 40
0.428064527936952
 50
25.1065874152832
 51
82.8934125847111
  0
ARC
  8
0010010003
 10
41.9363308258095
 20
4.47298262168827
 40
0.0942337956773123
 50
186.787231039606
 51
314.661549769775
  0
ARC
  8
0010010003
 10
42.1025939678691
 20
4.32571891767806
 40
0.12823038974743
 50
58.9410590514027
 51
141.264038754043
  0
ARC
  8
0010010003
 10
42.2579476193851
 20
4.65420376283211
 40
0.236132740227994
 50
247.806157946158
 51
323.706214833992
  0
ARC
  8
0010010003
 10
42.6385900512278
 20
4.65420376283209
 40
0.236132740227996
 50
216.293785165999
 51
292.193842053838
  0
ARC
  8
0010010003
 10
42.7939437027437
 20
4.325718917678
 40
0.128230389747428
 50
38.7359612459167
 51
121.058940948579
  0
ARC
  8
0010010003
 10
42.9602068448034
 20
4.47298262168818
 40
0.0942337956773126
 50
225.338450230263
 51
353.212768960395
  0
ARC
  8
0010010003
 10
43.4414012386112
 20
4.28021652741452
 40
0.428064527936954
 50
97.1065874152849
 51
154.893412584705
  0
ARC
  8
0010010003
 10
43.4067670338161
 20
4.79742759031999
 40
0.0942337956773129
 50
258.787231039597
 51
26.6615497697256
  0
ARC
  8
0010010003
 10
43.5982012755634
 20
4.91004624780179
 40
0.128230389747433
 50
130.941059051388
 51
213.264038754081
  0
ARC
  8
0010010003
 10
43.333800541532
 20
5.15930374995348
 40
0.236132740227995
 50
319.806157946169
 51
35.7062148339883
  0
ARC
  8
0010010003
 10
43.4514255217516
 20
5.52131621513592
 40
0.236132740227995
 50
288.293785166004
 51
4.19384205383676
  0
ARC
  8
0010010003
 10
43.8118400926963
 20
5.56755891819314
 40
0.128230389747427
 50
121.472810411937
 51
193.058940948581
  0
LINE
  8
0010010003
 10
42.6327772483407
 20
5.79375967897359
 11
42.6146258404791
 21
5.8140719496254
  0
ARC
  8
0010010003
 10
42.4482688353065
 20
5.64714601195735
 40
0.235666972307005
 50
45.0978069830871
 51
38.4712785653115
  0
LINE
  8
0010010006
 10
43.4274118741976
 20
5.3788155384301
 11
43.3895424019938
 21
5.38947669205587
  0
LINE
  8
0010010006
 10
43.3895424019938
 20
5.38947669205586
 11
42.7716554522771
 21
5.59024033206414
  0
ARC
  8
0010010006
 10
42.4482688353065
 20
5.64714601195735
 40
0.328355235133835
 50
350.019951904852
 51
11.9141141707378
  0
LINE
  8
0010010006
 10
42.7695506942825
 20
5.71493338196652
 11
43.3571418838085
 21
5.92315409275139
  0
ARC
  8
0010010006
 10
43.3510079953843
 20
5.94046374562734
 40
0.0183643314576488
 50
289.512407630335
 51
106.487532879385
  0
LINE
  8
0010010006
 10
43.3457960749619
 20
5.95807296353722
 11
42.7480357355855
 21
5.78114961615109
  0
ARC
  8
0010010006
 10
42.4482688353065
 20
5.64714601195735
 40
0.328355235133834
 50
24.0858858292586
 51
45.9800480951566
  0
LINE
  8
0010010006
 10
42.6764457847762
 20
5.88326555831154
 11
43.0688776224965
 21
6.42340164476701
  0
ARC
  8
0010010006
 10
43.185878743791
 20
6.3385851620156
 40
0.144509854786711
 50
33.9120861280894
 51
144.060883092719
  0
ARC
  8
0010010006
 10
43.5046410355887
 20
6.51302039888901
 40
0.219853275188714
 50
205.257992640301
 51
282.378710319788
  0
ARC
  8
0010010006
 10
44.0551908191825
 20
6.16926661482825
 40
0.519687413378235
 50
165.626104207911
 51
230.373895792085
  0
ARC
  8
0010010006
 10
43.8118400926963
 20
5.56755891819317
 40
0.219853275188717
 50
113.621289680209
 51
190.742007359703
  0
ARC
  8
0010010006
 10
43.4514255217516
 20
5.52131621513595
 40
0.14450985478671
 50
260.434612197442
 51
2.08791387189422
  0
LINE
  8
0010010006
 10
42.4956432288791
 20
4.63300696800637
 11
42.4940802780272
 21
4.6723174539644
  0
LINE
  8
0010010006
 10
42.4940802780272
 20
4.6723174539644
 11
42.4940802780272
 21
5.32200224044135
  0
ARC
  8
0010010006
 10
42.4482688353065
 20
5.64714601195735
 40
0.328355235133835
 50
278.019951904852
 51
299.914114170738
  0
LINE
  8
0010010006
 10
42.6120200096842
 20
5.36253625574768
 11
42.9916253368123
 21
4.86804756424471
  0
ARC
  8
0010010006
 10
43.0061923192101
 20
4.87923021570618
 40
0.0183643314576488
 50
217.512407630335
 51
34.4875328793851
  0
LINE
  8
0010010006
 10
43.0213291086663
 20
4.88962859417805
 11
42.6683469028193
 21
5.40346013908077
  0
ARC
  8
0010010006
 10
42.4482688353065
 20
5.64714601195735
 40
0.328355235133834
 50
312.085885829259
 51
333.980048095157
  0
LINE
  8
0010010006
 10
42.7433424236021
 20
5.5031017898234
 11
43.3783104753011
 21
5.29678816334774
  0
ARC
  8
0010010006
 10
43.333800541532
 20
5.15930374995352
 40
0.144509854786711
 50
321.912086128089
 51
72.0608830927189
  0
ARC
  8
0010010006
 10
43.5982012755634
 20
4.91004624780182
 40
0.219853275188714
 50
133.257992640301
 51
210.378710319788
  0
ARC
  8
0010010006
 10
43.4414012386112
 20
4.28021652741456
 40
0.519687413378235
 50
93.6261042079107
 51
158.373895792085
  0
ARC
  8
0010010006
 10
42.7939437027438
 20
4.32571891767801
 40
0.219853275188717
 50
41.6212896802086
 51
118.742007359703
  0
ARC
  8
0010010006
 10
42.6385900512278
 20
4.6542037628321
 40
0.14450985478671
 50
188.434612197442
 51
290.087913871894
  0
LINE
  8
0010010006
 10
41.4984047818398
 20
5.28870408700457
 11
41.5353082972942
 21
5.30233814981514
  0
LINE
  8
0010010006
 10
41.5353082972942
 20
5.30233814981515
 11
42.153195247011
 21
5.50310178982335
  0
ARC
  8
0010010006
 10
42.4482688353065
 20
5.64714601195735
 40
0.328355235133835
 50
206.019951904852
 51
227.914114170738
  0
LINE
  8
0010010006
 10
42.2281907677937
 20
5.40346013908077
 11
41.8752085727434
 21
4.8896286098946
  0
ARC
  8
0010010006
 10
41.8903453514029
 20
4.87923021570618
 40
0.0183643314576488
 50
145.512407630335
 51
322.487532879385
  0
LINE
  8
0010010006
 10
41.9049123221898
 20
4.86804754911982
 11
42.2845176609288
 21
5.36253625574769
  0
ARC
  8
0010010006
 10
42.4482688353065
 20
5.64714601195735
 40
0.328355235133834
 50
240.085885829259
 51
261.980048095157
  0
LINE
  8
0010010006
 10
42.4024573925859
 20
5.32200224044135
 11
42.4024573925859
 21
4.65435732048167
  0
ARC
  8
0010010006
 10
42.2579476193852
 20
4.65420376283211
 40
0.144509854786711
 50
249.912086128089
 51
0.0608830927189388
  0
ARC
  8
0010010006
 10
42.1025939678692
 20
4.32571891767803
 40
0.219853275188714
 50
61.2579926403014
 51
138.378710319788
  0
ARC
  8
0010010006
 10
41.4551364320017
 20
4.28021652741463
 40
0.519687413378235
 50
21.6261042079107
 51
86.3738957920851
  0
ARC
  8
0010010006
 10
41.2983363950496
 20
4.91004624780188
 40
0.219853275188717
 50
329.621289680209
 51
46.7420073597025
  0
ARC
  8
0010010006
 10
41.562737129081
 20
5.15930374995357
 40
0.14450985478671
 50
116.434612197442
 51
218.087913871894
  0
LINE
  8
0010010006
 10
41.8138461719997
 20
6.43975576329456
 11
41.8382167497069
 21
6.40887159155822
  0
LINE
  8
0010010006
 10
41.8382167497069
 20
6.40887159155822
 11
42.2200918858368
 21
5.88326555831149
  0
ARC
  8
0010010006
 10
42.4482688353065
 20
5.64714601195735
 40
0.328355235133835
 50
134.019951904852
 51
155.914114170738
  0
LINE
  8
0010010006
 10
42.1485019350275
 20
5.7811496161511
 11
41.5507416139348
 21
5.95807295812568
  0
ARC
  8
0010010006
 10
41.5455296752288
 20
5.94046374562734
 40
0.0183643314576488
 50
73.5124076303345
 51
250.487532879385
  0
LINE
  8
0010010006
 10
41.539395768832
 20
5.92315409912025
 11
42.1269869763306
 21
5.71493338196654
  0
ARC
  8
0010010006
 10
42.4482688353065
 20
5.64714601195735
 40
0.328355235133834
 50
168.085885829259
 51
189.980048095157
  0
LINE
  8
0010010006
 10
42.1248822183359
 20
5.59024033206408
 11
41.4899141666369
 21
5.38392670558845
  0
ARC
  8
0010010006
 10
41.4451121488614
 20
5.521316215136
 40
0.144509854786711
 50
177.912086128089
 51
288.060883092719
  0
ARC
  8
0010010006
 10
41.0846975779168
 20
5.56755891819323
 40
0.219853275188714
 50
349.257992640301
 51
66.3787103197878
  0
ARC
  8
0010010006
 10
40.8413468514306
 20
6.16926661482833
 40
0.519687413378235
 50
309.626104207911
 51
14.3738957920851
  0
ARC
  8
0010010006
 10
41.3918966350244
 20
6.51302039888906
 40
0.219853275188717
 50
257.621289680209
 51
334.742007359703
  0
ARC
  8
0010010006
 10
41.7106589268221
 20
6.33858516201564
 40
0.14450985478671
 50
44.4346121974424
 51
146.087913871894
  0
LINE
  8
0010010006
 10
42.9841964495104
 20
6.46272617239313
 11
43.0060381196164
 21
6.49544770305115
  0
ARC
  8
0010010006
 10
42.87793254765
 20
6.5623211698495
 40
0.14450985478671
 50
332.434612197442
 51
74.0879138718942
  0
ARC
  8
0010010006
 10
42.9453273510185
 20
6.91938557722461
 40
0.219853275188717
 50
185.621289680209
 51
262.742007359703
  0
ARC
  8
0010010006
 10
42.4482688353065
 20
7.33676377530094
 40
0.519687413378235
 50
237.626104207911
 51
302.373895792085
  0
ARC
  8
0010010006
 10
41.9512103195945
 20
6.91938557722461
 40
0.219853275188714
 50
277.257992640301
 51
354.378710319788
  0
ARC
  8
0010010006
 10
42.0186051229631
 20
6.56232116984949
 40
0.144509854786711
 50
105.912086128089
 51
216.060883092719
  0
LINE
  8
0010010006
 10
41.9017845195122
 20
6.47725622560186
 11
42.2942163572325
 21
5.93712013914638
  0
ARC
  8
0010010006
 10
42.4482688353065
 20
5.64714601195735
 40
0.328355235133834
 50
96.0858858292586
 51
117.980048095157
  0
LINE
  8
0010010006
 10
42.4134569008683
 20
5.97365066684066
 11
42.4299109018826
 21
6.59682685383141
  0
ARC
  8
0010010006
 10
42.4482688353065
 20
6.59634213711968
 40
0.0183643314576488
 50
1.51240763033451
 51
178.487532879385
  0
LINE
  8
0010010006
 10
42.4666267692337
 20
6.59682683477034
 11
42.4830807697447
 21
5.97365066684066
  0
ARC
  8
0010010006
 10
42.4482688353065
 20
5.64714601195735
 40
0.328355235133835
 50
62.0199519048524
 51
83.9141141707378
  0
LINE
  8
0010010006
 10
42.6023213133805
 20
5.93712013914643
 11
42.9841964495104
 21
6.46272617239313
  0
LINE
  8
0010010004
 10
45.5873922876204
 20
6.82258646884531
 11
47.9543628542145
 21
6.82258646884531
  0
ARC
  8
0010010006
 10
45.747328663682
 20
6.72355891852797
 40
0.188111935053475
 50
148.235517128684
 51
163.69732202032
  0
ARC
  8
0010010006
 10
45.0836815080983
 20
6.96482361040908
 40
0.518557060433705
 50
307.847099764812
 51
338.688969961194
  0
LINE
  8
0010010006
 10
45.4018455062299
 20
6.55534455695383
 11
45.4607868047408
 21
6.48949362514781
  0
ARC
  8
0010010006
 10
44.8847521751056
 20
6.86531334161902
 40
0.687790923048179
 50
319.932175363635
 51
326.878543395984
  0
LINE
  8
0010010006
 10
47.9703028592928
 20
6.42258646884534
 11
45.411106874858
 21
6.42258646884534
  0
LINE
  8
0010010006
 10
44.9643204367166
 20
6.1821404165322
 11
44.9834375048428
 21
6.12695475114238
  0
ARC
  8
0010010006
 10
44.6027786240246
 20
6.49640359984356
 40
0.530465489313301
 50
268.844756280152
 51
315.856196641478
  0
ARC
  8
0010010006
 10
44.4802270201551
 20
5.50085216284583
 40
0.478452877880694
 50
64.4693578380185
 51
76.4797956532093
  0
LINE
  8
0010010006
 10
44.9414897070211
 20
5.62795011742218
 11
44.8590917772143
 21
5.5500564103224
  0
ARC
  8
0010010006
 10
44.4370084162497
 20
5.27966970295963
 40
0.501261743125958
 50
355.104332126567
 51
32.6436347631005
  0
ARC
  8
0010010006
 10
45.1052150789807
 20
5.28146401751469
 40
0.174560239902303
 50
194.79392846841
 51
274.375617702893
  0
ARC
  8
0010010006
 10
44.7476702367518
 20
5.37045286290759
 40
0.454675119180558
 50
231.360061489976
 51
324.653231141061
  0
LINE
  8
0010010006
 10
44.4637600843855
 20
5.01531276465734
 11
44.4048208563917
 21
4.95913471372163
  0
ARC
  8
0010010006
 10
44.6795528785151
 20
5.68978040979498
 40
0.780590044242528
 50
212.889485932408
 51
249.393104529006
  0
LINE
  8
0010010006
 10
44.0240761768153
 20
5.26590411805496
 11
43.9566250851673
 21
5.20191836343448
  0
ARC
  8
0010010006
 10
44.2395164263069
 20
5.61270981884946
 40
0.498775631655865
 50
172.602877701121
 51
235.446777062735
  0
ARC
  8
0010010006
 10
44.4802270201551
 20
5.50085216284583
 40
0.478452877880694
 50
15.4052003141358
 51
45.5816543423964
  0
ARC
  8
0010010006
 10
44.8847521751056
 20
6.86531334161902
 40
0.687790923048179
 50
276.643234379405
 51
309.23595714941
  0
ARC
  8
0010010006
 10
40.7044319121798
 20
10.6385882732649
 40
1.03332185697767
 50
251.586665811309
 51
264.919988383638
  0
ARC
  8
0010010006
 10
40.6578306782806
 20
10.1221465487611
 40
0.514782777322388
 50
264.996665594766
 51
309.414318590001
  0
LINE
  8
0010010006
 10
40.9846784146661
 20
9.72443828282005
 11
40.9846262762042
 21
9.43270597410502
  0
ARC
  8
0010010006
 10
40.7716936725215
 20
10.2404461895896
 40
0.835334992263082
 50
273.375352661535
 51
284.768065086889
  0
ARC
  8
0010010012
 10
40.6125466819782
 20
12.4501290063851
 40
3.05069032342787
 50
266.979909679373
 51
273.915725978134
  0
ARC
  8
0010010006
 10
34.4513187259139
 20
7.80199967123287
 40
6.21058400151672
 50
14.9451714752078
 51
17.3898707646717
  0
LINE
  8
0010010006
 10
39.8546192130533
 20
4.66177751104919
 11
39.7972551613874
 21
4.72016023956657
  0
ARC
  8
0010010006
 10
39.5050130938203
 20
4.99454385480881
 40
0.400863810251453
 50
316.805204709328
 51
324.293866660637
  0
ARC
  8
0010010006
 10
39.5921064479615
 20
5.76379405571414
 40
1.03114688795113
 50
283.368607151096
 51
300.342725617914
  0
ARC
  8
0010010010
 10
41.5249591450346
 20
-1.06596449359941
 40
6.105368143036
 50
99.9877889797507
 51
103.371451942848
  0
ARC
  8
0010010006
 10
13.2194109020628
 20
3.98311586325202
 40
27.2636831997899
 50
1.60813224701701
 51
2.025802929625
  0
ARC
  8
0010010010
 10
32.0443994567629
 20
39.1357631030244
 40
35.4052656605546
 50
282.690207254115
 51
283.771033665641
  0
ARC
  8
0010010006
 10
39.2783189572091
 20
4.9019420177948
 40
0.624340432125363
 50
330.591847037714
 51
337.376797432082
  0
LINE
  8
0010010006
 10
39.4959577037066
 20
4.27719535910184
 11
39.4800450549
 21
4.31108877315883
  0
ARC
  8
0010010006
 10
39.2783189572091
 20
4.9019420177948
 40
0.624340432125363
 50
288.850668978802
 51
318.169250223153
  0
ARC
  8
0010010006
 10
32.0443994567629
 20
39.1357631030244
 40
35.4952656605546
 50
282.527357003635
 51
283.739467300224
  0
ARC
  8
0010010006
 10
13.2194109020628
 20
3.98311586325202
 40
27.2636831997899
 50
1.14012008492102
 51
1.41459102998101
  0
ARC
  8
0010010010
 10
37.5532461879233
 20
14.019491245438
 40
9.93410575595403
 50
281.27742611042
 51
287.120654791417
  0
ARC
  8
0010010006
 10
37.5532461879233
 20
14.019491245438
 40
10.024105755954
 50
280.70078097902
 51
286.972434649723
  0
ARC
  8
0010010006
 10
13.2194109020628
 20
3.98311586325202
 40
27.2636831997899
 50
0.61378548025084
 51
0.943354437483777
  0
ARC
  8
0010010010
 10
30.7859592952209
 20
44.3853875740681
 40
41.2654004127429
 50
281.845540083342
 51
283.589053454012
  0
ARC
  8
0010010006
 10
38.8224252463219
 20
3.64812970172616
 40
0.558129273671977
 50
38.9182758335261
 51
50.1019211690251
  0
ARC
  8
0010010006
 10
39.0637874217999
 20
4.70882984968729
 40
0.643174719966222
 50
280.448000145421
 51
303.046403843003
  0
ARC
  8
0010010006
 10
163.242633310166
 20
-737.216051586474
 40
751.413012585221
 50
99.670619387768
 51
99.728800983444
  0
ARC
  8
0010010010
 10
163.242633310166
 20
-737.216051586474
 40
751.503012585221
 50
99.6703501865547
 51
99.7327931981403
  0
LINE
  8
0030010003
 10
44.0415659249286
 20
5.85705386633462
 11
44.1129291319147
 21
5.89321036905064
  0
ARC
  8
0030010003
 10
44.9513314097667
 20
6.31799080586829
 40
1.01987062886884
 50
206.869266537375
 51
246.760632746468
  0
LINE
  8
0030010003
 10
44.5489176457033
 20
5.38086794192691
 11
44.5582917511394
 21
5.39853503414024
  0
ARC
  8
0030010003
 10
45.2505160952323
 20
6.46957412659456
 40
1.27526439616276
 50
206.869266537375
 51
237.124969487166
  0
LINE
  8
0030010003
 10
44.2861514478514
 20
6.45422324530687
 11
44.3453488839848
 21
6.40041187517722
  0
ARC
  8
0030010003
 10
45.0624247346178
 20
5.74857901669871
 40
1.04906338851144
 50
90.0750996256915
 51
137.728685616068
  0
LINE
  8
0030010003
 10
45.0610496901396
 20
6.79764150405006
 11
45.0623883360358
 21
6.77768635365813
  0
ARC
  8
0030010003
 10
45.2227841040125
 20
5.60280991006365
 40
1.18577462449577
 50
97.7740395782914
 51
137.728685616068
  0
LINE
  8
0030010003
 10
43.7158583925183
 20
6.54704091617865
 11
43.7840506211962
 21
6.58887176541629
  0
ARC
  8
0030010003
 10
44.3159125047076
 20
6.91512938590708
 40
0.703956006510553
 50
159.612497680973
 51
211.526012685916
  0
LINE
  8
0030010003
 10
43.6560537105614
 20
7.16036484600671
 11
43.6753480049219
 21
7.15509889831115
  0
ARC
  8
0030010003
 10
44.4805718692897
 20
7.016135632351
 40
0.81712683289299
 50
170.208501934494
 51
211.526012685916
  0
LINE
  8
0030010003
 10
38.8093610029499
 20
4.40943221564077
 11
38.7748149671543
 21
4.48158879129961
  0
ARC
  8
0030010003
 10
37.5628242548928
 20
7.0130832888028
 40
2.80666810960913
 50
295.58346351698
 51
312.404848021312
  0
LINE
  8
0030010003
 10
39.4700556486182
 20
4.92688312018237
 11
39.4555426263422
 21
4.94064437682612
  0
ARC
  8
0030010003
 10
37.9711586987998
 20
6.16019193622579
 40
1.94106741302445
 50
295.58346351698
 51
320.552078109428
  0
LINE
  8
0030010003
 10
38.1730224318844
 20
4.53521849489996
 11
38.2399573161227
 21
4.5790331188514
  0
ARC
  8
0030010003
 10
38.8334525254729
 20
4.96752664820571
 40
0.789340387875848
 50
168.880270496279
 51
213.208188105903
  0
LINE
  8
0030010003
 10
38.0589309678611
 20
5.11975872342859
 11
38.0788329577209
 21
5.11778114925289
  0
ARC
  8
0030010003
 10
39.0654323368693
 20
5.11937733587511
 40
0.986600670356346
 50
180.092696872618
 51
213.208188105903
  0
LINE
  8
0030010003
 10
38.5426412136905
 20
3.9166037401086
 11
38.6215757977505
 21
3.92961648152927
  0
ARC
  8
0030010003
 10
39.0865627452001
 20
4.00627179026633
 40
0.471263087517062
 50
189.361283474189
 51
257.489487036085
  0
LINE
  8
0030010003
 10
38.9819418421386
 20
3.5263597386738
 11
38.9844783257779
 21
3.54619824292053
  0
ARC
  8
0030010003
 10
39.0030488989939
 20
3.99250413571203
 40
0.466622016989352
 50
189.361283474189
 51
267.407413244701
  0
LINE
  8
0030010003
 10
35.4772462256975
 20
3.4758364267791
 11
35.5547162421723
 21
3.49579630021033
  0
ARC
  8
0030010003
 10
36.4698450597464
 20
3.73157597605423
 40
0.945014713269396
 50
194.447833134961
 51
234.015768050333
  0
LINE
  8
0030010003
 10
35.904286084482
 20
2.94974858786004
 11
35.9145897719508
 21
2.96689017543367
  0
ARC
  8
0030010003
 10
36.2647916977121
 20
3.67874470869308
 40
0.813264803959969
 50
194.447833134961
 51
243.686528887193
  0
LINE
  8
0030010003
 10
35.8290519418951
 20
4.07807471841213
 11
35.8889114463152
 21
4.02500081022197
  0
ARC
  8
0030010003
 10
36.5991053585401
 20
3.39531356406501
 40
1.02914773398767
 50
86.8292106011667
 51
138.438479032664
  0
LINE
  8
0030010003
 10
36.6560300632716
 20
4.422885769004
 11
36.6561464592816
 21
4.40288610770765
  0
ARC
  8
0030010003
 10
36.7351285219819
 20
3.27470981102394
 40
1.13093762985735
 50
94.0046642728228
 51
138.438479032664
  0
LINE
  8
0030010003
 10
35.1971189390233
 20
4.13973889560597
 11
35.2742187053883
 21
4.16108429385613
  0
ARC
  8
0030010003
 10
35.8597130585158
 20
4.32318089582969
 40
0.687518679478717
 50
133.5823269825
 51
195.474975659497
  0
LINE
  8
0030010003
 10
35.3857403357883
 20
4.82120879940778
 11
35.4005665276207
 21
4.80778553468765
  0
ARC
  8
0030010003
 10
35.9850909265082
 20
4.35789229185886
 40
0.737612840748944
 50
142.415456095283
 51
195.474975659497
  0
LINE
  8
0010010006
 10
47.9688481059458
 20
6.33258646884533
 11
45.3197906019739
 21
6.33258646884524
  0
LINE
  8
0010010006
 10
47.9606252042446
 20
5.93258646884533
 11
44.686437217225
 21
5.93258646884522
  0
LINE
  8
0010010006
 10
47.9583795673045
 20
5.84258646884533
 11
44.8150923967701
 21
5.84258646884521
  0
ENDSEC
  0
EOF
