  0
SECTION
  2
HEADER
  9
$ACADVER
  1
AC1006
  9
$ATTMODE
 70
     1
  9
$AUNITS
 70
     0
  9
$AUPREC
 70
     4
  9
$AXISMODE
 70
     0
  9
$AXISUNIT
 10
0
 20
0
  9
$BLIPMODE
 70
     1
  9
$CHAMFERA
 40
0
  9
$CHAMFERB
 40
0
  9
$CLAYER
  7
0
  9
$COORDS
 70
     1
  9
$DIMASZ
 40
0.190211303259031
  9
$DIMCEN
 40
0.0625
  9
$DIMDLI
 40
0.38
  9
$DIMEXE
 40
0.0625
  9
$DIMEXO
 40
0.0625
  9
$DIMLIM
 70
     0
  9
$DIMSCALE
 40
1
  9
$DIMSE1
 70
     0
  9
$DIMSE2
 70
     0
  9
$DIMTAD
 70
     0
  9
$DIMTIH
 70
     1
  9
$DIMTM
 40
0
  9
$DIMTOH
 70
     1
  9
$DIMTOL
 70
     0
  9
$DIMTP
 40
0
  9
$DIMTSZ
 40
0
  9
$DIMTXT
 40
0.25
  9
$DRAGMODE
 70
     2
  9
$ELEVATION
 40
0
  9
$FILLETRAD
 40
0
  9
$FILLMODE
 70
     1
  9
$GRIDMODE
 70
     1
  9
$GRIDUNIT
 10
1
 20
1
  9
$INSBASE
 10
0
 20
0
  9
$LIMCHECK
 70
     0
  9
$LTSCALE
 40
1
  9
$LUNITS
 70
     2
  9
$LUPREC
 70
     4
  9
$MENU
  1
acad
  9
$ORTHOMODE
 70
     0
  9
$OSMODE
 70
     0
  9
$QTEXTMODE
 70
     0
  9
$REGENMODE
 70
     1
  9
$SKETCHINC
 40
0.1
  9
$SNAPANG
 50
0
  9
$SNAPBASE
 10
0
 20
0
  9
$SNAPISOPAIR
 70
     0
  9
$SNAPMODE
 70
     0
  9
$SNAPSTYLE
 70
     0
  9
$SNAPUNIT
 10
0.25
 20
0.25
  9
$TEXTSIZE
 40
0.25
  9
$TEXTSTYLE
  8
STANDARD
  9
$THICKNESS
 40
0
  9
$TRACEWID
 40
0.05
  9
$EXTMAX
 10
24
 20
16.1277005641943
  9
$EXTMIN
 10
0
 20
0
  9
$LIMMAX
 10
24
 20
16.1277005641943
  9
$LIMMIN
 10
0
 20
0
  9
$VIEWCTR
 10
24
 20
14
  9
$VIEWDIR
 10
0
 20
0
 30
1
  9
$VIEWSIZE
 40
37.4176744186047
  0
ENDSEC
  0
SECTION
  2
TABLES
  0
TABLE
  2
LTYPE
 70
     9
  0
LTYPE
  2
CONTINUOUS
 70
    64
  3
Solid line
 72
    65
 73
     0
 40
0
  0
LTYPE
  2
HIDDEN
 70
    64
  3
_ _ _ _ _ _ _ _ _ _ _ _ _ _ _ _ _ _ _ _ 
 72
    65
 73
     2
 40
0.375
 49
0.25
 49
-0.125
  0
LTYPE
  2
DASHED
 70
    64
  3
__ __ __ __ __ __ __ __ __ __ __ __ __  
 72
    65
 73
     2
 40
0.75
 49
0.5
 49
-0.25
  0
LTYPE
  2
CENTER
 70
    64
  3
____ _ ____ _ ____ _ ____ _ ____ _ ____ 
 72
    65
 73
     4
 40
2
 49
1.25
 49
-0.25
 49
0.25
 49
-0.25
  0
LTYPE
  2
PHANTOM
 70
    64
  3
_____ _ _ _____ _ _ _____ _ _ _____ _ _ 
 72
    65
 73
     6
 40
2.5
 49
1.25
 49
-0.25
 49
0.25
 49
-0.25
 49
0.25
 49
-0.25
  0
LTYPE
  2
DOT
 70
    64
  3
........................................
 72
    65
 73
     2
 40
0.25
 49
0
 49
-0.25
  0
LTYPE
  2
DASHDOT
 70
    64
  3
__ . __ . __ . __ . __ . __ . __ . __ . 
 72
    65
 73
     4
 40
1
 49
0.5
 49
-0.25
 49
0
 49
-0.25
  0
LTYPE
  2
BORDER
 70
    64
  3
__ __ . __ __ . __ __ . __ __ . __ __ . 
 72
    65
 73
     6
 40
1.75
 49
0.5
 49
-0.25
 49
0.5
 49
-0.25
 49
0
 49
-0.25
  0
LTYPE
  2
DIVIDE
 70
    64
  3
__ . . __ . . __ . . __ . . __ . . __ . 
 72
    65
 73
     6
 40
1.25
 49
0.5
 49
-0.25
 49
0
 49
-0.25
 49
0
 49
-0.25
  0
ENDTAB
  0
TABLE
  2
LAYER
 70
     7
  0
LAYER
  2
0
 70
     0
 62
     7
  6
CONTINUOUS
  0
LAYER
  2
0090010010
 70
    64
 62
    10
  6
CONTINUOUS
  0
LAYER
  2
0050010010
 70
    64
 62
    10
  6
CONTINUOUS
  0
LAYER
  2
0050010008
 70
    64
 62
     8
  6
CONTINUOUS
  0
LAYER
  2
0050010006
 70
    64
 62
     6
  6
CONTINUOUS
  0
LAYER
  2
0050010004
 70
    64
 62
     4
  6
CONTINUOUS
  0
LAYER
  2
0030010003
 70
    64
 62
     3
  6
CONTINUOUS
  0
ENDTAB
  0
TABLE
  2
STYLE
 70
1
  0
STYLE
  2
STANDARD
 70
     0
 40
0
 41
1
 50
0
 71
     0
 42
0.2
  3
txt
  4

  0
ENDTAB
  0
TABLE
  2
VIEW
 70
     1
  0
ENDTAB
  0
ENDSEC
  0
SECTION
  2
BLOCKS
  0
ENDSEC
  0
SECTION
  2
ENTITIES
  0
LINE
  8
0090010010
 10
48
 20
0
 11
0
 21
0
  0
LINE
  8
0050010010
 10
0
 20
0
 11
0.981666655987048
 21
26.5049997116503
  0
ARC
  8
0090010010
 10
0
 20
122.875
 40
96.3750000000001
 50
270.583619495961
 51
277.152668749995
  0
ARC
  8
0090010010
 10
24
 20
-68.3750000000001
 40
96.3750000000001
 50
82.8473312500053
 51
97.1526687499947
  0
ARC
  8
0090010010
 10
48
 20
122.875
 40
96.3750000000001
 50
262.847331250005
 51
269.416380504039
  0
LINE
  8
0050010010
 10
47.018333344013
 20
26.5049997116503
 11
48
 21
0
  0
ARC
  8
0050010008
 10
2.40689120960916
 20
17.1068594672155
 40
0.206079040959636
 50
11.6342528144893
 51
68.3696317910576
  0
ARC
  8
0050010008
 10
2.37070968974127
 20
17.0448307862288
 40
0.27728606394572
 50
66.1439052119275
 51
146.259737933169
  0
ARC
  8
0050010008
 10
2.81491025519247
 20
16.6930844644145
 40
0.843280795923029
 50
143.147889666968
 51
192.461757068818
  0
ARC
  8
0050010010
 10
2.96409849275462
 20
16.7151283540138
 40
0.993768268592752
 50
191.846653367215
 51
234.331428116277
  0
ARC
  8
0050010010
 10
3.08777566390642
 20
17.01178712601
 40
1.30890020453621
 50
237.506872413795
 51
281.039861888015
  0
ARC
  8
0050010010
 10
3.11356884904967
 20
16.7272941154021
 40
1.02514765130137
 50
282.669967396469
 51
317.42045046528
  0
LINE
  8
0050010008
 10
3.83127848028896
 20
16.0426135636497
 11
3.86842467249226
 21
16.0336656898142
  0
ARC
  8
0050010010
 10
3.62147363141389
 20
16.4414088540211
 40
0.45061708604306
 50
230.108518304398
 51
297.748705578992
  0
ARC
  8
0050010008
 10
3.05628372698236
 20
16.2099355638453
 40
0.298897457516821
 50
337.524003891294
 51
11.6016708658238
  0
ARC
  8
0050010010
 10
3.52935442174459
 20
16.316877445239
 40
0.186263377036065
 50
142.409940520147
 51
194.561977593299
  0
ARC
  8
0050010010
 10
3.66420506307839
 20
17.0532878661714
 40
0.683842396141705
 50
176.58648998098
 51
245.604914872844
  0
ARC
  8
0050010008
 10
2.19578549306467
 20
17.045407484414
 40
0.787291770448617
 50
3.53897528253707
 51
43.287759297118
  0
ARC
  8
0050010010
 10
2.93478266849358
 20
17.4246802055282
 40
0.230870697220542
 50
65.7395907885521
 51
135.942101355954
  0
ARC
  8
0050010008
 10
3.0673017414637
 20
18.0612687307032
 40
0.427767419538858
 50
264.949511316636
 51
307.10107042785
  0
ARC
  8
0050010010
 10
3.59035351565159
 20
17.2866261821764
 40
0.508060346039738
 50
63.5027683904085
 51
121.440747864663
  0
ARC
  8
0050010010
 10
4.77732411720655
 20
17.029773696098
 40
1.19518435133125
 50
100.847081103367
 51
143.46294438093
  0
ARC
  8
0050010010
 10
4.52101131624839
 20
18.5978361508244
 40
0.395480472681958
 50
274.552886933385
 51
338.3337644334
  0
ARC
  8
0050010010
 10
3.28340050595744
 20
17.3279572894221
 40
1.95948657455926
 50
348.192554369148
 51
34.9983037097321
  0
ARC
  8
0050010010
 10
4.69766449236384
 20
16.5223926313639
 40
0.646129495654539
 50
348.593185165794
 51
38.7705286870463
  0
ARC
  8
0050010008
 10
5.63838483670451
 20
16.3634472043472
 40
0.308928691374068
 50
174.211433915379
 51
226.394570556289
  0
ARC
  8
0050010010
 10
4.80979523334863
 20
16.5694067186649
 40
0.750650489333982
 50
254.241836427544
 51
325.083692249717
  0
ARC
  8
0050010010
 10
4.05511269666928
 20
15.9218554483872
 40
0.555890034911342
 50
324.069855476693
 51
352.257812206396
  0
ARC
  8
0050010010
 10
4.6627788905782
 20
15.4792505987287
 40
0.195885594093426
 50
143.53920728971
 51
199.120753172415
  0
ARC
  8
0050010010
 10
4.58094200859992
 20
15.8856650696255
 40
0.481770957798605
 50
170.155170364341
 51
257.625749745245
  0
ARC
  8
0050010010
 10
2.25454767566231
 20
18.395939892774
 40
3.05345112843316
 50
293.754537801827
 51
307.332129320327
  0
ARC
  8
0050010010
 10
3.34663396931733
 20
17.9123627793417
 40
2.31529483356423
 50
273.414642451372
 51
287.402996039887
  0
ARC
  8
0050010008
 10
4.58094200859992
 20
15.8856650696255
 40
0.571770957798606
 50
198.625600818093
 51
206.899804259413
  0
ARC
  8
0050010008
 10
3.17910697025639
 20
17.9856910371164
 40
2.52171920276357
 50
262.028792792981
 51
290.713746343116
  0
ARC
  8
0050010008
 10
2.95541642685154
 20
16.7891711472194
 40
1.30692312015707
 50
245.990042371866
 51
264.467100788761
  0
ARC
  8
0050010008
 10
2.81609527544346
 20
16.4648161331182
 40
0.953955504963107
 50
228.616216192887
 51
245.707019895258
  0
ARC
  8
0050010010
 10
2.92889722531
 20
16.6597025117266
 40
1.17558309802523
 50
214.772168131719
 51
230.771156131766
  0
ARC
  8
0050010010
 10
2.92608573349396
 20
16.6794935750299
 40
1.18469543521284
 50
169.138588557279
 51
215.635985605688
  0
ARC
  8
0050010008
 10
2.50686353172896
 20
16.8138293412012
 40
0.749541262829157
 50
114.891545693057
 51
173.188257155104
  0
ARC
  8
0050010008
 10
2.40736160089311
 20
17.0152320396472
 40
0.524995766863567
 50
64.5246352924083
 51
114.29259599596
  0
ARC
  8
0050010010
 10
5.86312979083282
 20
17.5775918383063
 40
0.326644361264122
 50
263.059341627961
 51
323.559611861397
  0
ARC
  8
0050010010
 10
5.80825842893788
 20
17.1514223139323
 40
0.103075659272855
 50
81.407993401231
 51
170.958395783529
  0
ARC
  8
0050010010
 10
6.1827511176013
 20
17.5010523688698
 40
0.581400427107826
 50
160.015689171859
 51
214.994461790102
  0
ARC
  8
0050010010
 10
6.18362026957711
 20
18.5812260738714
 40
1.03753985329113
 50
175.502236297457
 51
238.165969987099
  0
ARC
  8
0050010010
 10
5.19291292685647
 20
19.0188479720205
 40
0.358920402992535
 50
263.016741701441
 51
322.448812730351
  0
ARC
  8
0050010010
 10
5.73214968069219
 20
18.5702568183553
 40
0.343058308186568
 50
71.7584706031059
 51
137.934985930048
  0
ARC
  8
0050010010
 10
6.84510050248082
 20
18.5642342300305
 40
1.05890522501476
 50
119.271119971992
 51
161.736903819194
  0
ARC
  8
0050010008
 10
6.17063934021658
 20
19.768291020678
 40
0.321185739444525
 50
299.204800117838
 51
1.32354929273063
  0
ARC
  8
0050010010
 10
7.2291685914177
 20
20.0893655975267
 40
0.801362440975851
 50
203.041833242356
 51
234.653783939483
  0
ARC
  8
0050010010
 10
6.20942223686101
 20
18.8852177702252
 40
0.782526448724271
 50
356.544370428873
 51
44.7076845118513
  0
ARC
  8
0050010010
 10
6.68177007525893
 20
17.9720571060946
 40
0.919388272938777
 50
35.3614751820377
 51
70.377138559234
  0
ARC
  8
0050010010
 10
7.61576941353146
 20
18.6615234692797
 40
0.242297940111202
 50
220.508129608431
 51
272.770131762885
  0
ARC
  8
0050010010
 10
6.49293614668085
 20
18.6212505538229
 40
1.15234035839709
 50
290.548550553331
 51
349.917184217818
  0
ARC
  8
0050010010
 10
5.82286212374747
 20
17.5681190280514
 40
1.07485847677298
 50
327.011519256804
 51
358.619720417941
  0
ARC
  8
0050010010
 10
6.33136905286302
 20
16.7805393642056
 40
0.442090936351046
 50
27.239667561853
 51
72.5620937805273
  0
ARC
  8
0050010010
 10
6.54010087450617
 20
17.4114638847393
 40
0.22261662884427
 50
185.773468853012
 51
249.969825962363
  0
ARC
  8
0050010010
 10
4.03314603333781
 20
18.3289568914314
 40
2.47118383860565
 50
320.058591665877
 51
337.645325591095
  0
ARC
  8
0050010010
 10
7.08491651888909
 20
11.4879707605382
 40
5.38037428830222
 50
99.9839838546868
 51
102.419125477275
  0
ARC
  8
0050010008
 10
5.99365348023055
 20
17.5216291243886
 40
0.751654074152706
 50
282.169500165383
 51
295.313334037283
  0
ARC
  8
0050010008
 10
6.45546616777542
 20
16.9383435903249
 40
0.170218232542139
 50
249.195995223574
 51
214.411969232541
  0
ARC
  8
0050010010
 10
7.03028677689824
 20
15.9187764447156
 40
1.06955431020621
 50
126.43885677234
 51
130.518115211387
  0
ARC
  8
0050010010
 10
6.24762192993671
 20
16.390814335858
 40
0.352155595205284
 50
55.9722601223895
 51
75.5646803686749
  0
ARC
  8
0050010008
 10
6.59420740523491
 20
16.5335475908378
 40
0.211172559506034
 50
169.736875863626
 51
135.076674412095
  0
ARC
  8
0050010010
 10
6.16704234859853
 20
16.2862894821103
 40
0.359557778745885
 50
52.4022451888666
 51
91.1159375818153
  0
ARC
  8
0050010010
 10
5.98302133611667
 20
16.487169639965
 40
0.237681452072079
 50
10.1538785115999
 51
41.8605041995774
  0
ARC
  8
0050010008
 10
6.15507056500254
 20
16.3539574203325
 40
0.18573528227196
 50
107.431939951067
 51
70.5294805856494
  0
ARC
  8
0050010008
 10
5.94341455624586
 20
16.3748910272266
 40
0.220819827715103
 50
45.0470990659886
 51
132.667807969131
  0
ARC
  8
0050010010
 10
7.08461223836897
 20
14.6176599072725
 40
2.31326034195605
 50
123.919337327118
 51
134.994570942129
  0
ARC
  8
0050010008
 10
5.63838483670451
 20
16.3634472043472
 40
0.218928691374069
 50
175.230770737763
 51
210.134838558516
  0
ARC
  8
0050010008
 10
4.69766449236384
 20
16.5223926313639
 40
0.73612949565454
 50
348.977561260016
 51
354.052613528122
  0
ARC
  8
0050010010
 10
3.75063182390142
 20
18.420106595045
 40
2.59159054891918
 50
310.386603717634
 51
336.424215582115
  0
ARC
  8
0050010010
 10
5.82606218167196
 20
19.9225160326409
 40
0.536583100142677
 50
305.521700240967
 51
344.302413944327
  0
ARC
  8
0050010008
 10
5.94589229686904
 20
19.4295164358133
 40
0.200011243082822
 50
16.3419427792632
 51
78.2152019952096
  0
ARC
  8
0050010010
 10
6.00721192883172
 20
19.7467924807037
 40
0.123193296191765
 50
191.692338821816
 51
260.435243737016
  0
ARC
  8
0050010010
 10
5.58338041468439
 20
20.3140194484049
 40
0.6652963974798
 50
237.239334965529
 51
297.111813110205
  0
ARC
  8
0050010010
 10
4.96693173296329
 20
19.9279184382045
 40
0.309543910217525
 50
325.938030756273
 51
21.0714178596147
  0
ARC
  8
0050010010
 10
5.86396893807111
 20
20.1053826180282
 40
0.611780929057489
 50
145.097471491579
 51
186.209561102781
  0
ARC
  8
0050010010
 10
5.9339012010434
 20
20.9169231659492
 40
0.734697318235475
 50
160.351802545874
 51
218.912797317601
  0
ARC
  8
0050010010
 10
4.68765947494058
 20
21.1593107725087
 40
0.554341708407891
 50
0.48061058002088
 51
30.6094029756983
  0
ARC
  8
0050010010
 10
5.2965056557025
 20
20.1226792247025
 40
1.32545667693218
 50
50.3937756377718
 51
95.7044860915574
  0
ARC
  8
0050010010
 10
6.44364211549362
 20
20.89398107604
 40
0.392093542066887
 50
76.5890523642846
 51
140.407879287052
  0
ARC
  8
0050010010
 10
6.54722642479653
 20
21.4661427448542
 40
0.19117851359279
 50
266.207680058094
 51
329.35565762855
  0
ARC
  8
0050010010
 10
5.70407937846738
 20
20.8228493989623
 40
1.14597670074669
 50
336.851808486559
 51
28.4451376865927
  0
ARC
  8
0050010008
 10
6.66429253304032
 20
20.1768951582134
 40
0.216671984635581
 50
1.61542829871492
 51
64.4347608717111
  0
ARC
  8
0050010008
 10
7.05292887238646
 20
20.1644492051759
 40
0.173048024691516
 50
173.844947237728
 51
218.781860016206
  0
ARC
  8
0050010010
 10
6.59311581567877
 20
20.279031802894
 40
0.394064732725124
 50
243.640719349236
 51
325.54026401921
  0
ARC
  8
0050010008
 10
7.05429553750072
 20
19.7804544967386
 40
0.652567813641329
 50
167.118138703696
 51
180.599116980342
  0
ARC
  8
0050010008
 10
6.17063934021658
 20
19.768291020678
 40
0.231185739444523
 50
345.519956944772
 51
1.3235492927304
  0
ARC
  8
0050010010
 10
6.24786498692781
 20
19.6503073872904
 40
0.158485602591407
 50
22.3152292357894
 51
53.2763457824237
  0
ARC
  8
0050010010
 10
7.46528354082706
 20
19.9736526932267
 40
0.344831564324453
 50
82.3378580808953
 51
169.964998552028
  0
ARC
  8
0050010008
 10
47.6219504941714
 20
11.0673877956345
 40
41.4769761322964
 50
167.515434961208
 51
168.538701945229
  0
ARC
  8
0050010008
 10
6.20942223686101
 20
18.8852177702252
 40
0.872526448724271
 50
16.4400436721093
 51
29.0663702479041
  0
ARC
  8
0050010010
 10
-22.7984786074525
 20
26.2239038816935
 40
30.6757615576611
 50
346.633200590698
 51
347.949643557858
  0
ARC
  8
0050010008
 10
8.19563888366924
 20
19.6417569367425
 40
1.01010631713489
 50
157.232039927403
 51
169.854504601307
  0
ARC
  8
0050010008
 10
7.51856489698671
 20
19.9186700388511
 40
0.278705103529761
 50
114.08365391562
 51
155.85623946372
  0
ARC
  8
0050010008
 10
7.50872525671807
 20
19.9687724168439
 40
0.229235587074614
 50
16.5172654896597
 51
116.949736284721
  0
ARC
  8
0050010010
 10
7.47876905077465
 20
20.0657603171006
 40
0.251750615514132
 50
352.739772715907
 51
82.5846271157283
  0
ARC
  8
0050010010
 10
4.2217896495596
 20
21.1728704600261
 40
0.224560765518115
 50
134.994404447646
 51
204.79810659039
  0
ARC
  8
0050010010
 10
4.13753477894804
 20
21.1220634893563
 40
0.127223212616129
 50
199.935731068146
 51
316.018638496586
  0
ARC
  8
0050010008
 10
4.02884321930458
 20
21.1145638722329
 40
0.215942464885168
 50
210.401940814059
 51
338.013218573936
  0
ARC
  8
0050010008
 10
4.22142255124346
 20
21.1972657474101
 40
0.424698254030218
 50
137.493800480146
 51
206.874910511708
  0
LINE
  8
0050010008
 10
3.90833320093891
 20
21.4842216076085
 11
4.32875637522297
 21
21.4842216076085
  0
LINE
  8
0050010008
 10
4.32875637522297
 20
21.4842216076085
 11
4.32875637522297
 21
21.3993604167974
  0
ARC
  8
0050010008
 10
4.26252880313252
 20
21.1038755973547
 40
0.302815735763637
 50
77.3669674416388
 51
131.212713561568
  0
ARC
  8
0050010006
 10
3.35977308770128
 20
24.4892480647759
 40
0.799982364072585
 50
169.054758518777
 51
218.447452056176
  0
ARC
  8
0050010008
 10
2.83306058135455
 20
24.0413411337594
 40
0.653218938042774
 50
61.7508572887921
 51
113.332440165439
  0
ARC
  8
0050010004
 10
3.81277678104061
 20
23.8167223996147
 40
1.04388174686747
 50
94.9340535719725
 51
129.967706735415
  0
LINE
  8
0050010008
 10
3.72299346943386
 20
24.8567358891426
 11
4.03702596413111
 21
22.2642216076085
  0
LINE
  8
0050010008
 10
4.03702596413111
 20
22.2642216076085
 11
2.90198580396036
 21
22.2642216076085
  0
LINE
  8
0050010008
 10
2.90198580396036
 20
22.2642216076085
 11
2.60551649145346
 21
23.2555186202191
  0
ARC
  8
0050010006
 10
5.02143288975422
 20
23.2156567192177
 40
2.41624523066885
 50
161.262809786793
 51
179.054722477954
  0
ARC
  8
0050010008
 10
7.61576941353146
 20
18.6615234692797
 40
0.152297940111204
 50
221.819324408344
 51
320.940465259411
  0
ARC
  8
0050010008
 10
6.49293614668085
 20
18.6212505538229
 40
1.24234035839709
 50
293.303205935045
 51
357.430564612684
  0
ARC
  8
0050010008
 10
5.82286212374747
 20
17.5681190280514
 40
1.16485847677298
 50
319.525589897442
 51
355.674134247539
  0
ARC
  8
0050010008
 10
6.59420740523491
 20
16.5335475908378
 40
0.301172559506035
 50
235.207304281901
 51
67.6020771833362
  0
ARC
  8
0050010008
 10
6.15507056500254
 20
16.3539574203325
 40
0.275735282271958
 50
146.972142493761
 51
345.778683219859
  0
ARC
  8
0050010008
 10
5.94341455624586
 20
16.3748910272266
 40
0.130819827715104
 50
98.5822048637811
 51
135.322874826291
  0
ARC
  8
0050010008
 10
7.08461223836897
 20
14.6176599072725
 40
2.22326034195605
 50
123.72036841558
 51
132.089738520718
  0
ARC
  8
0050010008
 10
4.80979523334863
 20
16.5694067186649
 40
0.840650489333983
 50
290.832104921959
 51
338.955296839
  0
LINE
  8
0050010008
 10
5.10875637522297
 20
15.7837124518749
 11
5.10875637522297
 21
14.5867441676736
  0
LINE
  8
0050010008
 10
5.10875637522297
 20
14.5867441676736
 11
4.32875637522297
 21
14.5867441676736
  0
LINE
  8
0050010008
 10
4.32875637522297
 20
14.5867441676736
 11
4.32875637522297
 21
15.372513596374
  0
ARC
  8
0050010008
 10
4.58094200859992
 20
15.8856650696255
 40
0.571770957798606
 50
216.084559076915
 51
243.82842974618
  0
ARC
  8
0050010008
 10
3.17910697025639
 20
17.9856910371164
 40
2.61171920276356
 50
262.070479603456
 51
291.089384506913
  0
ARC
  8
0050010008
 10
2.95541642685154
 20
16.7891711472194
 40
1.39692312015707
 50
245.980978863564
 51
264.387923792197
  0
ARC
  8
0050010008
 10
2.81609527544346
 20
16.4648161331182
 40
1.04395550496311
 50
228.709495756594
 51
245.719291533869
  0
ARC
  8
0050010008
 10
2.92889722531
 20
16.6597025117266
 40
1.26558309802523
 50
214.802887381508
 51
230.694839438565
  0
ARC
  8
0050010008
 10
2.92608573349396
 20
16.6794935750299
 40
1.27469543521283
 50
169.280167696233
 51
215.605494299248
  0
ARC
  8
0050010008
 10
2.50686353172896
 20
16.8138293412012
 40
0.839541262829157
 50
114.859801132795
 51
172.968932629811
  0
ARC
  8
0050010008
 10
2.40736160089311
 20
17.0152320396472
 40
0.614995766863568
 50
79.2731286317954
 51
114.336913383642
  0
ARC
  8
0050010008
 10
5.01972326937978
 20
17.4150543725499
 40
2.50624523066885
 50
156.490379560922
 51
175.321360703261
  0
ARC
  8
0050010008
 10
3.17499978291988
 20
18.9484972532518
 40
0.70034203922929
 50
186.755330811194
 51
229.645050850669
  0
ARC
  8
0050010008
 10
3.17499978291988
 20
18.7837350779148
 40
0.700342039046728
 50
130.34494271915
 51
173.244669325581
  0
ARC
  8
0050010008
 10
5.02143288975422
 20
20.3135331331509
 40
2.50624523066885
 50
156.490379560922
 51
203.416811075114
  0
ARC
  8
0050010008
 10
3.17670940329431
 20
21.8469760138528
 40
0.70034203922929
 50
186.755330811194
 51
229.645050850669
  0
ARC
  8
0050010008
 10
3.17670940329431
 20
21.6822138385158
 40
0.700342039046728
 50
130.354949149331
 51
173.244669325581
  0
ARC
  8
0050010008
 10
5.02143288975422
 20
23.2156567192177
 40
2.50624523066885
 50
162.353683703228
 51
203.509620439078
  0
ARC
  8
0050010008
 10
3.35977308770128
 20
24.4892480647759
 40
0.889982364072585
 50
166.053520364213
 51
215.265635151291
  0
ARC
  8
0050010008
 10
2.83306058135455
 20
24.0413411337594
 40
0.743218938042776
 50
66.4032150976101
 51
116.967125096547
  0
ARC
  8
0050010008
 10
3.81277678104061
 20
23.8167223996147
 40
1.13388174686747
 50
55.7401736973221
 51
126.988635091625
  0
ARC
  8
0050010008
 10
5.02839553364584
 20
24.3143826547558
 40
0.725552896016904
 50
108.402690914319
 51
142.718990697412
  0
ARC
  8
0050010008
 10
4.57029072093058
 20
24.3143826547558
 40
0.725552896016905
 50
37.2810093025873
 51
71.597309085681
  0
ARC
  8
0050010008
 10
5.78590947353581
 20
23.8167223996147
 40
1.13388174686747
 50
53.0113649083747
 51
124.259826302678
  0
ARC
  8
0050010008
 10
6.76562567322188
 20
24.0413411337594
 40
0.743218938042773
 50
63.4404249074261
 51
113.59678490239
  0
ARC
  8
0050010008
 10
6.23478759279333
 20
24.4892480647759
 40
0.889982364072585
 50
324.734364848709
 51
14.104447138224
  0
ARC
  8
0050010008
 10
4.57312779074039
 20
23.2156567192177
 40
2.50624523066885
 50
336.490379560922
 51
17.646316296772
  0
ARC
  8
0050010008
 10
6.4178512772003
 20
21.6822138385158
 40
0.70034203922929
 50
6.75533078239142
 51
49.6450508506687
  0
ARC
  8
0050010008
 10
6.4178512772003
 20
21.8469760138528
 40
0.700342039229293
 50
310.354949149331
 51
353.244669352194
  0
ARC
  8
0050010008
 10
4.57312779074039
 20
20.3135331331509
 40
2.50624523066885
 50
356.610405580831
 51
23.5096204390779
  0
ARC
  8
0050010008
 10
7.46528354082706
 20
19.9736526932267
 40
0.434831564324455
 50
82.3629250942917
 51
153.841433494192
  0
ARC
  8
0050010008
 10
7.47876905077465
 20
20.0657603171006
 40
0.341750615514132
 50
313.793240968319
 51
82.5515348340609
  0
ARC
  8
0050010008
 10
11.0369014281084
 20
21.2099659122737
 40
3.60107722284512
 50
199.492302518154
 51
202.721008785607
  0
ARC
  8
0050010008
 10
7.50872525671807
 20
19.9687724168439
 40
0.139235587074613
 50
16.5172654896597
 51
117.85126544496
  0
ARC
  8
0050010008
 10
7.51856489698671
 20
19.9186700388511
 40
0.188705103529762
 50
113.381342255727
 51
155.552421564549
  0
ARC
  8
0050010008
 10
8.19563888366924
 20
19.6417569367425
 40
0.920106317134888
 50
157.304312682405
 51
169.945434049199
  0
ARC
  8
0050010008
 10
-22.7984786074525
 20
26.2239038816935
 40
30.7657615576611
 50
346.225440439542
 51
347.952497042546
  0
ARC
  8
0050010008
 10
6.68177007525893
 20
17.9720571060946
 40
1.00938827293878
 50
35.6229328519638
 51
66.6113703444051
  0
ARC
  8
0050010008
 10
2.32310989706203
 20
17.074152032791
 40
0.20512354274692
 50
302.723820678129
 51
15.2540903825876
  0
ARC
  8
0050010008
 10
1.68208607747471
 20
17.5802639794026
 40
1.01290519606663
 50
306.86003701655
 51
317.930416717353
  0
ARC
  8
0050010008
 10
2.47175497546288
 20
17.174462703549
 40
0.443701630462007
 50
245.774269672914
 51
340.793547351798
  0
ARC
  8
0050010008
 10
3.66420506307839
 20
17.0532878661714
 40
0.773842396141707
 50
181.835856834625
 51
238.799272196122
  0
ARC
  8
0050010008
 10
3.52935442174459
 20
16.316877445239
 40
0.276263377036065
 50
164.355705204329
 51
193.99000670064
  0
ARC
  8
0050010008
 10
3.05628372698236
 20
16.2099355638453
 40
0.208897457516821
 50
321.446809359955
 51
11.082427067612
  0
ARC
  8
0050010008
 10
3.62147363141389
 20
16.4414088540211
 40
0.540617086043059
 50
221.989061352524
 51
263.261588038939
  0
ARC
  8
0050010008
 10
3.11356884904967
 20
16.7272941154021
 40
0.935147651301367
 50
282.74801030295
 51
298.378533908204
  0
ARC
  8
0050010008
 10
3.08777566390642
 20
17.01178712601
 40
1.21890020453621
 50
237.624833748834
 51
280.979365508685
  0
ARC
  8
0050010008
 10
2.96409849275462
 20
16.7151283540138
 40
0.903768268592751
 50
191.815888779355
 51
234.17420877437
  0
ARC
  8
0050010008
 10
2.81491025519247
 20
16.6930844644145
 40
0.753280795923029
 50
142.948949975925
 51
192.49833824437
  0
ARC
  8
0050010008
 10
2.37070968974127
 20
17.0448307862288
 40
0.18728606394572
 50
65.5847134087554
 51
146.955517530726
  0
ARC
  8
0050010008
 10
2.40689120960916
 20
17.1068594672155
 40
0.116079040959636
 50
10.5536498755874
 51
69.1935531280323
  0
ARC
  8
0050010008
 10
3.0673017414637
 20
18.0612687307032
 40
0.337767419538859
 50
267.168395920025
 51
307.780729385521
  0
ARC
  8
0050010008
 10
3.59035351565159
 20
17.2866261821764
 40
0.598060346039736
 50
81.7973837307689
 51
121.909423401833
  0
LINE
  8
0050010008
 10
3.67568125474743
 20
17.8785682016732
 11
2.83124468675781
 21
19.2880661583701
  0
ARC
  8
0050010006
 10
3.17499978291988
 20
18.7837350779148
 40
0.610342039229293
 50
124.278577523107
 51
172.242809543665
  0
ARC
  8
0050010006
 10
3.17499978291988
 20
18.9484972532518
 40
0.610342039229293
 50
187.757190456335
 51
235.923293855624
  0
ARC
  8
0050010006
 10
5.01972326937978
 20
17.4150543725499
 40
2.41624523066885
 50
154.823149226257
 51
175.710063197842
  0
ARC
  8
0050010008
 10
2.40736160089311
 20
17.0152320396472
 40
0.614995766863568
 50
66.418924590669
 51
70.7373966483129
  0
ARC
  8
0050010008
 10
2.93478266849358
 20
17.4246802055282
 40
0.32087069722054
 50
68.8386067355782
 51
151.279095467071
  0
ARC
  8
0050010008
 10
4.52101131624839
 20
18.5978361508244
 40
0.305480472681957
 50
273.701221306338
 51
18.4499662763557
  0
ARC
  8
0050010008
 10
3.28340050595744
 20
17.3279572894221
 40
2.04948657455926
 50
32.1425423597407
 51
41.8190111884612
  0
LINE
  8
0050010008
 10
5.01875637522297
 20
18.4183403534433
 11
5.01875637522297
 21
21.5742216076085
  0
LINE
  8
0050010008
 10
5.01875637522297
 20
21.5742216076085
 11
6.41875637522297
 21
21.5742216076085
  0
LINE
  8
0050010008
 10
6.41875637522297
 20
21.5742216076085
 11
6.41875637522297
 21
22.1742216076085
  0
LINE
  8
0050010008
 10
6.41875637522297
 20
22.1742216076085
 11
5.01875637522297
 21
22.1742216076085
  0
LINE
  8
0050010008
 10
5.01875637522297
 20
22.1742216076085
 11
5.01875637522297
 21
24.2581466812243
  0
LINE
  8
0050010008
 10
5.01875637522297
 20
24.2581466812243
 11
4.41875637522297
 21
24.2581466812243
  0
LINE
  8
0050010008
 10
4.41875637522296
 20
24.2581466812243
 11
4.41875637522297
 21
22.1742216076085
  0
LINE
  8
0050010008
 10
4.41875637522297
 20
22.1742216076085
 11
3.01875637522297
 21
22.1742216076085
  0
LINE
  8
0050010008
 10
3.01875637522297
 20
22.1742216076085
 11
3.01875637522297
 21
21.5742216076085
  0
LINE
  8
0050010008
 10
3.01875637522297
 20
21.5742216076085
 11
4.41875637522297
 21
21.5742216076085
  0
LINE
  8
0050010008
 10
4.41875637522297
 20
21.5742216076085
 11
4.41875637522297
 21
18.2639244127107
  0
ARC
  8
0050010008
 10
4.77732411720655
 20
17.029773696098
 40
1.28518435133125
 50
100.60823425143
 51
106.200591380043
  0
ARC
  8
0050010008
 10
4.05511269666928
 20
15.9218554483872
 40
0.645890034911342
 50
324.025896318243
 51
343.616282853817
  0
ARC
  8
0050010008
 10
4.6627788905782
 20
15.4792505987287
 40
0.105885594093427
 50
143.35631154867
 51
199.120753172415
  0
LINE
  8
0050010008
 10
4.56273496996045
 20
15.4445666977955
 11
4.58659968973671
 21
15.3139221039266
  0
ARC
  8
0050010008
 10
4.58094200859992
 20
15.8856650696255
 40
0.571770957798606
 50
253.521537791131
 51
270.566951742864
  0
LINE
  8
0050010008
 10
4.41875637522297
 20
15.337378786277
 11
4.41875637522297
 21
14.6767441676736
  0
LINE
  8
0050010008
 10
4.41875637522297
 20
14.6767441676736
 11
5.01875637522297
 21
14.6767441676736
  0
LINE
  8
0050010008
 10
5.01875637522297
 20
14.6767441676736
 11
5.01875637522297
 21
15.7551411069607
  0
ARC
  8
0050010008
 10
4.80979523334863
 20
16.5694067186649
 40
0.840650489333983
 50
260.757521084372
 51
284.392954000153
  0
ARC
  8
0050010008
 10
6.54722642479653
 20
21.4661427448542
 40
0.101178513592789
 50
269.608112342215
 51
329.35565762855
  0
ARC
  8
0050010008
 10
6.44364211549362
 20
20.89398107604
 40
0.482093542066886
 50
77.6766796592055
 51
108.704111295387
  0
LINE
  8
0050010008
 10
6.28904389684755
 20
21.350613941802
 11
6.325872919219
 21
21.4842216076085
  0
LINE
  8
0050010008
 10
6.325872919219
 20
21.4842216076085
 11
6.50875637522297
 21
21.4842216076085
  0
LINE
  8
0050010008
 10
6.50875637522297
 20
21.4842216076085
 11
6.50875637522297
 21
22.1476829241992
  0
LINE
  8
0050010008
 10
6.50875637522297
 20
22.1476829241992
 11
6.93875703696287
 21
23.7076316008396
  0
ARC
  8
0050010006
 10
4.57312779074039
 20
23.2156567192177
 40
2.41624523066885
 50
334.823149226257
 51
11.7482191305204
  0
ARC
  8
0050010006
 10
6.4178512772003
 20
21.6822138385158
 40
0.610342039229293
 50
7.75719045633468
 51
55.9232938556235
  0
ARC
  8
0050010006
 10
6.4178512772003
 20
21.8469760138528
 40
0.610342039229293
 50
309.782546516873
 51
352.242809543665
  0
ARC
  8
0050010008
 10
5.70407937846738
 20
20.8228493989623
 40
1.23597670074669
 50
26.6867211692071
 51
34.2056741676859
  0
LINE
  8
0050010008
 10
6.72626289256202
 20
21.517672591078
 11
6.63427513756175
 21
21.4145713068409
  0
LINE
  8
0050010008
 10
4.32875637522297
 20
22.2642216076085
 11
4.32875637522297
 21
24.3481466812243
  0
LINE
  8
0050010008
 10
4.32875637522297
 20
24.3481466812243
 11
4.75434312728821
 21
24.3481466812243
  0
LINE
  8
0050010008
 10
4.75434312728821
 20
24.3481466812243
 11
4.75434312728821
 21
24.8878133499624
  0
ARC
  8
0050010008
 10
5.02839553364584
 20
24.3143826547558
 40
0.635552896016904
 50
115.543938881468
 51
150.774603035527
  0
ARC
  8
0050010004
 10
3.81277678104061
 20
23.8167223996147
 40
1.04388174686747
 50
50.7146551902299
 51
89.9777159797794
  0
LINE
  8
0050010008
 10
3.8131827774607
 20
24.8606040675302
 11
4.12768382645586
 21
22.2642216076085
  0
LINE
  8
0050010008
 10
4.12768382645586
 20
22.2642216076085
 11
4.32875637522297
 21
22.2642216076085
  0
LINE
  8
0050010008
 10
5.10875637522297
 20
22.2642216076085
 11
5.10875637522297
 21
24.3481466812243
  0
LINE
  8
0050010008
 10
5.10875637522297
 20
24.3481466812243
 11
4.84434312728821
 21
24.3481466812243
  0
LINE
  8
0050010008
 10
4.84434312728821
 20
24.3481466812243
 11
4.84434312728822
 21
24.8878133499624
  0
ARC
  8
0050010008
 10
4.57029072093058
 20
24.3143826547558
 40
0.635552896016904
 50
29.2253969644727
 51
64.4560611185311
  0
ARC
  8
0050010004
 10
5.78590947353581
 20
23.8167223996147
 40
1.04388174686747
 50
89.7044068230407
 51
129.28534480977
  0
LINE
  8
0050010008
 10
5.79129491301768
 20
24.8605902545105
 11
5.52647920066476
 21
22.2642216076085
  0
LINE
  8
0050010008
 10
5.52647920066476
 20
22.2642216076085
 11
5.10875637522297
 21
22.2642216076085
  0
ARC
  8
0050010006
 10
3.17670940329431
 20
21.8469760138528
 40
0.610342039229293
 50
187.757190456335
 51
235.923293855624
  0
ARC
  8
0050010006
 10
3.17670940329431
 20
21.6822138385158
 40
0.610342039229293
 50
124.436846225222
 51
172.242809543665
  0
LINE
  8
0050010008
 10
2.83156250162597
 20
22.1855934379428
 11
2.92875637522297
 21
21.8606087178513
  0
LINE
  8
0050010008
 10
2.92875637522297
 20
21.8606087178513
 11
2.92875637522297
 21
21.4842216076085
  0
LINE
  8
0050010008
 10
2.92875637522297
 20
21.4842216076085
 11
3.04132327131024
 21
21.4842216076085
  0
LINE
  8
0050010008
 10
3.04132327131024
 20
21.4842216076085
 11
4.05551031676801
 21
18.0931097927313
  0
ARC
  8
0050010008
 10
4.77732411720655
 20
17.029773696098
 40
1.28518435133125
 50
124.169444891052
 51
139.944280801367
  0
LINE
  8
0050010008
 10
3.79361962105388
 20
17.8568313005947
 11
2.68057556222127
 21
19.7146775688741
  0
ARC
  8
0050010006
 10
5.02143288975422
 20
20.3135331331509
 40
2.41624523066885
 50
154.823149226257
 51
194.350057914257
  0
ARC
  8
0050010008
 10
6.76562567322188
 20
24.0413411337594
 40
0.653218938042774
 50
67.0966827983143
 51
118.249142711208
  0
ARC
  8
0050010006
 10
6.23478759279333
 20
24.4892480647759
 40
0.799982364072585
 50
321.552547943824
 51
11.0853976414066
  0
ARC
  8
0050010006
 10
4.57312779074039
 20
23.2156567192177
 40
2.41624523066885
 50
16.1050793409988
 51
18.7371902132074
  0
LINE
  8
0050010008
 10
6.89454642891971
 20
23.885922726892
 11
6.44752367433904
 21
22.2642216076085
  0
LINE
  8
0050010008
 10
6.44752367433904
 20
22.2642216076085
 11
5.61694612036744
 21
22.2642216076085
  0
LINE
  8
0050010008
 10
5.61694612036744
 20
22.2642216076085
 11
5.88131761717519
 21
24.8562349717226
  0
ARC
  8
0050010004
 10
5.78590947353581
 20
23.8167223996147
 40
1.04388174686747
 50
50.0322932645854
 51
84.7559927747151
  0
ARC
  8
0050010008
 10
4.69766449236384
 20
16.5223926313639
 40
0.73612949565454
 50
23.9379996427745
 51
35.4203000222932
  0
ARC
  8
0050010010
 10
4.70417124021109
 20
17.6775757301627
 40
1.08515175176774
 50
307.880728302384
 51
328.836001692433
  0
ARC
  8
0050010008
 10
6.1827511176013
 20
17.5010523688698
 40
0.671400427107827
 50
194.024290183551
 51
214.992889883565
  0
ARC
  8
0050010010
 10
3.81511727322377
 20
18.525867288964
 40
2.08703080249135
 50
316.043107591436
 51
325.319577239655
  0
ARC
  8
0050010008
 10
3.28340050595744
 20
17.3279572894221
 40
2.04948657455926
 50
349.345378644503
 51
352.972849811614
  0
ARC
  8
0050010008
 10
7.2291685914177
 20
20.0893655975267
 40
0.711362440975851
 50
204.434732793005
 51
235.248640759064
  0
ARC
  8
0050010008
 10
6.59311581567877
 20
20.279031802894
 40
0.484064732725124
 50
268.627425986761
 51
320.13167351258
  0
ARC
  8
0050010006
 10
4.57312779074039
 20
20.3135331331509
 40
2.41624523066885
 50
339.950761106229
 51
351.795863510278
  0
ARC
  8
0050010008
 10
6.20942223686101
 20
18.8852177702252
 40
0.872526448724271
 50
43.4413942105246
 51
45.2512267112394
  0
ARC
  8
0050010008
 10
5.73214968069219
 20
18.5702568183553
 40
0.433058308186565
 50
116.983255925984
 51
138.465133108162
  0
ARC
  8
0050010008
 10
5.19291292685647
 20
19.0188479720205
 40
0.268920402992534
 50
284.30469048496
 51
323.106536439961
  0
LINE
  8
0050010008
 10
5.25935733356414
 20
18.7582653095831
 11
5.34493924423662
 21
19.5973476572191
  0
ARC
  8
0050010008
 10
5.58338041468439
 20
20.3140194484049
 40
0.755296397479798
 50
251.597394548183
 51
279.223465784828
  0
LINE
  8
0050010008
 10
5.70444344599808
 20
19.5684885030411
 11
5.53565809411272
 21
18.9561720353303
  0
LINE
  8
0050010008
 10
5.79596182042553
 20
19.0325196578216
 11
5.77614375814381
 21
19.0325196578216
  0
ARC
  8
0050010010
 10
4.26363448156204
 20
19.3171430033027
 40
1.53905645138141
 50
349.342735230186
 51
8.0138460433227
  0
LINE
  8
0050010008
 10
5.7876611346323
 20
19.5317065632801
 11
5.80669623305861
 21
19.6007617514273
  0
LINE
  8
0050010008
 10
5.80669623305861
 20
19.6007617514273
 11
5.84694488831341
 21
19.6062013811824
  0
ARC
  8
0050010008
 10
6.00721192883172
 20
19.7467924807037
 40
0.213193296191766
 50
221.258219121205
 51
252.277752671108
  0
ARC
  8
0050010008
 10
5.06396950413953
 20
19.3687749008618
 40
0.89559805454925
 50
355.098158482583
 51
11.2642989688154
  0
ARC
  8
0050010008
 10
6.84510050248082
 20
18.5642342300305
 40
1.14890522501476
 50
140.679492829265
 51
155.946296113856
  0
ARC
  8
0050010008
 10
5.58338041468439
 20
20.3140194484049
 40
0.755296397479798
 50
231.068235366023
 51
244.485600627151
  0
LINE
  8
0050010008
 10
5.25804561714632
 20
19.6323817751819
 11
5.16815648140222
 21
18.7510695159152
  0
ARC
  8
0050010008
 10
5.19291292685647
 20
19.0188479720205
 40
0.268920402992534
 50
251.763367065088
 51
264.717949991559
  0
LINE
  8
0050010008
 10
5.10875637522297
 20
18.7634348596655
 11
5.10875637522297
 21
19.7264782420106
  0
ARC
  8
0050010008
 10
5.2965056557025
 20
20.1226792247025
 40
1.41545667693218
 50
53.7143943256047
 51
74.135384856669
  0
LINE
  8
0050010008
 10
5.68344227043755
 20
21.4842216076085
 11
6.23251626981374
 21
21.4842216076085
  0
LINE
  8
0050010008
 10
6.23251626981374
 20
21.4842216076085
 11
6.18130823202476
 21
21.2984500079578
  0
ARC
  8
0050010008
 10
6.44364211549362
 20
20.89398107604
 40
0.482093542066886
 50
122.966976729434
 51
129.933368979033
  0
ARC
  8
0050010008
 10
4.77732411720655
 20
17.029773696098
 40
1.28518435133125
 50
110.427989822138
 51
120.005996822077
  0
LINE
  8
0050010008
 10
4.32875637522297
 20
18.2341348536245
 11
4.32875637522297
 21
19.8558235281594
  0
LINE
  8
0050010008
 10
4.32875637522297
 20
19.8558235281594
 11
4.20645881003182
 21
20.8654584853971
  0
ARC
  8
0050010008
 10
4.02884321930458
 20
21.1145638722329
 40
0.305942464885168
 50
209.8628014831
 51
305.489395345998
  0
ARC
  8
0050010008
 10
4.22142255124346
 20
21.1972657474101
 40
0.514698254030218
 50
146.115364937741
 51
207.171306430885
  0
LINE
  8
0050010008
 10
3.79413970932307
 20
21.4842216076085
 11
3.1352620681008
 21
21.4842216076085
  0
LINE
  8
0050010008
 10
3.1352620681008
 20
21.4842216076085
 11
4.13461545346577
 21
18.1427087303472
  0
LINE
  8
0030010003
 10
6.34005896933246
 20
20.0478048468647
 11
6.26274613959599
 21
20.027244536601
  0
ARC
  8
0030010003
 10
4.8305437292223
 20
19.6463695121314
 40
1.56198162220216
 50
14.8923568614682
 51
59.116433397306
  0
LINE
  8
0030010003
 10
5.63230127878699
 20
20.9868811382702
 11
5.62122828946141
 21
20.9702261418008
  0
ARC
  8
0030010003
 10
4.59828338585536
 20
19.5846029885433
 40
1.72231466307894
 50
14.8923568614682
 51
53.5631717598918
  0
LINE
  8
0030010003
 10
6.13216503807573
 20
20.1398761384175
 11
6.06816668219022
 21
20.0918739463431
  0
ARC
  8
0030010003
 10
5.87045094590125
 20
19.943576562478
 40
0.327151019495178
 50
36.8718601181477
 51
171.567455184112
  0
LINE
  8
0030010003
 10
5.54683669190893
 20
19.9915515994215
 11
5.56648698274802
 21
19.9878278822009
  0
ARC
  8
0030010003
 10
5.84175721935018
 20
19.9220547318907
 40
0.283019099109476
 50
36.8718601181477
 51
166.561690569402
  0
LINE
  8
0030010003
 10
6.35437333855634
 20
20.2370832861052
 11
6.42987469149048
 21
20.2635322124561
  0
ARC
  8
0030010003
 10
7.01314834785634
 20
20.4678591732337
 40
0.698027236544642
 50
130.570134674207
 51
199.305900064604
  0
LINE
  8
0030010003
 10
6.55916653850116
 20
20.9980879349326
 11
6.57312200387266
 21
20.9837615611323
  0
ARC
  8
0030010003
 10
7.11151838305638
 20
20.5023192420275
 40
0.722258518636601
 50
138.196428186058
 51
199.305900064604
  0
LINE
  8
0030010003
 10
6.31923725459765
 20
17.631384133541
 11
6.243980307905
 21
17.6585206766977
  0
ARC
  8
0030010003
 10
2.41617753777505
 20
19.0387698049465
 40
4.06904923821844
 50
340.17144522515
 51
359.947662073386
  0
LINE
  8
0030010003
 10
6.50520808934767
 20
19.0358770334143
 11
6.48522507833362
 21
19.0350528545427
  0
ARC
  8
0030010003
 10
3.18759543969202
 20
18.7606079061818
 40
3.3290128845594
 50
340.17144522515
 51
4.74308390406163
  0
LINE
  8
0030010003
 10
6.17912059059232
 20
17.7582775757103
 11
6.10038622252527
 21
17.7724514702027
  0
ARC
  8
0030010003
 10
5.61709765771276
 20
17.8594538974172
 40
0.571057287105844
 50
349.794822191961
 51
93.6043005018289
  0
LINE
  8
0030010003
 10
5.58119789628441
 20
18.4293816404567
 11
5.58161021140482
 21
18.4093858910023
  0
ARC
  8
0030010003
 10
5.56772637383673
 20
17.8683417996865
 40
0.541222199926619
 50
349.794822191961
 51
88.5300444647336
  0
LINE
  8
0030010003
 10
6.43352208939675
 20
17.6999719143038
 11
6.51072560745442
 21
17.6790048735131
  0
ARC
  8
0030010003
 10
7.23202169405804
 20
17.4831142606176
 40
0.74742302397656
 50
89.0635649485759
 51
164.806006591889
  0
LINE
  8
0030010003
 10
7.2455745499603
 20
18.2503926799223
 11
7.24423693859896
 21
18.2304374601578
  0
ARC
  8
0030010003
 10
7.15978084570387
 20
17.5027335325408
 40
0.752565452537696
 50
83.4539548181005
 51
164.806006591889
  0
LINE
  8
0030010003
 10
4.19314016728815
 20
16.2911374562001
 11
4.13091096544951
 21
16.3414119670234
  0
ARC
  8
0030010003
 10
2.13843216422178
 20
17.9511208191041
 40
2.56147113233951
 50
321.065512427717
 51
353.781492290584
  0
LINE
  8
0030010003
 10
4.70478425674757
 20
17.6722847436892
 11
4.6848316672851
 21
17.6736610335359
  0
ARC
  8
0030010003
 10
2.39784156463548
 20
17.7415458876661
 40
2.30798216863874
 50
321.065512427717
 51
358.28033025642
  0
LINE
  8
0030010003
 10
4.05474572612997
 20
16.4463628436165
 11
3.97734725171726
 21
16.4665983608717
  0
ARC
  8
0030010003
 10
3.37478689762964
 20
16.6241353218385
 40
0.702813675499233
 50
345.348210450214
 51
94.2390472891366
  0
LINE
  8
0030010003
 10
3.32283641923287
 20
17.3250263335251
 11
3.32369243371062
 21
17.3050446609421
  0
ARC
  8
0030010003
 10
3.32990512367665
 20
16.635869479626
 40
0.669204020315245
 50
345.348210450214
 51
90.5319245208869
  0
LINE
  8
0030010003
 10
4.32344078877922
 20
16.2932629401758
 11
4.36844462949835
 21
16.227121770542
  0
ARC
  8
0030010003
 10
4.71021540385855
 20
15.7248286684064
 40
0.607540634574993
 50
55.1714594991919
 51
124.232193342601
  0
LINE
  8
0030010003
 10
5.06973842660408
 20
16.2391154712463
 11
5.05719554960951
 21
16.2235374021522
  0
ARC
  8
0030010003
 10
4.66240900850052
 20
15.7950886918716
 40
0.60255874041827
 50
47.4681833048766
 51
124.232193342601
  0
ARC
  8
0050010008
 10
45.5931087903908
 20
17.1068594672155
 40
0.206079040959636
 50
111.630368208942
 51
168.365747185511
  0
ARC
  8
0050010008
 10
45.6292903102587
 20
17.0448307862288
 40
0.27728606394572
 50
33.7402620668311
 51
113.856094788073
  0
ARC
  8
0050010008
 10
45.1850897448075
 20
16.6930844644145
 40
0.843280795923029
 50
347.538242931182
 51
36.8521103330319
  0
ARC
  8
0050010010
 10
45.0359015072454
 20
16.7151283540138
 40
0.993768268592752
 50
305.668571883723
 51
348.153346632785
  0
ARC
  8
0050010010
 10
44.9122243360936
 20
17.01178712601
 40
1.30890020453621
 50
258.960138111985
 51
302.493127586205
  0
ARC
  8
0050010010
 10
44.8864311509503
 20
16.7272941154021
 40
1.02514765130137
 50
222.57954953472
 51
257.330032603531
  0
ARC
  8
0050010008
 10
44.9437162730176
 20
16.2099355638453
 40
0.298897457516821
 50
168.398329134176
 51
202.475996108706
  0
ARC
  8
0050010010
 10
44.4706455782554
 20
16.316877445239
 40
0.186263377036065
 50
345.438022406701
 51
37.5900594798536
  0
ARC
  8
0050010010
 10
44.3357949369216
 20
17.0532878661715
 40
0.683842396141705
 50
294.395085127156
 51
3.41351001902024
  0
ARC
  8
0050010008
 10
45.8042145069353
 20
17.0454074844141
 40
0.787291770448617
 50
136.712240702882
 51
176.461024717463
  0
ARC
  8
0050010010
 10
45.0652173315064
 20
17.4246802055282
 40
0.230870697220542
 50
44.0578986440456
 51
114.260409211448
  0
ARC
  8
0050010008
 10
44.9326982585363
 20
18.0612687307032
 40
0.427767419538858
 50
232.89892957215
 51
275.050488683364
  0
ARC
  8
0050010010
 10
44.4096464843484
 20
17.2866261821764
 40
0.508060346039738
 50
58.5592521353373
 51
116.497231609592
  0
ARC
  8
0050010010
 10
43.2226758827935
 20
17.029773696098
 40
1.19518435133125
 50
36.5370556190701
 51
79.1529188966327
  0
ARC
  8
0050010010
 10
43.4789886837516
 20
18.5978361508243
 40
0.395480472681958
 50
201.6662355666
 51
265.447113066615
  0
ARC
  8
0050010010
 10
44.7165994940426
 20
17.3279572894221
 40
1.95948657455926
 50
145.001696290268
 51
191.807445630852
  0
ARC
  8
0050010010
 10
43.3023355076362
 20
16.522392631364
 40
0.646129495654539
 50
141.229471312954
 51
191.406814834206
  0
ARC
  8
0050010008
 10
42.3616151632955
 20
16.3634472043472
 40
0.308928691374068
 50
313.605429443711
 51
5.78856608462115
  0
ARC
  8
0050010010
 10
43.1902047666514
 20
16.5694067186649
 40
0.750650489333982
 50
214.916307750283
 51
285.758163572456
  0
ARC
  8
0050010010
 10
43.9448873033307
 20
15.9218554483872
 40
0.555890034911342
 50
187.742187793604
 51
215.930144523307
  0
ARC
  8
0050010010
 10
43.3372211094218
 20
15.4792505987287
 40
0.195885594093426
 50
340.879246827585
 51
36.4607927102895
  0
ARC
  8
0050010010
 10
43.4190579914001
 20
15.8856650696255
 40
0.481770957798605
 50
282.374250254755
 51
9.84482963565915
  0
ARC
  8
0050010010
 10
45.7454523243377
 20
18.395939892774
 40
3.05345112843316
 50
232.667870679673
 51
246.245462198173
  0
ARC
  8
0050010010
 10
44.6533660306827
 20
17.9123627793417
 40
2.31529483356423
 50
252.597003960113
 51
266.585357548628
  0
ARC
  8
0050010008
 10
43.4190579914001
 20
15.8856650696255
 40
0.571770957798606
 50
333.100195740587
 51
341.374399181907
  0
ARC
  8
0050010008
 10
44.8208930297436
 20
17.9856910371164
 40
2.52171920276357
 50
249.286253656884
 51
277.971207207019
  0
ARC
  8
0050010008
 10
45.0445835731485
 20
16.7891711472194
 40
1.30692312015707
 50
275.532899211239
 51
294.009957628134
  0
ARC
  8
0050010008
 10
45.1839047245565
 20
16.4648161331182
 40
0.953955504963107
 50
294.292980104742
 51
311.383783807113
  0
ARC
  8
0050010010
 10
45.07110277469
 20
16.6597025117266
 40
1.17558309802523
 50
309.228843868234
 51
325.227831868281
  0
ARC
  8
0050010010
 10
45.073914266506
 20
16.6794935750299
 40
1.18469543521284
 50
324.364014394312
 51
10.8614114427211
  0
ARC
  8
0050010008
 10
45.4931364682711
 20
16.8138293412012
 40
0.749541262829157
 50
6.81174284489589
 51
65.1084543069427
  0
ARC
  8
0050010008
 10
45.5926383991069
 20
17.0152320396472
 40
0.524995766863567
 50
65.70740400404
 51
115.475364707592
  0
ARC
  8
0050010010
 10
42.1368702091672
 20
17.5775918383063
 40
0.326644361264122
 50
216.440388138603
 51
276.940658372039
  0
ARC
  8
0050010010
 10
44.2493681760986
 20
18.420106595045
 40
2.59159054891918
 50
203.575784417885
 51
229.613396282366
  0
ARC
  8
0050010008
 10
43.3023355076362
 20
16.522392631364
 40
0.73612949565454
 50
185.947386471878
 51
191.022438739984
  0
ARC
  8
0050010008
 10
42.3616151632955
 20
16.3634472043472
 40
0.218928691374069
 50
329.865161441484
 51
4.76922926223665
  0
ARC
  8
0050010010
 10
40.915387761631
 20
14.6176599072725
 40
2.31326034195605
 50
45.0054290578706
 51
56.0806626728823
  0
ARC
  8
0050010008
 10
42.0565854437541
 20
16.3748910272266
 40
0.220819827715103
 50
47.3321920308691
 51
134.952900934011
  0
ARC
  8
0050010008
 10
41.8449294349975
 20
16.3539574203325
 40
0.18573528227196
 50
109.470519414351
 51
72.5680600489333
  0
ARC
  8
0050010010
 10
42.0169786638833
 20
16.487169639965
 40
0.237681452072079
 50
138.139495800423
 51
169.8461214884
  0
ARC
  8
0050010010
 10
41.8329576514015
 20
16.2862894821104
 40
0.359557778745885
 50
88.8840624181847
 51
127.597754811133
  0
ARC
  8
0050010008
 10
41.4057925947651
 20
16.5335475908378
 40
0.211172559506034
 50
44.923325587905
 51
10.2631241363745
  0
ARC
  8
0050010010
 10
41.7523780700633
 20
16.390814335858
 40
0.352155595205284
 50
104.435319631325
 51
124.027739877611
  0
ARC
  8
0050010010
 10
40.9697132231018
 20
15.9187764447156
 40
1.06955431020621
 50
49.4818847886133
 51
53.5611432276596
  0
ARC
  8
0050010008
 10
41.5445338322246
 20
16.9383435903249
 40
0.170218232542139
 50
325.588030767459
 51
290.804004776427
  0
ARC
  8
0050010008
 10
42.0063465197695
 20
17.5216291243886
 40
0.751654074152706
 50
244.686665962717
 51
257.830499834618
  0
ARC
  8
0050010010
 10
40.9150834811109
 20
11.4879707605382
 40
5.38037428830222
 50
77.5808745227256
 51
80.0160161453132
  0
ARC
  8
0050010010
 10
43.9668539666622
 20
18.3289568914314
 40
2.47118383860565
 50
202.354674408905
 51
219.941408334123
  0
ARC
  8
0050010010
 10
41.4598991254938
 20
17.4114638847393
 40
0.22261662884427
 50
290.030174037637
 51
354.226531146989
  0
ARC
  8
0050010010
 10
41.668630947137
 20
16.7805393642056
 40
0.442090936351046
 50
107.437906219473
 51
152.760332438147
  0
ARC
  8
0050010010
 10
42.1771378762525
 20
17.5681190280514
 40
1.07485847677298
 50
181.380279582059
 51
212.988480743196
  0
ARC
  8
0050010010
 10
41.5070638533192
 20
18.6212505538229
 40
1.15234035839709
 50
190.082815782182
 51
249.451449446669
  0
ARC
  8
0050010010
 10
40.3842305864685
 20
18.6615234692797
 40
0.242297940111202
 50
267.229868237115
 51
319.491870391569
  0
ARC
  8
0050010010
 10
41.3182299247411
 20
17.9720571060946
 40
0.919388272938777
 50
109.622861440766
 51
144.638524817962
  0
ARC
  8
0050010010
 10
41.790577763139
 20
18.8852177702252
 40
0.782526448724271
 50
135.292315488149
 51
183.455629571127
  0
ARC
  8
0050010010
 10
40.7708314085823
 20
20.0893655975267
 40
0.801362440975851
 50
305.346216060517
 51
336.958166757644
  0
ARC
  8
0050010008
 10
41.8293606597834
 20
19.768291020678
 40
0.321185739444525
 50
178.676450707269
 51
240.795199882162
  0
ARC
  8
0050010010
 10
41.1548994975192
 20
18.5642342300305
 40
1.05890522501476
 50
18.2630961808058
 51
60.7288800280082
  0
ARC
  8
0050010010
 10
42.2678503193078
 20
18.5702568183553
 40
0.343058308186568
 50
42.0650140699519
 51
108.241529396894
  0
ARC
  8
0050010010
 10
42.8070870731435
 20
19.0188479720205
 40
0.358920402992535
 50
217.551187269649
 51
276.983258298559
  0
ARC
  8
0050010010
 10
41.8163797304229
 20
18.5812260738714
 40
1.03753985329113
 50
301.834030012901
 51
4.49776370254324
  0
ARC
  8
0050010010
 10
41.8172488823987
 20
17.5010523688698
 40
0.581400427107826
 50
325.005538209899
 51
19.9843108281413
  0
ARC
  8
0050010010
 10
42.1917415710621
 20
17.1514223139323
 40
0.103075659272855
 50
9.041604216471
 51
98.592006598769
  0
ARC
  8
0050010010
 10
42.173937818328
 20
19.9225160326409
 40
0.536583100142677
 50
195.697586055673
 51
234.478299759033
  0
ARC
  8
0050010010
 10
41.7521350130722
 20
19.6503073872904
 40
0.158485602591407
 50
126.723654217576
 51
157.684770764211
  0
ARC
  8
0050010008
 10
41.8293606597834
 20
19.768291020678
 40
0.231185739444523
 50
178.67645070727
 51
194.480043055228
  0
ARC
  8
0050010008
 10
40.9457044624993
 20
19.7804544967387
 40
0.652567813641329
 50
359.400883019658
 51
12.8818612963041
  0
ARC
  8
0050010010
 10
41.4068841843212
 20
20.279031802894
 40
0.394064732725124
 50
214.45973598079
 51
296.359280650764
  0
ARC
  8
0050010008
 10
40.9470711276135
 20
20.1644492051759
 40
0.173048024691516
 50
321.218139983794
 51
6.15505276227225
  0
ARC
  8
0050010008
 10
41.3357074669597
 20
20.1768951582134
 40
0.216671984635581
 50
115.565239128289
 51
178.384571701285
  0
ARC
  8
0050010010
 10
42.2959206215326
 20
20.8228493989623
 40
1.14597670074669
 50
151.554862313407
 51
203.148191513441
  0
ARC
  8
0050010010
 10
41.4527735752035
 20
21.4661427448542
 40
0.19117851359279
 50
210.64434237145
 51
273.792319941906
  0
ARC
  8
0050010010
 10
41.5563578845064
 20
20.89398107604
 40
0.392093542066887
 50
39.5921207129484
 51
103.410947635715
  0
ARC
  8
0050010010
 10
42.7034943442975
 20
20.1226792247025
 40
1.32545667693218
 50
84.2955139084427
 51
129.606224362228
  0
ARC
  8
0050010010
 10
43.3123405250594
 20
21.1593107725087
 40
0.554341708407891
 50
149.390597024302
 51
179.519389419979
  0
ARC
  8
0050010010
 10
42.0660987989566
 20
20.9169231659492
 40
0.734697318235475
 50
321.087202682399
 51
19.6481974541256
  0
ARC
  8
0050010010
 10
42.1360310619289
 20
20.1053826180282
 40
0.611780929057489
 50
353.790438897219
 51
34.9025285084213
  0
ARC
  8
0050010010
 10
43.0330682670367
 20
19.9279184382045
 40
0.309543910217525
 50
158.928582140385
 51
214.061969243727
  0
ARC
  8
0050010010
 10
42.4166195853156
 20
20.3140194484049
 40
0.6652963974798
 50
242.888186889795
 51
302.760665034471
  0
ARC
  8
0050010010
 10
41.9927880711683
 20
19.7467924807037
 40
0.123193296191765
 50
279.564756262984
 51
348.307661178184
  0
ARC
  8
0050010008
 10
42.054107703131
 20
19.4295164358133
 40
0.200011243082822
 50
101.78479800479
 51
163.658057220737
  0
ARC
  8
0050010010
 10
40.5347164591729
 20
19.9736526932267
 40
0.344831564324453
 50
10.0350014479718
 51
97.6621419191047
  0
ARC
  8
0050010010
 10
40.5212309492254
 20
20.0657603171006
 40
0.251750615514132
 50
97.4153728842717
 51
187.260227284093
  0
ARC
  8
0050010008
 10
40.4912747432819
 20
19.9687724168439
 40
0.229235587074614
 50
63.0502637152794
 51
163.48273451034
  0
ARC
  8
0050010008
 10
40.4814351030133
 20
19.9186700388511
 40
0.278705103529761
 50
24.14376053628
 51
65.9163460843798
  0
ARC
  8
0050010008
 10
39.8043611163308
 20
19.6417569367425
 40
1.01010631713489
 50
10.1454953986926
 51
22.7679600725974
  0
ARC
  8
0050010010
 10
70.7984786074525
 20
26.2239038816935
 40
30.6757615576611
 50
192.050356442142
 51
193.366799409302
  0
ARC
  8
0050010008
 10
41.790577763139
 20
18.8852177702252
 40
0.872526448724271
 50
150.933629752096
 51
163.559956327891
  0
ARC
  8
0050010008
 10
0.378049505828564
 20
11.0673877956345
 40
41.4769761322964
 50
11.4612980547709
 51
12.4845650387924
  0
ARC
  8
0050010010
 10
43.7782103504404
 20
21.1728704600261
 40
0.224560765518115
 50
335.201893409611
 51
45.0055955523545
  0
ARC
  8
0050010010
 10
43.862465221052
 20
21.1220634893563
 40
0.127223212616129
 50
223.981361503414
 51
340.064268931854
  0
ARC
  8
0050010008
 10
43.9711567806954
 20
21.1145638722329
 40
0.215942464885168
 50
201.986781426064
 51
329.598059185941
  0
ARC
  8
0050010008
 10
43.7785774487565
 20
21.1972657474101
 40
0.424698254030218
 50
333.125089488292
 51
42.506199519854
  0
LINE
  8
0050010008
 10
44.0916667990611
 20
21.4842216076085
 11
43.671243624777
 21
21.4842216076085
  0
LINE
  8
0050010008
 10
43.671243624777
 20
21.4842216076085
 11
43.671243624777
 21
21.3993604167974
  0
ARC
  8
0050010008
 10
43.7374711968675
 20
21.1038755973547
 40
0.302815735763637
 50
48.7872864384319
 51
102.633032558361
  0
LINE
  8
0050010008
 10
45.0980141960396
 20
22.2642216076085
 11
45.3944835085466
 21
23.2555186202191
  0
ARC
  8
0050010006
 10
42.9785671102458
 20
23.2156567192177
 40
2.41624523066885
 50
0.945277522045956
 51
18.7371902132074
  0
ARC
  8
0050010006
 10
44.6402269122987
 20
24.4892480647759
 40
0.799982364072585
 50
321.552547943824
 51
10.945241481223
  0
ARC
  8
0050010008
 10
45.1669394186455
 20
24.0413411337594
 40
0.653218938042774
 50
66.6675598345606
 51
118.249142711208
  0
ARC
  8
0050010004
 10
44.1872232189594
 20
23.8167223996147
 40
1.04388174686747
 50
50.0322932645854
 51
85.0659464280275
  0
ARC
  8
0050010008
 10
42.2140905264642
 20
23.8167223996147
 40
1.13388174686747
 50
55.7401736973221
 51
126.988635091625
  0
ARC
  8
0050010008
 10
41.2343743267781
 20
24.0413411337594
 40
0.743218938042773
 50
66.4032150976098
 51
116.559575092574
  0
ARC
  8
0050010008
 10
41.7652124072067
 20
24.4892480647759
 40
0.889982364072585
 50
165.895552861776
 51
215.265635151291
  0
ARC
  8
0050010008
 10
43.4268722092596
 20
23.2156567192177
 40
2.50624523066885
 50
162.353683703228
 51
203.509620439078
  0
ARC
  8
0050010008
 10
41.5821487227997
 20
21.6822138385158
 40
0.70034203922929
 50
130.354949149331
 51
173.244669217609
  0
ARC
  8
0050010008
 10
41.5821487227997
 20
21.8469760138528
 40
0.700342039229293
 50
186.755330647806
 51
229.645050850669
  0
ARC
  8
0050010008
 10
43.4268722092596
 20
20.3135331331509
 40
2.50624523066885
 50
156.490379560922
 51
183.389594419169
  0
ARC
  8
0050010008
 10
40.5347164591729
 20
19.9736526932267
 40
0.434831564324455
 50
26.1585665058079
 51
97.6370749057084
  0
ARC
  8
0050010008
 10
40.5212309492254
 20
20.0657603171006
 40
0.341750615514132
 50
97.4484651659391
 51
226.206759031681
  0
ARC
  8
0050010008
 10
36.9630985718916
 20
21.2099659122738
 40
3.60107722284512
 50
337.278991214393
 51
340.507697481846
  0
ARC
  8
0050010008
 10
40.4912747432819
 20
19.9687724168439
 40
0.139235587074613
 50
62.1487345550405
 51
163.48273451034
  0
ARC
  8
0050010008
 10
40.4814351030133
 20
19.9186700388511
 40
0.188705103529762
 50
24.4475784354506
 51
66.6186577442733
  0
ARC
  8
0050010008
 10
39.8043611163308
 20
19.6417569367425
 40
0.920106317134888
 50
10.054565950801
 51
22.6956873175953
  0
ARC
  8
0050010008
 10
70.7984786074525
 20
26.2239038816935
 40
30.7657615576611
 50
192.047502957454
 51
193.774559560458
  0
ARC
  8
0050010008
 10
41.3182299247411
 20
17.9720571060946
 40
1.00938827293878
 50
113.388629655595
 51
144.377067148036
  0
ARC
  8
0050010008
 10
40.3842305864685
 20
18.6615234692797
 40
0.152297940111204
 50
219.059534740589
 51
318.180675591656
  0
ARC
  8
0050010008
 10
41.5070638533192
 20
18.6212505538229
 40
1.24234035839709
 50
182.569435387316
 51
246.696794064955
  0
ARC
  8
0050010008
 10
42.1771378762525
 20
17.5681190280514
 40
1.16485847677298
 50
184.325865752461
 51
220.474410102558
  0
ARC
  8
0050010008
 10
41.4057925947651
 20
16.5335475908378
 40
0.301172559506035
 50
112.397922816664
 51
304.792695718099
  0
ARC
  8
0050010008
 10
41.8449294349975
 20
16.3539574203325
 40
0.275735282271958
 50
194.221316780141
 51
33.027857506239
  0
ARC
  8
0050010008
 10
42.0565854437541
 20
16.3748910272266
 40
0.130819827715104
 50
44.677125173709
 51
81.4177951362189
  0
ARC
  8
0050010008
 10
40.915387761631
 20
14.6176599072725
 40
2.22326034195605
 50
47.9102614792821
 51
56.2796315844197
  0
ARC
  8
0050010008
 10
43.1902047666514
 20
16.5694067186649
 40
0.840650489333983
 50
201.044703161
 51
249.167895078041
  0
LINE
  8
0050010008
 10
42.891243624777
 20
15.7837124518749
 11
42.891243624777
 21
14.5867441676736
  0
LINE
  8
0050010008
 10
42.891243624777
 20
14.5867441676736
 11
43.671243624777
 21
14.5867441676736
  0
LINE
  8
0050010008
 10
43.671243624777
 20
14.5867441676736
 11
43.671243624777
 21
15.372513596374
  0
ARC
  8
0050010008
 10
45.676890102938
 20
17.074152032791
 40
0.20512354274692
 50
164.745909617412
 51
237.276179321871
  0
ARC
  8
0050010008
 10
45.5931087903908
 20
17.1068594672155
 40
0.116079040959636
 50
110.806446871968
 51
169.446350124413
  0
ARC
  8
0050010008
 10
45.6292903102587
 20
17.0448307862288
 40
0.18728606394572
 50
33.0444824692743
 51
114.415286591245
  0
ARC
  8
0050010008
 10
45.1850897448075
 20
16.6930844644145
 40
0.753280795923029
 50
347.50166175563
 51
37.0510500240747
  0
ARC
  8
0050010008
 10
45.0359015072454
 20
16.7151283540138
 40
0.903768268592751
 50
305.82579122563
 51
348.184111220645
  0
ARC
  8
0050010008
 10
44.9122243360936
 20
17.01178712601
 40
1.21890020453621
 50
259.020634491316
 51
302.375166251166
  0
ARC
  8
0050010008
 10
44.8864311509503
 20
16.7272941154021
 40
0.935147651301367
 50
241.621466091796
 51
257.25198969705
  0
ARC
  8
0050010008
 10
44.3785263685861
 20
16.4414088540211
 40
0.540617086043059
 50
276.738411961061
 51
318.010938647476
  0
ARC
  8
0050010008
 10
44.9437162730176
 20
16.2099355638453
 40
0.208897457516821
 50
168.917572932388
 51
218.553190640045
  0
ARC
  8
0050010008
 10
44.4706455782554
 20
16.316877445239
 40
0.276263377036065
 50
346.00999329936
 51
15.644294795671
  0
ARC
  8
0050010008
 10
44.3357949369216
 20
17.0532878661715
 40
0.773842396141707
 50
301.200727803878
 51
358.164143165375
  0
ARC
  8
0050010008
 10
45.5282450245371
 20
17.174462703549
 40
0.443701630462007
 50
199.206452648202
 51
294.225730327086
  0
ARC
  8
0050010008
 10
46.3179139225253
 20
17.5802639794026
 40
1.01290519606663
 50
222.069583282647
 51
233.13996298345
  0
ARC
  8
0050010008
 10
44.9326982585363
 20
18.0612687307032
 40
0.337767419538859
 50
232.219270614479
 51
272.831604079975
  0
ARC
  8
0050010008
 10
44.4096464843484
 20
17.2866261821764
 40
0.598060346039736
 50
58.0905765981673
 51
98.202616269231
  0
LINE
  8
0050010008
 10
44.3243187452526
 20
17.8785682016732
 11
45.1687553132422
 21
19.2880661583701
  0
ARC
  8
0050010006
 10
44.8250002170801
 20
18.7837350779148
 40
0.610342039229293
 50
7.75719045633468
 51
55.7214224768927
  0
ARC
  8
0050010006
 10
44.8250002170801
 20
18.9484972532518
 40
0.610342039229293
 50
304.076706144377
 51
352.242809543665
  0
ARC
  8
0050010006
 10
42.9802767306202
 20
17.4150543725499
 40
2.41624523066885
 50
4.28993680215831
 51
25.1768507737427
  0
ARC
  8
0050010008
 10
45.5926383991069
 20
17.0152320396472
 40
0.614995766863568
 50
109.262603351687
 51
113.581075409331
  0
ARC
  8
0050010008
 10
45.0652173315064
 20
17.4246802055282
 40
0.32087069722054
 50
28.7209045329289
 51
111.161393264422
  0
ARC
  8
0050010008
 10
43.4789886837516
 20
18.5978361508243
 40
0.305480472681957
 50
161.550033723644
 51
266.298778693662
  0
ARC
  8
0050010008
 10
44.7165994940426
 20
17.3279572894221
 40
2.04948657455926
 50
138.180988811539
 51
147.857457640259
  0
LINE
  8
0050010008
 10
42.981243624777
 20
21.5742216076085
 11
42.981243624777
 21
18.4183403534433
  0
LINE
  8
0050010008
 10
42.981243624777
 20
21.5742216076085
 11
41.581243624777
 21
21.5742216076085
  0
LINE
  8
0050010008
 10
41.581243624777
 20
22.1742216076085
 11
41.581243624777
 21
21.5742216076085
  0
LINE
  8
0050010008
 10
42.981243624777
 20
22.1742216076085
 11
41.581243624777
 21
22.1742216076085
  0
LINE
  8
0050010008
 10
42.981243624777
 20
22.1742216076085
 11
42.9812436247771
 21
24.2581466812243
  0
ARC
  8
0050010008
 10
43.9448873033307
 20
15.9218554483872
 40
0.645890034911342
 50
196.383717146183
 51
215.974103681757
  0
ARC
  8
0050010008
 10
43.3372211094218
 20
15.4792505987287
 40
0.105885594093427
 50
340.879246827585
 51
36.6436884513302
  0
LINE
  8
0050010008
 10
43.4372650300396
 20
15.4445666977955
 11
43.4134003102633
 21
15.3139221039267
  0
ARC
  8
0050010008
 10
41.4527735752035
 20
21.4661427448542
 40
0.101178513592789
 50
210.64434237145
 51
270.391887657785
  0
LINE
  8
0050010008
 10
41.3657248624383
 20
21.4145713068409
 11
41.273737107438
 21
21.517672591078
  0
ARC
  8
0050010008
 10
42.2959206215326
 20
20.8228493989623
 40
1.23597670074669
 50
145.794325832314
 51
153.313278830793
  0
ARC
  8
0050010006
 10
41.5821487227997
 20
21.8469760138528
 40
0.610342039229293
 50
187.757190456335
 51
230.217453483127
  0
ARC
  8
0050010006
 10
41.5821487227997
 20
21.6822138385158
 40
0.610342039229293
 50
124.076706144377
 51
172.242809543665
  0
ARC
  8
0050010006
 10
43.4268722092596
 20
23.2156567192177
 40
2.41624523066885
 50
168.25178086948
 51
205.176850773743
  0
LINE
  8
0050010008
 10
41.0612429630372
 20
23.7076316008396
 11
41.491243624777
 21
22.1476829241992
  0
LINE
  8
0050010008
 10
41.491243624777
 20
22.1476829241992
 11
41.491243624777
 21
21.4842216076085
  0
LINE
  8
0050010008
 10
41.491243624777
 20
21.4842216076085
 11
41.674127080781
 21
21.4842216076085
  0
LINE
  8
0050010008
 10
41.674127080781
 20
21.4842216076085
 11
41.7109561031525
 21
21.350613941802
  0
ARC
  8
0050010008
 10
41.5563578845064
 20
20.89398107604
 40
0.482093542066886
 50
71.2958887046132
 51
102.323320340795
  0
ARC
  8
0050010008
 10
45.0445835731485
 20
16.7891711472194
 40
1.39692312015707
 50
275.612076207803
 51
294.019021136436
  0
ARC
  8
0050010008
 10
45.1839047245565
 20
16.4648161331182
 40
1.04395550496311
 50
294.280708466131
 51
311.290504243406
  0
ARC
  8
0050010008
 10
45.07110277469
 20
16.6597025117266
 40
1.26558309802523
 50
309.305160561435
 51
325.197112618492
  0
ARC
  8
0050010008
 10
45.073914266506
 20
16.6794935750299
 40
1.27469543521283
 50
324.394505700752
 51
10.7198323037668
  0
ARC
  8
0050010008
 10
45.4931364682711
 20
16.8138293412012
 40
0.839541262829157
 50
7.03106737018885
 51
65.1401988672053
  0
ARC
  8
0050010008
 10
45.5926383991069
 20
17.0152320396472
 40
0.614995766863568
 50
65.6630866163583
 51
100.726871368205
  0
ARC
  8
0050010008
 10
42.9802767306202
 20
17.4150543725499
 40
2.50624523066885
 50
4.67863929673894
 51
23.509620439078
  0
ARC
  8
0050010008
 10
44.8250002170801
 20
18.9484972532518
 40
0.70034203922929
 50
310.354949149331
 51
353.244669188806
  0
ARC
  8
0050010008
 10
44.8250002170801
 20
18.7837350779148
 40
0.700342039046728
 50
6.75533067441916
 51
49.6550572808496
  0
ARC
  8
0050010008
 10
42.9785671102458
 20
20.3135331331509
 40
2.50624523066885
 50
336.583188924886
 51
23.5096204390779
  0
ARC
  8
0050010008
 10
44.8232905967057
 20
21.8469760138528
 40
0.70034203922929
 50
310.354949149331
 51
353.244669188806
  0
ARC
  8
0050010008
 10
44.8232905967057
 20
21.6822138385158
 40
0.700342039046728
 50
6.75533067441916
 51
49.6450508506688
  0
ARC
  8
0050010008
 10
42.9785671102458
 20
23.2156567192177
 40
2.50624523066885
 50
336.490379560922
 51
17.6463162967719
  0
ARC
  8
0050010008
 10
44.6402269122987
 20
24.4892480647759
 40
0.889982364072585
 50
324.734364848709
 51
13.9464796357875
  0
ARC
  8
0050010008
 10
45.1669394186455
 20
24.0413411337594
 40
0.743218938042776
 50
63.032874903453
 51
113.59678490239
  0
ARC
  8
0050010008
 10
44.1872232189594
 20
23.8167223996147
 40
1.13388174686747
 50
53.0113649083747
 51
124.259826302678
  0
ARC
  8
0050010008
 10
42.9716044663542
 20
24.3143826547558
 40
0.725552896016904
 50
37.2810093025876
 51
71.5973090856809
  0
ARC
  8
0050010008
 10
43.4297092790694
 20
24.3143826547559
 40
0.725552896016905
 50
108.402690914319
 51
142.718990697413
  0
LINE
  8
0050010008
 10
43.581243624777
 20
22.1742216076085
 11
43.5812436247771
 21
24.2581466812243
  0
LINE
  8
0050010008
 10
43.581243624777
 20
24.2581466812243
 11
42.981243624777
 21
24.2581466812243
  0
LINE
  8
0050010008
 10
44.981243624777
 20
22.1742216076085
 11
43.581243624777
 21
22.1742216076085
  0
LINE
  8
0050010008
 10
44.981243624777
 20
22.1742216076085
 11
44.981243624777
 21
21.5742216076085
  0
LINE
  8
0050010008
 10
44.981243624777
 20
21.5742216076085
 11
43.581243624777
 21
21.5742216076085
  0
LINE
  8
0050010008
 10
43.581243624777
 20
18.2639244127107
 11
43.5812436247771
 21
21.5742216076085
  0
ARC
  8
0050010008
 10
43.2226758827935
 20
17.029773696098
 40
1.28518435133125
 50
73.7994086199568
 51
79.3917657485703
  0
LINE
  8
0050010008
 10
43.671243624777
 20
22.2642216076085
 11
43.6712436247771
 21
24.3481466812243
  0
LINE
  8
0050010008
 10
43.671243624777
 20
24.3481466812243
 11
43.2456568727118
 21
24.3481466812243
  0
LINE
  8
0050010008
 10
43.2456568727118
 20
24.3481466812243
 11
43.2456568727118
 21
24.8878133499624
  0
ARC
  8
0050010008
 10
42.9716044663542
 20
24.3143826547558
 40
0.635552896016904
 50
29.2253969644727
 51
64.4560611185324
  0
ARC
  8
0050010004
 10
44.1872232189594
 20
23.8167223996147
 40
1.04388174686747
 50
90.0222840202206
 51
129.28534480977
  0
LINE
  8
0050010008
 10
44.1868172225393
 20
24.8606040675302
 11
43.8723161735441
 21
22.2642216076085
  0
LINE
  8
0050010008
 10
43.8723161735441
 20
22.2642216076085
 11
43.671243624777
 21
22.2642216076085
  0
LINE
  8
0050010008
 10
42.891243624777
 20
22.2642216076085
 11
42.891243624777
 21
24.3481466812243
  0
LINE
  8
0050010008
 10
42.891243624777
 20
24.3481466812243
 11
43.1556568727118
 21
24.3481466812243
  0
LINE
  8
0050010008
 10
43.1556568727118
 20
24.3481466812243
 11
43.1556568727118
 21
24.8878133499624
  0
ARC
  8
0050010008
 10
43.4297092790694
 20
24.3143826547559
 40
0.635552896016904
 50
115.543938881469
 51
150.774603035527
  0
ARC
  8
0050010004
 10
42.2140905264642
 20
23.8167223996147
 40
1.04388174686747
 50
50.7146551902299
 51
90.2955931769593
  0
LINE
  8
0050010008
 10
42.2087050869823
 20
24.8605902545105
 11
42.4735207993352
 21
22.2642216076085
  0
LINE
  8
0050010008
 10
42.4735207993352
 20
22.2642216076085
 11
42.891243624777
 21
22.2642216076085
  0
ARC
  8
0050010008
 10
43.4190579914001
 20
15.8856650696255
 40
0.571770957798606
 50
269.433048257136
 51
286.478462208869
  0
LINE
  8
0050010008
 10
43.581243624777
 20
15.337378786277
 11
43.581243624777
 21
14.6767441676736
  0
LINE
  8
0050010008
 10
43.581243624777
 20
14.6767441676736
 11
42.981243624777
 21
14.6767441676736
  0
LINE
  8
0050010008
 10
42.981243624777
 20
15.7551411069607
 11
42.981243624777
 21
14.6767441676736
  0
ARC
  8
0050010008
 10
43.1902047666514
 20
16.5694067186649
 40
0.840650489333983
 50
255.607045999847
 51
279.242478915628
  0
ARC
  8
0050010006
 10
42.9785671102458
 20
20.3135331331509
 40
2.41624523066885
 50
345.649942085743
 51
25.1768507737427
  0
ARC
  8
0050010006
 10
44.8232905967057
 20
21.8469760138528
 40
0.610342039229293
 50
304.076706144377
 51
352.242809543665
  0
ARC
  8
0050010006
 10
44.8232905967057
 20
21.6822138385158
 40
0.610342039229293
 50
7.75719045633468
 51
55.5631537747784
  0
ARC
  8
0050010008
 10
41.2343743267781
 20
24.0413411337594
 40
0.653218938042774
 50
61.7508572887921
 51
112.903317201686
  0
ARC
  8
0050010004
 10
42.2140905264642
 20
23.8167223996147
 40
1.04388174686747
 50
95.2440072252849
 51
129.967706735415
  0
LINE
  8
0050010008
 10
42.1186823828248
 20
24.8562349717226
 11
42.3830538796325
 21
22.2642216076085
  0
LINE
  8
0050010008
 10
42.3830538796326
 20
22.2642216076085
 11
41.552476325661
 21
22.2642216076085
  0
LINE
  8
0050010008
 10
41.552476325661
 20
22.2642216076085
 11
41.1054535710803
 21
23.885922726892
  0
ARC
  8
0050010006
 10
43.4268722092596
 20
23.2156567192177
 40
2.41624523066885
 50
161.262809786793
 51
163.894920659001
  0
ARC
  8
0050010006
 10
41.7652124072067
 20
24.4892480647759
 40
0.799982364072585
 50
168.914602358593
 51
218.447452056176
  0
ARC
  8
0050010008
 10
43.4190579914001
 20
15.8856650696255
 40
0.571770957798606
 50
296.17157025382
 51
323.915440923085
  0
ARC
  8
0050010008
 10
44.8208930297436
 20
17.9856910371164
 40
2.61171920276356
 50
248.910615493087
 51
277.929520396544
  0
LINE
  8
0050010008
 10
44.168721519711
 20
16.0426135636497
 11
44.1315753275077
 21
16.0336656898142
  0
ARC
  8
0050010010
 10
44.3785263685861
 20
16.4414088540211
 40
0.45061708604306
 50
242.251294421008
 51
309.891481695602
  0
ARC
  8
0050010008
 10
43.3023355076362
 20
16.522392631364
 40
0.73612949565454
 50
144.579699977707
 51
156.062000357226
  0
ARC
  8
0050010010
 10
43.2958287597889
 20
17.6775757301627
 40
1.08515175176774
 50
211.163998307567
 51
232.119271697616
  0
ARC
  8
0050010008
 10
41.8172488823987
 20
17.5010523688698
 40
0.671400427107827
 50
325.007110116435
 51
345.975709816449
  0
ARC
  8
0050010010
 10
44.1848827267762
 20
18.525867288964
 40
2.08703080249135
 50
214.680422760345
 51
223.956892408564
  0
ARC
  8
0050010008
 10
44.7165994940426
 20
17.3279572894221
 40
2.04948657455926
 50
187.027150188387
 51
190.654621355497
  0
ARC
  8
0050010008
 10
40.7708314085823
 20
20.0893655975267
 40
0.711362440975851
 50
304.751359240936
 51
335.565267206995
  0
ARC
  8
0050010008
 10
41.790577763139
 20
18.8852177702252
 40
0.872526448724271
 50
134.748773288761
 51
136.558605789475
  0
ARC
  8
0050010006
 10
43.4268722092596
 20
20.3135331331509
 40
2.41624523066885
 50
188.204136489722
 51
200.049238893771
  0
ARC
  8
0050010008
 10
41.4068841843212
 20
20.279031802894
 40
0.484064732725124
 50
219.86832648742
 51
271.372574013239
  0
ARC
  8
0050010008
 10
42.2678503193078
 20
18.5702568183553
 40
0.433058308186565
 50
41.5348668918384
 51
63.0167440740156
  0
LINE
  8
0050010008
 10
42.4643419058873
 20
18.9561720353303
 11
42.2955565540019
 21
19.5684885030411
  0
ARC
  8
0050010008
 10
42.4166195853156
 20
20.3140194484049
 40
0.755296397479798
 50
260.776534215172
 51
288.402605451817
  0
LINE
  8
0050010008
 10
42.6550607557634
 20
19.5973476572191
 11
42.7406426664359
 21
18.7582653095831
  0
ARC
  8
0050010008
 10
42.8070870731435
 20
19.0188479720205
 40
0.268920402992534
 50
216.89346356004
 51
255.69530951504
  0
LINE
  8
0050010008
 10
42.2238562418562
 20
19.0325196578216
 11
42.2040381795745
 21
19.0325196578216
  0
ARC
  8
0050010008
 10
41.1548994975192
 20
18.5642342300305
 40
1.14890522501476
 50
24.0537038861443
 51
39.3205071707352
  0
ARC
  8
0050010008
 10
42.9360304958605
 20
19.3687749008618
 40
0.89559805454925
 50
168.735701031185
 51
184.901841517418
  0
ARC
  8
0050010008
 10
41.9927880711683
 20
19.7467924807037
 40
0.213193296191766
 50
287.722247328892
 51
318.741780878795
  0
LINE
  8
0050010008
 10
42.1530551116866
 20
19.6062013811824
 11
42.1933037669414
 21
19.6007617514273
  0
LINE
  8
0050010008
 10
42.1933037669414
 20
19.6007617514273
 11
42.2123388653677
 21
19.5317065632801
  0
ARC
  8
0050010010
 10
43.736365518438
 20
19.3171430033027
 40
1.53905645138141
 50
171.986153956677
 51
190.657264769814
  0
ARC
  8
0050010008
 10
42.4166195853156
 20
20.3140194484049
 40
0.755296397479798
 50
295.514399372849
 51
308.931764633977
  0
LINE
  8
0050010008
 10
42.891243624777
 20
19.7264782420106
 11
42.891243624777
 21
18.7634348596656
  0
ARC
  8
0050010008
 10
42.8070870731435
 20
19.0188479720205
 40
0.268920402992534
 50
275.282050008441
 51
288.236632934912
  0
LINE
  8
0050010008
 10
42.8318435185978
 20
18.7510695159152
 11
42.7419543828537
 21
19.6323817751819
  0
ARC
  8
0050010008
 10
42.7034943442975
 20
20.1226792247025
 40
1.41545667693218
 50
105.864615143331
 51
126.285605674395
  0
ARC
  8
0050010008
 10
41.5563578845064
 20
20.89398107604
 40
0.482093542066886
 50
50.0666310209667
 51
57.0330232705659
  0
LINE
  8
0050010008
 10
41.8186917679752
 20
21.2984500079578
 11
41.7674837301863
 21
21.4842216076085
  0
LINE
  8
0050010008
 10
41.7674837301863
 20
21.4842216076085
 11
42.3165577295625
 21
21.4842216076085
  0
LINE
  8
0050010008
 10
45.071243624777
 20
21.8606087178513
 11
45.168437498374
 21
22.1855934379428
  0
LINE
  8
0050010008
 10
45.071243624777
 20
21.4842216076085
 11
45.071243624777
 21
21.8606087178513
  0
LINE
  8
0050010008
 10
45.071243624777
 20
21.4842216076085
 11
44.9586767286898
 21
21.4842216076085
  0
LINE
  8
0050010008
 10
43.944489683232
 20
18.0931097927313
 11
44.9586767286898
 21
21.4842216076084
  0
ARC
  8
0050010008
 10
43.2226758827935
 20
17.029773696098
 40
1.28518435133125
 50
40.0557191986335
 51
55.8305551089479
  0
LINE
  8
0050010008
 10
44.2063803789461
 20
17.8568313005947
 11
45.3194244377788
 21
19.7146775688741
  0
ARC
  8
0050010008
 10
43.2226758827935
 20
17.029773696098
 40
1.28518435133125
 50
59.9940031779233
 51
69.5720101778625
  0
LINE
  8
0050010008
 10
43.671243624777
 20
18.2341348536245
 11
43.6712436247771
 21
19.8558235281595
  0
LINE
  8
0050010008
 10
43.671243624777
 20
19.8558235281594
 11
43.7935411899682
 21
20.8654584853971
  0
ARC
  8
0050010008
 10
43.9711567806954
 20
21.1145638722329
 40
0.305942464885168
 50
234.510604654002
 51
330.137198516901
  0
ARC
  8
0050010008
 10
43.7785774487565
 20
21.1972657474101
 40
0.514698254030218
 50
332.828693569115
 51
33.8846350622587
  0
LINE
  8
0050010008
 10
44.2058602906769
 20
21.4842216076085
 11
44.8647379318992
 21
21.4842216076085
  0
LINE
  8
0050010008
 10
44.8647379318992
 20
21.4842216076084
 11
43.8653845465342
 21
18.1427087303472
  0
LINE
  8
0050010008
 10
43.9629740358689
 20
22.2642216076085
 11
44.2770065305662
 21
24.8567358891426
  0
LINE
  8
0050010008
 10
43.9629740358689
 20
22.2642216076085
 11
45.0980141960396
 21
22.2642216076085
  0
LINE
  8
0030010003
 10
41.6599410306675
 20
20.0478048468647
 11
41.737253860404
 21
20.027244536601
  0
ARC
  8
0030010003
 10
43.1694562707777
 20
19.6463695121314
 40
1.56198162220216
 50
120.883566602694
 51
165.107643138532
  0
LINE
  8
0030010003
 10
42.367698721213
 20
20.9868811382702
 11
42.3787717105386
 21
20.9702261418008
  0
ARC
  8
0030010003
 10
43.4017166141446
 20
19.5846029885433
 40
1.72231466307894
 50
126.436828240108
 51
165.107643138532
  0
LINE
  8
0030010003
 10
41.8678349619243
 20
20.1398761384175
 11
41.9318333178098
 21
20.0918739463431
  0
ARC
  8
0030010003
 10
42.1295490540988
 20
19.943576562478
 40
0.327151019495178
 50
8.43254481588792
 51
143.128139881852
  0
LINE
  8
0030010003
 10
42.4531633080911
 20
19.9915515994215
 11
42.433513017252
 21
19.9878278822009
  0
ARC
  8
0030010003
 10
42.1582427806498
 20
19.9220547318907
 40
0.283019099109476
 50
13.4383094305985
 51
143.128139881852
  0
LINE
  8
0030010003
 10
41.6456266614437
 20
20.2370832861052
 11
41.5701253085095
 21
20.2635322124561
  0
ARC
  8
0030010003
 10
40.9868516521437
 20
20.4678591732337
 40
0.698027236544642
 50
340.694099935396
 51
49.4298653257928
  0
LINE
  8
0030010003
 10
41.4408334614988
 20
20.9980879349326
 11
41.4268779961274
 21
20.9837615611323
  0
ARC
  8
0030010003
 10
40.8884816169436
 20
20.5023192420275
 40
0.722258518636601
 50
340.694099935396
 51
41.8035718139416
  0
LINE
  8
0030010003
 10
41.6807627454024
 20
17.631384133541
 11
41.756019692095
 21
17.6585206766977
  0
ARC
  8
0030010003
 10
44.812404560308
 20
18.7606079061818
 40
3.3290128845594
 50
175.256916095938
 51
199.82855477485
  0
LINE
  8
0030010003
 10
41.4947919106523
 20
19.0358770334143
 11
41.5147749216664
 21
19.0350528545427
  0
ARC
  8
0030010003
 10
45.583822462225
 20
19.0387698049465
 40
4.06904923821844
 50
180.052337926614
 51
199.82855477485
  0
LINE
  8
0030010003
 10
41.8208794094077
 20
17.7582775757103
 11
41.8996137774747
 21
17.7724514702027
  0
ARC
  8
0030010003
 10
42.3829023422872
 20
17.8594538974172
 40
0.571057287105844
 50
86.3956994981711
 51
190.205177808039
  0
LINE
  8
0030010003
 10
42.4188021037156
 20
18.4293816404567
 11
42.4183897885952
 21
18.4093858910023
  0
ARC
  8
0030010003
 10
42.4322736261633
 20
17.8683417996865
 40
0.541222199926619
 50
91.4699555352664
 51
190.205177808039
  0
LINE
  8
0030010003
 10
41.5664779106033
 20
17.6999719143038
 11
41.4892743925456
 21
17.6790048735131
  0
ARC
  8
0030010003
 10
40.8402191542961
 20
17.5027335325408
 40
0.752565452537696
 50
15.1939934081109
 51
96.5460451818994
  0
LINE
  8
0030010003
 10
40.7544254500397
 20
18.2503926799223
 11
40.755763061401
 21
18.2304374601578
  0
ARC
  8
0030010003
 10
40.767978305942
 20
17.4831142606176
 40
0.74742302397656
 50
15.1939934081109
 51
90.9364350514241
  0
LINE
  8
0030010003
 10
43.8068598327119
 20
16.2911374562001
 11
43.8690890345505
 21
16.3414119670234
  0
ARC
  8
0030010003
 10
45.8615678357782
 20
17.9511208191041
 40
2.56147113233951
 50
186.218507709416
 51
218.934487572283
  0
LINE
  8
0030010003
 10
43.2952157432524
 20
17.6722847436892
 11
43.3151683327149
 21
17.6736610335359
  0
ARC
  8
0030010003
 10
45.6021584353645
 20
17.7415458876662
 40
2.30798216863874
 50
181.71966974358
 51
218.934487572283
  0
LINE
  8
0030010003
 10
43.94525427387
 20
16.4463628436165
 11
44.0226527482827
 21
16.4665983608717
  0
ARC
  8
0030010003
 10
44.6252131023704
 20
16.6241353218385
 40
0.702813675499233
 50
85.7609527108634
 51
194.651789549786
  0
LINE
  8
0030010003
 10
44.6771635807671
 20
17.3250263335251
 11
44.6763075662894
 21
17.3050446609421
  0
ARC
  8
0030010003
 10
44.6700948763234
 20
16.635869479626
 40
0.669204020315245
 50
89.4680754791131
 51
194.651789549786
  0
LINE
  8
0030010003
 10
43.6765592112208
 20
16.2932629401758
 11
43.6315553705016
 21
16.227121770542
  0
ARC
  8
0030010003
 10
43.3375909914995
 20
15.7950886918716
 40
0.60255874041827
 50
55.7678066573993
 51
132.531816695123
  0
LINE
  8
0030010003
 10
42.9302615733959
 20
16.2391154712463
 11
42.9428044503905
 21
16.2235374021523
  0
ARC
  8
0030010003
 10
43.2897845961415
 20
15.7248286684064
 40
0.607540634574993
 50
55.7678066573993
 51
124.828540500808
  0
ARC
  8
0050010010
 10
2.32310989706203
 20
17.074152032791
 40
0.295123542746918
 50
300.844862172539
 51
14.5748142005173
  0
ARC
  8
0050010008
 10
2.47175497546288
 20
17.174462703549
 40
0.353701630462007
 50
270.432396147184
 51
62.8467820899893
  0
ARC
  8
0050010010
 10
45.676890102938
 20
17.074152032791
 40
0.295123542746918
 50
165.425185799483
 51
239.155137827466
  0
ARC
  8
0050010008
 10
45.5282450245371
 20
17.174462703549
 40
0.353701630462007
 50
117.153217910011
 51
269.567603852819
  0
ENDSEC
  0
EOF
