  0
SECTION
  2
ENTITIES
  0
POLYLINE
  8
EGA-301.PLT
 62
7
 66
1
  0
VERTEX
  8
EGA-301.PLT
 62
7
 10
62.27700000
 20
.00300000
  0
VERTEX
  8
EGA-301.PLT
 62
7
 10
62.27700000
 20
21.68600000
  0
VERTEX
  8
EGA-301.PLT
 62
7
 10
62.27700000
 20
22.18600000
  0
VERTEX
  8
EGA-301.PLT
 62
7
 10
62.27700000
 20
23.50300000
  0
VERTEX
  8
EGA-301.PLT
 62
7
 10
61.77800000
 20
23.50300000
  0
VERTEX
  8
EGA-301.PLT
 62
7
 10
33.66200000
 20
23.50300000
  0
VERTEX
  8
EGA-301.PLT
 62
7
 10
33.16300000
 20
23.50300000
  0
VERTEX
  8
EGA-301.PLT
 62
7
 10
33.16300000
 20
22.18600000
  0
VERTEX
  8
EGA-301.PLT
 62
7
 10
33.16300000
 20
21.68600000
  0
VERTEX
  8
EGA-301.PLT
 62
7
 10
33.16300000
 20
.00300000
  0
SEQEND
  0
POLYLINE
  8
EGA-301.PLT
 62
7
 66
1
  0
VERTEX
  8
EGA-301.PLT
 62
7
 10
33.16300000
 20
.00300000
  0
VERTEX
  8
EGA-301.PLT
 62
7
 10
62.27700000
 20
.00300000
  0
SEQEND
  0
POLYLINE
  8
EGA-301.PLT
 62
7
 66
1
  0
VERTEX
  8
EGA-301.PLT
 62
7
 10
61.77800000
 20
23.50300000
  0
VERTEX
  8
EGA-301.PLT
 62
7
 10
61.77800000
 20
24.00300000
  0
VERTEX
  8
EGA-301.PLT
 62
7
 10
33.66200000
 20
24.00300000
  0
SEQEND
  0
POLYLINE
  8
EGA-301.PLT
 62
7
 66
1
  0
VERTEX
  8
EGA-301.PLT
 62
7
 10
69.42500000
 20
13.28400035
  0
VERTEX
  8
EGA-301.PLT
 62
7
 10
69.42500000
 20
0.00000000
  0
VERTEX
  8
EGA-301.PLT
 62
7
 10
87.42500000
 20
0.00000000
  0
VERTEX
  8
EGA-301.PLT
 62
7
 10
87.42500000
 20
13.28400035
  0
VERTEX
  8
EGA-301.PLT
 62
7
 10
87.42500000
 20
13.78400062
  0
VERTEX
  8
EGA-301.PLT
 62
7
 10
87.42472105
 20
15.49476513
  0
VERTEX
  8
EGA-301.PLT
 62
7
 10
86.93349268
 20
15.49476513
  0
SEQEND
  0
POLYLINE
  8
EGA-301.PLT
 62
7
 66
1
  0
VERTEX
  8
EGA-301.PLT
 62
7
 10
69.42500000
 20
13.77233321
  0
VERTEX
  8
EGA-301.PLT
 62
7
 10
87.42500000
 20
13.77233321
  0
VERTEX
  8
EGA-301.PLT
 62
7
 10
87.42900000
 20
13.77233321
  0
VERTEX
  8
EGA-301.PLT
 62
7
 10
87.42900000
 20
13.28366679
  0
VERTEX
  8
EGA-301.PLT
 62
7
 10
87.42500000
 20
13.28366679
  0
VERTEX
  8
EGA-301.PLT
 62
7
 10
69.42500000
 20
13.28366679
  0
SEQEND
  0
POLYLINE
  8
EGA-301.PLT
 62
7
 66
1
 70
1
  0
VERTEX
  8
EGA-301.PLT
 62
7
 10
8.47677974
 20
15.50000045
  0
VERTEX
  8
EGA-301.PLT
 62
7
 10
8.00000000
 20
15.50000045
  0
VERTEX
  8
EGA-301.PLT
 62
7
 10
8.00131090
 20
13.78400027
  0
VERTEX
  8
EGA-301.PLT
 62
7
 10
8.00131090
 20
13.28400060
  0
VERTEX
  8
EGA-301.PLT
 62
7
 10
8.00131090
 20
0.00000000
  0
VERTEX
  8
EGA-301.PLT
 62
7
 10
25.96592725
 20
0.00000000
  0
VERTEX
  8
EGA-301.PLT
 62
7
 10
25.98278134
 20
13.27887491
  0
VERTEX
  8
EGA-301.PLT
 62
7
 10
8.00394663
 20
13.27887491
  0
VERTEX
  8
EGA-301.PLT
 62
7
 10
8.00394663
 20
13.77887458
  0
VERTEX
  8
EGA-301.PLT
 62
7
 10
25.98278134
 20
13.77887458
  0
VERTEX
  8
EGA-301.PLT
 62
7
 10
25.98278134
 20
15.50000045
  0
VERTEX
  8
EGA-301.PLT
 62
7
 10
25.98278134
 20
16.00000119
  0
VERTEX
  8
EGA-301.PLT
 62
7
 10
8.47677974
 20
16.00000119
  0
SEQEND
  0
POLYLINE
  8
EGA-301.PLT
 62
7
 66
1
  0
VERTEX
  8
EGA-301.PLT
 62
7
 10
8.43221800
 20
15.50000000
  0
VERTEX
  8
EGA-301.PLT
 62
7
 10
26.00000019
 20
15.50000000
  0
SEQEND
  0
POLYLINE
  8
EGA-301.PLT
 62
7
 66
1
  0
VERTEX
  8
EGA-301.PLT
 62
7
 10
86.92500000
 20
15.50000000
  0
VERTEX
  8
EGA-301.PLT
 62
7
 10
69.42500000
 20
15.50000000
  0
VERTEX
  8
EGA-301.PLT
 62
7
 10
69.37400000
 20
15.50000000
  0
SEQEND
  0
POLYLINE
  8
EGA-301.PLT
 62
7
 66
1
  0
VERTEX
  8
EGA-301.PLT
 62
7
 10
86.93100000
 20
15.50300000
  0
VERTEX
  8
EGA-301.PLT
 62
7
 10
86.93100000
 20
16.00000000
  0
VERTEX
  8
EGA-301.PLT
 62
7
 10
69.42500000
 20
16.00000000
  0
VERTEX
  8
EGA-301.PLT
 62
7
 10
69.42500000
 20
15.50000000
  0
VERTEX
  8
EGA-301.PLT
 62
7
 10
69.42500000
 20
13.78400000
  0
SEQEND
  0
POLYLINE
  8
EGA-301.PLT
 62
7
 66
1
 70
1
  0
VERTEX
  8
EGA-301.PLT
 62
7
 10
8.00000000
 20
.00600000
  0
VERTEX
  8
EGA-301.PLT
 62
7
 10
8.00000000
 20
16.00700000
  0
VERTEX
  8
EGA-301.PLT
 62
7
 10
0.00000000
 20
16.00700000
  0
VERTEX
  8
EGA-301.PLT
 62
7
 10
0.00000000
 20
.00600000
  0
SEQEND
  0
POLYLINE
  8
EGA-301.PLT
 62
7
 66
1
 70
1
  0
VERTEX
  8
EGA-301.PLT
 62
7
 10
87.44100000
 20
.00600000
  0
VERTEX
  8
EGA-301.PLT
 62
7
 10
95.44100000
 20
.00600000
  0
VERTEX
  8
EGA-301.PLT
 62
7
 10
95.44100000
 20
16.00700000
  0
VERTEX
  8
EGA-301.PLT
 62
7
 10
87.44100000
 20
16.00700000
  0
SEQEND
  0
POLYLINE
  8
EGA-301.PLT
 62
7
 66
1
  0
VERTEX
  8
EGA-301.PLT
 62
7
 10
0.00000000
 20
15.49900000
  0
VERTEX
  8
EGA-301.PLT
 62
7
 10
7.99700000
 20
15.49900000
  0
SEQEND
  0
POLYLINE
  8
EGA-301.PLT
 62
7
 66
1
  0
VERTEX
  8
EGA-301.PLT
 62
7
 10
95.44100000
 20
15.49900000
  0
VERTEX
  8
EGA-301.PLT
 62
7
 10
87.44400000
 20
15.49900000
  0
SEQEND
  0
POLYLINE
  8
EGA-301.PLT
 62
7
 66
1
  0
VERTEX
  8
EGA-301.PLT
 62
7
 10
0.00000000
 20
13.78000000
  0
VERTEX
  8
EGA-301.PLT
 62
7
 10
7.99700000
 20
13.78000000
  0
SEQEND
  0
POLYLINE
  8
EGA-301.PLT
 62
7
 66
1
  0
VERTEX
  8
EGA-301.PLT
 62
7
 10
0.00000000
 20
13.28100000
  0
VERTEX
  8
EGA-301.PLT
 62
7
 10
7.99700000
 20
13.28100000
  0
SEQEND
  0
POLYLINE
  8
EGA-301.PLT
 62
7
 66
1
  0
VERTEX
  8
EGA-301.PLT
 62
7
 10
95.44200000
 20
13.78000000
  0
VERTEX
  8
EGA-301.PLT
 62
7
 10
87.44400000
 20
13.78000000
  0
SEQEND
  0
POLYLINE
  8
EGA-301.PLT
 62
7
 66
1
  0
VERTEX
  8
EGA-301.PLT
 62
7
 10
95.44200000
 20
13.28100000
  0
VERTEX
  8
EGA-301.PLT
 62
7
 10
87.44400000
 20
13.28100000
  0
SEQEND
  0
POLYLINE
  8
EGA-301.PLT
 62
7
 66
1
 70
1
  0
VERTEX
  8
EGA-301.PLT
 62
7
 10
33.16200000
 20
21.68600000
  0
VERTEX
  8
EGA-301.PLT
 62
7
 10
26.51200000
 20
21.68600000
  0
VERTEX
  8
EGA-301.PLT
 62
7
 10
26.01200000
 20
21.68600000
  0
VERTEX
  8
EGA-301.PLT
 62
7
 10
26.01200000
 20
0.00000000
  0
VERTEX
  8
EGA-301.PLT
 62
7
 10
33.16200000
 20
0.00000000
  0
SEQEND
  0
POLYLINE
  8
EGA-301.PLT
 62
7
 66
1
 70
1
  0
VERTEX
  8
EGA-301.PLT
 62
7
 10
62.27800000
 20
21.68600000
  0
VERTEX
  8
EGA-301.PLT
 62
7
 10
62.27800000
 20
0.00000000
  0
VERTEX
  8
EGA-301.PLT
 62
7
 10
69.42800000
 20
0.00000000
  0
VERTEX
  8
EGA-301.PLT
 62
7
 10
69.42800000
 20
21.68600000
  0
VERTEX
  8
EGA-301.PLT
 62
7
 10
68.92800000
 20
21.68600000
  0
SEQEND
  0
POLYLINE
  8
EGA-301.PLT
 62
7
 66
1
  0
VERTEX
  8
EGA-301.PLT
 62
7
 10
62.27700000
 20
22.18600000
  0
VERTEX
  8
EGA-301.PLT
 62
7
 10
68.92700000
 20
22.18600000
  0
SEQEND
  0
POLYLINE
  8
EGA-301.PLT
 62
7
 66
1
  0
VERTEX
  8
EGA-301.PLT
 62
7
 10
33.16300000
 20
22.18600000
  0
VERTEX
  8
EGA-301.PLT
 62
7
 10
26.51300000
 20
22.18600000
  0
SEQEND
  0
POLYLINE
  8
EGA-301.PLT
 62
7
 66
1
 70
1
  0
VERTEX
  8
EGA-301.PLT
 62
7
 10
27.93300000
 20
2.65500000
  0
VERTEX
  8
EGA-301.PLT
 62
7
 10
27.93300000
 20
19.03900000
  0
VERTEX
  8
EGA-301.PLT
 62
7
 10
31.38500000
 20
19.03900000
  0
VERTEX
  8
EGA-301.PLT
 62
7
 10
31.38500000
 20
2.65500000
  0
SEQEND
  0
POLYLINE
  8
EGA-301.PLT
 62
7
 66
1
 70
1
  0
VERTEX
  8
EGA-301.PLT
 62
7
 10
67.57900000
 20
2.65500000
  0
VERTEX
  8
EGA-301.PLT
 62
7
 10
64.12700000
 20
2.65500000
  0
VERTEX
  8
EGA-301.PLT
 62
7
 10
64.12700000
 20
19.03900000
  0
VERTEX
  8
EGA-301.PLT
 62
7
 10
67.57900000
 20
19.03900000
  0
SEQEND
  0
POLYLINE
  8
EGA-301.PLT
 62
7
 66
1
 70
1
  0
VERTEX
  8
EGA-301.PLT
 62
7
 10
28.01300000
 20
2.73500000
  0
VERTEX
  8
EGA-301.PLT
 62
7
 10
31.30500000
 20
2.73500000
  0
VERTEX
  8
EGA-301.PLT
 62
7
 10
31.30500000
 20
18.95900000
  0
VERTEX
  8
EGA-301.PLT
 62
7
 10
28.01300000
 20
18.95900000
  0
SEQEND
  0
POLYLINE
  8
EGA-301.PLT
 62
7
 66
1
 70
1
  0
VERTEX
  8
EGA-301.PLT
 62
7
 10
67.49900000
 20
2.73500000
  0
VERTEX
  8
EGA-301.PLT
 62
7
 10
67.49900000
 20
18.95900000
  0
VERTEX
  8
EGA-301.PLT
 62
7
 10
64.20700000
 20
18.95900000
  0
VERTEX
  8
EGA-301.PLT
 62
7
 10
64.20700000
 20
2.73500000
  0
SEQEND
  0
POLYLINE
  8
EGA-301.PLT
 62
7
 66
1
 70
1
  0
VERTEX
  8
EGA-301.PLT
 62
7
 10
67.25000000
 20
2.98500000
  0
VERTEX
  8
EGA-301.PLT
 62
7
 10
64.45800000
 20
2.98500000
  0
VERTEX
  8
EGA-301.PLT
 62
7
 10
64.45800000
 20
18.70900000
  0
VERTEX
  8
EGA-301.PLT
 62
7
 10
67.25000000
 20
18.70900000
  0
SEQEND
  0
POLYLINE
  8
EGA-301.PLT
 62
7
 66
1
 70
1
  0
VERTEX
  8
EGA-301.PLT
 62
7
 10
28.26200000
 20
2.98500000
  0
VERTEX
  8
EGA-301.PLT
 62
7
 10
28.26200000
 20
18.70900000
  0
VERTEX
  8
EGA-301.PLT
 62
7
 10
31.05400000
 20
18.70900000
  0
VERTEX
  8
EGA-301.PLT
 62
7
 10
31.05400000
 20
2.98500000
  0
SEQEND
  0
POLYLINE
  8
EGA-301.PLT
 62
7
 66
1
 70
1
  0
VERTEX
  8
EGA-301.PLT
 62
7
 10
30.02199988
 20
16.15399992
  0
VERTEX
  8
EGA-301.PLT
 62
7
 10
29.97219054
 20
16.09237073
  0
VERTEX
  8
EGA-301.PLT
 62
7
 10
29.92136990
 20
16.03712570
  0
VERTEX
  8
EGA-301.PLT
 62
7
 10
29.86669989
 20
15.98472974
  0
VERTEX
  8
EGA-301.PLT
 62
7
 10
29.80534246
 20
15.93164780
  0
VERTEX
  8
EGA-301.PLT
 62
7
 10
29.76911826
 20
15.90442855
  0
VERTEX
  8
EGA-301.PLT
 62
7
 10
29.73114734
 20
15.88015769
  0
VERTEX
  8
EGA-301.PLT
 62
7
 10
29.69682597
 20
15.86119143
  0
VERTEX
  8
EGA-301.PLT
 62
7
 10
29.67155043
 20
15.84988601
  0
VERTEX
  8
EGA-301.PLT
 62
7
 10
29.67024967
 20
15.91641038
  0
VERTEX
  8
EGA-301.PLT
 62
7
 10
29.66560412
 20
15.99408408
  0
VERTEX
  8
EGA-301.PLT
 62
7
 10
29.66246442
 20
16.01986476
  0
VERTEX
  8
EGA-301.PLT
 62
7
 10
29.65580699
 20
16.04443677
  0
VERTEX
  8
EGA-301.PLT
 62
7
 10
29.64600701
 20
16.06775568
  0
VERTEX
  8
EGA-301.PLT
 62
7
 10
29.63343964
 20
16.08977711
  0
VERTEX
  8
EGA-301.PLT
 62
7
 10
29.61848005
 20
16.11045664
  0
VERTEX
  8
EGA-301.PLT
 62
7
 10
29.60150342
 20
16.12974988
  0
VERTEX
  8
EGA-301.PLT
 62
7
 10
29.58288491
 20
16.14761242
  0
VERTEX
  8
EGA-301.PLT
 62
7
 10
29.56299970
 20
16.16399986
  0
VERTEX
  8
EGA-301.PLT
 62
7
 10
29.52387492
 20
16.19499969
  0
VERTEX
  8
EGA-301.PLT
 62
7
 10
29.49600008
 20
16.21999954
  0
VERTEX
  8
EGA-301.PLT
 62
7
 10
29.45387486
 20
16.25837514
  0
VERTEX
  8
EGA-301.PLT
 62
7
 10
29.38999976
 20
16.31099995
  0
VERTEX
  8
EGA-301.PLT
 62
7
 10
29.40167157
 20
16.22246853
  0
VERTEX
  8
EGA-301.PLT
 62
7
 10
29.41287463
 20
16.12174975
  0
VERTEX
  8
EGA-301.PLT
 62
7
 10
29.42389019
 20
16.02440614
  0
VERTEX
  8
EGA-301.PLT
 62
7
 10
29.43499950
 20
15.94600017
  0
VERTEX
  8
EGA-301.PLT
 62
7
 10
29.47170296
 20
15.76178122
  0
VERTEX
  8
EGA-301.PLT
 62
7
 10
29.51037489
 20
15.57774994
  0
VERTEX
  8
EGA-301.PLT
 62
7
 10
29.54735915
 20
15.39334367
  0
VERTEX
  8
EGA-301.PLT
 62
7
 10
29.57899961
 20
15.20799972
  0
VERTEX
  8
EGA-301.PLT
 62
7
 10
29.60223439
 20
15.03965622
  0
VERTEX
  8
EGA-301.PLT
 62
7
 10
29.62237518
 20
14.87075013
  0
VERTEX
  8
EGA-301.PLT
 62
7
 10
29.63932831
 20
14.70146887
  0
VERTEX
  8
EGA-301.PLT
 62
7
 10
29.65300012
 20
14.53199985
  0
VERTEX
  8
EGA-301.PLT
 62
7
 10
29.58212506
 20
14.78187482
  0
VERTEX
  8
EGA-301.PLT
 62
7
 10
29.50900001
 20
15.03099980
  0
VERTEX
  8
EGA-301.PLT
 62
7
 10
29.43521863
 20
15.27631230
  0
VERTEX
  8
EGA-301.PLT
 62
7
 10
29.35974993
 20
15.52124980
  0
VERTEX
  8
EGA-301.PLT
 62
7
 10
29.28090625
 20
15.76506231
  0
VERTEX
  8
EGA-301.PLT
 62
7
 10
29.19699993
 20
16.00699983
  0
VERTEX
  8
EGA-301.PLT
 62
7
 10
29.14928130
 20
16.12887483
  0
VERTEX
  8
EGA-301.PLT
 62
7
 10
29.09800002
 20
16.24924984
  0
VERTEX
  8
EGA-301.PLT
 62
7
 10
29.04596875
 20
16.36924986
  0
VERTEX
  8
EGA-301.PLT
 62
7
 10
28.99600014
 20
16.48999987
  0
VERTEX
  8
EGA-301.PLT
 62
7
 10
28.93845304
 20
16.49487485
  0
VERTEX
  8
EGA-301.PLT
 62
7
 10
28.88287485
 20
16.50649989
  0
VERTEX
  8
EGA-301.PLT
 62
7
 10
28.82935916
 20
16.52487506
  0
VERTEX
  8
EGA-301.PLT
 62
7
 10
28.77799952
 20
16.55000045
  0
VERTEX
  8
EGA-301.PLT
 62
7
 10
28.72606230
 20
16.58300028
  0
VERTEX
  8
EGA-301.PLT
 62
7
 10
28.67974996
 20
16.62200016
  0
VERTEX
  8
EGA-301.PLT
 62
7
 10
28.63906242
 20
16.66700018
  0
VERTEX
  8
EGA-301.PLT
 62
7
 10
28.60399958
 20
16.71800042
  0
VERTEX
  8
EGA-301.PLT
 62
7
 10
28.58604656
 20
16.75607835
  0
VERTEX
  8
EGA-301.PLT
 62
7
 10
28.57137477
 20
16.80287506
  0
VERTEX
  8
EGA-301.PLT
 62
7
 10
28.56026546
 20
16.85848439
  0
VERTEX
  8
EGA-301.PLT
 62
7
 10
28.55299987
 20
16.92300019
  0
VERTEX
  8
EGA-301.PLT
 62
7
 10
28.54699991
 20
16.98099986
  0
VERTEX
  8
EGA-301.PLT
 62
7
 10
28.51390994
 20
17.01025000
  0
VERTEX
  8
EGA-301.PLT
 62
7
 10
28.48440598
 20
17.04175007
  0
VERTEX
  8
EGA-301.PLT
 62
7
 10
28.45851143
 20
17.07550007
  0
VERTEX
  8
EGA-301.PLT
 62
7
 10
28.43624972
 20
17.11150005
  0
VERTEX
  8
EGA-301.PLT
 62
7
 10
28.41764429
 20
17.14975001
  0
VERTEX
  8
EGA-301.PLT
 62
7
 10
28.40271856
 20
17.19024998
  0
VERTEX
  8
EGA-301.PLT
 62
7
 10
28.39149596
 20
17.23299998
  0
VERTEX
  8
EGA-301.PLT
 62
7
 10
28.38399990
 20
17.27800003
  0
VERTEX
  8
EGA-301.PLT
 62
7
 10
28.38137492
 20
17.30799986
  0
VERTEX
  8
EGA-301.PLT
 62
7
 10
28.38099992
 20
17.33799969
  0
VERTEX
  8
EGA-301.PLT
 62
7
 10
28.38360928
 20
17.38751557
  0
VERTEX
  8
EGA-301.PLT
 62
7
 10
28.39137486
 20
17.43562495
  0
VERTEX
  8
EGA-301.PLT
 62
7
 10
28.40420291
 20
17.48242166
  0
VERTEX
  8
EGA-301.PLT
 62
7
 10
28.42199969
 20
17.52799954
  0
VERTEX
  8
EGA-301.PLT
 62
7
 10
28.40899976
 20
17.63099988
  0
VERTEX
  8
EGA-301.PLT
 62
7
 10
28.40699977
 20
17.67799961
  0
VERTEX
  8
EGA-301.PLT
 62
7
 10
28.40836305
 20
17.70959349
  0
VERTEX
  8
EGA-301.PLT
 62
7
 10
28.41246851
 20
17.74137480
  0
VERTEX
  8
EGA-301.PLT
 62
7
 10
28.41933960
 20
17.77334357
  0
VERTEX
  8
EGA-301.PLT
 62
7
 10
28.42899976
 20
17.80549982
  0
VERTEX
  8
EGA-301.PLT
 62
7
 10
28.44147246
 20
17.83784356
  0
VERTEX
  8
EGA-301.PLT
 62
7
 10
28.45678113
 20
17.87037483
  0
VERTEX
  8
EGA-301.PLT
 62
7
 10
28.47494923
 20
17.90309363
  0
VERTEX
  8
EGA-301.PLT
 62
7
 10
28.49600019
 20
17.93600000
  0
VERTEX
  8
EGA-301.PLT
 62
7
 10
28.51846882
 20
17.96603110
  0
VERTEX
  8
EGA-301.PLT
 62
7
 10
28.54524992
 20
17.99324979
  0
VERTEX
  8
EGA-301.PLT
 62
7
 10
28.57615599
 20
18.01784368
  0
VERTEX
  8
EGA-301.PLT
 62
7
 10
28.61099954
 20
18.04000034
  0
VERTEX
  8
EGA-301.PLT
 62
7
 10
28.66112507
 20
18.06425020
  0
VERTEX
  8
EGA-301.PLT
 62
7
 10
28.73299978
 20
18.09300004
  0
VERTEX
  8
EGA-301.PLT
 62
7
 10
28.78599948
 20
18.11399992
  0
VERTEX
  8
EGA-301.PLT
 62
7
 10
28.79087459
 20
18.15729669
  0
VERTEX
  8
EGA-301.PLT
 62
7
 10
28.80249985
 20
18.19862490
  0
VERTEX
  8
EGA-301.PLT
 62
7
 10
28.82087506
 20
18.23789062
  0
VERTEX
  8
EGA-301.PLT
 62
7
 10
28.84600006
 20
18.27499993
  0
VERTEX
  8
EGA-301.PLT
 62
7
 10
28.87545304
 20
18.30576553
  0
VERTEX
  8
EGA-301.PLT
 62
7
 10
28.90987482
 20
18.33062508
  0
VERTEX
  8
EGA-301.PLT
 62
7
 10
28.94935924
 20
18.34967217
  0
VERTEX
  8
EGA-301.PLT
 62
7
 10
28.99400015
 20
18.36300036
  0
VERTEX
  8
EGA-301.PLT
 62
7
 10
29.03581243
 20
18.42237517
  0
VERTEX
  8
EGA-301.PLT
 62
7
 10
29.08024978
 20
18.48025016
  0
VERTEX
  8
EGA-301.PLT
 62
7
 10
29.12731229
 20
18.53625016
  0
VERTEX
  8
EGA-301.PLT
 62
7
 10
29.17700004
 20
18.59000000
  0
VERTEX
  8
EGA-301.PLT
 62
7
 10
29.11609358
 20
18.58640627
  0
VERTEX
  8
EGA-301.PLT
 62
7
 10
29.04524986
 20
18.58225004
  0
VERTEX
  8
EGA-301.PLT
 62
7
 10
28.97478113
 20
18.57621883
  0
VERTEX
  8
EGA-301.PLT
 62
7
 10
28.91499967
 20
18.56700013
  0
VERTEX
  8
EGA-301.PLT
 62
7
 10
28.86869103
 20
18.55584586
  0
VERTEX
  8
EGA-301.PLT
 62
7
 10
28.82596838
 20
18.54376574
  0
VERTEX
  8
EGA-301.PLT
 62
7
 10
28.78601137
 20
18.53020903
  0
VERTEX
  8
EGA-301.PLT
 62
7
 10
28.74799969
 20
18.51462496
  0
VERTEX
  8
EGA-301.PLT
 62
7
 10
28.71111301
 20
18.49646279
  0
VERTEX
  8
EGA-301.PLT
 62
7
 10
28.67453098
 20
18.47517174
  0
VERTEX
  8
EGA-301.PLT
 62
7
 10
28.63743329
 20
18.45020108
  0
VERTEX
  8
EGA-301.PLT
 62
7
 10
28.59899961
 20
18.42100003
  0
VERTEX
  8
EGA-301.PLT
 62
7
 10
28.55515216
 20
18.38129483
  0
VERTEX
  8
EGA-301.PLT
 62
7
 10
28.51634369
 20
18.33754670
  0
VERTEX
  8
EGA-301.PLT
 62
7
 10
28.48217576
 20
18.29030642
  0
VERTEX
  8
EGA-301.PLT
 62
7
 10
28.45224998
 20
18.24012478
  0
VERTEX
  8
EGA-301.PLT
 62
7
 10
28.42616793
 20
18.18755258
  0
VERTEX
  8
EGA-301.PLT
 62
7
 10
28.40353119
 20
18.13314060
  0
VERTEX
  8
EGA-301.PLT
 62
7
 10
28.38394135
 20
18.07743962
  0
VERTEX
  8
EGA-301.PLT
 62
7
 10
28.36700000
 20
18.02100045
  0
VERTEX
  8
EGA-301.PLT
 62
7
 10
28.35470319
 20
17.96634396
  0
VERTEX
  8
EGA-301.PLT
 62
7
 10
28.34662512
 20
17.91075015
  0
VERTEX
  8
EGA-301.PLT
 62
7
 10
28.34098452
 20
17.85478134
  0
VERTEX
  8
EGA-301.PLT
 62
7
 10
28.33600018
 20
17.79899985
  0
VERTEX
  8
EGA-301.PLT
 62
7
 10
28.33086715
 20
17.73901230
  0
VERTEX
  8
EGA-301.PLT
 62
7
 10
28.32774827
 20
17.67905257
  0
VERTEX
  8
EGA-301.PLT
 62
7
 10
28.32650145
 20
17.61912508
  0
VERTEX
  8
EGA-301.PLT
 62
7
 10
28.32698460
 20
17.55923420
  0
VERTEX
  8
EGA-301.PLT
 62
7
 10
28.32905564
 20
17.49938434
  0
VERTEX
  8
EGA-301.PLT
 62
7
 10
28.33257246
 20
17.43957989
  0
VERTEX
  8
EGA-301.PLT
 62
7
 10
28.33739299
 20
17.37982524
  0
VERTEX
  8
EGA-301.PLT
 62
7
 10
28.34337513
 20
17.32012479
  0
VERTEX
  8
EGA-301.PLT
 62
7
 10
28.35037680
 20
17.26048294
  0
VERTEX
  8
EGA-301.PLT
 62
7
 10
28.35825591
 20
17.20090407
  0
VERTEX
  8
EGA-301.PLT
 62
7
 10
28.36687036
 20
17.14139258
  0
VERTEX
  8
EGA-301.PLT
 62
7
 10
28.37607807
 20
17.08195288
  0
VERTEX
  8
EGA-301.PLT
 62
7
 10
28.38573695
 20
17.02258934
  0
VERTEX
  8
EGA-301.PLT
 62
7
 10
28.39570492
 20
16.96330637
  0
VERTEX
  8
EGA-301.PLT
 62
7
 10
28.40583987
 20
16.90410836
  0
VERTEX
  8
EGA-301.PLT
 62
7
 10
28.41599972
 20
16.84499971
  0
VERTEX
  8
EGA-301.PLT
 62
7
 10
28.44090028
 20
16.70658964
  0
VERTEX
  8
EGA-301.PLT
 62
7
 10
28.46914060
 20
16.56890613
  0
VERTEX
  8
EGA-301.PLT
 62
7
 10
28.50077929
 20
16.43201949
  0
VERTEX
  8
EGA-301.PLT
 62
7
 10
28.53587497
 20
16.29600004
  0
VERTEX
  8
EGA-301.PLT
 62
7
 10
28.57448626
 20
16.16091808
  0
VERTEX
  8
EGA-301.PLT
 62
7
 10
28.61667176
 20
16.02684393
  0
VERTEX
  8
EGA-301.PLT
 62
7
 10
28.66249010
 20
15.89384789
  0
VERTEX
  8
EGA-301.PLT
 62
7
 10
28.71199990
 20
15.76200029
  0
VERTEX
  8
EGA-301.PLT
 62
7
 10
28.74807812
 20
15.67328529
  0
VERTEX
  8
EGA-301.PLT
 62
7
 10
28.78631253
 20
15.58553129
  0
VERTEX
  8
EGA-301.PLT
 62
7
 10
28.82632812
 20
15.49857421
  0
VERTEX
  8
EGA-301.PLT
 62
7
 10
28.86774994
 20
15.41224996
  0
VERTEX
  8
EGA-301.PLT
 62
7
 10
28.91020300
 20
15.32639445
  0
VERTEX
  8
EGA-301.PLT
 62
7
 10
28.95331233
 20
15.24084361
  0
VERTEX
  8
EGA-301.PLT
 62
7
 10
28.99670295
 20
15.15543334
  0
VERTEX
  8
EGA-301.PLT
 62
7
 10
29.03999989
 20
15.06999958
  0
VERTEX
  8
EGA-301.PLT
 62
7
 10
29.10604694
 20
14.94253086
  0
VERTEX
  8
EGA-301.PLT
 62
7
 10
29.17387506
 20
14.81599963
  0
VERTEX
  8
EGA-301.PLT
 62
7
 10
29.24151567
 20
14.68946840
  0
VERTEX
  8
EGA-301.PLT
 62
7
 10
29.30700023
 20
14.56199968
  0
VERTEX
  8
EGA-301.PLT
 62
7
 10
29.33946883
 20
14.49848602
  0
VERTEX
  8
EGA-301.PLT
 62
7
 10
29.37268750
 20
14.43526533
  0
VERTEX
  8
EGA-301.PLT
 62
7
 10
29.40599996
 20
14.37206808
  0
VERTEX
  8
EGA-301.PLT
 62
7
 10
29.43874994
 20
14.30862473
  0
VERTEX
  8
EGA-301.PLT
 62
7
 10
29.47028119
 20
14.24466576
  0
VERTEX
  8
EGA-301.PLT
 62
7
 10
29.49993742
 20
14.17992164
  0
VERTEX
  8
EGA-301.PLT
 62
7
 10
29.52706237
 20
14.11412284
  0
VERTEX
  8
EGA-301.PLT
 62
7
 10
29.55099977
 20
14.04699982
  0
VERTEX
  8
EGA-301.PLT
 62
7
 10
29.58765596
 20
13.92459357
  0
VERTEX
  8
EGA-301.PLT
 62
7
 10
29.61774986
 20
13.80049983
  0
VERTEX
  8
EGA-301.PLT
 62
7
 10
29.64071879
 20
13.67490610
  0
VERTEX
  8
EGA-301.PLT
 62
7
 10
29.65600010
 20
13.54799987
  0
VERTEX
  8
EGA-301.PLT
 62
7
 10
29.66315631
 20
13.44434353
  0
VERTEX
  8
EGA-301.PLT
 62
7
 10
29.66525005
 20
13.34049978
  0
VERTEX
  8
EGA-301.PLT
 62
7
 10
29.66246882
 20
13.23665619
  0
VERTEX
  8
EGA-301.PLT
 62
7
 10
29.65500011
 20
13.13300037
  0
VERTEX
  8
EGA-301.PLT
 62
7
 10
29.63087524
 20
13.18612507
  0
VERTEX
  8
EGA-301.PLT
 62
7
 10
29.60900037
 20
13.23999977
  0
VERTEX
  8
EGA-301.PLT
 62
7
 10
29.59639857
 20
13.27743349
  0
VERTEX
  8
EGA-301.PLT
 62
7
 10
29.58599996
 20
13.31540627
  0
VERTEX
  8
EGA-301.PLT
 62
7
 10
29.57728891
 20
13.35380090
  0
VERTEX
  8
EGA-301.PLT
 62
7
 10
29.56974978
 20
13.39250018
  0
VERTEX
  8
EGA-301.PLT
 62
7
 10
29.56286694
 20
13.43138691
  0
VERTEX
  8
EGA-301.PLT
 62
7
 10
29.55612476
 20
13.47034390
  0
VERTEX
  8
EGA-301.PLT
 62
7
 10
29.54900760
 20
13.50925396
  0
VERTEX
  8
EGA-301.PLT
 62
7
 10
29.54099983
 20
13.54799987
  0
VERTEX
  8
EGA-301.PLT
 62
7
 10
29.52710537
 20
13.61349594
  0
VERTEX
  8
EGA-301.PLT
 62
7
 10
29.51421872
 20
13.67934357
  0
VERTEX
  8
EGA-301.PLT
 62
7
 10
29.50166016
 20
13.74533183
  0
VERTEX
  8
EGA-301.PLT
 62
7
 10
29.48875001
 20
13.81124977
  0
VERTEX
  8
EGA-301.PLT
 62
7
 10
29.47480857
 20
13.87688646
  0
VERTEX
  8
EGA-301.PLT
 62
7
 10
29.45915615
 20
13.94203097
  0
VERTEX
  8
EGA-301.PLT
 62
7
 10
29.44111306
 20
14.00647236
  0
VERTEX
  8
EGA-301.PLT
 62
7
 10
29.41999959
 20
14.06999969
  0
VERTEX
  8
EGA-301.PLT
 62
7
 10
29.39528289
 20
14.13220867
  0
VERTEX
  8
EGA-301.PLT
 62
7
 10
29.36739037
 20
14.19304656
  0
VERTEX
  8
EGA-301.PLT
 62
7
 10
29.33708375
 20
14.25282978
  0
VERTEX
  8
EGA-301.PLT
 62
7
 10
29.30512478
 20
14.31187471
  0
VERTEX
  8
EGA-301.PLT
 62
7
 10
29.27227518
 20
14.37049777
  0
VERTEX
  8
EGA-301.PLT
 62
7
 10
29.23929671
 20
14.42901537
  0
VERTEX
  8
EGA-301.PLT
 62
7
 10
29.20695108
 20
14.48774390
  0
VERTEX
  8
EGA-301.PLT
 62
7
 10
29.17600004
 20
14.54699977
  0
VERTEX
  8
EGA-301.PLT
 62
7
 10
29.09671869
 20
14.70200012
  0
VERTEX
  8
EGA-301.PLT
 62
7
 10
29.01725002
 20
14.85700021
  0
VERTEX
  8
EGA-301.PLT
 62
7
 10
28.93890634
 20
15.01275012
  0
VERTEX
  8
EGA-301.PLT
 62
7
 10
28.86299997
 20
15.16999994
  0
VERTEX
  8
EGA-301.PLT
 62
7
 10
28.81306261
 20
15.27642191
  0
VERTEX
  8
EGA-301.PLT
 62
7
 10
28.76350007
 20
15.38312512
  0
VERTEX
  8
EGA-301.PLT
 62
7
 10
28.71618752
 20
15.49076583
  0
VERTEX
  8
EGA-301.PLT
 62
7
 10
28.67300012
 20
15.60000028
  0
VERTEX
  8
EGA-301.PLT
 62
7
 10
28.62801546
 20
15.72840650
  0
VERTEX
  8
EGA-301.PLT
 62
7
 10
28.58762479
 20
15.85850020
  0
VERTEX
  8
EGA-301.PLT
 62
7
 10
28.55192177
 20
15.99009390
  0
VERTEX
  8
EGA-301.PLT
 62
7
 10
28.52100005
 20
16.12300009
  0
VERTEX
  8
EGA-301.PLT
 62
7
 10
28.48384387
 20
16.00585944
  0
VERTEX
  8
EGA-301.PLT
 62
7
 10
28.45324997
 20
15.88712504
  0
VERTEX
  8
EGA-301.PLT
 62
7
 10
28.42903104
 20
15.76707815
  0
VERTEX
  8
EGA-301.PLT
 62
7
 10
28.41099975
 20
15.64600002
  0
VERTEX
  8
EGA-301.PLT
 62
7
 10
28.40091778
 20
15.53567964
  0
VERTEX
  8
EGA-301.PLT
 62
7
 10
28.39671860
 20
15.42531240
  0
VERTEX
  8
EGA-301.PLT
 62
7
 10
28.39809753
 20
15.31503892
  0
VERTEX
  8
EGA-301.PLT
 62
7
 10
28.40474990
 20
15.20499986
  0
VERTEX
  8
EGA-301.PLT
 62
7
 10
28.41637104
 20
15.09533583
  0
VERTEX
  8
EGA-301.PLT
 62
7
 10
28.43265627
 20
14.98618748
  0
VERTEX
  8
EGA-301.PLT
 62
7
 10
28.45330091
 20
14.87769545
  0
VERTEX
  8
EGA-301.PLT
 62
7
 10
28.47800030
 20
14.77000035
  0
VERTEX
  8
EGA-301.PLT
 62
7
 10
28.50459784
 20
14.67452563
  0
VERTEX
  8
EGA-301.PLT
 62
7
 10
28.53590636
 20
14.58070331
  0
VERTEX
  8
EGA-301.PLT
 62
7
 10
28.57119928
 20
14.48831071
  0
VERTEX
  8
EGA-301.PLT
 62
7
 10
28.60975001
 20
14.39712515
  0
VERTEX
  8
EGA-301.PLT
 62
7
 10
28.65083198
 20
14.30692397
  0
VERTEX
  8
EGA-301.PLT
 62
7
 10
28.69371861
 20
14.21748448
  0
VERTEX
  8
EGA-301.PLT
 62
7
 10
28.73768331
 20
14.12858400
  0
VERTEX
  8
EGA-301.PLT
 62
7
 10
28.78199950
 20
14.03999986
  0
VERTEX
  8
EGA-301.PLT
 62
7
 10
28.84796826
 20
13.91654088
  0
VERTEX
  8
EGA-301.PLT
 62
7
 10
28.91899956
 20
13.79614048
  0
VERTEX
  8
EGA-301.PLT
 62
7
 10
28.99378088
 20
13.67801350
  0
VERTEX
  8
EGA-301.PLT
 62
7
 10
29.07099971
 20
13.56137480
  0
VERTEX
  8
EGA-301.PLT
 62
7
 10
29.14934354
 20
13.44543921
  0
VERTEX
  8
EGA-301.PLT
 62
7
 10
29.22749984
 20
13.32942160
  0
VERTEX
  8
EGA-301.PLT
 62
7
 10
29.30415611
 20
13.21253680
  0
VERTEX
  8
EGA-301.PLT
 62
7
 10
29.37799983
 20
13.09399967
  0
VERTEX
  8
EGA-301.PLT
 62
7
 10
29.48500015
 20
12.91699975
  0
VERTEX
  8
EGA-301.PLT
 62
7
 10
29.50878126
 20
12.88515616
  0
VERTEX
  8
EGA-301.PLT
 62
7
 10
29.53424987
 20
12.85424999
  0
VERTEX
  8
EGA-301.PLT
 62
7
 10
29.55784348
 20
12.82221864
  0
VERTEX
  8
EGA-301.PLT
 62
7
 10
29.57599963
 20
12.78699956
  0
VERTEX
  8
EGA-301.PLT
 62
7
 10
29.58226522
 20
12.76653092
  0
VERTEX
  8
EGA-301.PLT
 62
7
 10
29.58637457
 20
12.74568728
  0
VERTEX
  8
EGA-301.PLT
 62
7
 10
29.58879643
 20
12.72456236
  0
VERTEX
  8
EGA-301.PLT
 62
7
 10
29.58999955
 20
12.70324992
  0
VERTEX
  8
EGA-301.PLT
 62
7
 10
29.59045267
 20
12.68184368
  0
VERTEX
  8
EGA-301.PLT
 62
7
 10
29.59062455
 20
12.66043738
  0
VERTEX
  8
EGA-301.PLT
 62
7
 10
29.59098392
 20
12.63912477
  0
VERTEX
  8
EGA-301.PLT
 62
7
 10
29.59199954
 20
12.61799959
  0
VERTEX
  8
EGA-301.PLT
 62
7
 10
29.59881200
 20
12.50459382
  0
VERTEX
  8
EGA-301.PLT
 62
7
 10
29.60299948
 20
12.39100030
  0
VERTEX
  8
EGA-301.PLT
 62
7
 10
29.60493697
 20
12.27740660
  0
VERTEX
  8
EGA-301.PLT
 62
7
 10
29.60499947
 20
12.16400031
  0
VERTEX
  8
EGA-301.PLT
 62
7
 10
29.59949950
 20
11.96400005
  0
VERTEX
  8
EGA-301.PLT
 62
7
 10
29.58799956
 20
11.76399980
  0
VERTEX
  8
EGA-301.PLT
 62
7
 10
29.56795280
 20
11.83426558
  0
VERTEX
  8
EGA-301.PLT
 62
7
 10
29.54987478
 20
11.90537492
  0
VERTEX
  8
EGA-301.PLT
 62
7
 10
29.53385924
 20
11.97704677
  0
VERTEX
  8
EGA-301.PLT
 62
7
 10
29.51999995
 20
12.04900004
  0
VERTEX
  8
EGA-301.PLT
 62
7
 10
29.51354491
 20
12.09675402
  0
VERTEX
  8
EGA-301.PLT
 62
7
 10
29.50942188
 20
12.14471892
  0
VERTEX
  8
EGA-301.PLT
 62
7
 10
29.50686916
 20
12.19282443
  0
VERTEX
  8
EGA-301.PLT
 62
7
 10
29.50512503
 20
12.24100022
  0
VERTEX
  8
EGA-301.PLT
 62
7
 10
29.50342778
 20
12.28917597
  0
VERTEX
  8
EGA-301.PLT
 62
7
 10
29.50101568
 20
12.33728134
  0
VERTEX
  8
EGA-301.PLT
 62
7
 10
29.49712703
 20
12.38524603
  0
VERTEX
  8
EGA-301.PLT
 62
7
 10
29.49100011
 20
12.43299971
  0
VERTEX
  8
EGA-301.PLT
 62
7
 10
29.47203132
 20
12.53862481
  0
VERTEX
  8
EGA-301.PLT
 62
7
 10
29.44874989
 20
12.64349991
  0
VERTEX
  8
EGA-301.PLT
 62
7
 10
29.41984348
 20
12.74687502
  0
VERTEX
  8
EGA-301.PLT
 62
7
 10
29.38399979
 20
12.84800014
  0
VERTEX
  8
EGA-301.PLT
 62
7
 10
29.35461124
 20
12.91609385
  0
VERTEX
  8
EGA-301.PLT
 62
7
 10
29.32101561
 20
12.98193757
  0
VERTEX
  8
EGA-301.PLT
 62
7
 10
29.28406838
 20
13.04600006
  0
VERTEX
  8
EGA-301.PLT
 62
7
 10
29.24462500
 20
13.10875005
  0
VERTEX
  8
EGA-301.PLT
 62
7
 10
29.20354097
 20
13.17065629
  0
VERTEX
  8
EGA-301.PLT
 62
7
 10
29.16167176
 20
13.23218754
  0
VERTEX
  8
EGA-301.PLT
 62
7
 10
29.11987283
 20
13.29381254
  0
VERTEX
  8
EGA-301.PLT
 62
7
 10
29.07899967
 20
13.35600004
  0
VERTEX
  8
EGA-301.PLT
 62
7
 10
29.00501555
 20
13.46743760
  0
VERTEX
  8
EGA-301.PLT
 62
7
 10
28.92812494
 20
13.57700017
  0
VERTEX
  8
EGA-301.PLT
 62
7
 10
28.85217166
 20
13.68731274
  0
VERTEX
  8
EGA-301.PLT
 62
7
 10
28.78099951
 20
13.80100029
  0
VERTEX
  8
EGA-301.PLT
 62
7
 10
28.75454262
 20
13.84706257
  0
VERTEX
  8
EGA-301.PLT
 62
7
 10
28.72796854
 20
13.89312493
  0
VERTEX
  8
EGA-301.PLT
 62
7
 10
28.70172256
 20
13.93937485
  0
VERTEX
  8
EGA-301.PLT
 62
7
 10
28.67624998
 20
13.98599982
  0
VERTEX
  8
EGA-301.PLT
 62
7
 10
28.65199610
 20
14.03318733
  0
VERTEX
  8
EGA-301.PLT
 62
7
 10
28.62940622
 20
14.08112488
  0
VERTEX
  8
EGA-301.PLT
 62
7
 10
28.60892564
 20
14.12999993
  0
VERTEX
  8
EGA-301.PLT
 62
7
 10
28.59099966
 20
14.17999999
  0
VERTEX
  8
EGA-301.PLT
 62
7
 10
28.57021852
 20
14.24937515
  0
VERTEX
  8
EGA-301.PLT
 62
7
 10
28.55299987
 20
14.31950013
  0
VERTEX
  8
EGA-301.PLT
 62
7
 10
28.53953120
 20
14.39037510
  0
VERTEX
  8
EGA-301.PLT
 62
7
 10
28.53000000
 20
14.46200025
  0
VERTEX
  8
EGA-301.PLT
 62
7
 10
28.51160640
 20
14.41720449
  0
VERTEX
  8
EGA-301.PLT
 62
7
 10
28.49680461
 20
14.36683794
  0
VERTEX
  8
EGA-301.PLT
 62
7
 10
28.48541300
 20
14.31149387
  0
VERTEX
  8
EGA-301.PLT
 62
7
 10
28.47724991
 20
14.25176553
  0
VERTEX
  8
EGA-301.PLT
 62
7
 10
28.47213371
 20
14.18824619
  0
VERTEX
  8
EGA-301.PLT
 62
7
 10
28.46988275
 20
14.12152910
  0
VERTEX
  8
EGA-301.PLT
 62
7
 10
28.47031539
 20
14.05220753
  0
VERTEX
  8
EGA-301.PLT
 62
7
 10
28.47324998
 20
13.98087473
  0
VERTEX
  8
EGA-301.PLT
 62
7
 10
28.47850488
 20
13.90812398
  0
VERTEX
  8
EGA-301.PLT
 62
7
 10
28.48589845
 20
13.83454853
  0
VERTEX
  8
EGA-301.PLT
 62
7
 10
28.49524904
 20
13.76074164
  0
VERTEX
  8
EGA-301.PLT
 62
7
 10
28.50637501
 20
13.68729657
  0
VERTEX
  8
EGA-301.PLT
 62
7
 10
28.51909471
 20
13.61480658
  0
VERTEX
  8
EGA-301.PLT
 62
7
 10
28.53322651
 20
13.54386494
  0
VERTEX
  8
EGA-301.PLT
 62
7
 10
28.54858875
 20
13.47506490
  0
VERTEX
  8
EGA-301.PLT
 62
7
 10
28.56499980
 20
13.40899974
  0
VERTEX
  8
EGA-301.PLT
 62
7
 10
28.59927726
 20
13.28440404
  0
VERTEX
  8
EGA-301.PLT
 62
7
 10
28.63746869
 20
13.16110913
  0
VERTEX
  8
EGA-301.PLT
 62
7
 10
28.67936319
 20
13.03910326
  0
VERTEX
  8
EGA-301.PLT
 62
7
 10
28.72474982
 20
12.91837474
  0
VERTEX
  8
EGA-301.PLT
 62
7
 10
28.77341769
 20
12.79891183
  0
VERTEX
  8
EGA-301.PLT
 62
7
 10
28.82515588
 20
12.68070282
  0
VERTEX
  8
EGA-301.PLT
 62
7
 10
28.87975347
 20
12.56373599
  0
VERTEX
  8
EGA-301.PLT
 62
7
 10
28.93699955
 20
12.44799963
  0
VERTEX
  8
EGA-301.PLT
 62
7
 10
29.01731229
 20
12.29560917
  0
VERTEX
  8
EGA-301.PLT
 62
7
 10
29.10250000
 20
12.14612495
  0
VERTEX
  8
EGA-301.PLT
 62
7
 10
29.19293768
 20
11.99982821
  0
VERTEX
  8
EGA-301.PLT
 62
7
 10
29.28900033
 20
11.85700020
  0
VERTEX
  8
EGA-301.PLT
 62
7
 10
29.39399985
 20
11.71337509
  0
VERTEX
  8
EGA-301.PLT
 62
7
 10
29.50200005
 20
11.57199996
  0
VERTEX
  8
EGA-301.PLT
 62
7
 10
29.53274282
 20
11.52699871
  0
VERTEX
  8
EGA-301.PLT
 62
7
 10
29.55823562
 20
11.47899679
  0
VERTEX
  8
EGA-301.PLT
 62
7
 10
29.56734458
 20
11.45618844
  0
VERTEX
  8
EGA-301.PLT
 62
7
 10
29.57396430
 20
11.43284122
  0
VERTEX
  8
EGA-301.PLT
 62
7
 10
29.57853392
 20
11.40907223
  0
VERTEX
  8
EGA-301.PLT
 62
7
 10
29.58149255
 20
11.38499859
  0
VERTEX
  8
EGA-301.PLT
 62
7
 10
29.58327930
 20
11.36073741
  0
VERTEX
  8
EGA-301.PLT
 62
7
 10
29.58433332
 20
11.33640580
  0
VERTEX
  8
EGA-301.PLT
 62
7
 10
29.58509370
 20
11.31212086
  0
VERTEX
  8
EGA-301.PLT
 62
7
 10
29.58599957
 20
11.28799972
  0
VERTEX
  8
EGA-301.PLT
 62
7
 10
29.59426515
 20
11.09584372
  0
VERTEX
  8
EGA-301.PLT
 62
7
 10
29.59512452
 20
10.90350005
  0
VERTEX
  8
EGA-301.PLT
 62
7
 10
29.58867143
 20
10.71115637
  0
VERTEX
  8
EGA-301.PLT
 62
7
 10
29.57499964
 20
10.51900037
  0
VERTEX
  8
EGA-301.PLT
 62
7
 10
29.56564359
 20
10.55830049
  0
VERTEX
  8
EGA-301.PLT
 62
7
 10
29.55241026
 20
10.60163601
  0
VERTEX
  8
EGA-301.PLT
 62
7
 10
29.53955193
 20
10.64515902
  0
VERTEX
  8
EGA-301.PLT
 62
7
 10
29.53132088
 20
10.68502163
  0
VERTEX
  8
EGA-301.PLT
 62
7
 10
29.52647304
 20
10.73552580
  0
VERTEX
  8
EGA-301.PLT
 62
7
 10
29.52345937
 20
10.78705088
  0
VERTEX
  8
EGA-301.PLT
 62
7
 10
29.52157472
 20
10.83924094
  0
VERTEX
  8
EGA-301.PLT
 62
7
 10
29.52011396
 20
10.89174005
  0
VERTEX
  8
EGA-301.PLT
 62
7
 10
29.51837195
 20
10.94419229
  0
VERTEX
  8
EGA-301.PLT
 62
7
 10
29.51564356
 20
10.99624173
  0
VERTEX
  8
EGA-301.PLT
 62
7
 10
29.51122364
 20
11.04753243
  0
VERTEX
  8
EGA-301.PLT
 62
7
 10
29.50440707
 20
11.09770847
  0
VERTEX
  8
EGA-301.PLT
 62
7
 10
29.48979587
 20
11.17178928
  0
VERTEX
  8
EGA-301.PLT
 62
7
 10
29.47290600
 20
11.24236326
  0
VERTEX
  8
EGA-301.PLT
 62
7
 10
29.45365327
 20
11.31030246
  0
VERTEX
  8
EGA-301.PLT
 62
7
 10
29.43195350
 20
11.37647898
  0
VERTEX
  8
EGA-301.PLT
 62
7
 10
29.40772249
 20
11.44176488
  0
VERTEX
  8
EGA-301.PLT
 62
7
 10
29.38087605
 20
11.50703223
  0
VERTEX
  8
EGA-301.PLT
 62
7
 10
29.35133001
 20
11.57315310
  0
VERTEX
  8
EGA-301.PLT
 62
7
 10
29.31900016
 20
11.64099957
  0
VERTEX
  8
EGA-301.PLT
 62
7
 10
29.28823440
 20
11.69992341
  0
VERTEX
  8
EGA-301.PLT
 62
7
 10
29.25549997
 20
11.75764023
  0
VERTEX
  8
EGA-301.PLT
 62
7
 10
29.22126559
 20
11.81444299
  0
VERTEX
  8
EGA-301.PLT
 62
7
 10
29.18599999
 20
11.87062466
  0
VERTEX
  8
EGA-301.PLT
 62
7
 10
29.15017189
 20
11.92647820
  0
VERTEX
  8
EGA-301.PLT
 62
7
 10
29.11425002
 20
11.98229659
  0
VERTEX
  8
EGA-301.PLT
 62
7
 10
29.07870310
 20
12.03837280
  0
VERTEX
  8
EGA-301.PLT
 62
7
 10
29.04399987
 20
12.09499977
  0
VERTEX
  8
EGA-301.PLT
 62
7
 10
28.99760721
 20
12.16905443
  0
VERTEX
  8
EGA-301.PLT
 62
7
 10
28.94979660
 20
12.24231228
  0
VERTEX
  8
EGA-301.PLT
 62
7
 10
28.90149382
 20
12.31528892
  0
VERTEX
  8
EGA-301.PLT
 62
7
 10
28.85362467
 20
12.38849996
  0
VERTEX
  8
EGA-301.PLT
 62
7
 10
28.80711493
 20
12.46246100
  0
VERTEX
  8
EGA-301.PLT
 62
7
 10
28.76289039
 20
12.53768763
  0
VERTEX
  8
EGA-301.PLT
 62
7
 10
28.72187684
 20
12.61469546
  0
VERTEX
  8
EGA-301.PLT
 62
7
 10
28.68500005
 20
12.69400008
  0
VERTEX
  8
EGA-301.PLT
 62
7
 10
28.65407821
 20
12.76759397
  0
VERTEX
  8
EGA-301.PLT
 62
7
 10
28.62512493
 20
12.84175017
  0
VERTEX
  8
EGA-301.PLT
 62
7
 10
28.59935913
 20
12.91703137
  0
VERTEX
  8
EGA-301.PLT
 62
7
 10
28.57799973
 20
12.99400023
  0
VERTEX
  8
EGA-301.PLT
 62
7
 10
28.56349981
 20
13.06259374
  0
VERTEX
  8
EGA-301.PLT
 62
7
 10
28.55274987
 20
13.13174992
  0
VERTEX
  8
EGA-301.PLT
 62
7
 10
28.54537492
 20
13.20128109
  0
VERTEX
  8
EGA-301.PLT
 62
7
 10
28.54099994
 20
13.27099959
  0
VERTEX
  8
EGA-301.PLT
 62
7
 10
28.51953908
 20
13.21738267
  0
VERTEX
  8
EGA-301.PLT
 62
7
 10
28.50018753
 20
13.16306254
  0
VERTEX
  8
EGA-301.PLT
 62
7
 10
28.48299216
 20
13.10808611
  0
VERTEX
  8
EGA-301.PLT
 62
7
 10
28.46799989
 20
13.05250025
  0
VERTEX
  8
EGA-301.PLT
 62
7
 10
28.45525761
 20
12.99635185
  0
VERTEX
  8
EGA-301.PLT
 62
7
 10
28.44481220
 20
12.93968780
  0
VERTEX
  8
EGA-301.PLT
 62
7
 10
28.43671058
 20
12.88255497
  0
VERTEX
  8
EGA-301.PLT
 62
7
 10
28.43099964
 20
12.82500027
  0
VERTEX
  8
EGA-301.PLT
 62
7
 10
28.42841958
 20
12.76504909
  0
VERTEX
  8
EGA-301.PLT
 62
7
 10
28.42929654
 20
12.70520338
  0
VERTEX
  8
EGA-301.PLT
 62
7
 10
28.43305632
 20
12.64547485
  0
VERTEX
  8
EGA-301.PLT
 62
7
 10
28.43912471
 20
12.58587523
  0
VERTEX
  8
EGA-301.PLT
 62
7
 10
28.44692751
 20
12.52641624
  0
VERTEX
  8
EGA-301.PLT
 62
7
 10
28.45589051
 20
12.46710959
  0
VERTEX
  8
EGA-301.PLT
 62
7
 10
28.46543952
 20
12.40796700
  0
VERTEX
  8
EGA-301.PLT
 62
7
 10
28.47500031
 20
12.34900019
  0
VERTEX
  8
EGA-301.PLT
 62
7
 10
28.50009787
 20
12.21445139
  0
VERTEX
  8
EGA-301.PLT
 62
7
 10
28.53140640
 20
12.08148454
  0
VERTEX
  8
EGA-301.PLT
 62
7
 10
28.56819935
 20
11.94999421
  0
VERTEX
  8
EGA-301.PLT
 62
7
 10
28.60975013
 20
11.81987495
  0
VERTEX
  8
EGA-301.PLT
 62
7
 10
28.65533218
 20
11.69102130
  0
VERTEX
  8
EGA-301.PLT
 62
7
 10
28.70421894
 20
11.56332782
  0
VERTEX
  8
EGA-301.PLT
 62
7
 10
28.75568382
 20
11.43668906
  0
VERTEX
  8
EGA-301.PLT
 62
7
 10
28.80900027
 20
11.31099959
  0
VERTEX
  8
EGA-301.PLT
 62
7
 10
28.86547296
 20
11.18276525
  0
VERTEX
  8
EGA-301.PLT
 62
7
 10
28.92421906
 20
11.05556215
  0
VERTEX
  8
EGA-301.PLT
 62
7
 10
28.98573078
 20
10.92976529
  0
VERTEX
  8
EGA-301.PLT
 62
7
 10
29.05050029
 20
10.80574967
  0
VERTEX
  8
EGA-301.PLT
 62
7
 10
29.11901978
 20
10.68389030
  0
VERTEX
  8
EGA-301.PLT
 62
7
 10
29.19178144
 20
10.56456215
  0
VERTEX
  8
EGA-301.PLT
 62
7
 10
29.26927744
 20
10.44814024
  0
VERTEX
  8
EGA-301.PLT
 62
7
 10
29.35199997
 20
10.33499957
  0
VERTEX
  8
EGA-301.PLT
 62
7
 10
29.44849989
 20
10.21362479
  0
VERTEX
  8
EGA-301.PLT
 62
7
 10
29.55099977
 20
10.09599999
  0
VERTEX
  8
EGA-301.PLT
 62
7
 10
29.56399970
 20
10.06225018
  0
VERTEX
  8
EGA-301.PLT
 62
7
 10
29.57399964
 20
10.02700038
  0
VERTEX
  8
EGA-301.PLT
 62
7
 10
29.57987461
 20
9.98707820
  0
VERTEX
  8
EGA-301.PLT
 62
7
 10
29.58124960
 20
9.94687503
  0
VERTEX
  8
EGA-301.PLT
 62
7
 10
29.58074960
 20
9.90648453
  0
VERTEX
  8
EGA-301.PLT
 62
7
 10
29.58099960
 20
9.86600037
  0
VERTEX
  8
EGA-301.PLT
 62
7
 10
29.58809331
 20
9.63557841
  0
VERTEX
  8
EGA-301.PLT
 62
7
 10
29.59124954
 20
9.40487521
  0
VERTEX
  8
EGA-301.PLT
 62
7
 10
29.59028080
 20
9.17398450
  0
VERTEX
  8
EGA-301.PLT
 62
7
 10
29.58499958
 20
8.94300005
  0
VERTEX
  8
EGA-301.PLT
 62
7
 10
29.56299970
 20
8.98787491
  0
VERTEX
  8
EGA-301.PLT
 62
7
 10
29.54699979
 20
9.03500045
  0
VERTEX
  8
EGA-301.PLT
 62
7
 10
29.53625538
 20
9.08512741
  0
VERTEX
  8
EGA-301.PLT
 62
7
 10
29.53091755
 20
9.13705711
  0
VERTEX
  8
EGA-301.PLT
 62
7
 10
29.52857971
 20
9.18936199
  0
VERTEX
  8
EGA-301.PLT
 62
7
 10
29.52683525
 20
9.24061446
  0
VERTEX
  8
EGA-301.PLT
 62
7
 10
29.52391940
 20
9.31930299
  0
VERTEX
  8
EGA-301.PLT
 62
7
 10
29.52137988
 20
9.40214391
  0
VERTEX
  8
EGA-301.PLT
 62
7
 10
29.51840375
 20
9.48767497
  0
VERTEX
  8
EGA-301.PLT
 62
7
 10
29.51417806
 20
9.57443391
  0
VERTEX
  8
EGA-301.PLT
 62
7
 10
29.50788988
 20
9.66095848
  0
VERTEX
  8
EGA-301.PLT
 62
7
 10
29.49872628
 20
9.74578642
  0
VERTEX
  8
EGA-301.PLT
 62
7
 10
29.48587431
 20
9.82745548
  0
VERTEX
  8
EGA-301.PLT
 62
7
 10
29.46852105
 20
9.90450339
  0
VERTEX
  8
EGA-301.PLT
 62
7
 10
29.44412741
 20
9.98135499
  0
VERTEX
  8
EGA-301.PLT
 62
7
 10
29.41559568
 20
10.05122189
  0
VERTEX
  8
EGA-301.PLT
 62
7
 10
29.38352397
 20
10.11607293
  0
VERTEX
  8
EGA-301.PLT
 62
7
 10
29.34851040
 20
10.17787696
  0
VERTEX
  8
EGA-301.PLT
 62
7
 10
29.31115310
 20
10.23860283
  0
VERTEX
  8
EGA-301.PLT
 62
7
 10
29.27205018
 20
10.30021938
  0
VERTEX
  8
EGA-301.PLT
 62
7
 10
29.23179976
 20
10.36469546
  0
VERTEX
  8
EGA-301.PLT
 62
7
 10
29.19099996
 20
10.43399993
  0
VERTEX
  8
EGA-301.PLT
 62
7
 10
29.14597057
 20
10.50998422
  0
VERTEX
  8
EGA-301.PLT
 62
7
 10
29.09851543
 20
10.58456229
  0
VERTEX
  8
EGA-301.PLT
 62
7
 10
29.04958375
 20
10.65829662
  0
VERTEX
  8
EGA-301.PLT
 62
7
 10
29.00012477
 20
10.73174975
  0
VERTEX
  8
EGA-301.PLT
 62
7
 10
28.95108770
 20
10.80548416
  0
VERTEX
  8
EGA-301.PLT
 62
7
 10
28.90342177
 20
10.88006238
  0
VERTEX
  8
EGA-301.PLT
 62
7
 10
28.85807621
 20
10.95604690
  0
VERTEX
  8
EGA-301.PLT
 62
7
 10
28.81600023
 20
11.03400023
  0
VERTEX
  8
EGA-301.PLT
 62
7
 10
28.78112903
 20
11.10395136
  0
VERTEX
  8
EGA-301.PLT
 62
7
 10
28.74721882
 20
11.17435951
  0
VERTEX
  8
EGA-301.PLT
 62
7
 10
28.71457428
 20
11.24530672
  0
VERTEX
  8
EGA-301.PLT
 62
7
 10
28.68350006
 20
11.31687502
  0
VERTEX
  8
EGA-301.PLT
 62
7
 10
28.65430083
 20
11.38914644
  0
VERTEX
  8
EGA-301.PLT
 62
7
 10
28.62728125
 20
11.46220301
  0
VERTEX
  8
EGA-301.PLT
 62
7
 10
28.60274599
 20
11.53612677
  0
VERTEX
  8
EGA-301.PLT
 62
7
 10
28.58099971
 20
11.61099974
  0
VERTEX
  8
EGA-301.PLT
 62
7
 10
28.55940609
 20
11.69460932
  0
VERTEX
  8
EGA-301.PLT
 62
7
 10
28.54099994
 20
11.77887506
  0
VERTEX
  8
EGA-301.PLT
 62
7
 10
28.52559378
 20
11.86370313
  0
VERTEX
  8
EGA-301.PLT
 62
7
 10
28.51300010
 20
11.94899968
  0
VERTEX
  8
EGA-301.PLT
 62
7
 10
28.48962509
 20
11.79998420
  0
VERTEX
  8
EGA-301.PLT
 62
7
 10
28.47224987
 20
11.65012498
  0
VERTEX
  8
EGA-301.PLT
 62
7
 10
28.46124961
 20
11.49970326
  0
VERTEX
  8
EGA-301.PLT
 62
7
 10
28.45699949
 20
11.34900030
  0
VERTEX
  8
EGA-301.PLT
 62
7
 10
28.45661281
 20
11.23831078
  0
VERTEX
  8
EGA-301.PLT
 62
7
 10
28.45878088
 20
11.12760954
  0
VERTEX
  8
EGA-301.PLT
 62
7
 10
28.46399584
 20
11.01707236
  0
VERTEX
  8
EGA-301.PLT
 62
7
 10
28.47274986
 20
10.90687503
  0
VERTEX
  8
EGA-301.PLT
 62
7
 10
28.48553512
 20
10.79719331
  0
VERTEX
  8
EGA-301.PLT
 62
7
 10
28.50284376
 20
10.68820300
  0
VERTEX
  8
EGA-301.PLT
 62
7
 10
28.52516796
 20
10.58007987
  0
VERTEX
  8
EGA-301.PLT
 62
7
 10
28.55299987
 20
10.47299971
  0
VERTEX
  8
EGA-301.PLT
 62
7
 10
28.58852931
 20
10.36352142
  0
VERTEX
  8
EGA-301.PLT
 62
7
 10
28.63060950
 20
10.25679696
  0
VERTEX
  8
EGA-301.PLT
 62
7
 10
28.67810372
 20
10.15239272
  0
VERTEX
  8
EGA-301.PLT
 62
7
 10
28.72987526
 20
10.04987514
  0
VERTEX
  8
EGA-301.PLT
 62
7
 10
28.78478740
 20
9.94881063
  0
VERTEX
  8
EGA-301.PLT
 62
7
 10
28.84170344
 20
9.84876562
  0
VERTEX
  8
EGA-301.PLT
 62
7
 10
28.89948667
 20
9.74930651
  0
VERTEX
  8
EGA-301.PLT
 62
7
 10
28.95700036
 20
9.64999974
  0
VERTEX
  8
EGA-301.PLT
 62
7
 10
29.06290617
 20
9.47284366
  0
VERTEX
  8
EGA-301.PLT
 62
7
 10
29.17424971
 20
9.29924988
  0
VERTEX
  8
EGA-301.PLT
 62
7
 10
29.28971840
 20
9.12828109
  0
VERTEX
  8
EGA-301.PLT
 62
7
 10
29.40799966
 20
8.95899996
  0
VERTEX
  8
EGA-301.PLT
 62
7
 10
29.42362097
 20
8.93799613
  0
VERTEX
  8
EGA-301.PLT
 62
7
 10
29.44015626
 20
8.91753130
  0
VERTEX
  8
EGA-301.PLT
 62
7
 10
29.45711336
 20
8.89730079
  0
VERTEX
  8
EGA-301.PLT
 62
7
 10
29.47400009
 20
8.87699996
  0
VERTEX
  8
EGA-301.PLT
 62
7
 10
29.49032428
 20
8.85632412
  0
VERTEX
  8
EGA-301.PLT
 62
7
 10
29.50559376
 20
8.83496863
  0
VERTEX
  8
EGA-301.PLT
 62
7
 10
29.51931636
 20
8.81262881
  0
VERTEX
  8
EGA-301.PLT
 62
7
 10
29.53099988
 20
8.78899999
  0
VERTEX
  8
EGA-301.PLT
 62
7
 10
29.54507793
 20
8.74782821
  0
VERTEX
  8
EGA-301.PLT
 62
7
 10
29.55437475
 20
8.70562500
  0
VERTEX
  8
EGA-301.PLT
 62
7
 10
29.56123409
 20
8.66285930
  0
VERTEX
  8
EGA-301.PLT
 62
7
 10
29.56799968
 20
8.62000003
  0
VERTEX
  8
EGA-301.PLT
 62
7
 10
29.57566955
 20
8.56774216
  0
VERTEX
  8
EGA-301.PLT
 62
7
 10
29.58098398
 20
8.51524992
  0
VERTEX
  8
EGA-301.PLT
 62
7
 10
29.58439997
 20
8.46257019
  0
VERTEX
  8
EGA-301.PLT
 62
7
 10
29.58637457
 20
8.40974983
  0
VERTEX
  8
EGA-301.PLT
 62
7
 10
29.58736480
 20
8.35683572
  0
VERTEX
  8
EGA-301.PLT
 62
7
 10
29.58782769
 20
8.30387473
  0
VERTEX
  8
EGA-301.PLT
 62
7
 10
29.58822026
 20
8.25091375
  0
VERTEX
  8
EGA-301.PLT
 62
7
 10
29.58899956
 20
8.19799964
  0
VERTEX
  8
EGA-301.PLT
 62
7
 10
29.59220266
 20
8.05384351
  0
VERTEX
  8
EGA-301.PLT
 62
7
 10
29.59287453
 20
7.90949989
  0
VERTEX
  8
EGA-301.PLT
 62
7
 10
29.59110892
 20
7.76515626
  0
VERTEX
  8
EGA-301.PLT
 62
7
 10
29.58699957
 20
7.62100013
  0
VERTEX
  8
EGA-301.PLT
 62
7
 10
29.56399970
 20
7.65199996
  0
VERTEX
  8
EGA-301.PLT
 62
7
 10
29.54628105
 20
7.68801552
  0
VERTEX
  8
EGA-301.PLT
 62
7
 10
29.53474986
 20
7.72637500
  0
VERTEX
  8
EGA-301.PLT
 62
7
 10
29.52659366
 20
7.76604697
  0
VERTEX
  8
EGA-301.PLT
 62
7
 10
29.51899995
 20
7.80600001
  0
VERTEX
  8
EGA-301.PLT
 62
7
 10
29.51219335
 20
7.85183795
  0
VERTEX
  8
EGA-301.PLT
 62
7
 10
29.50973438
 20
7.89782816
  0
VERTEX
  8
EGA-301.PLT
 62
7
 10
29.51043945
 20
7.94393552
  0
VERTEX
  8
EGA-301.PLT
 62
7
 10
29.51312499
 20
7.99012489
  0
VERTEX
  8
EGA-301.PLT
 62
7
 10
29.51660739
 20
8.03636114
  0
VERTEX
  8
EGA-301.PLT
 62
7
 10
29.51970307
 20
8.08260912
  0
VERTEX
  8
EGA-301.PLT
 62
7
 10
29.52122846
 20
8.12883371
  0
VERTEX
  8
EGA-301.PLT
 62
7
 10
29.51999995
 20
8.17499977
  0
VERTEX
  8
EGA-301.PLT
 62
7
 10
29.51689059
 20
8.22940606
  0
VERTEX
  8
EGA-301.PLT
 62
7
 10
29.51331248
 20
8.28381235
  0
VERTEX
  8
EGA-301.PLT
 62
7
 10
29.50889063
 20
8.33812489
  0
VERTEX
  8
EGA-301.PLT
 62
7
 10
29.50325004
 20
8.39224993
  0
VERTEX
  8
EGA-301.PLT
 62
7
 10
29.49601571
 20
8.44609372
  0
VERTEX
  8
EGA-301.PLT
 62
7
 10
29.48681263
 20
8.49956251
  0
VERTEX
  8
EGA-301.PLT
 62
7
 10
29.47526583
 20
8.55256256
  0
VERTEX
  8
EGA-301.PLT
 62
7
 10
29.46100028
 20
8.60500011
  0
VERTEX
  8
EGA-301.PLT
 62
7
 10
29.43467001
 20
8.68135940
  0
VERTEX
  8
EGA-301.PLT
 62
7
 10
29.40223431
 20
8.75481246
  0
VERTEX
  8
EGA-301.PLT
 62
7
 10
29.36490022
 20
8.82592178
  0
VERTEX
  8
EGA-301.PLT
 62
7
 10
29.32387479
 20
8.89524985
  0
VERTEX
  8
EGA-301.PLT
 62
7
 10
29.28036503
 20
8.96335919
  0
VERTEX
  8
EGA-301.PLT
 62
7
 10
29.23557799
 20
9.03081228
  0
VERTEX
  8
EGA-301.PLT
 62
7
 10
29.19072071
 20
9.09817162
  0
VERTEX
  8
EGA-301.PLT
 62
7
 10
29.14700021
 20
9.16599971
  0
VERTEX
  8
EGA-301.PLT
 62
7
 10
29.09647085
 20
9.24302336
  0
VERTEX
  8
EGA-301.PLT
 62
7
 10
29.04257823
 20
9.31793758
  0
VERTEX
  8
EGA-301.PLT
 62
7
 10
28.98674031
 20
9.39163298
  0
VERTEX
  8
EGA-301.PLT
 62
7
 10
28.93037505
 20
9.46500021
  0
VERTEX
  8
EGA-301.PLT
 62
7
 10
28.87490041
 20
9.53892990
  0
VERTEX
  8
EGA-301.PLT
 62
7
 10
28.82173434
 20
9.61431266
  0
VERTEX
  8
EGA-301.PLT
 62
7
 10
28.77229482
 20
9.69203914
  0
VERTEX
  8
EGA-301.PLT
 62
7
 10
28.72799981
 20
9.77299997
  0
VERTEX
  8
EGA-301.PLT
 62
7
 10
28.69360936
 20
9.84256263
  0
VERTEX
  8
EGA-301.PLT
 62
7
 10
28.66137507
 20
9.91325010
  0
VERTEX
  8
EGA-301.PLT
 62
7
 10
28.63195308
 20
9.98506257
  0
VERTEX
  8
EGA-301.PLT
 62
7
 10
28.60599957
 20
10.05800021
  0
VERTEX
  8
EGA-301.PLT
 62
7
 10
28.58160909
 20
10.13562493
  0
VERTEX
  8
EGA-301.PLT
 62
7
 10
28.56087483
 20
10.21399990
  0
VERTEX
  8
EGA-301.PLT
 62
7
 10
28.54370305
 20
10.29312505
  0
VERTEX
  8
EGA-301.PLT
 62
7
 10
28.53000000
 20
10.37300028
  0
VERTEX
  8
EGA-301.PLT
 62
7
 10
28.50106252
 20
10.27312515
  0
VERTEX
  8
EGA-301.PLT
 62
7
 10
28.47849983
 20
10.17175003
  0
VERTEX
  8
EGA-301.PLT
 62
7
 10
28.46193711
 20
10.06924991
  0
VERTEX
  8
EGA-301.PLT
 62
7
 10
28.45099952
 20
9.96599980
  0
VERTEX
  8
EGA-301.PLT
 62
7
 10
28.44813798
 20
9.90373638
  0
VERTEX
  8
EGA-301.PLT
 62
7
 10
28.44840388
 20
9.84181427
  0
VERTEX
  8
EGA-301.PLT
 62
7
 10
28.45157310
 20
9.78022320
  0
VERTEX
  8
EGA-301.PLT
 62
7
 10
28.45742152
 20
9.71895294
  0
VERTEX
  8
EGA-301.PLT
 62
7
 10
28.46572503
 20
9.65799322
  0
VERTEX
  8
EGA-301.PLT
 62
7
 10
28.47625949
 20
9.59733380
  0
VERTEX
  8
EGA-301.PLT
 62
7
 10
28.48880079
 20
9.53696441
  0
VERTEX
  8
EGA-301.PLT
 62
7
 10
28.50312481
 20
9.47687480
  0
VERTEX
  8
EGA-301.PLT
 62
7
 10
28.51900742
 20
9.41705472
  0
VERTEX
  8
EGA-301.PLT
 62
7
 10
28.53622451
 20
9.35749392
  0
VERTEX
  8
EGA-301.PLT
 62
7
 10
28.55455195
 20
9.29818214
  0
VERTEX
  8
EGA-301.PLT
 62
7
 10
28.57376563
 20
9.23910913
  0
VERTEX
  8
EGA-301.PLT
 62
7
 10
28.59364141
 20
9.18026464
  0
VERTEX
  8
EGA-301.PLT
 62
7
 10
28.61395519
 20
9.12163840
  0
VERTEX
  8
EGA-301.PLT
 62
7
 10
28.63448283
 20
9.06322017
  0
VERTEX
  8
EGA-301.PLT
 62
7
 10
28.65500022
 20
9.00499970
  0
VERTEX
  8
EGA-301.PLT
 62
7
 10
28.69158990
 20
8.90693541
  0
VERTEX
  8
EGA-301.PLT
 62
7
 10
28.73190619
 20
8.81054683
  0
VERTEX
  8
EGA-301.PLT
 62
7
 10
28.77526941
 20
8.71554102
  0
VERTEX
  8
EGA-301.PLT
 62
7
 10
28.82099986
 20
8.62162502
  0
VERTEX
  8
EGA-301.PLT
 62
7
 10
28.86841784
 20
8.52850589
  0
VERTEX
  8
EGA-301.PLT
 62
7
 10
28.91684366
 20
8.43589068
  0
VERTEX
  8
EGA-301.PLT
 62
7
 10
28.96559762
 20
8.34348646
  0
VERTEX
  8
EGA-301.PLT
 62
7
 10
29.01400004
 20
8.25100026
  0
VERTEX
  8
EGA-301.PLT
 62
7
 10
29.05622276
 20
8.16748837
  0
VERTEX
  8
EGA-301.PLT
 62
7
 10
29.09734386
 20
8.08315624
  0
VERTEX
  8
EGA-301.PLT
 62
7
 10
29.13841805
 20
7.99868355
  0
VERTEX
  8
EGA-301.PLT
 62
7
 10
29.18050002
 20
7.91474997
  0
VERTEX
  8
EGA-301.PLT
 62
7
 10
29.22464448
 20
7.83203518
  0
VERTEX
  8
EGA-301.PLT
 62
7
 10
29.27190613
 20
7.75121885
  0
VERTEX
  8
EGA-301.PLT
 62
7
 10
29.32333967
 20
7.67298066
  0
VERTEX
  8
EGA-301.PLT
 62
7
 10
29.37999981
 20
7.59800026
  0
VERTEX
  8
EGA-301.PLT
 62
7
 10
29.39824975
 20
7.57779304
  0
VERTEX
  8
EGA-301.PLT
 62
7
 10
29.41799974
 20
7.55878120
  0
VERTEX
  8
EGA-301.PLT
 62
7
 10
29.43849978
 20
7.54037880
  0
VERTEX
  8
EGA-301.PLT
 62
7
 10
29.45899983
 20
7.52199988
  0
VERTEX
  8
EGA-301.PLT
 62
7
 10
29.47874989
 20
7.50305852
  0
VERTEX
  8
EGA-301.PLT
 62
7
 10
29.49699993
 20
7.48296875
  0
VERTEX
  8
EGA-301.PLT
 62
7
 10
29.51299995
 20
7.46114465
  0
VERTEX
  8
EGA-301.PLT
 62
7
 10
29.52599991
 20
7.43700025
  0
VERTEX
  8
EGA-301.PLT
 62
7
 10
29.53615611
 20
7.40709363
  0
VERTEX
  8
EGA-301.PLT
 62
7
 10
29.54349981
 20
7.37624978
  0
VERTEX
  8
EGA-301.PLT
 62
7
 10
29.54934353
 20
7.34503111
  0
VERTEX
  8
EGA-301.PLT
 62
7
 10
29.55499975
 20
7.31400002
  0
VERTEX
  8
EGA-301.PLT
 62
7
 10
29.56604656
 20
7.23551554
  0
VERTEX
  8
EGA-301.PLT
 62
7
 10
29.57137466
 20
7.15637499
  0
VERTEX
  8
EGA-301.PLT
 62
7
 10
29.57426526
 20
7.07704694
  0
VERTEX
  8
EGA-301.PLT
 62
7
 10
29.57799962
 20
6.99799996
  0
VERTEX
  8
EGA-301.PLT
 62
7
 10
29.58812456
 20
6.81950013
  0
VERTEX
  8
EGA-301.PLT
 62
7
 10
29.59599952
 20
6.64100013
  0
VERTEX
  8
EGA-301.PLT
 62
7
 10
29.60162448
 20
6.46250013
  0
VERTEX
  8
EGA-301.PLT
 62
7
 10
29.60499947
 20
6.28400030
  0
VERTEX
  8
EGA-301.PLT
 62
7
 10
29.56749968
 20
6.31937510
  0
VERTEX
  8
EGA-301.PLT
 62
7
 10
29.53599986
 20
6.35999987
  0
VERTEX
  8
EGA-301.PLT
 62
7
 10
29.51860347
 20
6.39242578
  0
VERTEX
  8
EGA-301.PLT
 62
7
 10
29.50689065
 20
6.42646879
  0
VERTEX
  8
EGA-301.PLT
 62
7
 10
29.49970123
 20
6.46177739
  0
VERTEX
  8
EGA-301.PLT
 62
7
 10
29.49587508
 20
6.49800002
  0
VERTEX
  8
EGA-301.PLT
 62
7
 10
29.49425205
 20
6.53478514
  0
VERTEX
  8
EGA-301.PLT
 62
7
 10
29.49367197
 20
6.57178122
  0
VERTEX
  8
EGA-301.PLT
 62
7
 10
29.49297471
 20
6.60863673
  0
VERTEX
  8
EGA-301.PLT
 62
7
 10
29.49100011
 20
6.64500011
  0
VERTEX
  8
EGA-301.PLT
 62
7
 10
29.48905090
 20
6.69870914
  0
VERTEX
  8
EGA-301.PLT
 62
7
 10
29.49115636
 20
6.75254707
  0
VERTEX
  8
EGA-301.PLT
 62
7
 10
29.49574618
 20
6.80645531
  0
VERTEX
  8
EGA-301.PLT
 62
7
 10
29.50125005
 20
6.86037528
  0
VERTEX
  8
EGA-301.PLT
 62
7
 10
29.50609768
 20
6.91424836
  0
VERTEX
  8
EGA-301.PLT
 62
7
 10
29.50871876
 20
6.96801599
  0
VERTEX
  8
EGA-301.PLT
 62
7
 10
29.50754299
 20
7.02161954
  0
VERTEX
  8
EGA-301.PLT
 62
7
 10
29.50100005
 20
7.07500045
  0
VERTEX
  8
EGA-301.PLT
 62
7
 10
29.48384389
 20
7.15210953
  0
VERTEX
  8
EGA-301.PLT
 62
7
 10
29.46050017
 20
7.22762505
  0
VERTEX
  8
EGA-301.PLT
 62
7
 10
29.43265630
 20
7.30182807
  0
VERTEX
  8
EGA-301.PLT
 62
7
 10
29.40199969
 20
7.37499967
  0
VERTEX
  8
EGA-301.PLT
 62
7
 10
29.37536504
 20
7.43286688
  0
VERTEX
  8
EGA-301.PLT
 62
7
 10
29.34548424
 20
7.48899972
  0
VERTEX
  8
EGA-301.PLT
 62
7
 10
29.31314248
 20
7.54382007
  0
VERTEX
  8
EGA-301.PLT
 62
7
 10
29.27912492
 20
7.59774980
  0
VERTEX
  8
EGA-301.PLT
 62
7
 10
29.24421675
 20
7.65121078
  0
VERTEX
  8
EGA-301.PLT
 62
7
 10
29.20920313
 20
7.70462489
  0
VERTEX
  8
EGA-301.PLT
 62
7
 10
29.17486923
 20
7.75841399
  0
VERTEX
  8
EGA-301.PLT
 62
7
 10
29.14200024
 20
7.81299997
  0
VERTEX
  8
EGA-301.PLT
 62
7
 10
29.05004694
 20
7.97299990
  0
VERTEX
  8
EGA-301.PLT
 62
7
 10
28.95912489
 20
8.13375000
  0
VERTEX
  8
EGA-301.PLT
 62
7
 10
28.86989032
 20
8.29562510
  0
VERTEX
  8
EGA-301.PLT
 62
7
 10
28.78299949
 20
8.45900001
  0
VERTEX
  8
EGA-301.PLT
 62
7
 10
28.75706019
 20
8.50834383
  0
VERTEX
  8
EGA-301.PLT
 62
7
 10
28.73054665
 20
8.55750013
  0
VERTEX
  8
EGA-301.PLT
 62
7
 10
28.70391591
 20
8.60665642
  0
VERTEX
  8
EGA-301.PLT
 62
7
 10
28.67762498
 20
8.65600017
  0
VERTEX
  8
EGA-301.PLT
 62
7
 10
28.65213087
 20
8.70571887
  0
VERTEX
  8
EGA-301.PLT
 62
7
 10
28.62789061
 20
8.75600002
  0
VERTEX
  8
EGA-301.PLT
 62
7
 10
28.60536121
 20
8.80703110
  0
VERTEX
  8
EGA-301.PLT
 62
7
 10
28.58499969
 20
8.85899960
  0
VERTEX
  8
EGA-301.PLT
 62
7
 10
28.56285919
 20
8.92312478
  0
VERTEX
  8
EGA-301.PLT
 62
7
 10
28.54287493
 20
8.98799979
  0
VERTEX
  8
EGA-301.PLT
 62
7
 10
28.52495316
 20
9.05362480
  0
VERTEX
  8
EGA-301.PLT
 62
7
 10
28.50900012
 20
9.11999997
  0
VERTEX
  8
EGA-301.PLT
 62
7
 10
28.49236124
 20
9.03540241
  0
VERTEX
  8
EGA-301.PLT
 62
7
 10
28.47845288
 20
8.95040634
  0
VERTEX
  8
EGA-301.PLT
 62
7
 10
28.46728677
 20
8.86508211
  0
VERTEX
  8
EGA-301.PLT
 62
7
 10
28.45887460
 20
8.77950005
  0
VERTEX
  8
EGA-301.PLT
 62
7
 10
28.45322808
 20
8.69373049
  0
VERTEX
  8
EGA-301.PLT
 62
7
 10
28.45035892
 20
8.60784376
  0
VERTEX
  8
EGA-301.PLT
 62
7
 10
28.45027883
 20
8.52191020
  0
VERTEX
  8
EGA-301.PLT
 62
7
 10
28.45299951
 20
8.43600014
  0
VERTEX
  8
EGA-301.PLT
 62
7
 10
28.46072048
 20
8.33166410
  0
VERTEX
  8
EGA-301.PLT
 62
7
 10
28.47314056
 20
8.22793745
  0
VERTEX
  8
EGA-301.PLT
 62
7
 10
28.48989649
 20
8.12486706
  0
VERTEX
  8
EGA-301.PLT
 62
7
 10
28.51062500
 20
8.02249982
  0
VERTEX
  8
EGA-301.PLT
 62
7
 10
28.53496282
 20
7.92088263
  0
VERTEX
  8
EGA-301.PLT
 62
7
 10
28.56254668
 20
7.82006236
  0
VERTEX
  8
EGA-301.PLT
 62
7
 10
28.59301332
 20
7.72008590
  0
VERTEX
  8
EGA-301.PLT
 62
7
 10
28.62599946
 20
7.62100013
  0
VERTEX
  8
EGA-301.PLT
 62
7
 10
28.65179442
 20
7.55035565
  0
VERTEX
  8
EGA-301.PLT
 62
7
 10
28.67992142
 20
7.48085960
  0
VERTEX
  8
EGA-301.PLT
 62
7
 10
28.71018123
 20
7.41241824
  0
VERTEX
  8
EGA-301.PLT
 62
7
 10
28.74237464
 20
7.34493779
  0
VERTEX
  8
EGA-301.PLT
 62
7
 10
28.77630242
 20
7.27832453
  0
VERTEX
  8
EGA-301.PLT
 62
7
 10
28.81176537
 20
7.21248469
  0
VERTEX
  8
EGA-301.PLT
 62
7
 10
28.84856424
 20
7.14732453
  0
VERTEX
  8
EGA-301.PLT
 62
7
 10
28.88649983
 20
7.08275029
  0
VERTEX
  8
EGA-301.PLT
 62
7
 10
28.92537292
 20
7.01866822
  0
VERTEX
  8
EGA-301.PLT
 62
7
 10
28.96498428
 20
6.95498458
  0
VERTEX
  8
EGA-301.PLT
 62
7
 10
29.00513470
 20
6.89160561
  0
VERTEX
  8
EGA-301.PLT
 62
7
 10
29.04562494
 20
6.82843757
  0
VERTEX
  8
EGA-301.PLT
 62
7
 10
29.08625581
 20
6.76538669
  0
VERTEX
  8
EGA-301.PLT
 62
7
 10
29.12682806
 20
6.70235923
  0
VERTEX
  8
EGA-301.PLT
 62
7
 10
29.16714249
 20
6.63926144
  0
VERTEX
  8
EGA-301.PLT
 62
7
 10
29.20699987
 20
6.57599957
  0
VERTEX
  8
EGA-301.PLT
 62
7
 10
29.26125984
 20
6.49487797
  0
VERTEX
  8
EGA-301.PLT
 62
7
 10
29.31635714
 20
6.41930978
  0
VERTEX
  8
EGA-301.PLT
 62
7
 10
29.37276693
 20
6.34449142
  0
VERTEX
  8
EGA-301.PLT
 62
7
 10
29.43096437
 20
6.26561928
  0
VERTEX
  8
EGA-301.PLT
 62
7
 10
29.44682547
 20
6.24455175
  0
VERTEX
  8
EGA-301.PLT
 62
7
 10
29.46447021
 20
6.22263204
  0
VERTEX
  8
EGA-301.PLT
 62
7
 10
29.48286653
 20
6.19990982
  0
VERTEX
  8
EGA-301.PLT
 62
7
 10
29.50098236
 20
6.17643477
  0
VERTEX
  8
EGA-301.PLT
 62
7
 10
29.51778566
 20
6.15225655
  0
VERTEX
  8
EGA-301.PLT
 62
7
 10
29.53224437
 20
6.12742484
  0
VERTEX
  8
EGA-301.PLT
 62
7
 10
29.54332643
 20
6.10198931
  0
VERTEX
  8
EGA-301.PLT
 62
7
 10
29.54999978
 20
6.07599963
  0
VERTEX
  8
EGA-301.PLT
 62
7
 10
29.55149977
 20
6.03787485
  0
VERTEX
  8
EGA-301.PLT
 62
7
 10
29.54999978
 20
5.99900007
  0
VERTEX
  8
EGA-301.PLT
 62
7
 10
29.55224976
 20
5.51850001
  0
VERTEX
  8
EGA-301.PLT
 62
7
 10
29.56199971
 20
5.03799996
  0
VERTEX
  8
EGA-301.PLT
 62
7
 10
29.53249988
 20
5.10637503
  0
VERTEX
  8
EGA-301.PLT
 62
7
 10
29.50900001
 20
5.17700010
  0
VERTEX
  8
EGA-301.PLT
 62
7
 10
29.49769176
 20
5.22384238
  0
VERTEX
  8
EGA-301.PLT
 62
7
 10
29.49015738
 20
5.27249746
  0
VERTEX
  8
EGA-301.PLT
 62
7
 10
29.48548266
 20
5.32240794
  0
VERTEX
  8
EGA-301.PLT
 62
7
 10
29.48275340
 20
5.37301645
  0
VERTEX
  8
EGA-301.PLT
 62
7
 10
29.48105538
 20
5.42376557
  0
VERTEX
  8
EGA-301.PLT
 62
7
 10
29.47947439
 20
5.47409793
  0
VERTEX
  8
EGA-301.PLT
 62
7
 10
29.47709623
 20
5.52345613
  0
VERTEX
  8
EGA-301.PLT
 62
7
 10
29.47300669
 20
5.57128278
  0
VERTEX
  8
EGA-301.PLT
 62
7
 10
29.46759628
 20
5.62494644
  0
VERTEX
  8
EGA-301.PLT
 62
7
 10
29.46291197
 20
5.67739490
  0
VERTEX
  8
EGA-301.PLT
 62
7
 10
29.45827421
 20
5.72893946
  0
VERTEX
  8
EGA-301.PLT
 62
7
 10
29.45300345
 20
5.77989145
  0
VERTEX
  8
EGA-301.PLT
 62
7
 10
29.44642016
 20
5.83056220
  0
VERTEX
  8
EGA-301.PLT
 62
7
 10
29.43784478
 20
5.88126302
  0
VERTEX
  8
EGA-301.PLT
 62
7
 10
29.42659779
 20
5.93230523
  0
VERTEX
  8
EGA-301.PLT
 62
7
 10
29.41199963
 20
5.98400015
  0
VERTEX
  8
EGA-301.PLT
 62
7
 10
29.38894894
 20
6.04864271
  0
VERTEX
  8
EGA-301.PLT
 62
7
 10
29.36221852
 20
6.11151575
  0
VERTEX
  8
EGA-301.PLT
 62
7
 10
29.33244120
 20
6.17291223
  0
VERTEX
  8
EGA-301.PLT
 62
7
 10
29.30024980
 20
6.23312513
  0
VERTEX
  8
EGA-301.PLT
 62
7
 10
29.26627717
 20
6.29244740
  0
VERTEX
  8
EGA-301.PLT
 62
7
 10
29.23115613
 20
6.35117203
  0
VERTEX
  8
EGA-301.PLT
 62
7
 10
29.19551951
 20
6.40959197
  0
VERTEX
  8
EGA-301.PLT
 62
7
 10
29.16000014
 20
6.46800019
  0
VERTEX
  8
EGA-301.PLT
 62
7
 10
29.12237891
 20
6.52639083
  0
VERTEX
  8
EGA-301.PLT
 62
7
 10
29.08271864
 20
6.58337523
  0
VERTEX
  8
EGA-301.PLT
 62
7
 10
29.04169903
 20
6.63942213
  0
VERTEX
  8
EGA-301.PLT
 62
7
 10
28.99999977
 20
6.69500029
  0
VERTEX
  8
EGA-301.PLT
 62
7
 10
28.95830055
 20
6.75057844
  0
VERTEX
  8
EGA-301.PLT
 62
7
 10
28.91728107
 20
6.80662535
  0
VERTEX
  8
EGA-301.PLT
 62
7
 10
28.87762102
 20
6.86360975
  0
VERTEX
  8
EGA-301.PLT
 62
7
 10
28.84000010
 20
6.92200039
  0
VERTEX
  8
EGA-301.PLT
 62
7
 10
28.78848423
 20
7.00628132
  0
VERTEX
  8
EGA-301.PLT
 62
7
 10
28.73837486
 20
7.09150001
  0
VERTEX
  8
EGA-301.PLT
 62
7
 10
28.69107815
 20
7.17821886
  0
VERTEX
  8
EGA-301.PLT
 62
7
 10
28.64800026
 20
7.26700029
  0
VERTEX
  8
EGA-301.PLT
 62
7
 10
28.61948426
 20
7.33379693
  0
VERTEX
  8
EGA-301.PLT
 62
7
 10
28.59387476
 20
7.40162499
  0
VERTEX
  8
EGA-301.PLT
 62
7
 10
28.56882792
 20
7.46964054
  0
VERTEX
  8
EGA-301.PLT
 62
7
 10
28.54199993
 20
7.53699968
  0
VERTEX
  8
EGA-301.PLT
 62
7
 10
28.46600036
 20
7.71299961
  0
VERTEX
  8
EGA-301.PLT
 62
7
 10
28.44753141
 20
7.60028111
  0
VERTEX
  8
EGA-301.PLT
 62
7
 10
28.43337501
 20
7.48718754
  0
VERTEX
  8
EGA-301.PLT
 62
7
 10
28.42353116
 20
7.37381265
  0
VERTEX
  8
EGA-301.PLT
 62
7
 10
28.41799983
 20
7.26025021
  0
VERTEX
  8
EGA-301.PLT
 62
7
 10
28.41678102
 20
7.14659398
  0
VERTEX
  8
EGA-301.PLT
 62
7
 10
28.41987472
 20
7.03293771
  0
VERTEX
  8
EGA-301.PLT
 62
7
 10
28.42728091
 20
6.91937517
  0
VERTEX
  8
EGA-301.PLT
 62
7
 10
28.43899959
 20
6.80600012
  0
VERTEX
  8
EGA-301.PLT
 62
7
 10
28.45013851
 20
6.72061323
  0
VERTEX
  8
EGA-301.PLT
 62
7
 10
28.46342186
 20
6.63553111
  0
VERTEX
  8
EGA-301.PLT
 62
7
 10
28.47902546
 20
6.55087092
  0
VERTEX
  8
EGA-301.PLT
 62
7
 10
28.49712507
 20
6.46674985
  0
VERTEX
  8
EGA-301.PLT
 62
7
 10
28.51789651
 20
6.38328506
  0
VERTEX
  8
EGA-301.PLT
 62
7
 10
28.54151555
 20
6.30059374
  0
VERTEX
  8
EGA-301.PLT
 62
7
 10
28.56815799
 20
6.21879306
  0
VERTEX
  8
EGA-301.PLT
 62
7
 10
28.59799962
 20
6.13800020
  0
VERTEX
  8
EGA-301.PLT
 62
7
 10
28.64388056
 20
6.02885365
  0
VERTEX
  8
EGA-301.PLT
 62
7
 10
28.69617163
 20
5.92314067
  0
VERTEX
  8
EGA-301.PLT
 62
7
 10
28.75397048
 20
5.82045114
  0
VERTEX
  8
EGA-301.PLT
 62
7
 10
28.81637477
 20
5.72037491
  0
VERTEX
  8
EGA-301.PLT
 62
7
 10
28.88248216
 20
5.62250183
  0
VERTEX
  8
EGA-301.PLT
 62
7
 10
28.95139032
 20
5.52642177
  0
VERTEX
  8
EGA-301.PLT
 62
7
 10
29.02219691
 20
5.43172458
  0
VERTEX
  8
EGA-301.PLT
 62
7
 10
29.09399958
 20
5.33800011
  0
VERTEX
  8
EGA-301.PLT
 62
7
 10
29.13566768
 20
5.28719582
  0
VERTEX
  8
EGA-301.PLT
 62
7
 10
29.17905951
 20
5.23903004
  0
VERTEX
  8
EGA-301.PLT
 62
7
 10
29.22325672
 20
5.19237327
  0
VERTEX
  8
EGA-301.PLT
 62
7
 10
29.26734099
 20
5.14609601
  0
VERTEX
  8
EGA-301.PLT
 62
7
 10
29.31039398
 20
5.09906876
  0
VERTEX
  8
EGA-301.PLT
 62
7
 10
29.35149733
 20
5.05016201
  0
VERTEX
  8
EGA-301.PLT
 62
7
 10
29.38973272
 20
4.99824625
  0
VERTEX
  8
EGA-301.PLT
 62
7
 10
29.42418180
 20
4.94219199
  0
VERTEX
  8
EGA-301.PLT
 62
7
 10
29.44959356
 20
4.89395410
  0
VERTEX
  8
EGA-301.PLT
 62
7
 10
29.47474870
 20
4.84048038
  0
VERTEX
  8
EGA-301.PLT
 62
7
 10
29.49727868
 20
4.78588149
  0
VERTEX
  8
EGA-301.PLT
 62
7
 10
29.51481496
 20
4.73426810
  0
VERTEX
  8
EGA-301.PLT
 62
7
 10
29.52357482
 20
4.70035243
  0
VERTEX
  8
EGA-301.PLT
 62
7
 10
29.52992191
 20
4.66736704
  0
VERTEX
  8
EGA-301.PLT
 62
7
 10
29.53433238
 20
4.63495497
  0
VERTEX
  8
EGA-301.PLT
 62
7
 10
29.53728234
 20
4.60275924
  0
VERTEX
  8
EGA-301.PLT
 62
7
 10
29.53924794
 20
4.57042290
  0
VERTEX
  8
EGA-301.PLT
 62
7
 10
29.54070530
 20
4.53758895
  0
VERTEX
  8
EGA-301.PLT
 62
7
 10
29.54213054
 20
4.50390045
  0
VERTEX
  8
EGA-301.PLT
 62
7
 10
29.54399981
 20
4.46900040
  0
VERTEX
  8
EGA-301.PLT
 62
7
 10
29.55098415
 20
4.30775009
  0
VERTEX
  8
EGA-301.PLT
 62
7
 10
29.55412475
 20
4.14650003
  0
VERTEX
  8
EGA-301.PLT
 62
7
 10
29.55370288
 20
3.98525015
  0
VERTEX
  8
EGA-301.PLT
 62
7
 10
29.54999978
 20
3.82400036
  0
VERTEX
  8
EGA-301.PLT
 62
7
 10
29.52290393
 20
3.89817719
  0
VERTEX
  8
EGA-301.PLT
 62
7
 10
29.50253219
 20
3.97501951
  0
VERTEX
  8
EGA-301.PLT
 62
7
 10
29.48776739
 20
4.05319270
  0
VERTEX
  8
EGA-301.PLT
 62
7
 10
29.47749232
 20
4.13136217
  0
VERTEX
  8
EGA-301.PLT
 62
7
 10
29.47214588
 20
4.19247729
  0
VERTEX
  8
EGA-301.PLT
 62
7
 10
29.46883028
 20
4.25159069
  0
VERTEX
  8
EGA-301.PLT
 62
7
 10
29.46644581
 20
4.30907316
  0
VERTEX
  8
EGA-301.PLT
 62
7
 10
29.46389273
 20
4.36529551
  0
VERTEX
  8
EGA-301.PLT
 62
7
 10
29.46007129
 20
4.42062854
  0
VERTEX
  8
EGA-301.PLT
 62
7
 10
29.45388177
 20
4.47544306
  0
VERTEX
  8
EGA-301.PLT
 62
7
 10
29.44422443
 20
4.53010986
  0
VERTEX
  8
EGA-301.PLT
 62
7
 10
29.42999953
 20
4.58499975
  0
VERTEX
  8
EGA-301.PLT
 62
7
 10
29.40693322
 20
4.65113449
  0
VERTEX
  8
EGA-301.PLT
 62
7
 10
29.38009342
 20
4.71545283
  0
VERTEX
  8
EGA-301.PLT
 62
7
 10
29.35001922
 20
4.77820087
  0
VERTEX
  8
EGA-301.PLT
 62
7
 10
29.31724971
 20
4.83962469
  0
VERTEX
  8
EGA-301.PLT
 62
7
 10
29.28232395
 20
4.89997040
  0
VERTEX
  8
EGA-301.PLT
 62
7
 10
29.24578104
 20
4.95948408
  0
VERTEX
  8
EGA-301.PLT
 62
7
 10
29.20816006
 20
5.01841183
  0
VERTEX
  8
EGA-301.PLT
 62
7
 10
29.17000008
 20
5.07699974
  0
VERTEX
  8
EGA-301.PLT
 62
7
 10
29.09299984
 20
5.18639044
  0
VERTEX
  8
EGA-301.PLT
 62
7
 10
29.00999971
 20
5.29137491
  0
VERTEX
  8
EGA-301.PLT
 62
7
 10
28.92474978
 20
5.39467189
  0
VERTEX
  8
EGA-301.PLT
 62
7
 10
28.84100009
 20
5.49900012
  0
VERTEX
  8
EGA-301.PLT
 62
7
 10
28.77949989
 20
5.57440610
  0
VERTEX
  8
EGA-301.PLT
 62
7
 10
28.71724987
 20
5.64924985
  0
VERTEX
  8
EGA-301.PLT
 62
7
 10
28.65762483
 20
5.72596876
  0
VERTEX
  8
EGA-301.PLT
 62
7
 10
28.60399958
 20
5.80700023
  0
VERTEX
  8
EGA-301.PLT
 62
7
 10
28.57077512
 20
5.86651977
  0
VERTEX
  8
EGA-301.PLT
 62
7
 10
28.54014043
 20
5.92728149
  0
VERTEX
  8
EGA-301.PLT
 62
7
 10
28.51215411
 20
5.98921508
  0
VERTEX
  8
EGA-301.PLT
 62
7
 10
28.48687478
 20
6.05225023
  0
VERTEX
  8
EGA-301.PLT
 62
7
 10
28.46436107
 20
6.11631662
  0
VERTEX
  8
EGA-301.PLT
 62
7
 10
28.44467158
 20
6.18134394
  0
VERTEX
  8
EGA-301.PLT
 62
7
 10
28.42786493
 20
6.24726188
  0
VERTEX
  8
EGA-301.PLT
 62
7
 10
28.41399973
 20
6.31400013
  0
VERTEX
  8
EGA-301.PLT
 62
7
 10
28.40364042
 20
6.19833994
  0
VERTEX
  8
EGA-301.PLT
 62
7
 10
28.39806234
 20
6.08246881
  0
VERTEX
  8
EGA-301.PLT
 62
7
 10
28.39726550
 20
5.96655080
  0
VERTEX
  8
EGA-301.PLT
 62
7
 10
28.40124992
 20
5.85074998
  0
VERTEX
  8
EGA-301.PLT
 62
7
 10
28.41001561
 20
5.73523041
  0
VERTEX
  8
EGA-301.PLT
 62
7
 10
28.42356257
 20
5.62015615
  0
VERTEX
  8
EGA-301.PLT
 62
7
 10
28.44189082
 20
5.50569126
  0
VERTEX
  8
EGA-301.PLT
 62
7
 10
28.46500037
 20
5.39199980
  0
VERTEX
  8
EGA-301.PLT
 62
7
 10
28.49579516
 20
5.26849004
  0
VERTEX
  8
EGA-301.PLT
 62
7
 10
28.53248452
 20
5.14698419
  0
VERTEX
  8
EGA-301.PLT
 62
7
 10
28.57477548
 20
5.02751741
  0
VERTEX
  8
EGA-301.PLT
 62
7
 10
28.62237506
 20
4.91012487
  0
VERTEX
  8
EGA-301.PLT
 62
7
 10
28.67499027
 20
4.79484174
  0
VERTEX
  8
EGA-301.PLT
 62
7
 10
28.73232815
 20
4.68170318
  0
VERTEX
  8
EGA-301.PLT
 62
7
 10
28.79409572
 20
4.57074436
  0
VERTEX
  8
EGA-301.PLT
 62
7
 10
28.85999998
 20
4.46200044
  0
VERTEX
  8
EGA-301.PLT
 62
7
 10
28.90696491
 20
4.39119550
  0
VERTEX
  8
EGA-301.PLT
 62
7
 10
28.95671888
 20
4.32250000
  0
VERTEX
  8
EGA-301.PLT
 62
7
 10
29.00867596
 20
4.25549206
  0
VERTEX
  8
EGA-301.PLT
 62
7
 10
29.06225023
 20
4.18974979
  0
VERTEX
  8
EGA-301.PLT
 62
7
 10
29.11685573
 20
4.12485130
  0
VERTEX
  8
EGA-301.PLT
 62
7
 10
29.17190655
 20
4.06037473
  0
VERTEX
  8
EGA-301.PLT
 62
7
 10
29.22681674
 20
3.99589817
  0
VERTEX
  8
EGA-301.PLT
 62
7
 10
29.28100038
 20
3.93099975
  0
VERTEX
  8
EGA-301.PLT
 62
7
 10
29.30807151
 20
3.89940598
  0
VERTEX
  8
EGA-301.PLT
 62
7
 10
29.33685305
 20
3.86687439
  0
VERTEX
  8
EGA-301.PLT
 62
7
 10
29.36632172
 20
3.83340509
  0
VERTEX
  8
EGA-301.PLT
 62
7
 10
29.39545428
 20
3.79899818
  0
VERTEX
  8
EGA-301.PLT
 62
7
 10
29.42322748
 20
3.76365379
  0
VERTEX
  8
EGA-301.PLT
 62
7
 10
29.44861805
 20
3.72737200
  0
VERTEX
  8
EGA-301.PLT
 62
7
 10
29.47060275
 20
3.69015294
  0
VERTEX
  8
EGA-301.PLT
 62
7
 10
29.48815831
 20
3.65199670
  0
VERTEX
  8
EGA-301.PLT
 62
7
 10
29.50826401
 20
3.59785454
  0
VERTEX
  8
EGA-301.PLT
 62
7
 10
29.51874672
 20
3.55936714
  0
VERTEX
  8
EGA-301.PLT
 62
7
 10
29.52360446
 20
3.51994225
  0
VERTEX
  8
EGA-301.PLT
 62
7
 10
29.52683525
 20
3.46298760
  0
VERTEX
  8
EGA-301.PLT
 62
7
 10
29.52682972
 20
3.39180224
  0
VERTEX
  8
EGA-301.PLT
 62
7
 10
29.52291760
 20
3.30899402
  0
VERTEX
  8
EGA-301.PLT
 62
7
 10
29.51825548
 20
3.22618581
  0
VERTEX
  8
EGA-301.PLT
 62
7
 10
29.51599997
 20
3.15500044
  0
VERTEX
  8
EGA-301.PLT
 62
7
 10
29.49971880
 20
3.25562503
  0
VERTEX
  8
EGA-301.PLT
 62
7
 10
29.47650008
 20
3.35474989
  0
VERTEX
  8
EGA-301.PLT
 62
7
 10
29.44653122
 20
3.45199993
  0
VERTEX
  8
EGA-301.PLT
 62
7
 10
29.40999964
 20
3.54700007
  0
VERTEX
  8
EGA-301.PLT
 62
7
 10
29.37745877
 20
3.61577542
  0
VERTEX
  8
EGA-301.PLT
 62
7
 10
29.33979676
 20
3.68151563
  0
VERTEX
  8
EGA-301.PLT
 62
7
 10
29.29808002
 20
3.74484179
  0
VERTEX
  8
EGA-301.PLT
 62
7
 10
29.25337495
 20
3.80637499
  0
VERTEX
  8
EGA-301.PLT
 62
7
 10
29.20674798
 20
3.86673633
  0
VERTEX
  8
EGA-301.PLT
 62
7
 10
29.15926552
 20
3.92654688
  0
VERTEX
  8
EGA-301.PLT
 62
7
 10
29.11199397
 20
3.98642775
  0
VERTEX
  8
EGA-301.PLT
 62
7
 10
29.06599974
 20
4.04700002
  0
VERTEX
  8
EGA-301.PLT
 62
7
 10
29.01686491
 20
4.11078516
  0
VERTEX
  8
EGA-301.PLT
 62
7
 10
28.96542151
 20
4.17290625
  0
VERTEX
  8
EGA-301.PLT
 62
7
 10
28.91273595
 20
4.23413672
  0
VERTEX
  8
EGA-301.PLT
 62
7
 10
28.85987464
 20
4.29525000
  0
VERTEX
  8
EGA-301.PLT
 62
7
 10
28.80790399
 20
4.35701953
  0
VERTEX
  8
EGA-301.PLT
 62
7
 10
28.75789042
 20
4.42021874
  0
VERTEX
  8
EGA-301.PLT
 62
7
 10
28.71090034
 20
4.48562106
  0
VERTEX
  8
EGA-301.PLT
 62
7
 10
28.66800015
 20
4.55399992
  0
VERTEX
  8
EGA-301.PLT
 62
7
 10
28.63129887
 20
4.62055653
  0
VERTEX
  8
EGA-301.PLT
 62
7
 10
28.59695312
 20
4.68820300
  0
VERTEX
  8
EGA-301.PLT
 62
7
 10
28.56497459
 20
4.75690416
  0
VERTEX
  8
EGA-301.PLT
 62
7
 10
28.53537497
 20
4.82662488
  0
VERTEX
  8
EGA-301.PLT
 62
7
 10
28.50816596
 20
4.89733002
  0
VERTEX
  8
EGA-301.PLT
 62
7
 10
28.48335927
 20
4.96898442
  0
VERTEX
  8
EGA-301.PLT
 62
7
 10
28.46096657
 20
5.04155294
  0
VERTEX
  8
EGA-301.PLT
 62
7
 10
28.44099958
 20
5.11500045
  0
VERTEX
  8
EGA-301.PLT
 62
7
 10
28.42110907
 20
5.01998467
  0
VERTEX
  8
EGA-301.PLT
 62
7
 10
28.40637478
 20
4.92412514
  0
VERTEX
  8
EGA-301.PLT
 62
7
 10
28.39670296
 20
4.82770312
  0
VERTEX
  8
EGA-301.PLT
 62
7
 10
28.39199986
 20
4.73099985
  0
VERTEX
  8
EGA-301.PLT
 62
7
 10
28.39269908
 20
4.64685736
  0
VERTEX
  8
EGA-301.PLT
 62
7
 10
28.39815609
 20
4.56317183
  0
VERTEX
  8
EGA-301.PLT
 62
7
 10
28.40778497
 20
4.47993157
  0
VERTEX
  8
EGA-301.PLT
 62
7
 10
28.42099981
 20
4.39712489
  0
VERTEX
  8
EGA-301.PLT
 62
7
 10
28.43721467
 20
4.31474007
  0
VERTEX
  8
EGA-301.PLT
 62
7
 10
28.45584364
 20
4.23276543
  0
VERTEX
  8
EGA-301.PLT
 62
7
 10
28.47630078
 20
4.15118927
  0
VERTEX
  8
EGA-301.PLT
 62
7
 10
28.49800018
 20
4.06999989
  0
VERTEX
  8
EGA-301.PLT
 62
7
 10
28.52932231
 20
3.96324398
  0
VERTEX
  8
EGA-301.PLT
 62
7
 10
28.56520309
 20
3.85814047
  0
VERTEX
  8
EGA-301.PLT
 62
7
 10
28.60513859
 20
3.75456043
  0
VERTEX
  8
EGA-301.PLT
 62
7
 10
28.64862491
 20
3.65237494
  0
VERTEX
  8
EGA-301.PLT
 62
7
 10
28.69515813
 20
3.55145507
  0
VERTEX
  8
EGA-301.PLT
 62
7
 10
28.74423434
 20
3.45167188
  0
VERTEX
  8
EGA-301.PLT
 62
7
 10
28.79534961
 20
3.35289646
  0
VERTEX
  8
EGA-301.PLT
 62
7
 10
28.84800005
 20
3.25499988
  0
VERTEX
  8
EGA-301.PLT
 62
7
 10
28.90037487
 20
3.16212494
  0
VERTEX
  8
EGA-301.PLT
 62
7
 10
28.95500037
 20
3.07000000
  0
VERTEX
  8
EGA-301.PLT
 62
7
 10
30.17399994
 20
3.07099999
  0
VERTEX
  8
EGA-301.PLT
 62
7
 10
30.27492193
 20
3.17454698
  0
VERTEX
  8
EGA-301.PLT
 62
7
 10
30.37012511
 20
3.28662516
  0
VERTEX
  8
EGA-301.PLT
 62
7
 10
30.45876565
 20
3.40414081
  0
VERTEX
  8
EGA-301.PLT
 62
7
 10
30.53999972
 20
3.52400020
  0
VERTEX
  8
EGA-301.PLT
 62
7
 10
30.59948410
 20
3.62012114
  0
VERTEX
  8
EGA-301.PLT
 62
7
 10
30.65474975
 20
3.71865621
  0
VERTEX
  8
EGA-301.PLT
 62
7
 10
30.70551540
 20
3.81948819
  0
VERTEX
  8
EGA-301.PLT
 62
7
 10
30.75149980
 20
3.92249991
  0
VERTEX
  8
EGA-301.PLT
 62
7
 10
30.79242168
 20
4.02757416
  0
VERTEX
  8
EGA-301.PLT
 62
7
 10
30.82799978
 20
4.13459375
  0
VERTEX
  8
EGA-301.PLT
 62
7
 10
30.85795285
 20
4.24344147
  0
VERTEX
  8
EGA-301.PLT
 62
7
 10
30.88199964
 20
4.35400013
  0
VERTEX
  8
EGA-301.PLT
 62
7
 10
30.89694907
 20
4.44571679
  0
VERTEX
  8
EGA-301.PLT
 62
7
 10
30.90803126
 20
4.53779680
  0
VERTEX
  8
EGA-301.PLT
 62
7
 10
30.91522275
 20
4.63013467
  0
VERTEX
  8
EGA-301.PLT
 62
7
 10
30.91850012
 20
4.72262489
  0
VERTEX
  8
EGA-301.PLT
 62
7
 10
30.91783993
 20
4.81516199
  0
VERTEX
  8
EGA-301.PLT
 62
7
 10
30.91321873
 20
4.90764048
  0
VERTEX
  8
EGA-301.PLT
 62
7
 10
30.90461309
 20
4.99995486
  0
VERTEX
  8
EGA-301.PLT
 62
7
 10
30.89199958
 20
5.09199965
  0
VERTEX
  8
EGA-301.PLT
 62
7
 10
30.84028098
 20
4.97745288
  0
VERTEX
  8
EGA-301.PLT
 62
7
 10
30.78424973
 20
4.86487501
  0
VERTEX
  8
EGA-301.PLT
 62
7
 10
30.72409350
 20
4.75435964
  0
VERTEX
  8
EGA-301.PLT
 62
7
 10
30.65999997
 20
4.64600033
  0
VERTEX
  8
EGA-301.PLT
 62
7
 10
30.57571852
 20
4.51989097
  0
VERTEX
  8
EGA-301.PLT
 62
7
 10
30.48524968
 20
4.39837534
  0
VERTEX
  8
EGA-301.PLT
 62
7
 10
30.39140605
 20
4.27967219
  0
VERTEX
  8
EGA-301.PLT
 62
7
 10
30.29700017
 20
4.16200029
  0
VERTEX
  8
EGA-301.PLT
 62
7
 10
30.24828330
 20
4.10371903
  0
VERTEX
  8
EGA-301.PLT
 62
7
 10
30.19789066
 20
4.04693775
  0
VERTEX
  8
EGA-301.PLT
 62
7
 10
30.14658397
 20
3.99100022
  0
VERTEX
  8
EGA-301.PLT
 62
7
 10
30.09512493
 20
3.93525019
  0
VERTEX
  8
EGA-301.PLT
 62
7
 10
30.04427526
 20
3.87903141
  0
VERTEX
  8
EGA-301.PLT
 62
7
 10
29.99479668
 20
3.82168764
  0
VERTEX
  8
EGA-301.PLT
 62
7
 10
29.94745090
 20
3.76256263
  0
VERTEX
  8
EGA-301.PLT
 62
7
 10
29.90299963
 20
3.70100013
  0
VERTEX
  8
EGA-301.PLT
 62
7
 10
29.85784362
 20
3.63423433
  0
VERTEX
  8
EGA-301.PLT
 62
7
 10
29.81400002
 20
3.56662496
  0
VERTEX
  8
EGA-301.PLT
 62
7
 10
29.77390622
 20
3.49695311
  0
VERTEX
  8
EGA-301.PLT
 62
7
 10
29.73999963
 20
3.42399985
  0
VERTEX
  8
EGA-301.PLT
 62
7
 10
29.72074974
 20
3.37321874
  0
VERTEX
  8
EGA-301.PLT
 62
7
 10
29.70374983
 20
3.32149996
  0
VERTEX
  8
EGA-301.PLT
 62
7
 10
29.68937491
 20
3.26903119
  0
VERTEX
  8
EGA-301.PLT
 62
7
 10
29.67799998
 20
3.21600010
  0
VERTEX
  8
EGA-301.PLT
 62
7
 10
29.67493246
 20
3.29015058
  0
VERTEX
  8
EGA-301.PLT
 62
7
 10
29.67486493
 20
3.36430176
  0
VERTEX
  8
EGA-301.PLT
 62
7
 10
29.67740353
 20
3.40549692
  0
VERTEX
  8
EGA-301.PLT
 62
7
 10
29.68151960
 20
3.44598411
  0
VERTEX
  8
EGA-301.PLT
 62
7
 10
29.68738558
 20
3.48583405
  0
VERTEX
  8
EGA-301.PLT
 62
7
 10
29.69517391
 20
3.52511745
  0
VERTEX
  8
EGA-301.PLT
 62
7
 10
29.70505703
 20
3.56390505
  0
VERTEX
  8
EGA-301.PLT
 62
7
 10
29.71720739
 20
3.60226757
  0
VERTEX
  8
EGA-301.PLT
 62
7
 10
29.73179742
 20
3.64027573
  0
VERTEX
  8
EGA-301.PLT
 62
7
 10
29.74899958
 20
3.67800026
  0
VERTEX
  8
EGA-301.PLT
 62
7
 10
29.76490213
 20
3.70678724
  0
VERTEX
  8
EGA-301.PLT
 62
7
 10
29.78303117
 20
3.73410946
  0
VERTEX
  8
EGA-301.PLT
 62
7
 10
29.80289450
 20
3.76028329
  0
VERTEX
  8
EGA-301.PLT
 62
7
 10
29.82399996
 20
3.78562511
  0
VERTEX
  8
EGA-301.PLT
 62
7
 10
29.84585537
 20
3.81045131
  0
VERTEX
  8
EGA-301.PLT
 62
7
 10
29.86796856
 20
3.83507827
  0
VERTEX
  8
EGA-301.PLT
 62
7
 10
29.88984736
 20
3.85982238
  0
VERTEX
  8
EGA-301.PLT
 62
7
 10
29.91099958
 20
3.88500001
  0
VERTEX
  8
EGA-301.PLT
 62
7
 10
29.97953083
 20
3.96480264
  0
VERTEX
  8
EGA-301.PLT
 62
7
 10
30.05143713
 20
4.04154671
  0
VERTEX
  8
EGA-301.PLT
 62
7
 10
30.12531220
 20
4.11648612
  0
VERTEX
  8
EGA-301.PLT
 62
7
 10
30.19974980
 20
4.19087478
  0
VERTEX
  8
EGA-301.PLT
 62
7
 10
30.27334365
 20
4.26596661
  0
VERTEX
  8
EGA-301.PLT
 62
7
 10
30.34468749
 20
4.34301551
  0
VERTEX
  8
EGA-301.PLT
 62
7
 10
30.41237506
 20
4.42327540
  0
VERTEX
  8
EGA-301.PLT
 62
7
 10
30.47500009
 20
4.50800018
  0
VERTEX
  8
EGA-301.PLT
 62
7
 10
30.52979505
 20
4.58996104
  0
VERTEX
  8
EGA-301.PLT
 62
7
 10
30.58279703
 20
4.67318759
  0
VERTEX
  8
EGA-301.PLT
 62
7
 10
30.63343183
 20
4.75782041
  0
VERTEX
  8
EGA-301.PLT
 62
7
 10
30.68112519
 20
4.84400013
  0
VERTEX
  8
EGA-301.PLT
 62
7
 10
30.72530292
 20
4.93186734
  0
VERTEX
  8
EGA-301.PLT
 62
7
 10
30.76539076
 20
5.02156264
  0
VERTEX
  8
EGA-301.PLT
 62
7
 10
30.80081451
 20
5.11322663
  0
VERTEX
  8
EGA-301.PLT
 62
7
 10
30.83099992
 20
5.20699993
  0
VERTEX
  8
EGA-301.PLT
 62
7
 10
30.85195102
 20
5.30417190
  0
VERTEX
  8
EGA-301.PLT
 62
7
 10
30.86979671
 20
5.39731258
  0
VERTEX
  8
EGA-301.PLT
 62
7
 10
30.88452526
 20
5.48698445
  0
VERTEX
  8
EGA-301.PLT
 62
7
 10
30.89612490
 20
5.57375005
  0
VERTEX
  8
EGA-301.PLT
 62
7
 10
30.90458390
 20
5.65817186
  0
VERTEX
  8
EGA-301.PLT
 62
7
 10
30.90989049
 20
5.74081239
  0
VERTEX
  8
EGA-301.PLT
 62
7
 10
30.91203293
 20
5.82223417
  0
VERTEX
  8
EGA-301.PLT
 62
7
 10
30.91099947
 20
5.90299968
  0
VERTEX
  8
EGA-301.PLT
 62
7
 10
30.85099981
 20
6.24499960
  0
VERTEX
  8
EGA-301.PLT
 62
7
 10
30.81442175
 20
6.14437501
  0
VERTEX
  8
EGA-301.PLT
 62
7
 10
30.77362479
 20
6.04525015
  0
VERTEX
  8
EGA-301.PLT
 62
7
 10
30.72851535
 20
5.94800011
  0
VERTEX
  8
EGA-301.PLT
 62
7
 10
30.67899986
 20
5.85299997
  0
VERTEX
  8
EGA-301.PLT
 62
7
 10
30.63717358
 20
5.78166409
  0
VERTEX
  8
EGA-301.PLT
 62
7
 10
30.59170280
 20
5.71281257
  0
VERTEX
  8
EGA-301.PLT
 62
7
 10
30.54334925
 20
5.64592979
  0
VERTEX
  8
EGA-301.PLT
 62
7
 10
30.49287464
 20
5.58050012
  0
VERTEX
  8
EGA-301.PLT
 62
7
 10
30.44104071
 20
5.51600795
  0
VERTEX
  8
EGA-301.PLT
 62
7
 10
30.38860919
 20
5.45193766
  0
VERTEX
  8
EGA-301.PLT
 62
7
 10
30.33634179
 20
5.38777361
  0
VERTEX
  8
EGA-301.PLT
 62
7
 10
30.28500024
 20
5.32300019
  0
VERTEX
  8
EGA-301.PLT
 62
7
 10
30.24242006
 20
5.27033022
  0
VERTEX
  8
EGA-301.PLT
 62
7
 10
30.19785943
 20
5.21907821
  0
VERTEX
  8
EGA-301.PLT
 62
7
 10
30.15233789
 20
5.16850589
  0
VERTEX
  8
EGA-301.PLT
 62
7
 10
30.10687498
 20
5.11787497
  0
VERTEX
  8
EGA-301.PLT
 62
7
 10
30.06249023
 20
5.06644718
  0
VERTEX
  8
EGA-301.PLT
 62
7
 10
30.02020317
 20
5.01348424
  0
VERTEX
  8
EGA-301.PLT
 62
7
 10
29.98103336
 20
4.95824788
  0
VERTEX
  8
EGA-301.PLT
 62
7
 10
29.94600031
 20
4.89999981
  0
VERTEX
  8
EGA-301.PLT
 62
7
 10
29.90539187
 20
4.82214189
  0
VERTEX
  8
EGA-301.PLT
 62
7
 10
29.87282889
 20
4.74820384
  0
VERTEX
  8
EGA-301.PLT
 62
7
 10
29.84495356
 20
4.67239063
  0
VERTEX
  8
EGA-301.PLT
 62
7
 10
29.81840806
 20
4.58890722
  0
VERTEX
  8
EGA-301.PLT
 62
7
 10
29.80302532
 20
4.52497951
  0
VERTEX
  8
EGA-301.PLT
 62
7
 10
29.79226889
 20
4.45873771
  0
VERTEX
  8
EGA-301.PLT
 62
7
 10
29.78410068
 20
4.39061880
  0
VERTEX
  8
EGA-301.PLT
 62
7
 10
29.77648265
 20
4.32105975
  0
VERTEX
  8
EGA-301.PLT
 62
7
 10
29.76737673
 20
4.25049756
  0
VERTEX
  8
EGA-301.PLT
 62
7
 10
29.75474485
 20
4.17936921
  0
VERTEX
  8
EGA-301.PLT
 62
7
 10
29.73654894
 20
4.10811168
  0
VERTEX
  8
EGA-301.PLT
 62
7
 10
29.71075095
 20
4.03716196
  0
VERTEX
  8
EGA-301.PLT
 62
7
 10
29.70499982
 20
4.29299955
  0
VERTEX
  8
EGA-301.PLT
 62
7
 10
29.70220297
 20
4.35824986
  0
VERTEX
  8
EGA-301.PLT
 62
7
 10
29.69987485
 20
4.42350008
  0
VERTEX
  8
EGA-301.PLT
 62
7
 10
29.70035923
 20
4.48875013
  0
VERTEX
  8
EGA-301.PLT
 62
7
 10
29.70599982
 20
4.55399992
  0
VERTEX
  8
EGA-301.PLT
 62
7
 10
29.71596851
 20
4.61315637
  0
VERTEX
  8
EGA-301.PLT
 62
7
 10
29.72874969
 20
4.67175007
  0
VERTEX
  8
EGA-301.PLT
 62
7
 10
29.74565584
 20
4.72921859
  0
VERTEX
  8
EGA-301.PLT
 62
7
 10
29.76799947
 20
4.78499954
  0
VERTEX
  8
EGA-301.PLT
 62
7
 10
29.79803108
 20
4.83803104
  0
VERTEX
  8
EGA-301.PLT
 62
7
 10
29.83349991
 20
4.88749988
  0
VERTEX
  8
EGA-301.PLT
 62
7
 10
29.87121854
 20
4.93546874
  0
VERTEX
  8
EGA-301.PLT
 62
7
 10
29.90799960
 20
4.98400026
  0
VERTEX
  8
EGA-301.PLT
 62
7
 10
29.99443729
 20
5.10143779
  0
VERTEX
  8
EGA-301.PLT
 62
7
 10
30.08274988
 20
5.21775033
  0
VERTEX
  8
EGA-301.PLT
 62
7
 10
30.17068730
 20
5.33443786
  0
VERTEX
  8
EGA-301.PLT
 62
7
 10
30.25599948
 20
5.45300038
  0
VERTEX
  8
EGA-301.PLT
 62
7
 10
30.29294492
 20
5.50609328
  0
VERTEX
  8
EGA-301.PLT
 62
7
 10
30.33049971
 20
5.55894744
  0
VERTEX
  8
EGA-301.PLT
 62
7
 10
30.36842948
 20
5.61167563
  0
VERTEX
  8
EGA-301.PLT
 62
7
 10
30.40649986
 20
5.66439066
  0
VERTEX
  8
EGA-301.PLT
 62
7
 10
30.44447647
 20
5.71720532
  0
VERTEX
  8
EGA-301.PLT
 62
7
 10
30.48212494
 20
5.77023239
  0
VERTEX
  8
EGA-301.PLT
 62
7
 10
30.51921090
 20
5.82358467
  0
VERTEX
  8
EGA-301.PLT
 62
7
 10
30.55549998
 20
5.87737495
  0
VERTEX
  8
EGA-301.PLT
 62
7
 10
30.59075781
 20
5.93171601
  0
VERTEX
  8
EGA-301.PLT
 62
7
 10
30.62475000
 20
5.98672066
  0
VERTEX
  8
EGA-301.PLT
 62
7
 10
30.65724220
 20
6.04250167
  0
VERTEX
  8
EGA-301.PLT
 62
7
 10
30.68800003
 20
6.09917185
  0
VERTEX
  8
EGA-301.PLT
 62
7
 10
30.71678911
 20
6.15684398
  0
VERTEX
  8
EGA-301.PLT
 62
7
 10
30.74337507
 20
6.21563086
  0
VERTEX
  8
EGA-301.PLT
 62
7
 10
30.76752355
 20
6.27564527
  0
VERTEX
  8
EGA-301.PLT
 62
7
 10
30.78900016
 20
6.33700000
  0
VERTEX
  8
EGA-301.PLT
 62
7
 10
30.81448248
 20
6.41757415
  0
VERTEX
  8
EGA-301.PLT
 62
7
 10
30.83798439
 20
6.49878117
  0
VERTEX
  8
EGA-301.PLT
 62
7
 10
30.85883790
 20
6.58059761
  0
VERTEX
  8
EGA-301.PLT
 62
7
 10
30.87637501
 20
6.66300001
  0
VERTEX
  8
EGA-301.PLT
 62
7
 10
30.88992773
 20
6.74596490
  0
VERTEX
  8
EGA-301.PLT
 62
7
 10
30.89882806
 20
6.82946883
  0
VERTEX
  8
EGA-301.PLT
 62
7
 10
30.90240799
 20
6.91348833
  0
VERTEX
  8
EGA-301.PLT
 62
7
 10
30.89999953
 20
6.99799996
  0
VERTEX
  8
EGA-301.PLT
 62
7
 10
30.89429253
 20
7.06379681
  0
VERTEX
  8
EGA-301.PLT
 62
7
 10
30.88546837
 20
7.12912491
  0
VERTEX
  8
EGA-301.PLT
 62
7
 10
30.87359734
 20
7.19389052
  0
VERTEX
  8
EGA-301.PLT
 62
7
 10
30.85874977
 20
7.25799987
  0
VERTEX
  8
EGA-301.PLT
 62
7
 10
30.84099596
 20
7.32135924
  0
VERTEX
  8
EGA-301.PLT
 62
7
 10
30.82040623
 20
7.38387486
  0
VERTEX
  8
EGA-301.PLT
 62
7
 10
30.79705090
 20
7.44545298
  0
VERTEX
  8
EGA-301.PLT
 62
7
 10
30.77100026
 20
7.50599986
  0
VERTEX
  8
EGA-301.PLT
 62
7
 10
30.74321864
 20
7.40551550
  0
VERTEX
  8
EGA-301.PLT
 62
7
 10
30.71074980
 20
7.30662506
  0
VERTEX
  8
EGA-301.PLT
 62
7
 10
30.67340616
 20
7.20942211
  0
VERTEX
  8
EGA-301.PLT
 62
7
 10
30.63100013
 20
7.11400023
  0
VERTEX
  8
EGA-301.PLT
 62
7
 10
30.59657811
 20
7.04486746
  0
VERTEX
  8
EGA-301.PLT
 62
7
 10
30.55887486
 20
6.97756281
  0
VERTEX
  8
EGA-301.PLT
 62
7
 10
30.51835915
 20
6.91185189
  0
VERTEX
  8
EGA-301.PLT
 62
7
 10
30.47549974
 20
6.84750035
  0
VERTEX
  8
EGA-301.PLT
 62
7
 10
30.43076538
 20
6.78427380
  0
VERTEX
  8
EGA-301.PLT
 62
7
 10
30.38462484
 20
6.72193787
  0
VERTEX
  8
EGA-301.PLT
 62
7
 10
30.33754686
 20
6.66025818
  0
VERTEX
  8
EGA-301.PLT
 62
7
 10
30.29000021
 20
6.59900037
  0
VERTEX
  8
EGA-301.PLT
 62
7
 10
30.25739849
 20
6.55896900
  0
VERTEX
  8
EGA-301.PLT
 62
7
 10
30.22306241
 20
6.52025014
  0
VERTEX
  8
EGA-301.PLT
 62
7
 10
30.18769511
 20
6.48228129
  0
VERTEX
  8
EGA-301.PLT
 62
7
 10
30.15199972
 20
6.44449997
  0
VERTEX
  8
EGA-301.PLT
 62
7
 10
30.11667937
 20
6.40634370
  0
VERTEX
  8
EGA-301.PLT
 62
7
 10
30.08243720
 20
6.36724999
  0
VERTEX
  8
EGA-301.PLT
 62
7
 10
30.04997633
 20
6.32665635
  0
VERTEX
  8
EGA-301.PLT
 62
7
 10
30.01999989
 20
6.28400030
  0
VERTEX
  8
EGA-301.PLT
 62
7
 10
29.98675368
 20
6.22927175
  0
VERTEX
  8
EGA-301.PLT
 62
7
 10
29.95596847
 20
6.17317211
  0
VERTEX
  8
EGA-301.PLT
 62
7
 10
29.92757393
 20
6.11583029
  0
VERTEX
  8
EGA-301.PLT
 62
7
 10
29.90149975
 20
6.05737520
  0
VERTEX
  8
EGA-301.PLT
 62
7
 10
29.87767560
 20
5.99793573
  0
VERTEX
  8
EGA-301.PLT
 62
7
 10
29.85603116
 20
5.93764081
  0
VERTEX
  8
EGA-301.PLT
 62
7
 10
29.83649610
 20
5.87661932
  0
VERTEX
  8
EGA-301.PLT
 62
7
 10
29.81900010
 20
5.81500018
  0
VERTEX
  8
EGA-301.PLT
 62
7
 10
29.80853239
 20
5.76921827
  0
VERTEX
  8
EGA-301.PLT
 62
7
 10
29.80078498
 20
5.72396381
  0
VERTEX
  8
EGA-301.PLT
 62
7
 10
29.79524174
 20
5.67899850
  0
VERTEX
  8
EGA-301.PLT
 62
7
 10
29.79138648
 20
5.63408400
  0
VERTEX
  8
EGA-301.PLT
 62
7
 10
29.78870304
 20
5.58898201
  0
VERTEX
  8
EGA-301.PLT
 62
7
 10
29.78667527
 20
5.54345419
  0
VERTEX
  8
EGA-301.PLT
 62
7
 10
29.78478699
 20
5.49726224
  0
VERTEX
  8
EGA-301.PLT
 62
7
 10
29.78252205
 20
5.45016784
  0
VERTEX
  8
EGA-301.PLT
 62
7
 10
29.78031553
 20
5.39428246
  0
VERTEX
  8
EGA-301.PLT
 62
7
 10
29.77801109
 20
5.33620918
  0
VERTEX
  8
EGA-301.PLT
 62
7
 10
29.77308150
 20
5.27832324
  0
VERTEX
  8
EGA-301.PLT
 62
7
 10
29.76299950
 20
5.22299983
  0
VERTEX
  8
EGA-301.PLT
 62
7
 10
29.74649959
 20
5.17187512
  0
VERTEX
  8
EGA-301.PLT
 62
7
 10
29.72399972
 20
5.12300040
  0
VERTEX
  8
EGA-301.PLT
 62
7
 10
29.71142166
 20
5.22442186
  0
VERTEX
  8
EGA-301.PLT
 62
7
 10
29.70362483
 20
5.32612483
  0
VERTEX
  8
EGA-301.PLT
 62
7
 10
29.70051547
 20
5.42801547
  0
VERTEX
  8
EGA-301.PLT
 62
7
 10
29.70199984
 20
5.52999995
  0
VERTEX
  8
EGA-301.PLT
 62
7
 10
29.69918736
 20
5.59540638
  0
VERTEX
  8
EGA-301.PLT
 62
7
 10
29.69974985
 20
5.66100013
  0
VERTEX
  8
EGA-301.PLT
 62
7
 10
29.70368733
 20
5.72659388
  0
VERTEX
  8
EGA-301.PLT
 62
7
 10
29.71099979
 20
5.79200031
  0
VERTEX
  8
EGA-301.PLT
 62
7
 10
29.71890600
 20
5.84445329
  0
VERTEX
  8
EGA-301.PLT
 62
7
 10
29.72924969
 20
5.89662518
  0
VERTEX
  8
EGA-301.PLT
 62
7
 10
29.74221836
 20
5.94823458
  0
VERTEX
  8
EGA-301.PLT
 62
7
 10
29.75799952
 20
5.99900007
  0
VERTEX
  8
EGA-301.PLT
 62
7
 10
29.77295873
 20
6.03729117
  0
VERTEX
  8
EGA-301.PLT
 62
7
 10
29.79048425
 20
6.07432831
  0
VERTEX
  8
EGA-301.PLT
 62
7
 10
29.81004876
 20
6.11035761
  0
VERTEX
  8
EGA-301.PLT
 62
7
 10
29.83112492
 20
6.14562516
  0
VERTEX
  8
EGA-301.PLT
 62
7
 10
29.85318541
 20
6.18037709
  0
VERTEX
  8
EGA-301.PLT
 62
7
 10
29.87570289
 20
6.21485952
  0
VERTEX
  8
EGA-301.PLT
 62
7
 10
29.89815004
 20
6.24931855
  0
VERTEX
  8
EGA-301.PLT
 62
7
 10
29.91999953
 20
6.28400030
  0
VERTEX
  8
EGA-301.PLT
 62
7
 10
29.96558556
 20
6.35505298
  0
VERTEX
  8
EGA-301.PLT
 62
7
 10
30.01337470
 20
6.42454708
  0
VERTEX
  8
EGA-301.PLT
 62
7
 10
30.06266383
 20
6.49298649
  0
VERTEX
  8
EGA-301.PLT
 62
7
 10
30.11274983
 20
6.56087512
  0
VERTEX
  8
EGA-301.PLT
 62
7
 10
30.16292958
 20
6.62871688
  0
VERTEX
  8
EGA-301.PLT
 62
7
 10
30.21249996
 20
6.69701567
  0
VERTEX
  8
EGA-301.PLT
 62
7
 10
30.26075784
 20
6.76627539
  0
VERTEX
  8
EGA-301.PLT
 62
7
 10
30.30700012
 20
6.83699995
  0
VERTEX
  8
EGA-301.PLT
 62
7
 10
30.35709389
 20
6.91704090
  0
VERTEX
  8
EGA-301.PLT
 62
7
 10
30.40662510
 20
6.99751550
  0
VERTEX
  8
EGA-301.PLT
 62
7
 10
30.45521877
 20
7.07857608
  0
VERTEX
  8
EGA-301.PLT
 62
7
 10
30.50249993
 20
7.16037497
  0
VERTEX
  8
EGA-301.PLT
 62
7
 10
30.54809360
 20
7.24306447
  0
VERTEX
  8
EGA-301.PLT
 62
7
 10
30.59162481
 20
7.32679691
  0
VERTEX
  8
EGA-301.PLT
 62
7
 10
30.63271856
 20
7.41172461
  0
VERTEX
  8
EGA-301.PLT
 62
7
 10
30.67099990
 20
7.49799990
  0
VERTEX
  8
EGA-301.PLT
 62
7
 10
30.70111527
 20
7.57103113
  0
VERTEX
  8
EGA-301.PLT
 62
7
 10
30.72985948
 20
7.64462491
  0
VERTEX
  8
EGA-301.PLT
 62
7
 10
30.75708019
 20
7.71878124
  0
VERTEX
  8
EGA-301.PLT
 62
7
 10
30.78262508
 20
7.79350008
  0
VERTEX
  8
EGA-301.PLT
 62
7
 10
30.80634181
 20
7.86878142
  0
VERTEX
  8
EGA-301.PLT
 62
7
 10
30.82807805
 20
7.94462524
  0
VERTEX
  8
EGA-301.PLT
 62
7
 10
30.84768147
 20
8.02103151
  0
VERTEX
  8
EGA-301.PLT
 62
7
 10
30.86499973
 20
8.09800021
  0
VERTEX
  8
EGA-301.PLT
 62
7
 10
30.88542164
 20
8.20260954
  0
VERTEX
  8
EGA-301.PLT
 62
7
 10
30.90237498
 20
8.30787494
  0
VERTEX
  8
EGA-301.PLT
 62
7
 10
30.91464086
 20
8.41370284
  0
VERTEX
  8
EGA-301.PLT
 62
7
 10
30.92100034
 20
8.51999967
  0
VERTEX
  8
EGA-301.PLT
 62
7
 10
30.92190657
 20
8.59348431
  0
VERTEX
  8
EGA-301.PLT
 62
7
 10
30.92075023
 20
8.66687511
  0
VERTEX
  8
EGA-301.PLT
 62
7
 10
30.91621873
 20
8.74007824
  0
VERTEX
  8
EGA-301.PLT
 62
7
 10
30.90699949
 20
8.81299986
  0
VERTEX
  8
EGA-301.PLT
 62
7
 10
30.89329645
 20
8.87993753
  0
VERTEX
  8
EGA-301.PLT
 62
7
 10
30.87612467
 20
8.94575003
  0
VERTEX
  8
EGA-301.PLT
 62
7
 10
30.85539041
 20
9.01043754
  0
VERTEX
  8
EGA-301.PLT
 62
7
 10
30.83099992
 20
9.07400023
  0
VERTEX
  8
EGA-301.PLT
 62
7
 10
30.78953126
 20
8.97839070
  0
VERTEX
  8
EGA-301.PLT
 62
7
 10
30.74599994
 20
8.88362492
  0
VERTEX
  8
EGA-301.PLT
 62
7
 10
30.70021863
 20
8.78979663
  0
VERTEX
  8
EGA-301.PLT
 62
7
 10
30.65200001
 20
8.69699959
  0
VERTEX
  8
EGA-301.PLT
 62
7
 10
30.60561712
 20
8.61372237
  0
VERTEX
  8
EGA-301.PLT
 62
7
 10
30.55618736
 20
8.53234358
  0
VERTEX
  8
EGA-301.PLT
 62
7
 10
30.50441387
 20
8.45241790
  0
VERTEX
  8
EGA-301.PLT
 62
7
 10
30.45099976
 20
8.37350003
  0
VERTEX
  8
EGA-301.PLT
 62
7
 10
30.39664816
 20
8.29514466
  0
VERTEX
  8
EGA-301.PLT
 62
7
 10
30.34206219
 20
8.21690648
  0
VERTEX
  8
EGA-301.PLT
 62
7
 10
30.28794496
 20
8.13834017
  0
VERTEX
  8
EGA-301.PLT
 62
7
 10
30.23499960
 20
8.05900043
  0
VERTEX
  8
EGA-301.PLT
 62
7
 10
30.19826539
 20
8.00474257
  0
VERTEX
  8
EGA-301.PLT
 62
7
 10
30.16049988
 20
7.95118784
  0
VERTEX
  8
EGA-301.PLT
 62
7
 10
30.12235932
 20
7.89791436
  0
VERTEX
  8
EGA-301.PLT
 62
7
 10
30.08449999
 20
7.84450025
  0
VERTEX
  8
EGA-301.PLT
 62
7
 10
30.04757815
 20
7.79052365
  0
VERTEX
  8
EGA-301.PLT
 62
7
 10
30.01225008
 20
7.73556268
  0
VERTEX
  8
EGA-301.PLT
 62
7
 10
29.97917204
 20
7.67919546
  0
VERTEX
  8
EGA-301.PLT
 62
7
 10
29.94900029
 20
7.62100013
  0
VERTEX
  8
EGA-301.PLT
 62
7
 10
29.92716289
 20
7.57404665
  0
VERTEX
  8
EGA-301.PLT
 62
7
 10
29.90735613
 20
7.52869499
  0
VERTEX
  8
EGA-301.PLT
 62
7
 10
29.88951251
 20
7.48420808
  0
VERTEX
  8
EGA-301.PLT
 62
7
 10
29.87356455
 20
7.43984887
  0
VERTEX
  8
EGA-301.PLT
 62
7
 10
29.85944474
 20
7.39488028
  0
VERTEX
  8
EGA-301.PLT
 62
7
 10
29.84708560
 20
7.34856526
  0
VERTEX
  8
EGA-301.PLT
 62
7
 10
29.83641963
 20
7.30016674
  0
VERTEX
  8
EGA-301.PLT
 62
7
 10
29.82737933
 20
7.24894766
  0
VERTEX
  8
EGA-301.PLT
 62
7
 10
29.82231810
 20
7.20939026
  0
VERTEX
  8
EGA-301.PLT
 62
7
 10
29.81950886
 20
7.16769312
  0
VERTEX
  8
EGA-301.PLT
 62
7
 10
29.81838846
 20
7.12456949
  0
VERTEX
  8
EGA-301.PLT
 62
7
 10
29.81839372
 20
7.08073261
  0
VERTEX
  8
EGA-301.PLT
 62
7
 10
29.81896149
 20
7.03689573
  0
VERTEX
  8
EGA-301.PLT
 62
7
 10
29.81952858
 20
6.99377210
  0
VERTEX
  8
EGA-301.PLT
 62
7
 10
29.81953182
 20
6.95207496
  0
VERTEX
  8
EGA-301.PLT
 62
7
 10
29.81840806
 20
6.91251756
  0
VERTEX
  8
EGA-301.PLT
 62
7
 10
29.81603703
 20
6.86221207
  0
VERTEX
  8
EGA-301.PLT
 62
7
 10
29.81376621
 20
6.81185851
  0
VERTEX
  8
EGA-301.PLT
 62
7
 10
29.81098405
 20
6.76155102
  0
VERTEX
  8
EGA-301.PLT
 62
7
 10
29.80707903
 20
6.71138375
  0
VERTEX
  8
EGA-301.PLT
 62
7
 10
29.80143960
 20
6.66145086
  0
VERTEX
  8
EGA-301.PLT
 62
7
 10
29.79345423
 20
6.61184649
  0
VERTEX
  8
EGA-301.PLT
 62
7
 10
29.78251136
 20
6.56266479
  0
VERTEX
  8
EGA-301.PLT
 62
7
 10
29.76799947
 20
6.51399992
  0
VERTEX
  8
EGA-301.PLT
 62
7
 10
29.75362455
 20
6.47512515
  0
VERTEX
  8
EGA-301.PLT
 62
7
 10
29.73699964
 20
6.43700036
  0
VERTEX
  8
EGA-301.PLT
 62
7
 10
29.73799964
 20
6.77600029
  0
VERTEX
  8
EGA-301.PLT
 62
7
 10
29.73999963
 20
7.22099962
  0
VERTEX
  8
EGA-301.PLT
 62
7
 10
29.73938635
 20
7.25287280
  0
VERTEX
  8
EGA-301.PLT
 62
7
 10
29.73790589
 20
7.28473419
  0
VERTEX
  8
EGA-301.PLT
 62
7
 10
29.73609730
 20
7.31657209
  0
VERTEX
  8
EGA-301.PLT
 62
7
 10
29.73449966
 20
7.34837483
  0
VERTEX
  8
EGA-301.PLT
 62
7
 10
29.73365201
 20
7.38013068
  0
VERTEX
  8
EGA-301.PLT
 62
7
 10
29.73409341
 20
7.41182797
  0
VERTEX
  8
EGA-301.PLT
 62
7
 10
29.73636293
 20
7.44345498
  0
VERTEX
  8
EGA-301.PLT
 62
7
 10
29.74099962
 20
7.47500003
  0
VERTEX
  8
EGA-301.PLT
 62
7
 10
29.75762467
 20
7.54140646
  0
VERTEX
  8
EGA-301.PLT
 62
7
 10
29.78099986
 20
7.60575022
  0
VERTEX
  8
EGA-301.PLT
 62
7
 10
29.80962501
 20
7.66821899
  0
VERTEX
  8
EGA-301.PLT
 62
7
 10
29.84199997
 20
7.72900045
  0
VERTEX
  8
EGA-301.PLT
 62
7
 10
29.87181625
 20
7.77741818
  0
VERTEX
  8
EGA-301.PLT
 62
7
 10
29.90578102
 20
7.82271882
  0
VERTEX
  8
EGA-301.PLT
 62
7
 10
29.94279271
 20
7.86572267
  0
VERTEX
  8
EGA-301.PLT
 62
7
 10
29.98174976
 20
7.90725001
  0
VERTEX
  8
EGA-301.PLT
 62
7
 10
30.02155060
 20
7.94812116
  0
VERTEX
  8
EGA-301.PLT
 62
7
 10
30.06109365
 20
7.98915639
  0
VERTEX
  8
EGA-301.PLT
 62
7
 10
30.09927737
 20
8.03117602
  0
VERTEX
  8
EGA-301.PLT
 62
7
 10
30.13500016
 20
8.07500034
  0
VERTEX
  8
EGA-301.PLT
 62
7
 10
30.23168767
 20
8.20823465
  0
VERTEX
  8
EGA-301.PLT
 62
7
 10
30.32275003
 20
8.34512519
  0
VERTEX
  8
EGA-301.PLT
 62
7
 10
30.40893741
 20
8.48520322
  0
VERTEX
  8
EGA-301.PLT
 62
7
 10
30.49100000
 20
8.62799998
  0
VERTEX
  8
EGA-301.PLT
 62
7
 10
30.53951569
 20
8.71425769
  0
VERTEX
  8
EGA-301.PLT
 62
7
 10
30.58775013
 20
8.80074984
  0
VERTEX
  8
EGA-301.PLT
 62
7
 10
30.63485955
 20
8.88780453
  0
VERTEX
  8
EGA-301.PLT
 62
7
 10
30.68000020
 20
8.97574986
  0
VERTEX
  8
EGA-301.PLT
 62
7
 10
30.72232832
 20
9.06491394
  0
VERTEX
  8
EGA-301.PLT
 62
7
 10
30.76100016
 20
9.15562485
  0
VERTEX
  8
EGA-301.PLT
 62
7
 10
30.79517196
 20
9.24821072
  0
VERTEX
  8
EGA-301.PLT
 62
7
 10
30.82399996
 20
9.34299963
  0
VERTEX
  8
EGA-301.PLT
 62
7
 10
30.84105260
 20
9.41109951
  0
VERTEX
  8
EGA-301.PLT
 62
7
 10
30.85560916
 20
9.47960946
  0
VERTEX
  8
EGA-301.PLT
 62
7
 10
30.86789229
 20
9.54847091
  0
VERTEX
  8
EGA-301.PLT
 62
7
 10
30.87812466
 20
9.61762527
  0
VERTEX
  8
EGA-301.PLT
 62
7
 10
30.88652891
 20
9.68701397
  0
VERTEX
  8
EGA-301.PLT
 62
7
 10
30.89332770
 20
9.75657841
  0
VERTEX
  8
EGA-301.PLT
 62
7
 10
30.89874368
 20
9.82626001
  0
VERTEX
  8
EGA-301.PLT
 62
7
 10
30.90299952
 20
9.89600020
  0
VERTEX
  8
EGA-301.PLT
 62
7
 10
30.90637672
 20
9.97811923
  0
VERTEX
  8
EGA-301.PLT
 62
7
 10
30.90751551
 20
10.06020310
  0
VERTEX
  8
EGA-301.PLT
 62
7
 10
30.90642764
 20
10.14221669
  0
VERTEX
  8
EGA-301.PLT
 62
7
 10
30.90312486
 20
10.22412485
  0
VERTEX
  8
EGA-301.PLT
 62
7
 10
30.89761893
 20
10.30589242
  0
VERTEX
  8
EGA-301.PLT
 62
7
 10
30.88992160
 20
10.38748426
  0
VERTEX
  8
EGA-301.PLT
 62
7
 10
30.88004461
 20
10.46886524
  0
VERTEX
  8
EGA-301.PLT
 62
7
 10
30.86799971
 20
10.55000020
  0
VERTEX
  8
EGA-301.PLT
 62
7
 10
30.82042171
 20
10.43059393
  0
VERTEX
  8
EGA-301.PLT
 62
7
 10
30.76937481
 20
10.31250016
  0
VERTEX
  8
EGA-301.PLT
 62
7
 10
30.71514042
 20
10.19590637
  0
VERTEX
  8
EGA-301.PLT
 62
7
 10
30.65799998
 20
10.08100008
  0
VERTEX
  8
EGA-301.PLT
 62
7
 10
30.59095293
 20
9.95879695
  0
VERTEX
  8
EGA-301.PLT
 62
7
 10
30.51987484
 20
9.83912506
  0
VERTEX
  8
EGA-301.PLT
 62
7
 10
30.44635925
 20
9.72114066
  0
VERTEX
  8
EGA-301.PLT
 62
7
 10
30.37199975
 20
9.60400000
  0
VERTEX
  8
EGA-301.PLT
 62
7
 10
30.29668752
 20
9.49240619
  0
VERTEX
  8
EGA-301.PLT
 62
7
 10
30.21875004
 20
9.38249987
  0
VERTEX
  8
EGA-301.PLT
 62
7
 10
30.14193738
 20
9.27184355
  0
VERTEX
  8
EGA-301.PLT
 62
7
 10
30.06999961
 20
9.15799975
  0
VERTEX
  8
EGA-301.PLT
 62
7
 10
30.04069488
 20
9.10826494
  0
VERTEX
  8
EGA-301.PLT
 62
7
 10
30.01280032
 20
9.06047268
  0
VERTEX
  8
EGA-301.PLT
 62
7
 10
29.98634587
 20
9.01374109
  0
VERTEX
  8
EGA-301.PLT
 62
7
 10
29.96136146
 20
8.96718828
  0
VERTEX
  8
EGA-301.PLT
 62
7
 10
29.93787705
 20
8.91993234
  0
VERTEX
  8
EGA-301.PLT
 62
7
 10
29.91592257
 20
8.87109139
  0
VERTEX
  8
EGA-301.PLT
 62
7
 10
29.89552797
 20
8.81978352
  0
VERTEX
  8
EGA-301.PLT
 62
7
 10
29.87672318
 20
8.76512686
  0
VERTEX
  8
EGA-301.PLT
 62
7
 10
29.86019019
 20
8.70792107
  0
VERTEX
  8
EGA-301.PLT
 62
7
 10
29.84764281
 20
8.65032742
  0
VERTEX
  8
EGA-301.PLT
 62
7
 10
29.83840874
 20
8.59238144
  0
VERTEX
  8
EGA-301.PLT
 62
7
 10
29.83181571
 20
8.53411869
  0
VERTEX
  8
EGA-301.PLT
 62
7
 10
29.82719142
 20
8.47557469
  0
VERTEX
  8
EGA-301.PLT
 62
7
 10
29.82386357
 20
8.41678497
  0
VERTEX
  8
EGA-301.PLT
 62
7
 10
29.82115988
 20
8.35778508
  0
VERTEX
  8
EGA-301.PLT
 62
7
 10
29.81840806
 20
8.29861054
  0
VERTEX
  8
EGA-301.PLT
 62
7
 10
29.81434116
 20
8.21495828
  0
VERTEX
  8
EGA-301.PLT
 62
7
 10
29.81094395
 20
8.13712360
  0
VERTEX
  8
EGA-301.PLT
 62
7
 10
29.80567175
 20
8.05928909
  0
VERTEX
  8
EGA-301.PLT
 62
7
 10
29.79597988
 20
7.97563735
  0
VERTEX
  8
EGA-301.PLT
 62
7
 10
29.78573298
 20
7.90906884
  0
VERTEX
  8
EGA-301.PLT
 62
7
 10
29.77098974
 20
7.83131855
  0
VERTEX
  8
EGA-301.PLT
 62
7
 10
29.75324652
 20
7.75431827
  0
VERTEX
  8
EGA-301.PLT
 62
7
 10
29.73399966
 20
7.68999974
  0
VERTEX
  8
EGA-301.PLT
 62
7
 10
29.73412732
 20
8.22951010
  0
VERTEX
  8
EGA-301.PLT
 62
7
 10
29.72858433
 20
8.58984571
  0
VERTEX
  8
EGA-301.PLT
 62
7
 10
29.72864923
 20
8.62811965
  0
VERTEX
  8
EGA-301.PLT
 62
7
 10
29.72954201
 20
8.66642264
  0
VERTEX
  8
EGA-301.PLT
 62
7
 10
29.73230977
 20
8.70472580
  0
VERTEX
  8
EGA-301.PLT
 62
7
 10
29.73799964
 20
8.74300025
  0
VERTEX
  8
EGA-301.PLT
 62
7
 10
29.74839035
 20
8.78546878
  0
VERTEX
  8
EGA-301.PLT
 62
7
 10
29.76337496
 20
8.82624990
  0
VERTEX
  8
EGA-301.PLT
 62
7
 10
29.78117205
 20
8.86590620
  0
VERTEX
  8
EGA-301.PLT
 62
7
 10
29.80000021
 20
8.90500026
  0
VERTEX
  8
EGA-301.PLT
 62
7
 10
29.82165247
 20
8.94612312
  0
VERTEX
  8
EGA-301.PLT
 62
7
 10
29.84571885
 20
8.98573434
  0
VERTEX
  8
EGA-301.PLT
 62
7
 10
29.87161338
 20
9.02419719
  0
VERTEX
  8
EGA-301.PLT
 62
7
 10
29.89875011
 20
9.06187495
  0
VERTEX
  8
EGA-301.PLT
 62
7
 10
29.92654310
 20
9.09913088
  0
VERTEX
  8
EGA-301.PLT
 62
7
 10
29.95440637
 20
9.13632825
  0
VERTEX
  8
EGA-301.PLT
 62
7
 10
29.98175397
 20
9.17383032
  0
VERTEX
  8
EGA-301.PLT
 62
7
 10
30.00799996
 20
9.21200037
  0
VERTEX
  8
EGA-301.PLT
 62
7
 10
30.07689445
 20
9.31616619
  0
VERTEX
  8
EGA-301.PLT
 62
7
 10
30.14590612
 20
9.42039067
  0
VERTEX
  8
EGA-301.PLT
 62
7
 10
30.21440217
 20
9.52501366
  0
VERTEX
  8
EGA-301.PLT
 62
7
 10
30.28174980
 20
9.63037497
  0
VERTEX
  8
EGA-301.PLT
 62
7
 10
30.34731618
 20
9.73681445
  0
VERTEX
  8
EGA-301.PLT
 62
7
 10
30.41046851
 20
9.84467192
  0
VERTEX
  8
EGA-301.PLT
 62
7
 10
30.47057399
 20
9.95428721
  0
VERTEX
  8
EGA-301.PLT
 62
7
 10
30.52699980
 20
10.06600016
  0
VERTEX
  8
EGA-301.PLT
 62
7
 10
30.58343732
 20
10.18448651
  0
VERTEX
  8
EGA-301.PLT
 62
7
 10
30.63818734
 20
10.30382833
  0
VERTEX
  8
EGA-301.PLT
 62
7
 10
30.69040611
 20
10.42422483
  0
VERTEX
  8
EGA-301.PLT
 62
7
 10
30.73924987
 20
10.54587522
  0
VERTEX
  8
EGA-301.PLT
 62
7
 10
30.78387485
 20
10.66897873
  0
VERTEX
  8
EGA-301.PLT
 62
7
 10
30.82343731
 20
10.79373458
  0
VERTEX
  8
EGA-301.PLT
 62
7
 10
30.85709348
 20
10.92034198
  0
VERTEX
  8
EGA-301.PLT
 62
7
 10
30.88399962
 20
11.04900015
  0
VERTEX
  8
EGA-301.PLT
 62
7
 10
30.89574205
 20
11.11284193
  0
VERTEX
  8
EGA-301.PLT
 62
7
 10
30.90725003
 20
11.17685949
  0
VERTEX
  8
EGA-301.PLT
 62
7
 10
30.91782044
 20
11.24104112
  0
VERTEX
  8
EGA-301.PLT
 62
7
 10
30.92675019
 20
11.30537508
  0
VERTEX
  8
EGA-301.PLT
 62
7
 10
30.93333616
 20
11.36984967
  0
VERTEX
  8
EGA-301.PLT
 62
7
 10
30.93687524
 20
11.43445317
  0
VERTEX
  8
EGA-301.PLT
 62
7
 10
30.93666431
 20
11.49917385
  0
VERTEX
  8
EGA-301.PLT
 62
7
 10
30.93200028
 20
11.56400001
  0
VERTEX
  8
EGA-301.PLT
 62
7
 10
30.92529910
 20
11.61672271
  0
VERTEX
  8
EGA-301.PLT
 62
7
 10
30.91645335
 20
11.66909384
  0
VERTEX
  8
EGA-301.PLT
 62
7
 10
30.90547474
 20
11.72104308
  0
VERTEX
  8
EGA-301.PLT
 62
7
 10
30.89237504
 20
11.77250010
  0
VERTEX
  8
EGA-301.PLT
 62
7
 10
30.87716597
 20
11.82339458
  0
VERTEX
  8
EGA-301.PLT
 62
7
 10
30.85985928
 20
11.87365619
  0
VERTEX
  8
EGA-301.PLT
 62
7
 10
30.84046671
 20
11.92321462
  0
VERTEX
  8
EGA-301.PLT
 62
7
 10
30.81899999
 20
11.97199955
  0
VERTEX
  8
EGA-301.PLT
 62
7
 10
30.78970314
 20
11.84979656
  0
VERTEX
  8
EGA-301.PLT
 62
7
 10
30.75412490
 20
11.72937500
  0
VERTEX
  8
EGA-301.PLT
 62
7
 10
30.71198419
 20
11.61101591
  0
VERTEX
  8
EGA-301.PLT
 62
7
 10
30.66299995
 20
11.49500040
  0
VERTEX
  8
EGA-301.PLT
 62
7
 10
30.62725180
 20
11.42228141
  0
VERTEX
  8
EGA-301.PLT
 62
7
 10
30.58795295
 20
11.35162498
  0
VERTEX
  8
EGA-301.PLT
 62
7
 10
30.54577135
 20
11.28265611
  0
VERTEX
  8
EGA-301.PLT
 62
7
 10
30.50137494
 20
11.21499979
  0
VERTEX
  8
EGA-301.PLT
 62
7
 10
30.45543166
 20
11.14828100
  0
VERTEX
  8
EGA-301.PLT
 62
7
 10
30.40860946
 20
11.08212474
  0
VERTEX
  8
EGA-301.PLT
 62
7
 10
30.36157629
 20
11.01615601
  0
VERTEX
  8
EGA-301.PLT
 62
7
 10
30.31500007
 20
10.94999978
  0
VERTEX
  8
EGA-301.PLT
 62
7
 10
30.27866208
 20
10.89975367
  0
VERTEX
  8
EGA-301.PLT
 62
7
 10
30.24067182
 20
10.85065605
  0
VERTEX
  8
EGA-301.PLT
 62
7
 10
30.20181442
 20
10.80216784
  0
VERTEX
  8
EGA-301.PLT
 62
7
 10
30.16287501
 20
10.75374997
  0
VERTEX
  8
EGA-301.PLT
 62
7
 10
30.12463872
 20
10.70486335
  0
VERTEX
  8
EGA-301.PLT
 62
7
 10
30.08789068
 20
10.65496890
  0
VERTEX
  8
EGA-301.PLT
 62
7
 10
30.05341602
 20
10.60352755
  0
VERTEX
  8
EGA-301.PLT
 62
7
 10
30.02199988
 20
10.55000020
  0
VERTEX
  8
EGA-301.PLT
 62
7
 10
29.96926566
 20
10.44637509
  0
VERTEX
  8
EGA-301.PLT
 62
7
 10
29.92337498
 20
10.33975000
  0
VERTEX
  8
EGA-301.PLT
 62
7
 10
29.88404676
 20
10.23049993
  0
VERTEX
  8
EGA-301.PLT
 62
7
 10
29.85099992
 20
10.11899986
  0
VERTEX
  8
EGA-301.PLT
 62
7
 10
29.83714315
 20
10.05619000
  0
VERTEX
  8
EGA-301.PLT
 62
7
 10
29.82790979
 20
9.99058048
  0
VERTEX
  8
EGA-301.PLT
 62
7
 10
29.82230558
 20
9.92302639
  0
VERTEX
  8
EGA-301.PLT
 62
7
 10
29.81933625
 20
9.85438284
  0
VERTEX
  8
EGA-301.PLT
 62
7
 10
29.81800754
 20
9.78550491
  0
VERTEX
  8
EGA-301.PLT
 62
7
 10
29.81732517
 20
9.71724770
  0
VERTEX
  8
EGA-301.PLT
 62
7
 10
29.81629489
 20
9.65046631
  0
VERTEX
  8
EGA-301.PLT
 62
7
 10
29.81392243
 20
9.58601583
  0
VERTEX
  8
EGA-301.PLT
 62
7
 10
29.81202343
 20
9.53939207
  0
VERTEX
  8
EGA-301.PLT
 62
7
 10
29.81109083
 20
9.49502897
  0
VERTEX
  8
EGA-301.PLT
 62
7
 10
29.81039625
 20
9.45218860
  0
VERTEX
  8
EGA-301.PLT
 62
7
 10
29.80921131
 20
9.41013304
  0
VERTEX
  8
EGA-301.PLT
 62
7
 10
29.80680762
 20
9.36812435
  0
VERTEX
  8
EGA-301.PLT
 62
7
 10
29.80245681
 20
9.32542461
  0
VERTEX
  8
EGA-301.PLT
 62
7
 10
29.79543049
 20
9.28129589
  0
VERTEX
  8
EGA-301.PLT
 62
7
 10
29.78500030
 20
9.23500024
  0
VERTEX
  8
EGA-301.PLT
 62
7
 10
29.76499995
 20
9.16887481
  0
VERTEX
  8
EGA-301.PLT
 62
7
 10
29.73899963
 20
9.10500005
  0
VERTEX
  8
EGA-301.PLT
 62
7
 10
29.74099962
 20
9.67299961
  0
VERTEX
  8
EGA-301.PLT
 62
7
 10
29.74046837
 20
9.78265594
  0
VERTEX
  8
EGA-301.PLT
 62
7
 10
29.73899963
 20
9.89249976
  0
VERTEX
  8
EGA-301.PLT
 62
7
 10
29.73903088
 20
10.00234358
  0
VERTEX
  8
EGA-301.PLT
 62
7
 10
29.74299961
 20
10.11199990
  0
VERTEX
  8
EGA-301.PLT
 62
7
 10
29.74411288
 20
10.14587111
  0
VERTEX
  8
EGA-301.PLT
 62
7
 10
29.74421835
 20
10.17990632
  0
VERTEX
  8
EGA-301.PLT
 62
7
 10
29.74408945
 20
10.21398835
  0
VERTEX
  8
EGA-301.PLT
 62
7
 10
29.74449960
 20
10.24800006
  0
VERTEX
  8
EGA-301.PLT
 62
7
 10
29.74622225
 20
10.28182426
  0
VERTEX
  8
EGA-301.PLT
 62
7
 10
29.75003082
 20
10.31534380
  0
VERTEX
  8
EGA-301.PLT
 62
7
 10
29.75669875
 20
10.34844151
  0
VERTEX
  8
EGA-301.PLT
 62
7
 10
29.76699947
 20
10.38100023
  0
VERTEX
  8
EGA-301.PLT
 62
7
 10
29.78589053
 20
10.42150001
  0
VERTEX
  8
EGA-301.PLT
 62
7
 10
29.80937504
 20
10.45974990
  0
VERTEX
  8
EGA-301.PLT
 62
7
 10
29.83492187
 20
10.49687496
  0
VERTEX
  8
EGA-301.PLT
 62
7
 10
29.85999987
 20
10.53400029
  0
VERTEX
  8
EGA-301.PLT
 62
7
 10
29.90405075
 20
10.59800223
  0
VERTEX
  8
EGA-301.PLT
 62
7
 10
29.95084379
 20
10.65995339
  0
VERTEX
  8
EGA-301.PLT
 62
7
 10
29.99946492
 20
10.72052176
  0
VERTEX
  8
EGA-301.PLT
 62
7
 10
30.04900007
 20
10.78037528
  0
VERTEX
  8
EGA-301.PLT
 62
7
 10
30.09853519
 20
10.84018193
  0
VERTEX
  8
EGA-301.PLT
 62
7
 10
30.14715619
 20
10.90060967
  0
VERTEX
  8
EGA-301.PLT
 62
7
 10
30.19394901
 20
10.96232646
  0
VERTEX
  8
EGA-301.PLT
 62
7
 10
30.23799958
 20
11.02600028
  0
VERTEX
  8
EGA-301.PLT
 62
7
 10
30.31666776
 20
11.15083230
  0
VERTEX
  8
EGA-301.PLT
 62
7
 10
30.39015618
 20
11.27840649
  0
VERTEX
  8
EGA-301.PLT
 62
7
 10
30.45881643
 20
11.40846504
  0
VERTEX
  8
EGA-301.PLT
 62
7
 10
30.52300005
 20
11.54075014
  0
VERTEX
  8
EGA-301.PLT
 62
7
 10
30.58305861
 20
11.67500398
  0
VERTEX
  8
EGA-301.PLT
 62
7
 10
30.63934366
 20
11.81096875
  0
VERTEX
  8
EGA-301.PLT
 62
7
 10
30.69220677
 20
11.94838663
  0
VERTEX
  8
EGA-301.PLT
 62
7
 10
30.74199950
 20
12.08699982
  0
VERTEX
  8
EGA-301.PLT
 62
7
 10
30.77463443
 20
12.17927925
  0
VERTEX
  8
EGA-301.PLT
 62
7
 10
30.80732794
 20
12.27173439
  0
VERTEX
  8
EGA-301.PLT
 62
7
 10
30.83901362
 20
12.36454105
  0
VERTEX
  8
EGA-301.PLT
 62
7
 10
30.86862506
 20
12.45787503
  0
VERTEX
  8
EGA-301.PLT
 62
7
 10
30.89509585
 20
12.55191213
  0
VERTEX
  8
EGA-301.PLT
 62
7
 10
30.91735958
 20
12.64682816
  0
VERTEX
  8
EGA-301.PLT
 62
7
 10
30.93434983
 20
12.74279891
  0
VERTEX
  8
EGA-301.PLT
 62
7
 10
30.94500020
 20
12.84000018
  0
VERTEX
  8
EGA-301.PLT
 62
7
 10
30.94884393
 20
12.88728928
  0
VERTEX
  8
EGA-301.PLT
 62
7
 10
30.95250016
 20
12.93462520
  0
VERTEX
  8
EGA-301.PLT
 62
7
 10
30.95540639
 20
12.98196106
  0
VERTEX
  8
EGA-301.PLT
 62
7
 10
30.95700014
 20
13.02925004
  0
VERTEX
  8
EGA-301.PLT
 62
7
 10
30.95671889
 20
13.07644526
  0
VERTEX
  8
EGA-301.PLT
 62
7
 10
30.95400015
 20
13.12349988
  0
VERTEX
  8
EGA-301.PLT
 62
7
 10
30.94828143
 20
13.17036704
  0
VERTEX
  8
EGA-301.PLT
 62
7
 10
30.93900024
 20
13.21699990
  0
VERTEX
  8
EGA-301.PLT
 62
7
 10
30.91574991
 20
13.29512492
  0
VERTEX
  8
EGA-301.PLT
 62
7
 10
30.88499962
 20
13.37099995
  0
VERTEX
  8
EGA-301.PLT
 62
7
 10
30.84903106
 20
13.24879682
  0
VERTEX
  8
EGA-301.PLT
 62
7
 10
30.80724994
 20
13.12837494
  0
VERTEX
  8
EGA-301.PLT
 62
7
 10
30.75984369
 20
13.01001554
  0
VERTEX
  8
EGA-301.PLT
 62
7
 10
30.70699970
 20
12.89399988
  0
VERTEX
  8
EGA-301.PLT
 62
7
 10
30.66500771
 20
12.81461326
  0
VERTEX
  8
EGA-301.PLT
 62
7
 10
30.61856254
 20
12.73796880
  0
VERTEX
  8
EGA-301.PLT
 62
7
 10
30.56883608
 20
12.66333994
  0
VERTEX
  8
EGA-301.PLT
 62
7
 10
30.51700020
 20
12.59000009
  0
VERTEX
  8
EGA-301.PLT
 62
7
 10
30.46422678
 20
12.51722271
  0
VERTEX
  8
EGA-301.PLT
 62
7
 10
30.41168770
 20
12.44428120
  0
VERTEX
  8
EGA-301.PLT
 62
7
 10
30.36055485
 20
12.37044901
  0
VERTEX
  8
EGA-301.PLT
 62
7
 10
30.31200009
 20
12.29499957
  0
VERTEX
  8
EGA-301.PLT
 62
7
 10
30.26430275
 20
12.21797036
  0
VERTEX
  8
EGA-301.PLT
 62
7
 10
30.21617183
 20
12.14114037
  0
VERTEX
  8
EGA-301.PLT
 62
7
 10
30.16829874
 20
12.06414632
  0
VERTEX
  8
EGA-301.PLT
 62
7
 10
30.12137489
 20
11.98662493
  0
VERTEX
  8
EGA-301.PLT
 62
7
 10
30.07609171
 20
11.90821291
  0
VERTEX
  8
EGA-301.PLT
 62
7
 10
30.03314060
 20
11.82854700
  0
VERTEX
  8
EGA-301.PLT
 62
7
 10
29.99321297
 20
11.74726391
  0
VERTEX
  8
EGA-301.PLT
 62
7
 10
29.95700025
 20
11.66400037
  0
VERTEX
  8
EGA-301.PLT
 62
7
 10
29.93228848
 20
11.59980411
  0
VERTEX
  8
EGA-301.PLT
 62
7
 10
29.91045210
 20
11.53723838
  0
VERTEX
  8
EGA-301.PLT
 62
7
 10
29.89118892
 20
11.47558779
  0
VERTEX
  8
EGA-301.PLT
 62
7
 10
29.87419672
 20
11.41413696
  0
VERTEX
  8
EGA-301.PLT
 62
7
 10
29.85917330
 20
11.35217050
  0
VERTEX
  8
EGA-301.PLT
 62
7
 10
29.84581646
 20
11.28897305
  0
VERTEX
  8
EGA-301.PLT
 62
7
 10
29.83382399
 20
11.22382920
  0
VERTEX
  8
EGA-301.PLT
 62
7
 10
29.82289370
 20
11.15602359
  0
VERTEX
  8
EGA-301.PLT
 62
7
 10
29.81697541
 20
11.10942819
  0
VERTEX
  8
EGA-301.PLT
 62
7
 10
29.81349190
 20
11.06269328
  0
VERTEX
  8
EGA-301.PLT
 62
7
 10
29.81135032
 20
11.01589660
  0
VERTEX
  8
EGA-301.PLT
 62
7
 10
29.80945784
 20
10.96911589
  0
VERTEX
  8
EGA-301.PLT
 62
7
 10
29.80672161
 20
10.92242888
  0
VERTEX
  8
EGA-301.PLT
 62
7
 10
29.80204879
 20
10.87591332
  0
VERTEX
  8
EGA-301.PLT
 62
7
 10
29.79434656
 20
10.82964694
  0
VERTEX
  8
EGA-301.PLT
 62
7
 10
29.78252205
 20
10.78370748
  0
VERTEX
  8
EGA-301.PLT
 62
7
 10
29.76488547
 20
10.72397886
  0
VERTEX
  8
EGA-301.PLT
 62
7
 10
29.74499960
 20
10.66499955
  0
VERTEX
  8
EGA-301.PLT
 62
7
 10
29.74699959
 20
11.10299984
  0
VERTEX
  8
EGA-301.PLT
 62
7
 10
29.74615136
 20
11.14869559
  0
VERTEX
  8
EGA-301.PLT
 62
7
 10
29.74412820
 20
11.19368027
  0
VERTEX
  8
EGA-301.PLT
 62
7
 10
29.74171237
 20
11.23817525
  0
VERTEX
  8
EGA-301.PLT
 62
7
 10
29.73968615
 20
11.28240192
  0
VERTEX
  8
EGA-301.PLT
 62
7
 10
29.73883179
 20
11.32658168
  0
VERTEX
  8
EGA-301.PLT
 62
7
 10
29.73993156
 20
11.37093591
  0
VERTEX
  8
EGA-301.PLT
 62
7
 10
29.74376774
 20
11.41568599
  0
VERTEX
  8
EGA-301.PLT
 62
7
 10
29.75112260
 20
11.46105332
  0
VERTEX
  8
EGA-301.PLT
 62
7
 10
29.75935784
 20
11.49403667
  0
VERTEX
  8
EGA-301.PLT
 62
7
 10
29.77019401
 20
11.52631924
  0
VERTEX
  8
EGA-301.PLT
 62
7
 10
29.78307662
 20
11.55802524
  0
VERTEX
  8
EGA-301.PLT
 62
7
 10
29.79745120
 20
11.58927889
  0
VERTEX
  8
EGA-301.PLT
 62
7
 10
29.81276327
 20
11.62020442
  0
VERTEX
  8
EGA-301.PLT
 62
7
 10
29.82845836
 20
11.65092604
  0
VERTEX
  8
EGA-301.PLT
 62
7
 10
29.84398200
 20
11.68156799
  0
VERTEX
  8
EGA-301.PLT
 62
7
 10
29.85877971
 20
11.71225449
  0
VERTEX
  8
EGA-301.PLT
 62
7
 10
29.88083346
 20
11.75620807
  0
VERTEX
  8
EGA-301.PLT
 62
7
 10
29.90655488
 20
11.80207132
  0
VERTEX
  8
EGA-301.PLT
 62
7
 10
29.93490892
 20
11.84909831
  0
VERTEX
  8
EGA-301.PLT
 62
7
 10
29.96486052
 20
11.89654311
  0
VERTEX
  8
EGA-301.PLT
 62
7
 10
29.99537461
 20
11.94365978
  0
VERTEX
  8
EGA-301.PLT
 62
7
 10
30.02541614
 20
11.98970240
  0
VERTEX
  8
EGA-301.PLT
 62
7
 10
30.05395005
 20
12.03392503
  0
VERTEX
  8
EGA-301.PLT
 62
7
 10
30.07994127
 20
12.07558175
  0
VERTEX
  8
EGA-301.PLT
 62
7
 10
30.13155164
 20
12.15919797
  0
VERTEX
  8
EGA-301.PLT
 62
7
 10
30.18222603
 20
12.23855571
  0
VERTEX
  8
EGA-301.PLT
 62
7
 10
30.23210458
 20
12.31516822
  0
VERTEX
  8
EGA-301.PLT
 62
7
 10
30.28132739
 20
12.39054875
  0
VERTEX
  8
EGA-301.PLT
 62
7
 10
30.33003458
 20
12.46621052
  0
VERTEX
  8
EGA-301.PLT
 62
7
 10
30.37836626
 20
12.54366678
  0
VERTEX
  8
EGA-301.PLT
 62
7
 10
30.42646254
 20
12.62443077
  0
VERTEX
  8
EGA-301.PLT
 62
7
 10
30.47446355
 20
12.71001572
  0
VERTEX
  8
EGA-301.PLT
 62
7
 10
30.50747811
 20
12.77115519
  0
VERTEX
  8
EGA-301.PLT
 62
7
 10
30.54074244
 20
12.83271035
  0
VERTEX
  8
EGA-301.PLT
 62
7
 10
30.57402498
 20
12.89469883
  0
VERTEX
  8
EGA-301.PLT
 62
7
 10
30.60709419
 20
12.95713825
  0
VERTEX
  8
EGA-301.PLT
 62
7
 10
30.63971851
 20
13.02004623
  0
VERTEX
  8
EGA-301.PLT
 62
7
 10
30.67166640
 20
13.08344040
  0
VERTEX
  8
EGA-301.PLT
 62
7
 10
30.70270629
 20
13.14733838
  0
VERTEX
  8
EGA-301.PLT
 62
7
 10
30.73260663
 20
13.21175779
  0
VERTEX
  8
EGA-301.PLT
 62
7
 10
30.76113588
 20
13.27671626
  0
VERTEX
  8
EGA-301.PLT
 62
7
 10
30.78806248
 20
13.34223142
  0
VERTEX
  8
EGA-301.PLT
 62
7
 10
30.81315488
 20
13.40832088
  0
VERTEX
  8
EGA-301.PLT
 62
7
 10
30.83618153
 20
13.47500228
  0
VERTEX
  8
EGA-301.PLT
 62
7
 10
30.85691086
 20
13.54229323
  0
VERTEX
  8
EGA-301.PLT
 62
7
 10
30.87511134
 20
13.61021137
  0
VERTEX
  8
EGA-301.PLT
 62
7
 10
30.89055141
 20
13.67877430
  0
VERTEX
  8
EGA-301.PLT
 62
7
 10
30.90299952
 20
13.74799967
  0
VERTEX
  8
EGA-301.PLT
 62
7
 10
30.91238453
 20
13.81296254
  0
VERTEX
  8
EGA-301.PLT
 62
7
 10
30.92014058
 20
13.87807776
  0
VERTEX
  8
EGA-301.PLT
 62
7
 10
30.92604501
 20
13.94331020
  0
VERTEX
  8
EGA-301.PLT
 62
7
 10
30.92987517
 20
14.00862469
  0
VERTEX
  8
EGA-301.PLT
 62
7
 10
30.93140843
 20
14.07398611
  0
VERTEX
  8
EGA-301.PLT
 62
7
 10
30.93042215
 20
14.13935930
  0
VERTEX
  8
EGA-301.PLT
 62
7
 10
30.92669366
 20
14.20470911
  0
VERTEX
  8
EGA-301.PLT
 62
7
 10
30.92000035
 20
14.27000041
  0
VERTEX
  8
EGA-301.PLT
 62
7
 10
30.90535927
 20
14.36407816
  0
VERTEX
  8
EGA-301.PLT
 62
7
 10
30.88537473
 20
14.45712493
  0
VERTEX
  8
EGA-301.PLT
 62
7
 10
30.85995290
 20
14.54885938
  0
VERTEX
  8
EGA-301.PLT
 62
7
 10
30.82899994
 20
14.63900017
  0
VERTEX
  8
EGA-301.PLT
 62
7
 10
30.79509373
 20
14.52185952
  0
VERTEX
  8
EGA-301.PLT
 62
7
 10
30.75649988
 20
14.40612510
  0
VERTEX
  8
EGA-301.PLT
 62
7
 10
30.71340606
 20
14.29207818
  0
VERTEX
  8
EGA-301.PLT
 62
7
 10
30.66599993
 20
14.17999999
  0
VERTEX
  8
EGA-301.PLT
 62
7
 10
30.62856820
 20
14.10322274
  0
VERTEX
  8
EGA-301.PLT
 62
7
 10
30.58742170
 20
14.02853139
  0
VERTEX
  8
EGA-301.PLT
 62
7
 10
30.54353308
 20
13.95538690
  0
VERTEX
  8
EGA-301.PLT
 62
7
 10
30.49787496
 20
13.88325017
  0
VERTEX
  8
EGA-301.PLT
 62
7
 10
30.45141997
 20
13.81158215
  0
VERTEX
  8
EGA-301.PLT
 62
7
 10
30.40514073
 20
13.73984377
  0
VERTEX
  8
EGA-301.PLT
 62
7
 10
30.36000989
 20
13.66749594
  0
VERTEX
  8
EGA-301.PLT
 62
7
 10
30.31700006
 20
13.59399961
  0
VERTEX
  8
EGA-301.PLT
 62
7
 10
30.24012495
 20
13.45585908
  0
VERTEX
  8
EGA-301.PLT
 62
7
 10
30.16400000
 20
13.31687479
  0
VERTEX
  8
EGA-301.PLT
 62
7
 10
30.09087504
 20
13.17620302
  0
VERTEX
  8
EGA-301.PLT
 62
7
 10
30.02299987
 20
13.03300001
  0
VERTEX
  8
EGA-301.PLT
 62
7
 10
30.00080345
 20
12.98278096
  0
VERTEX
  8
EGA-301.PLT
 62
7
 10
29.97929960
 20
12.93499047
  0
VERTEX
  8
EGA-301.PLT
 62
7
 10
29.95861684
 20
12.88867839
  0
VERTEX
  8
EGA-301.PLT
 62
7
 10
29.93888368
 20
12.84289459
  0
VERTEX
  8
EGA-301.PLT
 62
7
 10
29.92022864
 20
12.79668892
  0
VERTEX
  8
EGA-301.PLT
 62
7
 10
29.90278023
 20
12.74911123
  0
VERTEX
  8
EGA-301.PLT
 62
7
 10
29.88666697
 20
12.69921137
  0
VERTEX
  8
EGA-301.PLT
 62
7
 10
29.87201738
 20
12.64603921
  0
VERTEX
  8
EGA-301.PLT
 62
7
 10
29.86142445
 20
12.60067047
  0
VERTEX
  8
EGA-301.PLT
 62
7
 10
29.85270774
 20
12.55343654
  0
VERTEX
  8
EGA-301.PLT
 62
7
 10
29.84558559
 20
12.50489666
  0
VERTEX
  8
EGA-301.PLT
 62
7
 10
29.83977635
 20
12.45561001
  0
VERTEX
  8
EGA-301.PLT
 62
7
 10
29.83499835
 20
12.40613583
  0
VERTEX
  8
EGA-301.PLT
 62
7
 10
29.83096994
 20
12.35703331
  0
VERTEX
  8
EGA-301.PLT
 62
7
 10
29.82740945
 20
12.30886168
  0
VERTEX
  8
EGA-301.PLT
 62
7
 10
29.82403523
 20
12.26218014
  0
VERTEX
  8
EGA-301.PLT
 62
7
 10
29.82243607
 20
12.22403194
  0
VERTEX
  8
EGA-301.PLT
 62
7
 10
29.82231100
 20
12.18483974
  0
VERTEX
  8
EGA-301.PLT
 62
7
 10
29.82279364
 20
12.14498276
  0
VERTEX
  8
EGA-301.PLT
 62
7
 10
29.82301766
 20
12.10484026
  0
VERTEX
  8
EGA-301.PLT
 62
7
 10
29.82211668
 20
12.06479146
  0
VERTEX
  8
EGA-301.PLT
 62
7
 10
29.81922435
 20
12.02521561
  0
VERTEX
  8
EGA-301.PLT
 62
7
 10
29.81347430
 20
11.98649194
  0
VERTEX
  8
EGA-301.PLT
 62
7
 10
29.80400019
 20
11.94899968
  0
VERTEX
  8
EGA-301.PLT
 62
7
 10
29.78075020
 20
11.88912502
  0
VERTEX
  8
EGA-301.PLT
 62
7
 10
29.74999957
 20
11.83300033
  0
VERTEX
  8
EGA-301.PLT
 62
7
 10
29.75099956
 20
12.29499957
  0
VERTEX
  8
EGA-301.PLT
 62
7
 10
29.75047027
 20
12.34304066
  0
VERTEX
  8
EGA-301.PLT
 62
7
 10
29.74864020
 20
12.39114034
  0
VERTEX
  8
EGA-301.PLT
 62
7
 10
29.74627108
 20
12.43926346
  0
VERTEX
  8
EGA-301.PLT
 62
7
 10
29.74412460
 20
12.48737487
  0
VERTEX
  8
EGA-301.PLT
 62
7
 10
29.74296250
 20
12.53543939
  0
VERTEX
  8
EGA-301.PLT
 62
7
 10
29.74354648
 20
12.58342189
  0
VERTEX
  8
EGA-301.PLT
 62
7
 10
29.74663826
 20
12.63128720
  0
VERTEX
  8
EGA-301.PLT
 62
7
 10
29.75299955
 20
12.67900017
  0
VERTEX
  8
EGA-301.PLT
 62
7
 10
29.77018749
 20
12.75999987
  0
VERTEX
  8
EGA-301.PLT
 62
7
 10
29.79375013
 20
12.83949984
  0
VERTEX
  8
EGA-301.PLT
 62
7
 10
29.82218757
 20
12.91749999
  0
VERTEX
  8
EGA-301.PLT
 62
7
 10
29.85399991
 20
12.99400023
  0
VERTEX
  8
EGA-301.PLT
 62
7
 10
29.89501544
 20
13.07751555
  0
VERTEX
  8
EGA-301.PLT
 62
7
 10
29.94212487
 20
13.15812488
  0
VERTEX
  8
EGA-301.PLT
 62
7
 10
29.99167178
 20
13.23742190
  0
VERTEX
  8
EGA-301.PLT
 62
7
 10
30.03999978
 20
13.31700026
  0
VERTEX
  8
EGA-301.PLT
 62
7
 10
30.09916385
 20
13.41608211
  0
VERTEX
  8
EGA-301.PLT
 62
7
 10
30.15987479
 20
13.51415624
  0
VERTEX
  8
EGA-301.PLT
 62
7
 10
30.22133573
 20
13.61171481
  0
VERTEX
  8
EGA-301.PLT
 62
7
 10
30.28274979
 20
13.70925000
  0
VERTEX
  8
EGA-301.PLT
 62
7
 10
30.34332011
 20
13.80725398
  0
VERTEX
  8
EGA-301.PLT
 62
7
 10
30.40224981
 20
13.90621892
  0
VERTEX
  8
EGA-301.PLT
 62
7
 10
30.45874202
 20
14.00663700
  0
VERTEX
  8
EGA-301.PLT
 62
7
 10
30.51199988
 20
14.10900040
  0
VERTEX
  8
EGA-301.PLT
 62
7
 10
30.55682028
 20
14.19954129
  0
VERTEX
  8
EGA-301.PLT
 62
7
 10
30.60093756
 20
14.29051583
  0
VERTEX
  8
EGA-301.PLT
 62
7
 10
30.64383606
 20
14.38207636
  0
VERTEX
  8
EGA-301.PLT
 62
7
 10
30.68500017
 20
14.47437518
  0
VERTEX
  8
EGA-301.PLT
 62
7
 10
30.72391425
 20
14.56756462
  0
VERTEX
  8
EGA-301.PLT
 62
7
 10
30.76006267
 20
14.66179700
  0
VERTEX
  8
EGA-301.PLT
 62
7
 10
30.79292979
 20
14.75722465
  0
VERTEX
  8
EGA-301.PLT
 62
7
 10
30.82199997
 20
14.85399988
  0
VERTEX
  8
EGA-301.PLT
 62
7
 10
30.84379091
 20
14.93439629
  0
VERTEX
  8
EGA-301.PLT
 62
7
 10
30.86451550
 20
15.01510918
  0
VERTEX
  8
EGA-301.PLT
 62
7
 10
30.88357609
 20
15.09617367
  0
VERTEX
  8
EGA-301.PLT
 62
7
 10
30.90037499
 20
15.17762490
  0
VERTEX
  8
EGA-301.PLT
 62
7
 10
30.91431454
 20
15.25949800
  0
VERTEX
  8
EGA-301.PLT
 62
7
 10
30.92479705
 20
15.34182810
  0
VERTEX
  8
EGA-301.PLT
 62
7
 10
30.93122485
 20
15.42465035
  0
VERTEX
  8
EGA-301.PLT
 62
7
 10
30.93300027
 20
15.50799988
  0
VERTEX
  8
EGA-301.PLT
 62
7
 10
30.93037329
 20
15.58443342
  0
VERTEX
  8
EGA-301.PLT
 62
7
 10
30.92473455
 20
15.66065610
  0
VERTEX
  8
EGA-301.PLT
 62
7
 10
30.91607234
 20
15.73655070
  0
VERTEX
  8
EGA-301.PLT
 62
7
 10
30.90437497
 20
15.81200000
  0
VERTEX
  8
EGA-301.PLT
 62
7
 10
30.88963074
 20
15.88688682
  0
VERTEX
  8
EGA-301.PLT
 62
7
 10
30.87182796
 20
15.96109392
  0
VERTEX
  8
EGA-301.PLT
 62
7
 10
30.85095493
 20
16.03450411
  0
VERTEX
  8
EGA-301.PLT
 62
7
 10
30.82699995
 20
16.10700018
  0
VERTEX
  8
EGA-301.PLT
 62
7
 10
30.80995315
 20
15.98968765
  0
VERTEX
  8
EGA-301.PLT
 62
7
 10
30.78587506
 20
15.87350012
  0
VERTEX
  8
EGA-301.PLT
 62
7
 10
30.75485934
 20
15.75881257
  0
VERTEX
  8
EGA-301.PLT
 62
7
 10
30.71699964
 20
15.64600002
  0
VERTEX
  8
EGA-301.PLT
 62
7
 10
30.68540017
 20
15.57036338
  0
VERTEX
  8
EGA-301.PLT
 62
7
 10
30.64851550
 20
15.49746890
  0
VERTEX
  8
EGA-301.PLT
 62
7
 10
30.60771672
 20
15.42659002
  0
VERTEX
  8
EGA-301.PLT
 62
7
 10
30.56437493
 20
15.35700015
  0
VERTEX
  8
EGA-301.PLT
 62
7
 10
30.51986123
 20
15.28797274
  0
VERTEX
  8
EGA-301.PLT
 62
7
 10
30.47554672
 20
15.21878122
  0
VERTEX
  8
EGA-301.PLT
 62
7
 10
30.43280248
 20
15.14869901
  0
VERTEX
  8
EGA-301.PLT
 62
7
 10
30.39299963
 20
15.07699954
  0
VERTEX
  8
EGA-301.PLT
 62
7
 10
30.30437497
 20
14.90367169
  0
VERTEX
  8
EGA-301.PLT
 62
7
 10
30.21950003
 20
14.72837501
  0
VERTEX
  8
EGA-301.PLT
 62
7
 10
30.13987489
 20
14.55064067
  0
VERTEX
  8
EGA-301.PLT
 62
7
 10
30.06699962
 20
14.36999984
  0
VERTEX
  8
EGA-301.PLT
 62
7
 10
30.02392173
 20
14.25424981
  0
VERTEX
  8
EGA-301.PLT
 62
7
 10
29.98262499
 20
14.13774977
  0
VERTEX
  8
EGA-301.PLT
 62
7
 10
29.94451555
 20
14.02012474
  0
VERTEX
  8
EGA-301.PLT
 62
7
 10
29.91099958
 20
13.90099972
  0
VERTEX
  8
EGA-301.PLT
 62
7
 10
29.88878453
 20
13.79775278
  0
VERTEX
  8
EGA-301.PLT
 62
7
 10
29.87178623
 20
13.69368464
  0
VERTEX
  8
EGA-301.PLT
 62
7
 10
29.85797541
 20
13.58905400
  0
VERTEX
  8
EGA-301.PLT
 62
7
 10
29.84532280
 20
13.48411957
  0
VERTEX
  8
EGA-301.PLT
 62
7
 10
29.84117810
 20
13.44582525
  0
VERTEX
  8
EGA-301.PLT
 62
7
 10
29.83810052
 20
13.40747568
  0
VERTEX
  8
EGA-301.PLT
 62
7
 10
29.83550001
 20
13.36912053
  0
VERTEX
  8
EGA-301.PLT
 62
7
 10
29.83278645
 20
13.33080950
  0
VERTEX
  8
EGA-301.PLT
 62
7
 10
29.82936977
 20
13.29259226
  0
VERTEX
  8
EGA-301.PLT
 62
7
 10
29.82465989
 20
13.25451849
  0
VERTEX
  8
EGA-301.PLT
 62
7
 10
29.81806672
 20
13.21663788
  0
VERTEX
  8
EGA-301.PLT
 62
7
 10
29.80900016
 20
13.17900011
  0
VERTEX
  8
EGA-301.PLT
 62
7
 10
29.78812516
 20
13.11675000
  0
VERTEX
  8
EGA-301.PLT
 62
7
 10
29.76199950
 20
13.05599988
  0
VERTEX
  8
EGA-301.PLT
 62
7
 10
29.75999951
 20
13.22500020
  0
VERTEX
  8
EGA-301.PLT
 62
7
 10
29.76399949
 20
13.39399982
  0
VERTEX
  8
EGA-301.PLT
 62
7
 10
29.76728103
 20
13.46561699
  0
VERTEX
  8
EGA-301.PLT
 62
7
 10
29.77131248
 20
13.53718735
  0
VERTEX
  8
EGA-301.PLT
 62
7
 10
29.77637512
 20
13.60866400
  0
VERTEX
  8
EGA-301.PLT
 62
7
 10
29.78275019
 20
13.68000005
  0
VERTEX
  8
EGA-301.PLT
 62
7
 10
29.79071897
 20
13.75114860
  0
VERTEX
  8
EGA-301.PLT
 62
7
 10
29.80056269
 20
13.82206276
  0
VERTEX
  8
EGA-301.PLT
 62
7
 10
29.81256264
 20
13.89269562
  0
VERTEX
  8
EGA-301.PLT
 62
7
 10
29.82700006
 20
13.96300030
  0
VERTEX
  8
EGA-301.PLT
 62
7
 10
29.85172066
 20
14.05914662
  0
VERTEX
  8
EGA-301.PLT
 62
7
 10
29.88170303
 20
14.15354693
  0
VERTEX
  8
EGA-301.PLT
 62
7
 10
29.91592763
 20
14.24651760
  0
VERTEX
  8
EGA-301.PLT
 62
7
 10
29.95337492
 20
14.33837502
  0
VERTEX
  8
EGA-301.PLT
 62
7
 10
29.99302537
 20
14.42943557
  0
VERTEX
  8
EGA-301.PLT
 62
7
 10
30.03385943
 20
14.52001563
  0
VERTEX
  8
EGA-301.PLT
 62
7
 10
30.07485758
 20
14.61043159
  0
VERTEX
  8
EGA-301.PLT
 62
7
 10
30.11500028
 20
14.70099982
  0
VERTEX
  8
EGA-301.PLT
 62
7
 10
30.16521488
 20
14.81189442
  0
VERTEX
  8
EGA-301.PLT
 62
7
 10
30.21840610
 20
14.92140621
  0
VERTEX
  8
EGA-301.PLT
 62
7
 10
30.27351925
 20
15.03002738
  0
VERTEX
  8
EGA-301.PLT
 62
7
 10
30.32949964
 20
15.13825012
  0
VERTEX
  8
EGA-301.PLT
 62
7
 10
30.38529257
 20
15.24656661
  0
VERTEX
  8
EGA-301.PLT
 62
7
 10
30.43984336
 20
15.35546903
  0
VERTEX
  8
EGA-301.PLT
 62
7
 10
30.49209730
 20
15.46544957
  0
VERTEX
  8
EGA-301.PLT
 62
7
 10
30.54099972
 20
15.57700041
  0
VERTEX
  8
EGA-301.PLT
 62
7
 10
30.59295289
 20
15.70279727
  0
VERTEX
  8
EGA-301.PLT
 62
7
 10
30.64406231
 20
15.82906287
  0
VERTEX
  8
EGA-301.PLT
 62
7
 10
30.69357797
 20
15.95598472
  0
VERTEX
  8
EGA-301.PLT
 62
7
 10
30.74074986
 20
16.08375032
  0
VERTEX
  8
EGA-301.PLT
 62
7
 10
30.78482797
 20
16.21254716
  0
VERTEX
  8
EGA-301.PLT
 62
7
 10
30.82506230
 20
16.34256274
  0
VERTEX
  8
EGA-301.PLT
 62
7
 10
30.86070284
 20
16.47398456
  0
VERTEX
  8
EGA-301.PLT
 62
7
 10
30.89099958
 20
16.60700013
  0
VERTEX
  8
EGA-301.PLT
 62
7
 10
30.91303297
 20
16.72089666
  0
VERTEX
  8
EGA-301.PLT
 62
7
 10
30.93245301
 20
16.83529710
  0
VERTEX
  8
EGA-301.PLT
 62
7
 10
30.94899019
 20
16.95014284
  0
VERTEX
  8
EGA-301.PLT
 62
7
 10
30.96237499
 20
17.06537531
  0
VERTEX
  8
EGA-301.PLT
 62
7
 10
30.97233789
 20
17.18093589
  0
VERTEX
  8
EGA-301.PLT
 62
7
 10
30.97860937
 20
17.29676601
  0
VERTEX
  8
EGA-301.PLT
 62
7
 10
30.98091992
 20
17.41280706
  0
VERTEX
  8
EGA-301.PLT
 62
7
 10
30.97900001
 20
17.52900046
  0
VERTEX
  8
EGA-301.PLT
 62
7
 10
30.97784279
 20
17.56477191
  0
VERTEX
  8
EGA-301.PLT
 62
7
 10
30.97724221
 20
17.60114102
  0
VERTEX
  8
EGA-301.PLT
 62
7
 10
30.97700491
 20
17.63800231
  0
VERTEX
  8
EGA-301.PLT
 62
7
 10
30.97693752
 20
17.67525032
  0
VERTEX
  8
EGA-301.PLT
 62
7
 10
30.97684670
 20
17.71277958
  0
VERTEX
  8
EGA-301.PLT
 62
7
 10
30.97653909
 20
17.75048462
  0
VERTEX
  8
EGA-301.PLT
 62
7
 10
30.97582132
 20
17.78825997
  0
VERTEX
  8
EGA-301.PLT
 62
7
 10
30.97450004
 20
17.82600016
  0
VERTEX
  8
EGA-301.PLT
 62
7
 10
30.97238188
 20
17.86359973
  0
VERTEX
  8
EGA-301.PLT
 62
7
 10
30.96927350
 20
17.90095321
  0
VERTEX
  8
EGA-301.PLT
 62
7
 10
30.96498154
 20
17.93795513
  0
VERTEX
  8
EGA-301.PLT
 62
7
 10
30.95931262
 20
17.97450002
  0
VERTEX
  8
EGA-301.PLT
 62
7
 10
30.95207341
 20
18.01048241
  0
VERTEX
  8
EGA-301.PLT
 62
7
 10
30.94307053
 20
18.04579683
  0
VERTEX
  8
EGA-301.PLT
 62
7
 10
30.93211063
 20
18.08033783
  0
VERTEX
  8
EGA-301.PLT
 62
7
 10
30.91900035
 20
18.11399992
  0
VERTEX
  8
EGA-301.PLT
 62
7
 10
30.89744157
 20
18.16289452
  0
VERTEX
  8
EGA-301.PLT
 62
7
 10
30.87440630
 20
18.21096880
  0
VERTEX
  8
EGA-301.PLT
 62
7
 10
30.84935547
 20
18.25768369
  0
VERTEX
  8
EGA-301.PLT
 62
7
 10
30.82174998
 20
18.30250012
  0
VERTEX
  8
EGA-301.PLT
 62
7
 10
30.79105075
 20
18.34487903
  0
VERTEX
  8
EGA-301.PLT
 62
7
 10
30.75671872
 20
18.38428133
  0
VERTEX
  8
EGA-301.PLT
 62
7
 10
30.71821479
 20
18.42016796
  0
VERTEX
  8
EGA-301.PLT
 62
7
 10
30.67499988
 20
18.45199986
  0
VERTEX
  8
EGA-301.PLT
 62
7
 10
30.62929081
 20
18.47768752
  0
VERTEX
  8
EGA-301.PLT
 62
7
 10
30.58101536
 20
18.49793763
  0
VERTEX
  8
EGA-301.PLT
 62
7
 10
30.53070088
 20
18.51303146
  0
VERTEX
  8
EGA-301.PLT
 62
7
 10
30.47887472
 20
18.52325026
  0
VERTEX
  8
EGA-301.PLT
 62
7
 10
30.42606424
 20
18.52887530
  0
VERTEX
  8
EGA-301.PLT
 62
7
 10
30.37279678
 20
18.53018782
  0
VERTEX
  8
EGA-301.PLT
 62
7
 10
30.31959970
 20
18.52746910
  0
VERTEX
  8
EGA-301.PLT
 62
7
 10
30.26700034
 20
18.52100039
  0
VERTEX
  8
EGA-301.PLT
 62
7
 10
30.32100004
 20
18.45199986
  0
VERTEX
  8
EGA-301.PLT
 62
7
 10
30.41499950
 20
18.34099956
  0
VERTEX
  8
EGA-301.PLT
 62
7
 10
30.44909360
 20
18.33296836
  0
VERTEX
  8
EGA-301.PLT
 62
7
 10
30.48074994
 20
18.32249966
  0
VERTEX
  8
EGA-301.PLT
 62
7
 10
30.50978113
 20
18.30978099
  0
VERTEX
  8
EGA-301.PLT
 62
7
 10
30.53599974
 20
18.29499982
  0
VERTEX
  8
EGA-301.PLT
 62
7
 10
30.56361122
 20
18.27507607
  0
VERTEX
  8
EGA-301.PLT
 62
7
 10
30.58870311
 20
18.25354679
  0
VERTEX
  8
EGA-301.PLT
 62
7
 10
30.61128713
 20
18.23040028
  0
VERTEX
  8
EGA-301.PLT
 62
7
 10
30.63137501
 20
18.20562486
  0
VERTEX
  8
EGA-301.PLT
 62
7
 10
30.64897850
 20
18.17920883
  0
VERTEX
  8
EGA-301.PLT
 62
7
 10
30.66410930
 20
18.15114048
  0
VERTEX
  8
EGA-301.PLT
 62
7
 10
30.67677917
 20
18.12140812
  0
VERTEX
  8
EGA-301.PLT
 62
7
 10
30.68699981
 20
18.09000006
  0
VERTEX
  8
EGA-301.PLT
 62
7
 10
30.71399981
 20
18.07462513
  0
VERTEX
  8
EGA-301.PLT
 62
7
 10
30.73949998
 20
18.05700013
  0
VERTEX
  8
EGA-301.PLT
 62
7
 10
30.76350016
 20
18.03712497
  0
VERTEX
  8
EGA-301.PLT
 62
7
 10
30.78600018
 20
18.01499956
  0
VERTEX
  8
EGA-301.PLT
 62
7
 10
30.80910552
 20
17.98851724
  0
VERTEX
  8
EGA-301.PLT
 62
7
 10
30.82965618
 20
17.95932785
  0
VERTEX
  8
EGA-301.PLT
 62
7
 10
30.84762874
 20
17.92744312
  0
VERTEX
  8
EGA-301.PLT
 62
7
 10
30.86299974
 20
17.89287478
  0
VERTEX
  8
EGA-301.PLT
 62
7
 10
30.87574576
 20
17.85563459
  0
VERTEX
  8
EGA-301.PLT
 62
7
 10
30.88584336
 20
17.81573428
  0
VERTEX
  8
EGA-301.PLT
 62
7
 10
30.89326910
 20
17.77318559
  0
VERTEX
  8
EGA-301.PLT
 62
7
 10
30.89799954
 20
17.72800026
  0
VERTEX
  8
EGA-301.PLT
 62
7
 10
30.89899954
 20
17.68599957
  0
VERTEX
  8
EGA-301.PLT
 62
7
 10
30.89601518
 20
17.62824988
  0
VERTEX
  8
EGA-301.PLT
 62
7
 10
30.88712461
 20
17.57200010
  0
VERTEX
  8
EGA-301.PLT
 62
7
 10
30.87242156
 20
17.51725013
  0
VERTEX
  8
EGA-301.PLT
 62
7
 10
30.85199981
 20
17.46399990
  0
VERTEX
  8
EGA-301.PLT
 62
7
 10
30.84699983
 20
17.45499995
  0
VERTEX
  8
EGA-301.PLT
 62
7
 10
30.86734741
 20
17.42322275
  0
VERTEX
  8
EGA-301.PLT
 62
7
 10
30.88490601
 20
17.39090641
  0
VERTEX
  8
EGA-301.PLT
 62
7
 10
30.89969905
 20
17.35807438
  0
VERTEX
  8
EGA-301.PLT
 62
7
 10
30.91174993
 20
17.32475011
  0
VERTEX
  8
EGA-301.PLT
 62
7
 10
30.92108208
 20
17.29095705
  0
VERTEX
  8
EGA-301.PLT
 62
7
 10
30.92771891
 20
17.25671865
  0
VERTEX
  8
EGA-301.PLT
 62
7
 10
30.93168383
 20
17.22205836
  0
VERTEX
  8
EGA-301.PLT
 62
7
 10
30.93300027
 20
17.18699962
  0
VERTEX
  8
EGA-301.PLT
 62
7
 10
30.93057280
 20
17.13379243
  0
VERTEX
  8
EGA-301.PLT
 62
7
 10
30.92261030
 20
17.08128364
  0
VERTEX
  8
EGA-301.PLT
 62
7
 10
30.90809262
 20
17.03038289
  0
VERTEX
  8
EGA-301.PLT
 62
7
 10
30.88599961
 20
16.98199985
  0
VERTEX
  8
EGA-301.PLT
 62
7
 10
30.87229561
 20
16.96211040
  0
VERTEX
  8
EGA-301.PLT
 62
7
 10
30.85626955
 20
16.94395544
  0
VERTEX
  8
EGA-301.PLT
 62
7
 10
30.83985861
 20
16.92607279
  0
VERTEX
  8
EGA-301.PLT
 62
7
 10
30.82499996
 20
16.90700028
  0
VERTEX
  8
EGA-301.PLT
 62
7
 10
30.82063850
 20
16.89373295
  0
VERTEX
  8
EGA-301.PLT
 62
7
 10
30.81971888
 20
16.87547826
  0
VERTEX
  8
EGA-301.PLT
 62
7
 10
30.82093981
 20
16.85523444
  0
VERTEX
  8
EGA-301.PLT
 62
7
 10
30.82299997
 20
16.83599976
  0
VERTEX
  8
EGA-301.PLT
 62
7
 10
30.82519355
 20
16.81453630
  0
VERTEX
  8
EGA-301.PLT
 62
7
 10
30.82664198
 20
16.79290230
  0
VERTEX
  8
EGA-301.PLT
 62
7
 10
30.82702945
 20
16.77124925
  0
VERTEX
  8
EGA-301.PLT
 62
7
 10
30.82604019
 20
16.74972862
  0
VERTEX
  8
EGA-301.PLT
 62
7
 10
30.82335841
 20
16.72849188
  0
VERTEX
  8
EGA-301.PLT
 62
7
 10
30.81866833
 20
16.70769051
  0
VERTEX
  8
EGA-301.PLT
 62
7
 10
30.81165415
 20
16.68747599
  0
VERTEX
  8
EGA-301.PLT
 62
7
 10
30.80200009
 20
16.66799978
  0
VERTEX
  8
EGA-301.PLT
 62
7
 10
30.78123259
 20
16.63687492
  0
VERTEX
  8
EGA-301.PLT
 62
7
 10
30.75642206
 20
16.60799998
  0
VERTEX
  8
EGA-301.PLT
 62
7
 10
30.72755681
 20
16.58137498
  0
VERTEX
  8
EGA-301.PLT
 62
7
 10
30.69462512
 20
16.55699995
  0
VERTEX
  8
EGA-301.PLT
 62
7
 10
30.65761528
 20
16.53487490
  0
VERTEX
  8
EGA-301.PLT
 62
7
 10
30.61651559
 20
16.51499987
  0
VERTEX
  8
EGA-301.PLT
 62
7
 10
30.57131434
 20
16.49737486
  0
VERTEX
  8
EGA-301.PLT
 62
7
 10
30.52199982
 20
16.48199991
  0
VERTEX
  8
EGA-301.PLT
 62
7
 10
30.49029686
 20
16.47410933
  0
VERTEX
  8
EGA-301.PLT
 62
7
 10
30.45812507
 20
16.46837499
  0
VERTEX
  8
EGA-301.PLT
 62
7
 10
30.42539061
 20
16.46470313
  0
VERTEX
  8
EGA-301.PLT
 62
7
 10
30.39199963
 20
16.46300002
  0
VERTEX
  8
EGA-301.PLT
 62
7
 10
30.36455444
 20
16.40163478
  0
VERTEX
  8
EGA-301.PLT
 62
7
 10
30.33518731
 20
16.34107814
  0
VERTEX
  8
EGA-301.PLT
 62
7
 10
30.30460140
 20
16.28101368
  0
VERTEX
  8
EGA-301.PLT
 62
7
 10
30.27349984
 20
16.22112500
  0
VERTEX
  8
EGA-301.PLT
 62
7
 10
30.24258579
 20
16.16109570
  0
VERTEX
  8
EGA-301.PLT
 62
7
 10
30.21256237
 20
16.10060936
  0
VERTEX
  8
EGA-301.PLT
 62
7
 10
30.18413274
 20
16.03934960
  0
VERTEX
  8
EGA-301.PLT
 62
7
 10
30.15800003
 20
15.97699999
  0
VERTEX
  8
EGA-301.PLT
 62
7
 10
30.11562106
 20
15.86270307
  0
VERTEX
  8
EGA-301.PLT
 62
7
 10
30.07734369
 20
15.74718741
  0
VERTEX
  8
EGA-301.PLT
 62
7
 10
30.04258197
 20
15.63064050
  0
VERTEX
  8
EGA-301.PLT
 62
7
 10
30.01074994
 20
15.51324985
  0
VERTEX
  8
EGA-301.PLT
 62
7
 10
29.98126165
 20
15.39520295
  0
VERTEX
  8
EGA-301.PLT
 62
7
 10
29.95353114
 20
15.27668730
  0
VERTEX
  8
EGA-301.PLT
 62
7
 10
29.92697246
 20
15.15789040
  0
VERTEX
  8
EGA-301.PLT
 62
7
 10
29.90099964
 20
15.03899976
  0
VERTEX
  8
EGA-301.PLT
 62
7
 10
29.86932794
 20
14.88956241
  0
VERTEX
  8
EGA-301.PLT
 62
7
 10
29.84037498
 20
14.73975006
  0
VERTEX
  8
EGA-301.PLT
 62
7
 10
29.81423451
 20
14.58956272
  0
VERTEX
  8
EGA-301.PLT
 62
7
 10
29.79100026
 20
14.43900038
  0
VERTEX
  8
EGA-301.PLT
 62
7
 10
29.78887527
 20
14.58150003
  0
VERTEX
  8
EGA-301.PLT
 62
7
 10
29.79200026
 20
14.72399969
  0
VERTEX
  8
EGA-301.PLT
 62
7
 10
29.79676390
 20
14.81307210
  0
VERTEX
  8
EGA-301.PLT
 62
7
 10
29.80404706
 20
14.90182805
  0
VERTEX
  8
EGA-301.PLT
 62
7
 10
29.81346303
 20
14.99032614
  0
VERTEX
  8
EGA-301.PLT
 62
7
 10
29.82462507
 20
15.07862499
  0
VERTEX
  8
EGA-301.PLT
 62
7
 10
29.83714649
 20
15.16678322
  0
VERTEX
  8
EGA-301.PLT
 62
7
 10
29.85064055
 20
15.25485944
  0
VERTEX
  8
EGA-301.PLT
 62
7
 10
29.86472055
 20
15.34291227
  0
VERTEX
  8
EGA-301.PLT
 62
7
 10
29.87899976
 20
15.43100031
  0
VERTEX
  8
EGA-301.PLT
 62
7
 10
29.90545288
 20
15.58142203
  0
VERTEX
  8
EGA-301.PLT
 62
7
 10
29.93462491
 20
15.73137500
  0
VERTEX
  8
EGA-301.PLT
 62
7
 10
29.96548443
 20
15.88114047
  0
VERTEX
  8
EGA-301.PLT
 62
7
 10
29.99700002
 20
16.03099969
  0
SEQEND
  0
POLYLINE
  8
EGA-301.PLT
 62
7
 66
1
 70
1
  0
VERTEX
  8
EGA-301.PLT
 62
7
 10
65.49000012
 20
16.15399992
  0
VERTEX
  8
EGA-301.PLT
 62
7
 10
65.51499998
 20
16.03099969
  0
VERTEX
  8
EGA-301.PLT
 62
7
 10
65.54651557
 20
15.88114047
  0
VERTEX
  8
EGA-301.PLT
 62
7
 10
65.57737509
 20
15.73137500
  0
VERTEX
  8
EGA-301.PLT
 62
7
 10
65.60654712
 20
15.58142203
  0
VERTEX
  8
EGA-301.PLT
 62
7
 10
65.63300024
 20
15.43100031
  0
VERTEX
  8
EGA-301.PLT
 62
7
 10
65.64727945
 20
15.34291227
  0
VERTEX
  8
EGA-301.PLT
 62
7
 10
65.66135945
 20
15.25485944
  0
VERTEX
  8
EGA-301.PLT
 62
7
 10
65.67485351
 20
15.16678322
  0
VERTEX
  8
EGA-301.PLT
 62
7
 10
65.68737493
 20
15.07862499
  0
VERTEX
  8
EGA-301.PLT
 62
7
 10
65.69853697
 20
14.99032614
  0
VERTEX
  8
EGA-301.PLT
 62
7
 10
65.70795294
 20
14.90182805
  0
VERTEX
  8
EGA-301.PLT
 62
7
 10
65.71523610
 20
14.81307210
  0
VERTEX
  8
EGA-301.PLT
 62
7
 10
65.71999974
 20
14.72399969
  0
VERTEX
  8
EGA-301.PLT
 62
7
 10
65.72312473
 20
14.58150003
  0
VERTEX
  8
EGA-301.PLT
 62
7
 10
65.72099974
 20
14.43900038
  0
VERTEX
  8
EGA-301.PLT
 62
7
 10
65.69776549
 20
14.58956272
  0
VERTEX
  8
EGA-301.PLT
 62
7
 10
65.67162502
 20
14.73975006
  0
VERTEX
  8
EGA-301.PLT
 62
7
 10
65.64267206
 20
14.88956241
  0
VERTEX
  8
EGA-301.PLT
 62
7
 10
65.61100036
 20
15.03899976
  0
VERTEX
  8
EGA-301.PLT
 62
7
 10
65.58502754
 20
15.15789040
  0
VERTEX
  8
EGA-301.PLT
 62
7
 10
65.55846886
 20
15.27668730
  0
VERTEX
  8
EGA-301.PLT
 62
7
 10
65.53073835
 20
15.39520295
  0
VERTEX
  8
EGA-301.PLT
 62
7
 10
65.50125006
 20
15.51324985
  0
VERTEX
  8
EGA-301.PLT
 62
7
 10
65.46941803
 20
15.63064050
  0
VERTEX
  8
EGA-301.PLT
 62
7
 10
65.43465631
 20
15.74718741
  0
VERTEX
  8
EGA-301.PLT
 62
7
 10
65.39637894
 20
15.86270307
  0
VERTEX
  8
EGA-301.PLT
 62
7
 10
65.35399997
 20
15.97699999
  0
VERTEX
  8
EGA-301.PLT
 62
7
 10
65.32786726
 20
16.03934960
  0
VERTEX
  8
EGA-301.PLT
 62
7
 10
65.29943763
 20
16.10060936
  0
VERTEX
  8
EGA-301.PLT
 62
7
 10
65.26941421
 20
16.16109570
  0
VERTEX
  8
EGA-301.PLT
 62
7
 10
65.23850016
 20
16.22112500
  0
VERTEX
  8
EGA-301.PLT
 62
7
 10
65.20739860
 20
16.28101368
  0
VERTEX
  8
EGA-301.PLT
 62
7
 10
65.17681269
 20
16.34107814
  0
VERTEX
  8
EGA-301.PLT
 62
7
 10
65.14744556
 20
16.40163478
  0
VERTEX
  8
EGA-301.PLT
 62
7
 10
65.12000037
 20
16.46300002
  0
VERTEX
  8
EGA-301.PLT
 62
7
 10
65.08660939
 20
16.46470313
  0
VERTEX
  8
EGA-301.PLT
 62
7
 10
65.05387493
 20
16.46837499
  0
VERTEX
  8
EGA-301.PLT
 62
7
 10
65.02170314
 20
16.47410933
  0
VERTEX
  8
EGA-301.PLT
 62
7
 10
64.99000018
 20
16.48199991
  0
VERTEX
  8
EGA-301.PLT
 62
7
 10
64.94068566
 20
16.49737486
  0
VERTEX
  8
EGA-301.PLT
 62
7
 10
64.89548441
 20
16.51499987
  0
VERTEX
  8
EGA-301.PLT
 62
7
 10
64.85438472
 20
16.53487490
  0
VERTEX
  8
EGA-301.PLT
 62
7
 10
64.81737488
 20
16.55699995
  0
VERTEX
  8
EGA-301.PLT
 62
7
 10
64.78444319
 20
16.58137498
  0
VERTEX
  8
EGA-301.PLT
 62
7
 10
64.75557794
 20
16.60799998
  0
VERTEX
  8
EGA-301.PLT
 62
7
 10
64.73076741
 20
16.63687492
  0
VERTEX
  8
EGA-301.PLT
 62
7
 10
64.70999991
 20
16.66799978
  0
VERTEX
  8
EGA-301.PLT
 62
7
 10
64.70034585
 20
16.68747599
  0
VERTEX
  8
EGA-301.PLT
 62
7
 10
64.69333167
 20
16.70769051
  0
VERTEX
  8
EGA-301.PLT
 62
7
 10
64.68864159
 20
16.72849188
  0
VERTEX
  8
EGA-301.PLT
 62
7
 10
64.68595981
 20
16.74972862
  0
VERTEX
  8
EGA-301.PLT
 62
7
 10
64.68497055
 20
16.77124925
  0
VERTEX
  8
EGA-301.PLT
 62
7
 10
64.68535802
 20
16.79290230
  0
VERTEX
  8
EGA-301.PLT
 62
7
 10
64.68680645
 20
16.81453630
  0
VERTEX
  8
EGA-301.PLT
 62
7
 10
64.68900003
 20
16.83599976
  0
VERTEX
  8
EGA-301.PLT
 62
7
 10
64.69106019
 20
16.85523444
  0
VERTEX
  8
EGA-301.PLT
 62
7
 10
64.69228112
 20
16.87547826
  0
VERTEX
  8
EGA-301.PLT
 62
7
 10
64.69136150
 20
16.89373295
  0
VERTEX
  8
EGA-301.PLT
 62
7
 10
64.68700004
 20
16.90700028
  0
VERTEX
  8
EGA-301.PLT
 62
7
 10
64.67214139
 20
16.92607279
  0
VERTEX
  8
EGA-301.PLT
 62
7
 10
64.65573045
 20
16.94395544
  0
VERTEX
  8
EGA-301.PLT
 62
7
 10
64.63970439
 20
16.96211040
  0
VERTEX
  8
EGA-301.PLT
 62
7
 10
64.62600039
 20
16.98199985
  0
VERTEX
  8
EGA-301.PLT
 62
7
 10
64.60390738
 20
17.03038289
  0
VERTEX
  8
EGA-301.PLT
 62
7
 10
64.58938970
 20
17.08128364
  0
VERTEX
  8
EGA-301.PLT
 62
7
 10
64.58142720
 20
17.13379243
  0
VERTEX
  8
EGA-301.PLT
 62
7
 10
64.57899973
 20
17.18699962
  0
VERTEX
  8
EGA-301.PLT
 62
7
 10
64.58031617
 20
17.22205836
  0
VERTEX
  8
EGA-301.PLT
 62
7
 10
64.58428109
 20
17.25671865
  0
VERTEX
  8
EGA-301.PLT
 62
7
 10
64.59091792
 20
17.29095705
  0
VERTEX
  8
EGA-301.PLT
 62
7
 10
64.60025007
 20
17.32475011
  0
VERTEX
  8
EGA-301.PLT
 62
7
 10
64.61230095
 20
17.35807438
  0
VERTEX
  8
EGA-301.PLT
 62
7
 10
64.62709399
 20
17.39090641
  0
VERTEX
  8
EGA-301.PLT
 62
7
 10
64.64465259
 20
17.42322275
  0
VERTEX
  8
EGA-301.PLT
 62
7
 10
64.66500017
 20
17.45499995
  0
VERTEX
  8
EGA-301.PLT
 62
7
 10
64.66000019
 20
17.46399990
  0
VERTEX
  8
EGA-301.PLT
 62
7
 10
64.63957844
 20
17.51725013
  0
VERTEX
  8
EGA-301.PLT
 62
7
 10
64.62487539
 20
17.57200010
  0
VERTEX
  8
EGA-301.PLT
 62
7
 10
64.61598482
 20
17.62824988
  0
VERTEX
  8
EGA-301.PLT
 62
7
 10
64.61300046
 20
17.68599957
  0
VERTEX
  8
EGA-301.PLT
 62
7
 10
64.61400046
 20
17.72800026
  0
VERTEX
  8
EGA-301.PLT
 62
7
 10
64.61873090
 20
17.77318559
  0
VERTEX
  8
EGA-301.PLT
 62
7
 10
64.62615664
 20
17.81573428
  0
VERTEX
  8
EGA-301.PLT
 62
7
 10
64.63625424
 20
17.85563459
  0
VERTEX
  8
EGA-301.PLT
 62
7
 10
64.64900026
 20
17.89287478
  0
VERTEX
  8
EGA-301.PLT
 62
7
 10
64.66437126
 20
17.92744312
  0
VERTEX
  8
EGA-301.PLT
 62
7
 10
64.68234382
 20
17.95932785
  0
VERTEX
  8
EGA-301.PLT
 62
7
 10
64.70289448
 20
17.98851724
  0
VERTEX
  8
EGA-301.PLT
 62
7
 10
64.72599982
 20
18.01499956
  0
VERTEX
  8
EGA-301.PLT
 62
7
 10
64.74849984
 20
18.03712497
  0
VERTEX
  8
EGA-301.PLT
 62
7
 10
64.77250002
 20
18.05700013
  0
VERTEX
  8
EGA-301.PLT
 62
7
 10
64.79800019
 20
18.07462513
  0
VERTEX
  8
EGA-301.PLT
 62
7
 10
64.82500019
 20
18.09000006
  0
VERTEX
  8
EGA-301.PLT
 62
7
 10
64.83522083
 20
18.12140812
  0
VERTEX
  8
EGA-301.PLT
 62
7
 10
64.84789070
 20
18.15114048
  0
VERTEX
  8
EGA-301.PLT
 62
7
 10
64.86302150
 20
18.17920883
  0
VERTEX
  8
EGA-301.PLT
 62
7
 10
64.88062499
 20
18.20562486
  0
VERTEX
  8
EGA-301.PLT
 62
7
 10
64.90071287
 20
18.23040028
  0
VERTEX
  8
EGA-301.PLT
 62
7
 10
64.92329689
 20
18.25354679
  0
VERTEX
  8
EGA-301.PLT
 62
7
 10
64.94838878
 20
18.27507607
  0
VERTEX
  8
EGA-301.PLT
 62
7
 10
64.97600026
 20
18.29499982
  0
VERTEX
  8
EGA-301.PLT
 62
7
 10
65.00221887
 20
18.30978099
  0
VERTEX
  8
EGA-301.PLT
 62
7
 10
65.03125006
 20
18.32249966
  0
VERTEX
  8
EGA-301.PLT
 62
7
 10
65.06290640
 20
18.33296836
  0
VERTEX
  8
EGA-301.PLT
 62
7
 10
65.09700050
 20
18.34099956
  0
VERTEX
  8
EGA-301.PLT
 62
7
 10
65.19099996
 20
18.45199986
  0
VERTEX
  8
EGA-301.PLT
 62
7
 10
65.24499966
 20
18.52100039
  0
VERTEX
  8
EGA-301.PLT
 62
7
 10
65.19240030
 20
18.52746910
  0
VERTEX
  8
EGA-301.PLT
 62
7
 10
65.13920322
 20
18.53018782
  0
VERTEX
  8
EGA-301.PLT
 62
7
 10
65.08593576
 20
18.52887530
  0
VERTEX
  8
EGA-301.PLT
 62
7
 10
65.03312528
 20
18.52325026
  0
VERTEX
  8
EGA-301.PLT
 62
7
 10
64.98129912
 20
18.51303146
  0
VERTEX
  8
EGA-301.PLT
 62
7
 10
64.93098464
 20
18.49793763
  0
VERTEX
  8
EGA-301.PLT
 62
7
 10
64.88270919
 20
18.47768752
  0
VERTEX
  8
EGA-301.PLT
 62
7
 10
64.83700012
 20
18.45199986
  0
VERTEX
  8
EGA-301.PLT
 62
7
 10
64.79378521
 20
18.42016796
  0
VERTEX
  8
EGA-301.PLT
 62
7
 10
64.75528128
 20
18.38428133
  0
VERTEX
  8
EGA-301.PLT
 62
7
 10
64.72094925
 20
18.34487903
  0
VERTEX
  8
EGA-301.PLT
 62
7
 10
64.69025002
 20
18.30250012
  0
VERTEX
  8
EGA-301.PLT
 62
7
 10
64.66264453
 20
18.25768369
  0
VERTEX
  8
EGA-301.PLT
 62
7
 10
64.63759370
 20
18.21096880
  0
VERTEX
  8
EGA-301.PLT
 62
7
 10
64.61455843
 20
18.16289452
  0
VERTEX
  8
EGA-301.PLT
 62
7
 10
64.59299965
 20
18.11399992
  0
VERTEX
  8
EGA-301.PLT
 62
7
 10
64.57988937
 20
18.08033783
  0
VERTEX
  8
EGA-301.PLT
 62
7
 10
64.56892947
 20
18.04579683
  0
VERTEX
  8
EGA-301.PLT
 62
7
 10
64.55992659
 20
18.01048241
  0
VERTEX
  8
EGA-301.PLT
 62
7
 10
64.55268738
 20
17.97450002
  0
VERTEX
  8
EGA-301.PLT
 62
7
 10
64.54701846
 20
17.93795513
  0
VERTEX
  8
EGA-301.PLT
 62
7
 10
64.54272650
 20
17.90095321
  0
VERTEX
  8
EGA-301.PLT
 62
7
 10
64.53961812
 20
17.86359973
  0
VERTEX
  8
EGA-301.PLT
 62
7
 10
64.53749996
 20
17.82600016
  0
VERTEX
  8
EGA-301.PLT
 62
7
 10
64.53617868
 20
17.78825997
  0
VERTEX
  8
EGA-301.PLT
 62
7
 10
64.53546091
 20
17.75048462
  0
VERTEX
  8
EGA-301.PLT
 62
7
 10
64.53515330
 20
17.71277958
  0
VERTEX
  8
EGA-301.PLT
 62
7
 10
64.53506248
 20
17.67525032
  0
VERTEX
  8
EGA-301.PLT
 62
7
 10
64.53499509
 20
17.63800231
  0
VERTEX
  8
EGA-301.PLT
 62
7
 10
64.53475779
 20
17.60114102
  0
VERTEX
  8
EGA-301.PLT
 62
7
 10
64.53415721
 20
17.56477191
  0
VERTEX
  8
EGA-301.PLT
 62
7
 10
64.53299999
 20
17.52900046
  0
VERTEX
  8
EGA-301.PLT
 62
7
 10
64.53108008
 20
17.41280706
  0
VERTEX
  8
EGA-301.PLT
 62
7
 10
64.53339063
 20
17.29676601
  0
VERTEX
  8
EGA-301.PLT
 62
7
 10
64.53966211
 20
17.18093589
  0
VERTEX
  8
EGA-301.PLT
 62
7
 10
64.54962501
 20
17.06537531
  0
VERTEX
  8
EGA-301.PLT
 62
7
 10
64.56300981
 20
16.95014284
  0
VERTEX
  8
EGA-301.PLT
 62
7
 10
64.57954699
 20
16.83529710
  0
VERTEX
  8
EGA-301.PLT
 62
7
 10
64.59896703
 20
16.72089666
  0
VERTEX
  8
EGA-301.PLT
 62
7
 10
64.62100042
 20
16.60700013
  0
VERTEX
  8
EGA-301.PLT
 62
7
 10
64.65129716
 20
16.47398456
  0
VERTEX
  8
EGA-301.PLT
 62
7
 10
64.68693770
 20
16.34256274
  0
VERTEX
  8
EGA-301.PLT
 62
7
 10
64.72717203
 20
16.21254716
  0
VERTEX
  8
EGA-301.PLT
 62
7
 10
64.77125014
 20
16.08375032
  0
VERTEX
  8
EGA-301.PLT
 62
7
 10
64.81842203
 20
15.95598472
  0
VERTEX
  8
EGA-301.PLT
 62
7
 10
64.86793769
 20
15.82906287
  0
VERTEX
  8
EGA-301.PLT
 62
7
 10
64.91904711
 20
15.70279727
  0
VERTEX
  8
EGA-301.PLT
 62
7
 10
64.97100028
 20
15.57700041
  0
VERTEX
  8
EGA-301.PLT
 62
7
 10
65.01990270
 20
15.46544957
  0
VERTEX
  8
EGA-301.PLT
 62
7
 10
65.07215664
 20
15.35546903
  0
VERTEX
  8
EGA-301.PLT
 62
7
 10
65.12670743
 20
15.24656661
  0
VERTEX
  8
EGA-301.PLT
 62
7
 10
65.18250036
 20
15.13825012
  0
VERTEX
  8
EGA-301.PLT
 62
7
 10
65.23848075
 20
15.03002738
  0
VERTEX
  8
EGA-301.PLT
 62
7
 10
65.29359390
 20
14.92140621
  0
VERTEX
  8
EGA-301.PLT
 62
7
 10
65.34678512
 20
14.81189442
  0
VERTEX
  8
EGA-301.PLT
 62
7
 10
65.39699972
 20
14.70099982
  0
VERTEX
  8
EGA-301.PLT
 62
7
 10
65.43714242
 20
14.61043159
  0
VERTEX
  8
EGA-301.PLT
 62
7
 10
65.47814057
 20
14.52001563
  0
VERTEX
  8
EGA-301.PLT
 62
7
 10
65.51897463
 20
14.42943557
  0
VERTEX
  8
EGA-301.PLT
 62
7
 10
65.55862508
 20
14.33837502
  0
VERTEX
  8
EGA-301.PLT
 62
7
 10
65.59607237
 20
14.24651760
  0
VERTEX
  8
EGA-301.PLT
 62
7
 10
65.63029697
 20
14.15354693
  0
VERTEX
  8
EGA-301.PLT
 62
7
 10
65.66027934
 20
14.05914662
  0
VERTEX
  8
EGA-301.PLT
 62
7
 10
65.68499994
 20
13.96300030
  0
VERTEX
  8
EGA-301.PLT
 62
7
 10
65.69943736
 20
13.89269562
  0
VERTEX
  8
EGA-301.PLT
 62
7
 10
65.71143731
 20
13.82206276
  0
VERTEX
  8
EGA-301.PLT
 62
7
 10
65.72128103
 20
13.75114860
  0
VERTEX
  8
EGA-301.PLT
 62
7
 10
65.72924981
 20
13.68000005
  0
VERTEX
  8
EGA-301.PLT
 62
7
 10
65.73562488
 20
13.60866400
  0
VERTEX
  8
EGA-301.PLT
 62
7
 10
65.74068752
 20
13.53718735
  0
VERTEX
  8
EGA-301.PLT
 62
7
 10
65.74471897
 20
13.46561699
  0
VERTEX
  8
EGA-301.PLT
 62
7
 10
65.74800051
 20
13.39399982
  0
VERTEX
  8
EGA-301.PLT
 62
7
 10
65.75200049
 20
13.22500020
  0
VERTEX
  8
EGA-301.PLT
 62
7
 10
65.75000050
 20
13.05599988
  0
VERTEX
  8
EGA-301.PLT
 62
7
 10
65.72387484
 20
13.11675000
  0
VERTEX
  8
EGA-301.PLT
 62
7
 10
65.70299984
 20
13.17900011
  0
VERTEX
  8
EGA-301.PLT
 62
7
 10
65.69393328
 20
13.21663788
  0
VERTEX
  8
EGA-301.PLT
 62
7
 10
65.68734011
 20
13.25451849
  0
VERTEX
  8
EGA-301.PLT
 62
7
 10
65.68263023
 20
13.29259226
  0
VERTEX
  8
EGA-301.PLT
 62
7
 10
65.67921355
 20
13.33080950
  0
VERTEX
  8
EGA-301.PLT
 62
7
 10
65.67649999
 20
13.36912053
  0
VERTEX
  8
EGA-301.PLT
 62
7
 10
65.67389948
 20
13.40747568
  0
VERTEX
  8
EGA-301.PLT
 62
7
 10
65.67082190
 20
13.44582525
  0
VERTEX
  8
EGA-301.PLT
 62
7
 10
65.66667720
 20
13.48411957
  0
VERTEX
  8
EGA-301.PLT
 62
7
 10
65.65402459
 20
13.58905400
  0
VERTEX
  8
EGA-301.PLT
 62
7
 10
65.64021377
 20
13.69368464
  0
VERTEX
  8
EGA-301.PLT
 62
7
 10
65.62321547
 20
13.79775278
  0
VERTEX
  8
EGA-301.PLT
 62
7
 10
65.60100042
 20
13.90099972
  0
VERTEX
  8
EGA-301.PLT
 62
7
 10
65.56748445
 20
14.02012474
  0
VERTEX
  8
EGA-301.PLT
 62
7
 10
65.52937501
 20
14.13774977
  0
VERTEX
  8
EGA-301.PLT
 62
7
 10
65.48807827
 20
14.25424981
  0
VERTEX
  8
EGA-301.PLT
 62
7
 10
65.44500038
 20
14.36999984
  0
VERTEX
  8
EGA-301.PLT
 62
7
 10
65.37212511
 20
14.55064067
  0
VERTEX
  8
EGA-301.PLT
 62
7
 10
65.29249997
 20
14.72837501
  0
VERTEX
  8
EGA-301.PLT
 62
7
 10
65.20762503
 20
14.90367169
  0
VERTEX
  8
EGA-301.PLT
 62
7
 10
65.11900037
 20
15.07699954
  0
VERTEX
  8
EGA-301.PLT
 62
7
 10
65.07919752
 20
15.14869901
  0
VERTEX
  8
EGA-301.PLT
 62
7
 10
65.03645328
 20
15.21878122
  0
VERTEX
  8
EGA-301.PLT
 62
7
 10
64.99213877
 20
15.28797274
  0
VERTEX
  8
EGA-301.PLT
 62
7
 10
64.94762507
 20
15.35700015
  0
VERTEX
  8
EGA-301.PLT
 62
7
 10
64.90428328
 20
15.42659002
  0
VERTEX
  8
EGA-301.PLT
 62
7
 10
64.86348450
 20
15.49746890
  0
VERTEX
  8
EGA-301.PLT
 62
7
 10
64.82659983
 20
15.57036338
  0
VERTEX
  8
EGA-301.PLT
 62
7
 10
64.79500036
 20
15.64600002
  0
VERTEX
  8
EGA-301.PLT
 62
7
 10
64.75714066
 20
15.75881257
  0
VERTEX
  8
EGA-301.PLT
 62
7
 10
64.72612494
 20
15.87350012
  0
VERTEX
  8
EGA-301.PLT
 62
7
 10
64.70204685
 20
15.98968765
  0
VERTEX
  8
EGA-301.PLT
 62
7
 10
64.68500005
 20
16.10700018
  0
VERTEX
  8
EGA-301.PLT
 62
7
 10
64.66104507
 20
16.03450411
  0
VERTEX
  8
EGA-301.PLT
 62
7
 10
64.64017204
 20
15.96109392
  0
VERTEX
  8
EGA-301.PLT
 62
7
 10
64.62236926
 20
15.88688682
  0
VERTEX
  8
EGA-301.PLT
 62
7
 10
64.60762503
 20
15.81200000
  0
VERTEX
  8
EGA-301.PLT
 62
7
 10
64.59592766
 20
15.73655070
  0
VERTEX
  8
EGA-301.PLT
 62
7
 10
64.58726545
 20
15.66065610
  0
VERTEX
  8
EGA-301.PLT
 62
7
 10
64.58162671
 20
15.58443342
  0
VERTEX
  8
EGA-301.PLT
 62
7
 10
64.57899973
 20
15.50799988
  0
VERTEX
  8
EGA-301.PLT
 62
7
 10
64.58077515
 20
15.42465035
  0
VERTEX
  8
EGA-301.PLT
 62
7
 10
64.58720295
 20
15.34182810
  0
VERTEX
  8
EGA-301.PLT
 62
7
 10
64.59768546
 20
15.25949800
  0
VERTEX
  8
EGA-301.PLT
 62
7
 10
64.61162501
 20
15.17762490
  0
VERTEX
  8
EGA-301.PLT
 62
7
 10
64.62842391
 20
15.09617367
  0
VERTEX
  8
EGA-301.PLT
 62
7
 10
64.64748450
 20
15.01510918
  0
VERTEX
  8
EGA-301.PLT
 62
7
 10
64.66820909
 20
14.93439629
  0
VERTEX
  8
EGA-301.PLT
 62
7
 10
64.69000003
 20
14.85399988
  0
VERTEX
  8
EGA-301.PLT
 62
7
 10
64.71907021
 20
14.75722465
  0
VERTEX
  8
EGA-301.PLT
 62
7
 10
64.75193733
 20
14.66179700
  0
VERTEX
  8
EGA-301.PLT
 62
7
 10
64.78808575
 20
14.56756462
  0
VERTEX
  8
EGA-301.PLT
 62
7
 10
64.82699983
 20
14.47437518
  0
VERTEX
  8
EGA-301.PLT
 62
7
 10
64.86816394
 20
14.38207636
  0
VERTEX
  8
EGA-301.PLT
 62
7
 10
64.91106244
 20
14.29051583
  0
VERTEX
  8
EGA-301.PLT
 62
7
 10
64.95517972
 20
14.19954129
  0
VERTEX
  8
EGA-301.PLT
 62
7
 10
65.00000012
 20
14.10900040
  0
VERTEX
  8
EGA-301.PLT
 62
7
 10
65.05325798
 20
14.00663700
  0
VERTEX
  8
EGA-301.PLT
 62
7
 10
65.10975019
 20
13.90621892
  0
VERTEX
  8
EGA-301.PLT
 62
7
 10
65.16867989
 20
13.80725398
  0
VERTEX
  8
EGA-301.PLT
 62
7
 10
65.22925021
 20
13.70925000
  0
VERTEX
  8
EGA-301.PLT
 62
7
 10
65.29066427
 20
13.61171481
  0
VERTEX
  8
EGA-301.PLT
 62
7
 10
65.35212521
 20
13.51415624
  0
VERTEX
  8
EGA-301.PLT
 62
7
 10
65.41283615
 20
13.41608211
  0
VERTEX
  8
EGA-301.PLT
 62
7
 10
65.47200022
 20
13.31700026
  0
VERTEX
  8
EGA-301.PLT
 62
7
 10
65.52032822
 20
13.23742190
  0
VERTEX
  8
EGA-301.PLT
 62
7
 10
65.56987513
 20
13.15812488
  0
VERTEX
  8
EGA-301.PLT
 62
7
 10
65.61698456
 20
13.07751555
  0
VERTEX
  8
EGA-301.PLT
 62
7
 10
65.65800009
 20
12.99400023
  0
VERTEX
  8
EGA-301.PLT
 62
7
 10
65.68981243
 20
12.91749999
  0
VERTEX
  8
EGA-301.PLT
 62
7
 10
65.71824987
 20
12.83949984
  0
VERTEX
  8
EGA-301.PLT
 62
7
 10
65.74181251
 20
12.75999987
  0
VERTEX
  8
EGA-301.PLT
 62
7
 10
65.75900045
 20
12.67900017
  0
VERTEX
  8
EGA-301.PLT
 62
7
 10
65.76536174
 20
12.63128720
  0
VERTEX
  8
EGA-301.PLT
 62
7
 10
65.76845352
 20
12.58342189
  0
VERTEX
  8
EGA-301.PLT
 62
7
 10
65.76903750
 20
12.53543939
  0
VERTEX
  8
EGA-301.PLT
 62
7
 10
65.76787540
 20
12.48737487
  0
VERTEX
  8
EGA-301.PLT
 62
7
 10
65.76572892
 20
12.43926346
  0
VERTEX
  8
EGA-301.PLT
 62
7
 10
65.76335980
 20
12.39114034
  0
VERTEX
  8
EGA-301.PLT
 62
7
 10
65.76152973
 20
12.34304066
  0
VERTEX
  8
EGA-301.PLT
 62
7
 10
65.76100044
 20
12.29499957
  0
VERTEX
  8
EGA-301.PLT
 62
7
 10
65.76200043
 20
11.83300033
  0
VERTEX
  8
EGA-301.PLT
 62
7
 10
65.73124980
 20
11.88912502
  0
VERTEX
  8
EGA-301.PLT
 62
7
 10
65.70799981
 20
11.94899968
  0
VERTEX
  8
EGA-301.PLT
 62
7
 10
65.69852570
 20
11.98649194
  0
VERTEX
  8
EGA-301.PLT
 62
7
 10
65.69277565
 20
12.02521561
  0
VERTEX
  8
EGA-301.PLT
 62
7
 10
65.68988332
 20
12.06479146
  0
VERTEX
  8
EGA-301.PLT
 62
7
 10
65.68898234
 20
12.10484026
  0
VERTEX
  8
EGA-301.PLT
 62
7
 10
65.68920636
 20
12.14498276
  0
VERTEX
  8
EGA-301.PLT
 62
7
 10
65.68968900
 20
12.18483974
  0
VERTEX
  8
EGA-301.PLT
 62
7
 10
65.68956393
 20
12.22403194
  0
VERTEX
  8
EGA-301.PLT
 62
7
 10
65.68796477
 20
12.26218014
  0
VERTEX
  8
EGA-301.PLT
 62
7
 10
65.68459055
 20
12.30886168
  0
VERTEX
  8
EGA-301.PLT
 62
7
 10
65.68103006
 20
12.35703331
  0
VERTEX
  8
EGA-301.PLT
 62
7
 10
65.67700165
 20
12.40613583
  0
VERTEX
  8
EGA-301.PLT
 62
7
 10
65.67222365
 20
12.45561001
  0
VERTEX
  8
EGA-301.PLT
 62
7
 10
65.66641441
 20
12.50489666
  0
VERTEX
  8
EGA-301.PLT
 62
7
 10
65.65929226
 20
12.55343654
  0
VERTEX
  8
EGA-301.PLT
 62
7
 10
65.65057555
 20
12.60067047
  0
VERTEX
  8
EGA-301.PLT
 62
7
 10
65.63998262
 20
12.64603921
  0
VERTEX
  8
EGA-301.PLT
 62
7
 10
65.62533303
 20
12.69921137
  0
VERTEX
  8
EGA-301.PLT
 62
7
 10
65.60921977
 20
12.74911123
  0
VERTEX
  8
EGA-301.PLT
 62
7
 10
65.59177136
 20
12.79668892
  0
VERTEX
  8
EGA-301.PLT
 62
7
 10
65.57311632
 20
12.84289459
  0
VERTEX
  8
EGA-301.PLT
 62
7
 10
65.55338316
 20
12.88867839
  0
VERTEX
  8
EGA-301.PLT
 62
7
 10
65.53270040
 20
12.93499047
  0
VERTEX
  8
EGA-301.PLT
 62
7
 10
65.51119655
 20
12.98278096
  0
VERTEX
  8
EGA-301.PLT
 62
7
 10
65.48900013
 20
13.03300001
  0
VERTEX
  8
EGA-301.PLT
 62
7
 10
65.42112496
 20
13.17620302
  0
VERTEX
  8
EGA-301.PLT
 62
7
 10
65.34800000
 20
13.31687479
  0
VERTEX
  8
EGA-301.PLT
 62
7
 10
65.27187505
 20
13.45585908
  0
VERTEX
  8
EGA-301.PLT
 62
7
 10
65.19499994
 20
13.59399961
  0
VERTEX
  8
EGA-301.PLT
 62
7
 10
65.15199011
 20
13.66749594
  0
VERTEX
  8
EGA-301.PLT
 62
7
 10
65.10685927
 20
13.73984377
  0
VERTEX
  8
EGA-301.PLT
 62
7
 10
65.06058003
 20
13.81158215
  0
VERTEX
  8
EGA-301.PLT
 62
7
 10
65.01412504
 20
13.88325017
  0
VERTEX
  8
EGA-301.PLT
 62
7
 10
64.96846692
 20
13.95538690
  0
VERTEX
  8
EGA-301.PLT
 62
7
 10
64.92457830
 20
14.02853139
  0
VERTEX
  8
EGA-301.PLT
 62
7
 10
64.88343180
 20
14.10322274
  0
VERTEX
  8
EGA-301.PLT
 62
7
 10
64.84600007
 20
14.17999999
  0
VERTEX
  8
EGA-301.PLT
 62
7
 10
64.79859394
 20
14.29207818
  0
VERTEX
  8
EGA-301.PLT
 62
7
 10
64.75550012
 20
14.40612510
  0
VERTEX
  8
EGA-301.PLT
 62
7
 10
64.71690627
 20
14.52185952
  0
VERTEX
  8
EGA-301.PLT
 62
7
 10
64.68300006
 20
14.63900017
  0
VERTEX
  8
EGA-301.PLT
 62
7
 10
64.65204710
 20
14.54885938
  0
VERTEX
  8
EGA-301.PLT
 62
7
 10
64.62662527
 20
14.45712493
  0
VERTEX
  8
EGA-301.PLT
 62
7
 10
64.60664073
 20
14.36407816
  0
VERTEX
  8
EGA-301.PLT
 62
7
 10
64.59199965
 20
14.27000041
  0
VERTEX
  8
EGA-301.PLT
 62
7
 10
64.58530634
 20
14.20470911
  0
VERTEX
  8
EGA-301.PLT
 62
7
 10
64.58157785
 20
14.13935930
  0
VERTEX
  8
EGA-301.PLT
 62
7
 10
64.58059157
 20
14.07398611
  0
VERTEX
  8
EGA-301.PLT
 62
7
 10
64.58212483
 20
14.00862469
  0
VERTEX
  8
EGA-301.PLT
 62
7
 10
64.58595499
 20
13.94331020
  0
VERTEX
  8
EGA-301.PLT
 62
7
 10
64.59185942
 20
13.87807776
  0
VERTEX
  8
EGA-301.PLT
 62
7
 10
64.59961547
 20
13.81296254
  0
VERTEX
  8
EGA-301.PLT
 62
7
 10
64.60900048
 20
13.74799967
  0
VERTEX
  8
EGA-301.PLT
 62
7
 10
64.62144859
 20
13.67877430
  0
VERTEX
  8
EGA-301.PLT
 62
7
 10
64.63688866
 20
13.61021137
  0
VERTEX
  8
EGA-301.PLT
 62
7
 10
64.65508914
 20
13.54229323
  0
VERTEX
  8
EGA-301.PLT
 62
7
 10
64.67581847
 20
13.47500228
  0
VERTEX
  8
EGA-301.PLT
 62
7
 10
64.69884512
 20
13.40832088
  0
VERTEX
  8
EGA-301.PLT
 62
7
 10
64.72393752
 20
13.34223142
  0
VERTEX
  8
EGA-301.PLT
 62
7
 10
64.75086412
 20
13.27671626
  0
VERTEX
  8
EGA-301.PLT
 62
7
 10
64.77939337
 20
13.21175779
  0
VERTEX
  8
EGA-301.PLT
 62
7
 10
64.80929371
 20
13.14733838
  0
VERTEX
  8
EGA-301.PLT
 62
7
 10
64.84033360
 20
13.08344040
  0
VERTEX
  8
EGA-301.PLT
 62
7
 10
64.87228149
 20
13.02004623
  0
VERTEX
  8
EGA-301.PLT
 62
7
 10
64.90490581
 20
12.95713825
  0
VERTEX
  8
EGA-301.PLT
 62
7
 10
64.93797502
 20
12.89469883
  0
VERTEX
  8
EGA-301.PLT
 62
7
 10
64.97125756
 20
12.83271035
  0
VERTEX
  8
EGA-301.PLT
 62
7
 10
65.00452189
 20
12.77115519
  0
VERTEX
  8
EGA-301.PLT
 62
7
 10
65.03753645
 20
12.71001572
  0
VERTEX
  8
EGA-301.PLT
 62
7
 10
65.08553746
 20
12.62443077
  0
VERTEX
  8
EGA-301.PLT
 62
7
 10
65.13363374
 20
12.54366678
  0
VERTEX
  8
EGA-301.PLT
 62
7
 10
65.18196542
 20
12.46621052
  0
VERTEX
  8
EGA-301.PLT
 62
7
 10
65.23067261
 20
12.39054875
  0
VERTEX
  8
EGA-301.PLT
 62
7
 10
65.27989542
 20
12.31516822
  0
VERTEX
  8
EGA-301.PLT
 62
7
 10
65.32977397
 20
12.23855571
  0
VERTEX
  8
EGA-301.PLT
 62
7
 10
65.38044836
 20
12.15919797
  0
VERTEX
  8
EGA-301.PLT
 62
7
 10
65.43205873
 20
12.07558175
  0
VERTEX
  8
EGA-301.PLT
 62
7
 10
65.45804995
 20
12.03392503
  0
VERTEX
  8
EGA-301.PLT
 62
7
 10
65.48658386
 20
11.98970240
  0
VERTEX
  8
EGA-301.PLT
 62
7
 10
65.51662539
 20
11.94365978
  0
VERTEX
  8
EGA-301.PLT
 62
7
 10
65.54713948
 20
11.89654311
  0
VERTEX
  8
EGA-301.PLT
 62
7
 10
65.57709108
 20
11.84909831
  0
VERTEX
  8
EGA-301.PLT
 62
7
 10
65.60544512
 20
11.80207132
  0
VERTEX
  8
EGA-301.PLT
 62
7
 10
65.63116654
 20
11.75620807
  0
VERTEX
  8
EGA-301.PLT
 62
7
 10
65.65322029
 20
11.71225449
  0
VERTEX
  8
EGA-301.PLT
 62
7
 10
65.66801800
 20
11.68156799
  0
VERTEX
  8
EGA-301.PLT
 62
7
 10
65.68354164
 20
11.65092604
  0
VERTEX
  8
EGA-301.PLT
 62
7
 10
65.69923673
 20
11.62020442
  0
VERTEX
  8
EGA-301.PLT
 62
7
 10
65.71454880
 20
11.58927889
  0
VERTEX
  8
EGA-301.PLT
 62
7
 10
65.72892338
 20
11.55802524
  0
VERTEX
  8
EGA-301.PLT
 62
7
 10
65.74180599
 20
11.52631924
  0
VERTEX
  8
EGA-301.PLT
 62
7
 10
65.75264216
 20
11.49403667
  0
VERTEX
  8
EGA-301.PLT
 62
7
 10
65.76087740
 20
11.46105332
  0
VERTEX
  8
EGA-301.PLT
 62
7
 10
65.76823226
 20
11.41568599
  0
VERTEX
  8
EGA-301.PLT
 62
7
 10
65.77206844
 20
11.37093591
  0
VERTEX
  8
EGA-301.PLT
 62
7
 10
65.77316821
 20
11.32658168
  0
VERTEX
  8
EGA-301.PLT
 62
7
 10
65.77231385
 20
11.28240192
  0
VERTEX
  8
EGA-301.PLT
 62
7
 10
65.77028763
 20
11.23817525
  0
VERTEX
  8
EGA-301.PLT
 62
7
 10
65.76787180
 20
11.19368027
  0
VERTEX
  8
EGA-301.PLT
 62
7
 10
65.76584864
 20
11.14869559
  0
VERTEX
  8
EGA-301.PLT
 62
7
 10
65.76500041
 20
11.10299984
  0
VERTEX
  8
EGA-301.PLT
 62
7
 10
65.76700040
 20
10.66499955
  0
VERTEX
  8
EGA-301.PLT
 62
7
 10
65.74711453
 20
10.72397886
  0
VERTEX
  8
EGA-301.PLT
 62
7
 10
65.72947795
 20
10.78370748
  0
VERTEX
  8
EGA-301.PLT
 62
7
 10
65.71765344
 20
10.82964694
  0
VERTEX
  8
EGA-301.PLT
 62
7
 10
65.70995121
 20
10.87591332
  0
VERTEX
  8
EGA-301.PLT
 62
7
 10
65.70527839
 20
10.92242888
  0
VERTEX
  8
EGA-301.PLT
 62
7
 10
65.70254216
 20
10.96911589
  0
VERTEX
  8
EGA-301.PLT
 62
7
 10
65.70064968
 20
11.01589660
  0
VERTEX
  8
EGA-301.PLT
 62
7
 10
65.69850810
 20
11.06269328
  0
VERTEX
  8
EGA-301.PLT
 62
7
 10
65.69502459
 20
11.10942819
  0
VERTEX
  8
EGA-301.PLT
 62
7
 10
65.68910630
 20
11.15602359
  0
VERTEX
  8
EGA-301.PLT
 62
7
 10
65.67817601
 20
11.22382920
  0
VERTEX
  8
EGA-301.PLT
 62
7
 10
65.66618354
 20
11.28897305
  0
VERTEX
  8
EGA-301.PLT
 62
7
 10
65.65282670
 20
11.35217050
  0
VERTEX
  8
EGA-301.PLT
 62
7
 10
65.63780328
 20
11.41413696
  0
VERTEX
  8
EGA-301.PLT
 62
7
 10
65.62081108
 20
11.47558779
  0
VERTEX
  8
EGA-301.PLT
 62
7
 10
65.60154790
 20
11.53723838
  0
VERTEX
  8
EGA-301.PLT
 62
7
 10
65.57971152
 20
11.59980411
  0
VERTEX
  8
EGA-301.PLT
 62
7
 10
65.55499975
 20
11.66400037
  0
VERTEX
  8
EGA-301.PLT
 62
7
 10
65.51878703
 20
11.74726391
  0
VERTEX
  8
EGA-301.PLT
 62
7
 10
65.47885940
 20
11.82854700
  0
VERTEX
  8
EGA-301.PLT
 62
7
 10
65.43590829
 20
11.90821291
  0
VERTEX
  8
EGA-301.PLT
 62
7
 10
65.39062511
 20
11.98662493
  0
VERTEX
  8
EGA-301.PLT
 62
7
 10
65.34370126
 20
12.06414632
  0
VERTEX
  8
EGA-301.PLT
 62
7
 10
65.29582817
 20
12.14114037
  0
VERTEX
  8
EGA-301.PLT
 62
7
 10
65.24769725
 20
12.21797036
  0
VERTEX
  8
EGA-301.PLT
 62
7
 10
65.19999991
 20
12.29499957
  0
VERTEX
  8
EGA-301.PLT
 62
7
 10
65.15144515
 20
12.37044901
  0
VERTEX
  8
EGA-301.PLT
 62
7
 10
65.10031230
 20
12.44428120
  0
VERTEX
  8
EGA-301.PLT
 62
7
 10
65.04777322
 20
12.51722271
  0
VERTEX
  8
EGA-301.PLT
 62
7
 10
64.99499980
 20
12.59000009
  0
VERTEX
  8
EGA-301.PLT
 62
7
 10
64.94316392
 20
12.66333994
  0
VERTEX
  8
EGA-301.PLT
 62
7
 10
64.89343746
 20
12.73796880
  0
VERTEX
  8
EGA-301.PLT
 62
7
 10
64.84699229
 20
12.81461326
  0
VERTEX
  8
EGA-301.PLT
 62
7
 10
64.80500030
 20
12.89399988
  0
VERTEX
  8
EGA-301.PLT
 62
7
 10
64.75215631
 20
13.01001554
  0
VERTEX
  8
EGA-301.PLT
 62
7
 10
64.70475006
 20
13.12837494
  0
VERTEX
  8
EGA-301.PLT
 62
7
 10
64.66296894
 20
13.24879682
  0
VERTEX
  8
EGA-301.PLT
 62
7
 10
64.62700038
 20
13.37099995
  0
VERTEX
  8
EGA-301.PLT
 62
7
 10
64.59625009
 20
13.29512492
  0
VERTEX
  8
EGA-301.PLT
 62
7
 10
64.57299976
 20
13.21699990
  0
VERTEX
  8
EGA-301.PLT
 62
7
 10
64.56371857
 20
13.17036704
  0
VERTEX
  8
EGA-301.PLT
 62
7
 10
64.55799985
 20
13.12349988
  0
VERTEX
  8
EGA-301.PLT
 62
7
 10
64.55528111
 20
13.07644526
  0
VERTEX
  8
EGA-301.PLT
 62
7
 10
64.55499986
 20
13.02925004
  0
VERTEX
  8
EGA-301.PLT
 62
7
 10
64.55659361
 20
12.98196106
  0
VERTEX
  8
EGA-301.PLT
 62
7
 10
64.55949984
 20
12.93462520
  0
VERTEX
  8
EGA-301.PLT
 62
7
 10
64.56315607
 20
12.88728928
  0
VERTEX
  8
EGA-301.PLT
 62
7
 10
64.56699980
 20
12.84000018
  0
VERTEX
  8
EGA-301.PLT
 62
7
 10
64.57765017
 20
12.74279891
  0
VERTEX
  8
EGA-301.PLT
 62
7
 10
64.59464042
 20
12.64682816
  0
VERTEX
  8
EGA-301.PLT
 62
7
 10
64.61690415
 20
12.55191213
  0
VERTEX
  8
EGA-301.PLT
 62
7
 10
64.64337494
 20
12.45787503
  0
VERTEX
  8
EGA-301.PLT
 62
7
 10
64.67298638
 20
12.36454105
  0
VERTEX
  8
EGA-301.PLT
 62
7
 10
64.70467206
 20
12.27173439
  0
VERTEX
  8
EGA-301.PLT
 62
7
 10
64.73736557
 20
12.17927925
  0
VERTEX
  8
EGA-301.PLT
 62
7
 10
64.77000050
 20
12.08699982
  0
VERTEX
  8
EGA-301.PLT
 62
7
 10
64.81979323
 20
11.94838663
  0
VERTEX
  8
EGA-301.PLT
 62
7
 10
64.87265634
 20
11.81096875
  0
VERTEX
  8
EGA-301.PLT
 62
7
 10
64.92894139
 20
11.67500398
  0
VERTEX
  8
EGA-301.PLT
 62
7
 10
64.98899995
 20
11.54075014
  0
VERTEX
  8
EGA-301.PLT
 62
7
 10
65.05318357
 20
11.40846504
  0
VERTEX
  8
EGA-301.PLT
 62
7
 10
65.12184382
 20
11.27840649
  0
VERTEX
  8
EGA-301.PLT
 62
7
 10
65.19533224
 20
11.15083230
  0
VERTEX
  8
EGA-301.PLT
 62
7
 10
65.27400042
 20
11.02600028
  0
VERTEX
  8
EGA-301.PLT
 62
7
 10
65.31805099
 20
10.96232646
  0
VERTEX
  8
EGA-301.PLT
 62
7
 10
65.36484381
 20
10.90060967
  0
VERTEX
  8
EGA-301.PLT
 62
7
 10
65.41346481
 20
10.84018193
  0
VERTEX
  8
EGA-301.PLT
 62
7
 10
65.46299993
 20
10.78037528
  0
VERTEX
  8
EGA-301.PLT
 62
7
 10
65.51253508
 20
10.72052176
  0
VERTEX
  8
EGA-301.PLT
 62
7
 10
65.56115621
 20
10.65995339
  0
VERTEX
  8
EGA-301.PLT
 62
7
 10
65.60794925
 20
10.59800223
  0
VERTEX
  8
EGA-301.PLT
 62
7
 10
65.65200013
 20
10.53400029
  0
VERTEX
  8
EGA-301.PLT
 62
7
 10
65.67707813
 20
10.49687496
  0
VERTEX
  8
EGA-301.PLT
 62
7
 10
65.70262496
 20
10.45974990
  0
VERTEX
  8
EGA-301.PLT
 62
7
 10
65.72610947
 20
10.42150001
  0
VERTEX
  8
EGA-301.PLT
 62
7
 10
65.74500053
 20
10.38100023
  0
VERTEX
  8
EGA-301.PLT
 62
7
 10
65.75530125
 20
10.34844151
  0
VERTEX
  8
EGA-301.PLT
 62
7
 10
65.76196918
 20
10.31534380
  0
VERTEX
  8
EGA-301.PLT
 62
7
 10
65.76577775
 20
10.28182426
  0
VERTEX
  8
EGA-301.PLT
 62
7
 10
65.76750040
 20
10.24800006
  0
VERTEX
  8
EGA-301.PLT
 62
7
 10
65.76791055
 20
10.21398835
  0
VERTEX
  8
EGA-301.PLT
 62
7
 10
65.76778165
 20
10.17990632
  0
VERTEX
  8
EGA-301.PLT
 62
7
 10
65.76788712
 20
10.14587111
  0
VERTEX
  8
EGA-301.PLT
 62
7
 10
65.76900039
 20
10.11199990
  0
VERTEX
  8
EGA-301.PLT
 62
7
 10
65.77296912
 20
10.00234358
  0
VERTEX
  8
EGA-301.PLT
 62
7
 10
65.77300037
 20
9.89249976
  0
VERTEX
  8
EGA-301.PLT
 62
7
 10
65.77153163
 20
9.78265594
  0
VERTEX
  8
EGA-301.PLT
 62
7
 10
65.77100038
 20
9.67299961
  0
VERTEX
  8
EGA-301.PLT
 62
7
 10
65.77300037
 20
9.10500005
  0
VERTEX
  8
EGA-301.PLT
 62
7
 10
65.74700005
 20
9.16887481
  0
VERTEX
  8
EGA-301.PLT
 62
7
 10
65.72699970
 20
9.23500024
  0
VERTEX
  8
EGA-301.PLT
 62
7
 10
65.71656951
 20
9.28129589
  0
VERTEX
  8
EGA-301.PLT
 62
7
 10
65.70954319
 20
9.32542461
  0
VERTEX
  8
EGA-301.PLT
 62
7
 10
65.70519238
 20
9.36812435
  0
VERTEX
  8
EGA-301.PLT
 62
7
 10
65.70278869
 20
9.41013304
  0
VERTEX
  8
EGA-301.PLT
 62
7
 10
65.70160375
 20
9.45218860
  0
VERTEX
  8
EGA-301.PLT
 62
7
 10
65.70090917
 20
9.49502897
  0
VERTEX
  8
EGA-301.PLT
 62
7
 10
65.69997657
 20
9.53939207
  0
VERTEX
  8
EGA-301.PLT
 62
7
 10
65.69807757
 20
9.58601583
  0
VERTEX
  8
EGA-301.PLT
 62
7
 10
65.69570511
 20
9.65046631
  0
VERTEX
  8
EGA-301.PLT
 62
7
 10
65.69467483
 20
9.71724770
  0
VERTEX
  8
EGA-301.PLT
 62
7
 10
65.69399246
 20
9.78550491
  0
VERTEX
  8
EGA-301.PLT
 62
7
 10
65.69266375
 20
9.85438284
  0
VERTEX
  8
EGA-301.PLT
 62
7
 10
65.68969442
 20
9.92302639
  0
VERTEX
  8
EGA-301.PLT
 62
7
 10
65.68409021
 20
9.99058048
  0
VERTEX
  8
EGA-301.PLT
 62
7
 10
65.67485685
 20
10.05619000
  0
VERTEX
  8
EGA-301.PLT
 62
7
 10
65.66100008
 20
10.11899986
  0
VERTEX
  8
EGA-301.PLT
 62
7
 10
65.62795324
 20
10.23049993
  0
VERTEX
  8
EGA-301.PLT
 62
7
 10
65.58862502
 20
10.33975000
  0
VERTEX
  8
EGA-301.PLT
 62
7
 10
65.54273434
 20
10.44637509
  0
VERTEX
  8
EGA-301.PLT
 62
7
 10
65.49000012
 20
10.55000020
  0
VERTEX
  8
EGA-301.PLT
 62
7
 10
65.45858398
 20
10.60352755
  0
VERTEX
  8
EGA-301.PLT
 62
7
 10
65.42410932
 20
10.65496890
  0
VERTEX
  8
EGA-301.PLT
 62
7
 10
65.38736128
 20
10.70486335
  0
VERTEX
  8
EGA-301.PLT
 62
7
 10
65.34912499
 20
10.75374997
  0
VERTEX
  8
EGA-301.PLT
 62
7
 10
65.31018558
 20
10.80216784
  0
VERTEX
  8
EGA-301.PLT
 62
7
 10
65.27132818
 20
10.85065605
  0
VERTEX
  8
EGA-301.PLT
 62
7
 10
65.23333792
 20
10.89975367
  0
VERTEX
  8
EGA-301.PLT
 62
7
 10
65.19699993
 20
10.94999978
  0
VERTEX
  8
EGA-301.PLT
 62
7
 10
65.15042371
 20
11.01615601
  0
VERTEX
  8
EGA-301.PLT
 62
7
 10
65.10339054
 20
11.08212474
  0
VERTEX
  8
EGA-301.PLT
 62
7
 10
65.05656834
 20
11.14828100
  0
VERTEX
  8
EGA-301.PLT
 62
7
 10
65.01062506
 20
11.21499979
  0
VERTEX
  8
EGA-301.PLT
 62
7
 10
64.96622865
 20
11.28265611
  0
VERTEX
  8
EGA-301.PLT
 62
7
 10
64.92404705
 20
11.35162498
  0
VERTEX
  8
EGA-301.PLT
 62
7
 10
64.88474820
 20
11.42228141
  0
VERTEX
  8
EGA-301.PLT
 62
7
 10
64.84900005
 20
11.49500040
  0
VERTEX
  8
EGA-301.PLT
 62
7
 10
64.80001581
 20
11.61101591
  0
VERTEX
  8
EGA-301.PLT
 62
7
 10
64.75787510
 20
11.72937500
  0
VERTEX
  8
EGA-301.PLT
 62
7
 10
64.72229686
 20
11.84979656
  0
VERTEX
  8
EGA-301.PLT
 62
7
 10
64.69300001
 20
11.97199955
  0
VERTEX
  8
EGA-301.PLT
 62
7
 10
64.67153329
 20
11.92321462
  0
VERTEX
  8
EGA-301.PLT
 62
7
 10
64.65214072
 20
11.87365619
  0
VERTEX
  8
EGA-301.PLT
 62
7
 10
64.63483403
 20
11.82339458
  0
VERTEX
  8
EGA-301.PLT
 62
7
 10
64.61962496
 20
11.77250010
  0
VERTEX
  8
EGA-301.PLT
 62
7
 10
64.60652526
 20
11.72104308
  0
VERTEX
  8
EGA-301.PLT
 62
7
 10
64.59554665
 20
11.66909384
  0
VERTEX
  8
EGA-301.PLT
 62
7
 10
64.58670090
 20
11.61672271
  0
VERTEX
  8
EGA-301.PLT
 62
7
 10
64.57999972
 20
11.56400001
  0
VERTEX
  8
EGA-301.PLT
 62
7
 10
64.57533569
 20
11.49917385
  0
VERTEX
  8
EGA-301.PLT
 62
7
 10
64.57512476
 20
11.43445317
  0
VERTEX
  8
EGA-301.PLT
 62
7
 10
64.57866384
 20
11.36984967
  0
VERTEX
  8
EGA-301.PLT
 62
7
 10
64.58524981
 20
11.30537508
  0
VERTEX
  8
EGA-301.PLT
 62
7
 10
64.59417956
 20
11.24104112
  0
VERTEX
  8
EGA-301.PLT
 62
7
 10
64.60474997
 20
11.17685949
  0
VERTEX
  8
EGA-301.PLT
 62
7
 10
64.61625795
 20
11.11284193
  0
VERTEX
  8
EGA-301.PLT
 62
7
 10
64.62800038
 20
11.04900015
  0
VERTEX
  8
EGA-301.PLT
 62
7
 10
64.65490652
 20
10.92034198
  0
VERTEX
  8
EGA-301.PLT
 62
7
 10
64.68856269
 20
10.79373458
  0
VERTEX
  8
EGA-301.PLT
 62
7
 10
64.72812515
 20
10.66897873
  0
VERTEX
  8
EGA-301.PLT
 62
7
 10
64.77275013
 20
10.54587522
  0
VERTEX
  8
EGA-301.PLT
 62
7
 10
64.82159389
 20
10.42422483
  0
VERTEX
  8
EGA-301.PLT
 62
7
 10
64.87381266
 20
10.30382833
  0
VERTEX
  8
EGA-301.PLT
 62
7
 10
64.92856268
 20
10.18448651
  0
VERTEX
  8
EGA-301.PLT
 62
7
 10
64.98500020
 20
10.06600016
  0
VERTEX
  8
EGA-301.PLT
 62
7
 10
65.04142601
 20
9.95428721
  0
VERTEX
  8
EGA-301.PLT
 62
7
 10
65.10153149
 20
9.84467192
  0
VERTEX
  8
EGA-301.PLT
 62
7
 10
65.16468382
 20
9.73681445
  0
VERTEX
  8
EGA-301.PLT
 62
7
 10
65.23025020
 20
9.63037497
  0
VERTEX
  8
EGA-301.PLT
 62
7
 10
65.29759783
 20
9.52501366
  0
VERTEX
  8
EGA-301.PLT
 62
7
 10
65.36609388
 20
9.42039067
  0
VERTEX
  8
EGA-301.PLT
 62
7
 10
65.43510555
 20
9.31616619
  0
VERTEX
  8
EGA-301.PLT
 62
7
 10
65.50400004
 20
9.21200037
  0
VERTEX
  8
EGA-301.PLT
 62
7
 10
65.53024603
 20
9.17383032
  0
VERTEX
  8
EGA-301.PLT
 62
7
 10
65.55759363
 20
9.13632825
  0
VERTEX
  8
EGA-301.PLT
 62
7
 10
65.58545690
 20
9.09913088
  0
VERTEX
  8
EGA-301.PLT
 62
7
 10
65.61324989
 20
9.06187495
  0
VERTEX
  8
EGA-301.PLT
 62
7
 10
65.64038662
 20
9.02419719
  0
VERTEX
  8
EGA-301.PLT
 62
7
 10
65.66628115
 20
8.98573434
  0
VERTEX
  8
EGA-301.PLT
 62
7
 10
65.69034753
 20
8.94612312
  0
VERTEX
  8
EGA-301.PLT
 62
7
 10
65.71199979
 20
8.90500026
  0
VERTEX
  8
EGA-301.PLT
 62
7
 10
65.73082795
 20
8.86590620
  0
VERTEX
  8
EGA-301.PLT
 62
7
 10
65.74862504
 20
8.82624990
  0
VERTEX
  8
EGA-301.PLT
 62
7
 10
65.76360965
 20
8.78546878
  0
VERTEX
  8
EGA-301.PLT
 62
7
 10
65.77400036
 20
8.74300025
  0
VERTEX
  8
EGA-301.PLT
 62
7
 10
65.77969023
 20
8.70472580
  0
VERTEX
  8
EGA-301.PLT
 62
7
 10
65.78245799
 20
8.66642264
  0
VERTEX
  8
EGA-301.PLT
 62
7
 10
65.78335077
 20
8.62811965
  0
VERTEX
  8
EGA-301.PLT
 62
7
 10
65.78341567
 20
8.58984571
  0
VERTEX
  8
EGA-301.PLT
 62
7
 10
65.77787268
 20
8.22951010
  0
VERTEX
  8
EGA-301.PLT
 62
7
 10
65.77800034
 20
7.68999974
  0
VERTEX
  8
EGA-301.PLT
 62
7
 10
65.75875348
 20
7.75431827
  0
VERTEX
  8
EGA-301.PLT
 62
7
 10
65.74101026
 20
7.83131855
  0
VERTEX
  8
EGA-301.PLT
 62
7
 10
65.72626702
 20
7.90906884
  0
VERTEX
  8
EGA-301.PLT
 62
7
 10
65.71602012
 20
7.97563735
  0
VERTEX
  8
EGA-301.PLT
 62
7
 10
65.70632825
 20
8.05928909
  0
VERTEX
  8
EGA-301.PLT
 62
7
 10
65.70105605
 20
8.13712360
  0
VERTEX
  8
EGA-301.PLT
 62
7
 10
65.69765884
 20
8.21495828
  0
VERTEX
  8
EGA-301.PLT
 62
7
 10
65.69359194
 20
8.29861054
  0
VERTEX
  8
EGA-301.PLT
 62
7
 10
65.69084012
 20
8.35778508
  0
VERTEX
  8
EGA-301.PLT
 62
7
 10
65.68813643
 20
8.41678497
  0
VERTEX
  8
EGA-301.PLT
 62
7
 10
65.68480858
 20
8.47557469
  0
VERTEX
  8
EGA-301.PLT
 62
7
 10
65.68018429
 20
8.53411869
  0
VERTEX
  8
EGA-301.PLT
 62
7
 10
65.67359126
 20
8.59238144
  0
VERTEX
  8
EGA-301.PLT
 62
7
 10
65.66435719
 20
8.65032742
  0
VERTEX
  8
EGA-301.PLT
 62
7
 10
65.65180981
 20
8.70792107
  0
VERTEX
  8
EGA-301.PLT
 62
7
 10
65.63527682
 20
8.76512686
  0
VERTEX
  8
EGA-301.PLT
 62
7
 10
65.61647203
 20
8.81978352
  0
VERTEX
  8
EGA-301.PLT
 62
7
 10
65.59607743
 20
8.87109139
  0
VERTEX
  8
EGA-301.PLT
 62
7
 10
65.57412295
 20
8.91993234
  0
VERTEX
  8
EGA-301.PLT
 62
7
 10
65.55063854
 20
8.96718828
  0
VERTEX
  8
EGA-301.PLT
 62
7
 10
65.52565413
 20
9.01374109
  0
VERTEX
  8
EGA-301.PLT
 62
7
 10
65.49919968
 20
9.06047268
  0
VERTEX
  8
EGA-301.PLT
 62
7
 10
65.47130512
 20
9.10826494
  0
VERTEX
  8
EGA-301.PLT
 62
7
 10
65.44200039
 20
9.15799975
  0
VERTEX
  8
EGA-301.PLT
 62
7
 10
65.37006262
 20
9.27184355
  0
VERTEX
  8
EGA-301.PLT
 62
7
 10
65.29324996
 20
9.38249987
  0
VERTEX
  8
EGA-301.PLT
 62
7
 10
65.21531248
 20
9.49240619
  0
VERTEX
  8
EGA-301.PLT
 62
7
 10
65.14000025
 20
9.60400000
  0
VERTEX
  8
EGA-301.PLT
 62
7
 10
65.06564075
 20
9.72114066
  0
VERTEX
  8
EGA-301.PLT
 62
7
 10
64.99212516
 20
9.83912506
  0
VERTEX
  8
EGA-301.PLT
 62
7
 10
64.92104707
 20
9.95879695
  0
VERTEX
  8
EGA-301.PLT
 62
7
 10
64.85400002
 20
10.08100008
  0
VERTEX
  8
EGA-301.PLT
 62
7
 10
64.79685958
 20
10.19590637
  0
VERTEX
  8
EGA-301.PLT
 62
7
 10
64.74262519
 20
10.31250016
  0
VERTEX
  8
EGA-301.PLT
 62
7
 10
64.69157829
 20
10.43059393
  0
VERTEX
  8
EGA-301.PLT
 62
7
 10
64.64400029
 20
10.55000020
  0
VERTEX
  8
EGA-301.PLT
 62
7
 10
64.63195539
 20
10.46886524
  0
VERTEX
  8
EGA-301.PLT
 62
7
 10
64.62207840
 20
10.38748426
  0
VERTEX
  8
EGA-301.PLT
 62
7
 10
64.61438107
 20
10.30589242
  0
VERTEX
  8
EGA-301.PLT
 62
7
 10
64.60887514
 20
10.22412485
  0
VERTEX
  8
EGA-301.PLT
 62
7
 10
64.60557236
 20
10.14221669
  0
VERTEX
  8
EGA-301.PLT
 62
7
 10
64.60448449
 20
10.06020310
  0
VERTEX
  8
EGA-301.PLT
 62
7
 10
64.60562328
 20
9.97811923
  0
VERTEX
  8
EGA-301.PLT
 62
7
 10
64.60900048
 20
9.89600020
  0
VERTEX
  8
EGA-301.PLT
 62
7
 10
64.61325632
 20
9.82626001
  0
VERTEX
  8
EGA-301.PLT
 62
7
 10
64.61867230
 20
9.75657841
  0
VERTEX
  8
EGA-301.PLT
 62
7
 10
64.62547109
 20
9.68701397
  0
VERTEX
  8
EGA-301.PLT
 62
7
 10
64.63387534
 20
9.61762527
  0
VERTEX
  8
EGA-301.PLT
 62
7
 10
64.64410771
 20
9.54847091
  0
VERTEX
  8
EGA-301.PLT
 62
7
 10
64.65639084
 20
9.47960946
  0
VERTEX
  8
EGA-301.PLT
 62
7
 10
64.67094740
 20
9.41109951
  0
VERTEX
  8
EGA-301.PLT
 62
7
 10
64.68800004
 20
9.34299963
  0
VERTEX
  8
EGA-301.PLT
 62
7
 10
64.71682804
 20
9.24821072
  0
VERTEX
  8
EGA-301.PLT
 62
7
 10
64.75099984
 20
9.15562485
  0
VERTEX
  8
EGA-301.PLT
 62
7
 10
64.78967168
 20
9.06491394
  0
VERTEX
  8
EGA-301.PLT
 62
7
 10
64.83199980
 20
8.97574986
  0
VERTEX
  8
EGA-301.PLT
 62
7
 10
64.87714045
 20
8.88780453
  0
VERTEX
  8
EGA-301.PLT
 62
7
 10
64.92424987
 20
8.80074984
  0
VERTEX
  8
EGA-301.PLT
 62
7
 10
64.97248431
 20
8.71425769
  0
VERTEX
  8
EGA-301.PLT
 62
7
 10
65.02100000
 20
8.62799998
  0
VERTEX
  8
EGA-301.PLT
 62
7
 10
65.10306259
 20
8.48520322
  0
VERTEX
  8
EGA-301.PLT
 62
7
 10
65.18924997
 20
8.34512519
  0
VERTEX
  8
EGA-301.PLT
 62
7
 10
65.28031233
 20
8.20823465
  0
VERTEX
  8
EGA-301.PLT
 62
7
 10
65.37699984
 20
8.07500034
  0
VERTEX
  8
EGA-301.PLT
 62
7
 10
65.41272263
 20
8.03117602
  0
VERTEX
  8
EGA-301.PLT
 62
7
 10
65.45090635
 20
7.98915639
  0
VERTEX
  8
EGA-301.PLT
 62
7
 10
65.49044940
 20
7.94812116
  0
VERTEX
  8
EGA-301.PLT
 62
7
 10
65.53025024
 20
7.90725001
  0
VERTEX
  8
EGA-301.PLT
 62
7
 10
65.56920729
 20
7.86572267
  0
VERTEX
  8
EGA-301.PLT
 62
7
 10
65.60621898
 20
7.82271882
  0
VERTEX
  8
EGA-301.PLT
 62
7
 10
65.64018375
 20
7.77741818
  0
VERTEX
  8
EGA-301.PLT
 62
7
 10
65.67000003
 20
7.72900045
  0
VERTEX
  8
EGA-301.PLT
 62
7
 10
65.70237499
 20
7.66821899
  0
VERTEX
  8
EGA-301.PLT
 62
7
 10
65.73100014
 20
7.60575022
  0
VERTEX
  8
EGA-301.PLT
 62
7
 10
65.75437533
 20
7.54140646
  0
VERTEX
  8
EGA-301.PLT
 62
7
 10
65.77100038
 20
7.47500003
  0
VERTEX
  8
EGA-301.PLT
 62
7
 10
65.77563707
 20
7.44345498
  0
VERTEX
  8
EGA-301.PLT
 62
7
 10
65.77790659
 20
7.41182797
  0
VERTEX
  8
EGA-301.PLT
 62
7
 10
65.77834799
 20
7.38013068
  0
VERTEX
  8
EGA-301.PLT
 62
7
 10
65.77750034
 20
7.34837483
  0
VERTEX
  8
EGA-301.PLT
 62
7
 10
65.77590270
 20
7.31657209
  0
VERTEX
  8
EGA-301.PLT
 62
7
 10
65.77409411
 20
7.28473419
  0
VERTEX
  8
EGA-301.PLT
 62
7
 10
65.77261365
 20
7.25287280
  0
VERTEX
  8
EGA-301.PLT
 62
7
 10
65.77200037
 20
7.22099962
  0
VERTEX
  8
EGA-301.PLT
 62
7
 10
65.77400036
 20
6.77600029
  0
VERTEX
  8
EGA-301.PLT
 62
7
 10
65.77500036
 20
6.43700036
  0
VERTEX
  8
EGA-301.PLT
 62
7
 10
65.75837545
 20
6.47512515
  0
VERTEX
  8
EGA-301.PLT
 62
7
 10
65.74400053
 20
6.51399992
  0
VERTEX
  8
EGA-301.PLT
 62
7
 10
65.72948864
 20
6.56266479
  0
VERTEX
  8
EGA-301.PLT
 62
7
 10
65.71854577
 20
6.61184649
  0
VERTEX
  8
EGA-301.PLT
 62
7
 10
65.71056040
 20
6.66145086
  0
VERTEX
  8
EGA-301.PLT
 62
7
 10
65.70492097
 20
6.71138375
  0
VERTEX
  8
EGA-301.PLT
 62
7
 10
65.70101595
 20
6.76155102
  0
VERTEX
  8
EGA-301.PLT
 62
7
 10
65.69823379
 20
6.81185851
  0
VERTEX
  8
EGA-301.PLT
 62
7
 10
65.69596297
 20
6.86221207
  0
VERTEX
  8
EGA-301.PLT
 62
7
 10
65.69359194
 20
6.91251756
  0
VERTEX
  8
EGA-301.PLT
 62
7
 10
65.69246818
 20
6.95207496
  0
VERTEX
  8
EGA-301.PLT
 62
7
 10
65.69247142
 20
6.99377210
  0
VERTEX
  8
EGA-301.PLT
 62
7
 10
65.69303851
 20
7.03689573
  0
VERTEX
  8
EGA-301.PLT
 62
7
 10
65.69360628
 20
7.08073261
  0
VERTEX
  8
EGA-301.PLT
 62
7
 10
65.69361154
 20
7.12456949
  0
VERTEX
  8
EGA-301.PLT
 62
7
 10
65.69249114
 20
7.16769312
  0
VERTEX
  8
EGA-301.PLT
 62
7
 10
65.68968190
 20
7.20939026
  0
VERTEX
  8
EGA-301.PLT
 62
7
 10
65.68462067
 20
7.24894766
  0
VERTEX
  8
EGA-301.PLT
 62
7
 10
65.67558037
 20
7.30016674
  0
VERTEX
  8
EGA-301.PLT
 62
7
 10
65.66491440
 20
7.34856526
  0
VERTEX
  8
EGA-301.PLT
 62
7
 10
65.65255526
 20
7.39488028
  0
VERTEX
  8
EGA-301.PLT
 62
7
 10
65.63843545
 20
7.43984887
  0
VERTEX
  8
EGA-301.PLT
 62
7
 10
65.62248749
 20
7.48420808
  0
VERTEX
  8
EGA-301.PLT
 62
7
 10
65.60464387
 20
7.52869499
  0
VERTEX
  8
EGA-301.PLT
 62
7
 10
65.58483711
 20
7.57404665
  0
VERTEX
  8
EGA-301.PLT
 62
7
 10
65.56299971
 20
7.62100013
  0
VERTEX
  8
EGA-301.PLT
 62
7
 10
65.53282796
 20
7.67919546
  0
VERTEX
  8
EGA-301.PLT
 62
7
 10
65.49974992
 20
7.73556268
  0
VERTEX
  8
EGA-301.PLT
 62
7
 10
65.46442185
 20
7.79052365
  0
VERTEX
  8
EGA-301.PLT
 62
7
 10
65.42750001
 20
7.84450025
  0
VERTEX
  8
EGA-301.PLT
 62
7
 10
65.38964068
 20
7.89791436
  0
VERTEX
  8
EGA-301.PLT
 62
7
 10
65.35150012
 20
7.95118784
  0
VERTEX
  8
EGA-301.PLT
 62
7
 10
65.31373461
 20
8.00474257
  0
VERTEX
  8
EGA-301.PLT
 62
7
 10
65.27700040
 20
8.05900043
  0
VERTEX
  8
EGA-301.PLT
 62
7
 10
65.22405504
 20
8.13834017
  0
VERTEX
  8
EGA-301.PLT
 62
7
 10
65.16993781
 20
8.21690648
  0
VERTEX
  8
EGA-301.PLT
 62
7
 10
65.11535184
 20
8.29514466
  0
VERTEX
  8
EGA-301.PLT
 62
7
 10
65.06100024
 20
8.37350003
  0
VERTEX
  8
EGA-301.PLT
 62
7
 10
65.00758613
 20
8.45241790
  0
VERTEX
  8
EGA-301.PLT
 62
7
 10
64.95581264
 20
8.53234358
  0
VERTEX
  8
EGA-301.PLT
 62
7
 10
64.90638288
 20
8.61372237
  0
VERTEX
  8
EGA-301.PLT
 62
7
 10
64.85999999
 20
8.69699959
  0
VERTEX
  8
EGA-301.PLT
 62
7
 10
64.81178137
 20
8.78979663
  0
VERTEX
  8
EGA-301.PLT
 62
7
 10
64.76600006
 20
8.88362492
  0
VERTEX
  8
EGA-301.PLT
 62
7
 10
64.72246874
 20
8.97839070
  0
VERTEX
  8
EGA-301.PLT
 62
7
 10
64.68100008
 20
9.07400023
  0
VERTEX
  8
EGA-301.PLT
 62
7
 10
64.65660959
 20
9.01043754
  0
VERTEX
  8
EGA-301.PLT
 62
7
 10
64.63587533
 20
8.94575003
  0
VERTEX
  8
EGA-301.PLT
 62
7
 10
64.61870355
 20
8.87993753
  0
VERTEX
  8
EGA-301.PLT
 62
7
 10
64.60500051
 20
8.81299986
  0
VERTEX
  8
EGA-301.PLT
 62
7
 10
64.59578127
 20
8.74007824
  0
VERTEX
  8
EGA-301.PLT
 62
7
 10
64.59124977
 20
8.66687511
  0
VERTEX
  8
EGA-301.PLT
 62
7
 10
64.59009343
 20
8.59348431
  0
VERTEX
  8
EGA-301.PLT
 62
7
 10
64.59099966
 20
8.51999967
  0
VERTEX
  8
EGA-301.PLT
 62
7
 10
64.59735914
 20
8.41370284
  0
VERTEX
  8
EGA-301.PLT
 62
7
 10
64.60962502
 20
8.30787494
  0
VERTEX
  8
EGA-301.PLT
 62
7
 10
64.62657836
 20
8.20260954
  0
VERTEX
  8
EGA-301.PLT
 62
7
 10
64.64700027
 20
8.09800021
  0
VERTEX
  8
EGA-301.PLT
 62
7
 10
64.66431853
 20
8.02103151
  0
VERTEX
  8
EGA-301.PLT
 62
7
 10
64.68392195
 20
7.94462524
  0
VERTEX
  8
EGA-301.PLT
 62
7
 10
64.70565819
 20
7.86878142
  0
VERTEX
  8
EGA-301.PLT
 62
7
 10
64.72937492
 20
7.79350008
  0
VERTEX
  8
EGA-301.PLT
 62
7
 10
64.75491981
 20
7.71878124
  0
VERTEX
  8
EGA-301.PLT
 62
7
 10
64.78214052
 20
7.64462491
  0
VERTEX
  8
EGA-301.PLT
 62
7
 10
64.81088473
 20
7.57103113
  0
VERTEX
  8
EGA-301.PLT
 62
7
 10
64.84100010
 20
7.49799990
  0
VERTEX
  8
EGA-301.PLT
 62
7
 10
64.87928144
 20
7.41172461
  0
VERTEX
  8
EGA-301.PLT
 62
7
 10
64.92037519
 20
7.32679691
  0
VERTEX
  8
EGA-301.PLT
 62
7
 10
64.96390640
 20
7.24306447
  0
VERTEX
  8
EGA-301.PLT
 62
7
 10
65.00950007
 20
7.16037497
  0
VERTEX
  8
EGA-301.PLT
 62
7
 10
65.05678123
 20
7.07857608
  0
VERTEX
  8
EGA-301.PLT
 62
7
 10
65.10537490
 20
6.99751550
  0
VERTEX
  8
EGA-301.PLT
 62
7
 10
65.15490611
 20
6.91704090
  0
VERTEX
  8
EGA-301.PLT
 62
7
 10
65.20499988
 20
6.83699995
  0
VERTEX
  8
EGA-301.PLT
 62
7
 10
65.25124216
 20
6.76627539
  0
VERTEX
  8
EGA-301.PLT
 62
7
 10
65.29950004
 20
6.69701567
  0
VERTEX
  8
EGA-301.PLT
 62
7
 10
65.34907042
 20
6.62871688
  0
VERTEX
  8
EGA-301.PLT
 62
7
 10
65.39925017
 20
6.56087512
  0
VERTEX
  8
EGA-301.PLT
 62
7
 10
65.44933617
 20
6.49298649
  0
VERTEX
  8
EGA-301.PLT
 62
7
 10
65.49862530
 20
6.42454708
  0
VERTEX
  8
EGA-301.PLT
 62
7
 10
65.54641444
 20
6.35505298
  0
VERTEX
  8
EGA-301.PLT
 62
7
 10
65.59200047
 20
6.28400030
  0
VERTEX
  8
EGA-301.PLT
 62
7
 10
65.61384996
 20
6.24931855
  0
VERTEX
  8
EGA-301.PLT
 62
7
 10
65.63629711
 20
6.21485952
  0
VERTEX
  8
EGA-301.PLT
 62
7
 10
65.65881459
 20
6.18037709
  0
VERTEX
  8
EGA-301.PLT
 62
7
 10
65.68087508
 20
6.14562516
  0
VERTEX
  8
EGA-301.PLT
 62
7
 10
65.70195124
 20
6.11035761
  0
VERTEX
  8
EGA-301.PLT
 62
7
 10
65.72151575
 20
6.07432831
  0
VERTEX
  8
EGA-301.PLT
 62
7
 10
65.73904127
 20
6.03729117
  0
VERTEX
  8
EGA-301.PLT
 62
7
 10
65.75400048
 20
5.99900007
  0
VERTEX
  8
EGA-301.PLT
 62
7
 10
65.76978164
 20
5.94823458
  0
VERTEX
  8
EGA-301.PLT
 62
7
 10
65.78275031
 20
5.89662518
  0
VERTEX
  8
EGA-301.PLT
 62
7
 10
65.79309400
 20
5.84445329
  0
VERTEX
  8
EGA-301.PLT
 62
7
 10
65.80100021
 20
5.79200031
  0
VERTEX
  8
EGA-301.PLT
 62
7
 10
65.80831267
 20
5.72659388
  0
VERTEX
  8
EGA-301.PLT
 62
7
 10
65.81225015
 20
5.66100013
  0
VERTEX
  8
EGA-301.PLT
 62
7
 10
65.81281264
 20
5.59540638
  0
VERTEX
  8
EGA-301.PLT
 62
7
 10
65.81000016
 20
5.52999995
  0
VERTEX
  8
EGA-301.PLT
 62
7
 10
65.81148453
 20
5.42801547
  0
VERTEX
  8
EGA-301.PLT
 62
7
 10
65.80837517
 20
5.32612483
  0
VERTEX
  8
EGA-301.PLT
 62
7
 10
65.80057834
 20
5.22442186
  0
VERTEX
  8
EGA-301.PLT
 62
7
 10
65.78800028
 20
5.12300040
  0
VERTEX
  8
EGA-301.PLT
 62
7
 10
65.76550041
 20
5.17187512
  0
VERTEX
  8
EGA-301.PLT
 62
7
 10
65.74900050
 20
5.22299983
  0
VERTEX
  8
EGA-301.PLT
 62
7
 10
65.73891850
 20
5.27832324
  0
VERTEX
  8
EGA-301.PLT
 62
7
 10
65.73398891
 20
5.33620918
  0
VERTEX
  8
EGA-301.PLT
 62
7
 10
65.73168447
 20
5.39428246
  0
VERTEX
  8
EGA-301.PLT
 62
7
 10
65.72947795
 20
5.45016784
  0
VERTEX
  8
EGA-301.PLT
 62
7
 10
65.72721301
 20
5.49726224
  0
VERTEX
  8
EGA-301.PLT
 62
7
 10
65.72532473
 20
5.54345419
  0
VERTEX
  8
EGA-301.PLT
 62
7
 10
65.72329696
 20
5.58898201
  0
VERTEX
  8
EGA-301.PLT
 62
7
 10
65.72061352
 20
5.63408400
  0
VERTEX
  8
EGA-301.PLT
 62
7
 10
65.71675826
 20
5.67899850
  0
VERTEX
  8
EGA-301.PLT
 62
7
 10
65.71121502
 20
5.72396381
  0
VERTEX
  8
EGA-301.PLT
 62
7
 10
65.70346761
 20
5.76921827
  0
VERTEX
  8
EGA-301.PLT
 62
7
 10
65.69299990
 20
5.81500018
  0
VERTEX
  8
EGA-301.PLT
 62
7
 10
65.67550390
 20
5.87661932
  0
VERTEX
  8
EGA-301.PLT
 62
7
 10
65.65596884
 20
5.93764081
  0
VERTEX
  8
EGA-301.PLT
 62
7
 10
65.63432440
 20
5.99793573
  0
VERTEX
  8
EGA-301.PLT
 62
7
 10
65.61050025
 20
6.05737520
  0
VERTEX
  8
EGA-301.PLT
 62
7
 10
65.58442607
 20
6.11583029
  0
VERTEX
  8
EGA-301.PLT
 62
7
 10
65.55603153
 20
6.17317211
  0
VERTEX
  8
EGA-301.PLT
 62
7
 10
65.52524632
 20
6.22927175
  0
VERTEX
  8
EGA-301.PLT
 62
7
 10
65.49200011
 20
6.28400030
  0
VERTEX
  8
EGA-301.PLT
 62
7
 10
65.46202367
 20
6.32665635
  0
VERTEX
  8
EGA-301.PLT
 62
7
 10
65.42956280
 20
6.36724999
  0
VERTEX
  8
EGA-301.PLT
 62
7
 10
65.39532063
 20
6.40634370
  0
VERTEX
  8
EGA-301.PLT
 62
7
 10
65.36000028
 20
6.44449997
  0
VERTEX
  8
EGA-301.PLT
 62
7
 10
65.32430489
 20
6.48228129
  0
VERTEX
  8
EGA-301.PLT
 62
7
 10
65.28893759
 20
6.52025014
  0
VERTEX
  8
EGA-301.PLT
 62
7
 10
65.25460151
 20
6.55896900
  0
VERTEX
  8
EGA-301.PLT
 62
7
 10
65.22199979
 20
6.59900037
  0
VERTEX
  8
EGA-301.PLT
 62
7
 10
65.17445314
 20
6.66025818
  0
VERTEX
  8
EGA-301.PLT
 62
7
 10
65.12737516
 20
6.72193787
  0
VERTEX
  8
EGA-301.PLT
 62
7
 10
65.08123462
 20
6.78427380
  0
VERTEX
  8
EGA-301.PLT
 62
7
 10
65.03650026
 20
6.84750035
  0
VERTEX
  8
EGA-301.PLT
 62
7
 10
64.99364085
 20
6.91185189
  0
VERTEX
  8
EGA-301.PLT
 62
7
 10
64.95312514
 20
6.97756281
  0
VERTEX
  8
EGA-301.PLT
 62
7
 10
64.91542189
 20
7.04486746
  0
VERTEX
  8
EGA-301.PLT
 62
7
 10
64.88099987
 20
7.11400023
  0
VERTEX
  8
EGA-301.PLT
 62
7
 10
64.83859384
 20
7.20942211
  0
VERTEX
  8
EGA-301.PLT
 62
7
 10
64.80125020
 20
7.30662506
  0
VERTEX
  8
EGA-301.PLT
 62
7
 10
64.76878136
 20
7.40551550
  0
VERTEX
  8
EGA-301.PLT
 62
7
 10
64.74099974
 20
7.50599986
  0
VERTEX
  8
EGA-301.PLT
 62
7
 10
64.71494910
 20
7.44545298
  0
VERTEX
  8
EGA-301.PLT
 62
7
 10
64.69159377
 20
7.38387486
  0
VERTEX
  8
EGA-301.PLT
 62
7
 10
64.67100404
 20
7.32135924
  0
VERTEX
  8
EGA-301.PLT
 62
7
 10
64.65325023
 20
7.25799987
  0
VERTEX
  8
EGA-301.PLT
 62
7
 10
64.63840266
 20
7.19389052
  0
VERTEX
  8
EGA-301.PLT
 62
7
 10
64.62653163
 20
7.12912491
  0
VERTEX
  8
EGA-301.PLT
 62
7
 10
64.61770747
 20
7.06379681
  0
VERTEX
  8
EGA-301.PLT
 62
7
 10
64.61200047
 20
6.99799996
  0
VERTEX
  8
EGA-301.PLT
 62
7
 10
64.60959201
 20
6.91348833
  0
VERTEX
  8
EGA-301.PLT
 62
7
 10
64.61317194
 20
6.82946883
  0
VERTEX
  8
EGA-301.PLT
 62
7
 10
64.62207227
 20
6.74596490
  0
VERTEX
  8
EGA-301.PLT
 62
7
 10
64.63562499
 20
6.66300001
  0
VERTEX
  8
EGA-301.PLT
 62
7
 10
64.65316210
 20
6.58059761
  0
VERTEX
  8
EGA-301.PLT
 62
7
 10
64.67401561
 20
6.49878117
  0
VERTEX
  8
EGA-301.PLT
 62
7
 10
64.69751752
 20
6.41757415
  0
VERTEX
  8
EGA-301.PLT
 62
7
 10
64.72299984
 20
6.33700000
  0
VERTEX
  8
EGA-301.PLT
 62
7
 10
64.74447645
 20
6.27564527
  0
VERTEX
  8
EGA-301.PLT
 62
7
 10
64.76862493
 20
6.21563086
  0
VERTEX
  8
EGA-301.PLT
 62
7
 10
64.79521089
 20
6.15684398
  0
VERTEX
  8
EGA-301.PLT
 62
7
 10
64.82399997
 20
6.09917185
  0
VERTEX
  8
EGA-301.PLT
 62
7
 10
64.85475780
 20
6.04250167
  0
VERTEX
  8
EGA-301.PLT
 62
7
 10
64.88725000
 20
5.98672066
  0
VERTEX
  8
EGA-301.PLT
 62
7
 10
64.92124219
 20
5.93171601
  0
VERTEX
  8
EGA-301.PLT
 62
7
 10
64.95650002
 20
5.87737495
  0
VERTEX
  8
EGA-301.PLT
 62
7
 10
64.99278910
 20
5.82358467
  0
VERTEX
  8
EGA-301.PLT
 62
7
 10
65.02987506
 20
5.77023239
  0
VERTEX
  8
EGA-301.PLT
 62
7
 10
65.06752353
 20
5.71720532
  0
VERTEX
  8
EGA-301.PLT
 62
7
 10
65.10550014
 20
5.66439066
  0
VERTEX
  8
EGA-301.PLT
 62
7
 10
65.14357052
 20
5.61167563
  0
VERTEX
  8
EGA-301.PLT
 62
7
 10
65.18150029
 20
5.55894744
  0
VERTEX
  8
EGA-301.PLT
 62
7
 10
65.21905508
 20
5.50609328
  0
VERTEX
  8
EGA-301.PLT
 62
7
 10
65.25600052
 20
5.45300038
  0
VERTEX
  8
EGA-301.PLT
 62
7
 10
65.34131270
 20
5.33443786
  0
VERTEX
  8
EGA-301.PLT
 62
7
 10
65.42925012
 20
5.21775033
  0
VERTEX
  8
EGA-301.PLT
 62
7
 10
65.51756271
 20
5.10143779
  0
VERTEX
  8
EGA-301.PLT
 62
7
 10
65.60400040
 20
4.98400026
  0
VERTEX
  8
EGA-301.PLT
 62
7
 10
65.64078146
 20
4.93546874
  0
VERTEX
  8
EGA-301.PLT
 62
7
 10
65.67850009
 20
4.88749988
  0
VERTEX
  8
EGA-301.PLT
 62
7
 10
65.71396892
 20
4.83803104
  0
VERTEX
  8
EGA-301.PLT
 62
7
 10
65.74400053
 20
4.78499954
  0
VERTEX
  8
EGA-301.PLT
 62
7
 10
65.76634416
 20
4.72921859
  0
VERTEX
  8
EGA-301.PLT
 62
7
 10
65.78325031
 20
4.67175007
  0
VERTEX
  8
EGA-301.PLT
 62
7
 10
65.79603149
 20
4.61315637
  0
VERTEX
  8
EGA-301.PLT
 62
7
 10
65.80600018
 20
4.55399992
  0
VERTEX
  8
EGA-301.PLT
 62
7
 10
65.81164077
 20
4.48875013
  0
VERTEX
  8
EGA-301.PLT
 62
7
 10
65.81212515
 20
4.42350008
  0
VERTEX
  8
EGA-301.PLT
 62
7
 10
65.80979703
 20
4.35824986
  0
VERTEX
  8
EGA-301.PLT
 62
7
 10
65.80700018
 20
4.29299955
  0
VERTEX
  8
EGA-301.PLT
 62
7
 10
65.80124905
 20
4.03716196
  0
VERTEX
  8
EGA-301.PLT
 62
7
 10
65.77545106
 20
4.10811168
  0
VERTEX
  8
EGA-301.PLT
 62
7
 10
65.75725515
 20
4.17936921
  0
VERTEX
  8
EGA-301.PLT
 62
7
 10
65.74462327
 20
4.25049756
  0
VERTEX
  8
EGA-301.PLT
 62
7
 10
65.73551735
 20
4.32105975
  0
VERTEX
  8
EGA-301.PLT
 62
7
 10
65.72789932
 20
4.39061880
  0
VERTEX
  8
EGA-301.PLT
 62
7
 10
65.71973111
 20
4.45873771
  0
VERTEX
  8
EGA-301.PLT
 62
7
 10
65.70897468
 20
4.52497951
  0
VERTEX
  8
EGA-301.PLT
 62
7
 10
65.69359194
 20
4.58890722
  0
VERTEX
  8
EGA-301.PLT
 62
7
 10
65.66704644
 20
4.67239063
  0
VERTEX
  8
EGA-301.PLT
 62
7
 10
65.63917111
 20
4.74820384
  0
VERTEX
  8
EGA-301.PLT
 62
7
 10
65.60660813
 20
4.82214189
  0
VERTEX
  8
EGA-301.PLT
 62
7
 10
65.56599969
 20
4.89999981
  0
VERTEX
  8
EGA-301.PLT
 62
7
 10
65.53096664
 20
4.95824788
  0
VERTEX
  8
EGA-301.PLT
 62
7
 10
65.49179683
 20
5.01348424
  0
VERTEX
  8
EGA-301.PLT
 62
7
 10
65.44950977
 20
5.06644718
  0
VERTEX
  8
EGA-301.PLT
 62
7
 10
65.40512502
 20
5.11787497
  0
VERTEX
  8
EGA-301.PLT
 62
7
 10
65.35966211
 20
5.16850589
  0
VERTEX
  8
EGA-301.PLT
 62
7
 10
65.31414057
 20
5.21907821
  0
VERTEX
  8
EGA-301.PLT
 62
7
 10
65.26957994
 20
5.27033022
  0
VERTEX
  8
EGA-301.PLT
 62
7
 10
65.22699976
 20
5.32300019
  0
VERTEX
  8
EGA-301.PLT
 62
7
 10
65.17565821
 20
5.38777361
  0
VERTEX
  8
EGA-301.PLT
 62
7
 10
65.12339081
 20
5.45193766
  0
VERTEX
  8
EGA-301.PLT
 62
7
 10
65.07095929
 20
5.51600795
  0
VERTEX
  8
EGA-301.PLT
 62
7
 10
65.01912536
 20
5.58050012
  0
VERTEX
  8
EGA-301.PLT
 62
7
 10
64.96865075
 20
5.64592979
  0
VERTEX
  8
EGA-301.PLT
 62
7
 10
64.92029720
 20
5.71281257
  0
VERTEX
  8
EGA-301.PLT
 62
7
 10
64.87482642
 20
5.78166409
  0
VERTEX
  8
EGA-301.PLT
 62
7
 10
64.83300014
 20
5.85299997
  0
VERTEX
  8
EGA-301.PLT
 62
7
 10
64.78348465
 20
5.94800011
  0
VERTEX
  8
EGA-301.PLT
 62
7
 10
64.73837521
 20
6.04525015
  0
VERTEX
  8
EGA-301.PLT
 62
7
 10
64.69757825
 20
6.14437501
  0
VERTEX
  8
EGA-301.PLT
 62
7
 10
64.66100019
 20
6.24499960
  0
VERTEX
  8
EGA-301.PLT
 62
7
 10
64.60100053
 20
5.90299968
  0
VERTEX
  8
EGA-301.PLT
 62
7
 10
64.59996707
 20
5.82223417
  0
VERTEX
  8
EGA-301.PLT
 62
7
 10
64.60210951
 20
5.74081239
  0
VERTEX
  8
EGA-301.PLT
 62
7
 10
64.60741610
 20
5.65817186
  0
VERTEX
  8
EGA-301.PLT
 62
7
 10
64.61587510
 20
5.57375005
  0
VERTEX
  8
EGA-301.PLT
 62
7
 10
64.62747474
 20
5.48698445
  0
VERTEX
  8
EGA-301.PLT
 62
7
 10
64.64220329
 20
5.39731258
  0
VERTEX
  8
EGA-301.PLT
 62
7
 10
64.66004898
 20
5.30417190
  0
VERTEX
  8
EGA-301.PLT
 62
7
 10
64.68100008
 20
5.20699993
  0
VERTEX
  8
EGA-301.PLT
 62
7
 10
64.71118549
 20
5.11322663
  0
VERTEX
  8
EGA-301.PLT
 62
7
 10
64.74660924
 20
5.02156264
  0
VERTEX
  8
EGA-301.PLT
 62
7
 10
64.78669708
 20
4.93186734
  0
VERTEX
  8
EGA-301.PLT
 62
7
 10
64.83087481
 20
4.84400013
  0
VERTEX
  8
EGA-301.PLT
 62
7
 10
64.87856817
 20
4.75782041
  0
VERTEX
  8
EGA-301.PLT
 62
7
 10
64.92920297
 20
4.67318759
  0
VERTEX
  8
EGA-301.PLT
 62
7
 10
64.98220495
 20
4.58996104
  0
VERTEX
  8
EGA-301.PLT
 62
7
 10
65.03699991
 20
4.50800018
  0
VERTEX
  8
EGA-301.PLT
 62
7
 10
65.09962494
 20
4.42327540
  0
VERTEX
  8
EGA-301.PLT
 62
7
 10
65.16731251
 20
4.34301551
  0
VERTEX
  8
EGA-301.PLT
 62
7
 10
65.23865635
 20
4.26596661
  0
VERTEX
  8
EGA-301.PLT
 62
7
 10
65.31225020
 20
4.19087478
  0
VERTEX
  8
EGA-301.PLT
 62
7
 10
65.38668780
 20
4.11648612
  0
VERTEX
  8
EGA-301.PLT
 62
7
 10
65.46056287
 20
4.04154671
  0
VERTEX
  8
EGA-301.PLT
 62
7
 10
65.53246917
 20
3.96480264
  0
VERTEX
  8
EGA-301.PLT
 62
7
 10
65.60100042
 20
3.88500001
  0
VERTEX
  8
EGA-301.PLT
 62
7
 10
65.62215264
 20
3.85982238
  0
VERTEX
  8
EGA-301.PLT
 62
7
 10
65.64403144
 20
3.83507827
  0
VERTEX
  8
EGA-301.PLT
 62
7
 10
65.66614463
 20
3.81045131
  0
VERTEX
  8
EGA-301.PLT
 62
7
 10
65.68800004
 20
3.78562511
  0
VERTEX
  8
EGA-301.PLT
 62
7
 10
65.70910550
 20
3.76028329
  0
VERTEX
  8
EGA-301.PLT
 62
7
 10
65.72896883
 20
3.73410946
  0
VERTEX
  8
EGA-301.PLT
 62
7
 10
65.74709787
 20
3.70678724
  0
VERTEX
  8
EGA-301.PLT
 62
7
 10
65.76300042
 20
3.67800026
  0
VERTEX
  8
EGA-301.PLT
 62
7
 10
65.78020258
 20
3.64027573
  0
VERTEX
  8
EGA-301.PLT
 62
7
 10
65.79479261
 20
3.60226757
  0
VERTEX
  8
EGA-301.PLT
 62
7
 10
65.80694297
 20
3.56390505
  0
VERTEX
  8
EGA-301.PLT
 62
7
 10
65.81682609
 20
3.52511745
  0
VERTEX
  8
EGA-301.PLT
 62
7
 10
65.82461442
 20
3.48583405
  0
VERTEX
  8
EGA-301.PLT
 62
7
 10
65.83048040
 20
3.44598411
  0
VERTEX
  8
EGA-301.PLT
 62
7
 10
65.83459647
 20
3.40549692
  0
VERTEX
  8
EGA-301.PLT
 62
7
 10
65.83713507
 20
3.36430176
  0
VERTEX
  8
EGA-301.PLT
 62
7
 10
65.83706754
 20
3.29015058
  0
VERTEX
  8
EGA-301.PLT
 62
7
 10
65.83400002
 20
3.21600010
  0
VERTEX
  8
EGA-301.PLT
 62
7
 10
65.82262509
 20
3.26903119
  0
VERTEX
  8
EGA-301.PLT
 62
7
 10
65.80825017
 20
3.32149996
  0
VERTEX
  8
EGA-301.PLT
 62
7
 10
65.79125026
 20
3.37321874
  0
VERTEX
  8
EGA-301.PLT
 62
7
 10
65.77200037
 20
3.42399985
  0
VERTEX
  8
EGA-301.PLT
 62
7
 10
65.73809378
 20
3.49695311
  0
VERTEX
  8
EGA-301.PLT
 62
7
 10
65.69799998
 20
3.56662496
  0
VERTEX
  8
EGA-301.PLT
 62
7
 10
65.65415638
 20
3.63423433
  0
VERTEX
  8
EGA-301.PLT
 62
7
 10
65.60900037
 20
3.70100013
  0
VERTEX
  8
EGA-301.PLT
 62
7
 10
65.56454910
 20
3.76256263
  0
VERTEX
  8
EGA-301.PLT
 62
7
 10
65.51720332
 20
3.82168764
  0
VERTEX
  8
EGA-301.PLT
 62
7
 10
65.46772474
 20
3.87903141
  0
VERTEX
  8
EGA-301.PLT
 62
7
 10
65.41687507
 20
3.93525019
  0
VERTEX
  8
EGA-301.PLT
 62
7
 10
65.36541603
 20
3.99100022
  0
VERTEX
  8
EGA-301.PLT
 62
7
 10
65.31410934
 20
4.04693775
  0
VERTEX
  8
EGA-301.PLT
 62
7
 10
65.26371670
 20
4.10371903
  0
VERTEX
  8
EGA-301.PLT
 62
7
 10
65.21499983
 20
4.16200029
  0
VERTEX
  8
EGA-301.PLT
 62
7
 10
65.12059395
 20
4.27967219
  0
VERTEX
  8
EGA-301.PLT
 62
7
 10
65.02675032
 20
4.39837534
  0
VERTEX
  8
EGA-301.PLT
 62
7
 10
64.93628148
 20
4.51989097
  0
VERTEX
  8
EGA-301.PLT
 62
7
 10
64.85200003
 20
4.64600033
  0
VERTEX
  8
EGA-301.PLT
 62
7
 10
64.78790650
 20
4.75435964
  0
VERTEX
  8
EGA-301.PLT
 62
7
 10
64.72775027
 20
4.86487501
  0
VERTEX
  8
EGA-301.PLT
 62
7
 10
64.67171902
 20
4.97745288
  0
VERTEX
  8
EGA-301.PLT
 62
7
 10
64.62000042
 20
5.09199965
  0
VERTEX
  8
EGA-301.PLT
 62
7
 10
64.60738691
 20
4.99995486
  0
VERTEX
  8
EGA-301.PLT
 62
7
 10
64.59878127
 20
4.90764048
  0
VERTEX
  8
EGA-301.PLT
 62
7
 10
64.59416007
 20
4.81516199
  0
VERTEX
  8
EGA-301.PLT
 62
7
 10
64.59349988
 20
4.72262489
  0
VERTEX
  8
EGA-301.PLT
 62
7
 10
64.59677725
 20
4.63013467
  0
VERTEX
  8
EGA-301.PLT
 62
7
 10
64.60396874
 20
4.53779680
  0
VERTEX
  8
EGA-301.PLT
 62
7
 10
64.61505093
 20
4.44571679
  0
VERTEX
  8
EGA-301.PLT
 62
7
 10
64.63000036
 20
4.35400013
  0
VERTEX
  8
EGA-301.PLT
 62
7
 10
64.65404715
 20
4.24344147
  0
VERTEX
  8
EGA-301.PLT
 62
7
 10
64.68400022
 20
4.13459375
  0
VERTEX
  8
EGA-301.PLT
 62
7
 10
64.71957832
 20
4.02757416
  0
VERTEX
  8
EGA-301.PLT
 62
7
 10
64.76050020
 20
3.92249991
  0
VERTEX
  8
EGA-301.PLT
 62
7
 10
64.80648460
 20
3.81948819
  0
VERTEX
  8
EGA-301.PLT
 62
7
 10
64.85725025
 20
3.71865621
  0
VERTEX
  8
EGA-301.PLT
 62
7
 10
64.91251590
 20
3.62012114
  0
VERTEX
  8
EGA-301.PLT
 62
7
 10
64.97200028
 20
3.52400020
  0
VERTEX
  8
EGA-301.PLT
 62
7
 10
65.05323435
 20
3.40414081
  0
VERTEX
  8
EGA-301.PLT
 62
7
 10
65.14187489
 20
3.28662516
  0
VERTEX
  8
EGA-301.PLT
 62
7
 10
65.23707807
 20
3.17454698
  0
VERTEX
  8
EGA-301.PLT
 62
7
 10
65.33800006
 20
3.07099999
  0
VERTEX
  8
EGA-301.PLT
 62
7
 10
66.55699963
 20
3.07000000
  0
VERTEX
  8
EGA-301.PLT
 62
7
 10
66.61162513
 20
3.16212494
  0
VERTEX
  8
EGA-301.PLT
 62
7
 10
66.66399995
 20
3.25499988
  0
VERTEX
  8
EGA-301.PLT
 62
7
 10
66.71665039
 20
3.35289646
  0
VERTEX
  8
EGA-301.PLT
 62
7
 10
66.76776566
 20
3.45167188
  0
VERTEX
  8
EGA-301.PLT
 62
7
 10
66.81684187
 20
3.55145507
  0
VERTEX
  8
EGA-301.PLT
 62
7
 10
66.86337509
 20
3.65237494
  0
VERTEX
  8
EGA-301.PLT
 62
7
 10
66.90686141
 20
3.75456043
  0
VERTEX
  8
EGA-301.PLT
 62
7
 10
66.94679691
 20
3.85814047
  0
VERTEX
  8
EGA-301.PLT
 62
7
 10
66.98267769
 20
3.96324398
  0
VERTEX
  8
EGA-301.PLT
 62
7
 10
67.01399982
 20
4.06999989
  0
VERTEX
  8
EGA-301.PLT
 62
7
 10
67.03569922
 20
4.15118927
  0
VERTEX
  8
EGA-301.PLT
 62
7
 10
67.05615636
 20
4.23276543
  0
VERTEX
  8
EGA-301.PLT
 62
7
 10
67.07478533
 20
4.31474007
  0
VERTEX
  8
EGA-301.PLT
 62
7
 10
67.09100019
 20
4.39712489
  0
VERTEX
  8
EGA-301.PLT
 62
7
 10
67.10421503
 20
4.47993157
  0
VERTEX
  8
EGA-301.PLT
 62
7
 10
67.11384391
 20
4.56317183
  0
VERTEX
  8
EGA-301.PLT
 62
7
 10
67.11930092
 20
4.64685736
  0
VERTEX
  8
EGA-301.PLT
 62
7
 10
67.12000014
 20
4.73099985
  0
VERTEX
  8
EGA-301.PLT
 62
7
 10
67.11529704
 20
4.82770312
  0
VERTEX
  8
EGA-301.PLT
 62
7
 10
67.10562522
 20
4.92412514
  0
VERTEX
  8
EGA-301.PLT
 62
7
 10
67.09089093
 20
5.01998467
  0
VERTEX
  8
EGA-301.PLT
 62
7
 10
67.07100042
 20
5.11500045
  0
VERTEX
  8
EGA-301.PLT
 62
7
 10
67.05103343
 20
5.04155294
  0
VERTEX
  8
EGA-301.PLT
 62
7
 10
67.02864073
 20
4.96898442
  0
VERTEX
  8
EGA-301.PLT
 62
7
 10
67.00383404
 20
4.89733002
  0
VERTEX
  8
EGA-301.PLT
 62
7
 10
66.97662503
 20
4.82662488
  0
VERTEX
  8
EGA-301.PLT
 62
7
 10
66.94702541
 20
4.75690416
  0
VERTEX
  8
EGA-301.PLT
 62
7
 10
66.91504688
 20
4.68820300
  0
VERTEX
  8
EGA-301.PLT
 62
7
 10
66.88070113
 20
4.62055653
  0
VERTEX
  8
EGA-301.PLT
 62
7
 10
66.84399985
 20
4.55399992
  0
VERTEX
  8
EGA-301.PLT
 62
7
 10
66.80109966
 20
4.48562106
  0
VERTEX
  8
EGA-301.PLT
 62
7
 10
66.75410958
 20
4.42021874
  0
VERTEX
  8
EGA-301.PLT
 62
7
 10
66.70409601
 20
4.35701953
  0
VERTEX
  8
EGA-301.PLT
 62
7
 10
66.65212536
 20
4.29525000
  0
VERTEX
  8
EGA-301.PLT
 62
7
 10
66.59926405
 20
4.23413672
  0
VERTEX
  8
EGA-301.PLT
 62
7
 10
66.54657849
 20
4.17290625
  0
VERTEX
  8
EGA-301.PLT
 62
7
 10
66.49513509
 20
4.11078516
  0
VERTEX
  8
EGA-301.PLT
 62
7
 10
66.44600026
 20
4.04700002
  0
VERTEX
  8
EGA-301.PLT
 62
7
 10
66.40000603
 20
3.98642775
  0
VERTEX
  8
EGA-301.PLT
 62
7
 10
66.35273448
 20
3.92654688
  0
VERTEX
  8
EGA-301.PLT
 62
7
 10
66.30525202
 20
3.86673633
  0
VERTEX
  8
EGA-301.PLT
 62
7
 10
66.25862505
 20
3.80637499
  0
VERTEX
  8
EGA-301.PLT
 62
7
 10
66.21391998
 20
3.74484179
  0
VERTEX
  8
EGA-301.PLT
 62
7
 10
66.17220324
 20
3.68151563
  0
VERTEX
  8
EGA-301.PLT
 62
7
 10
66.13454123
 20
3.61577542
  0
VERTEX
  8
EGA-301.PLT
 62
7
 10
66.10200036
 20
3.54700007
  0
VERTEX
  8
EGA-301.PLT
 62
7
 10
66.06546878
 20
3.45199993
  0
VERTEX
  8
EGA-301.PLT
 62
7
 10
66.03549992
 20
3.35474989
  0
VERTEX
  8
EGA-301.PLT
 62
7
 10
66.01228120
 20
3.25562503
  0
VERTEX
  8
EGA-301.PLT
 62
7
 10
65.99600003
 20
3.15500044
  0
VERTEX
  8
EGA-301.PLT
 62
7
 10
65.99374452
 20
3.22618581
  0
VERTEX
  8
EGA-301.PLT
 62
7
 10
65.98908240
 20
3.30899402
  0
VERTEX
  8
EGA-301.PLT
 62
7
 10
65.98517028
 20
3.39180224
  0
VERTEX
  8
EGA-301.PLT
 62
7
 10
65.98516475
 20
3.46298760
  0
VERTEX
  8
EGA-301.PLT
 62
7
 10
65.98839554
 20
3.51994225
  0
VERTEX
  8
EGA-301.PLT
 62
7
 10
65.99325328
 20
3.55936714
  0
VERTEX
  8
EGA-301.PLT
 62
7
 10
66.00373599
 20
3.59785454
  0
VERTEX
  8
EGA-301.PLT
 62
7
 10
66.02384169
 20
3.65199670
  0
VERTEX
  8
EGA-301.PLT
 62
7
 10
66.04139725
 20
3.69015294
  0
VERTEX
  8
EGA-301.PLT
 62
7
 10
66.06338195
 20
3.72737200
  0
VERTEX
  8
EGA-301.PLT
 62
7
 10
66.08877252
 20
3.76365379
  0
VERTEX
  8
EGA-301.PLT
 62
7
 10
66.11654572
 20
3.79899818
  0
VERTEX
  8
EGA-301.PLT
 62
7
 10
66.14567828
 20
3.83340509
  0
VERTEX
  8
EGA-301.PLT
 62
7
 10
66.17514695
 20
3.86687439
  0
VERTEX
  8
EGA-301.PLT
 62
7
 10
66.20392849
 20
3.89940598
  0
VERTEX
  8
EGA-301.PLT
 62
7
 10
66.23099962
 20
3.93099975
  0
VERTEX
  8
EGA-301.PLT
 62
7
 10
66.28518326
 20
3.99589817
  0
VERTEX
  8
EGA-301.PLT
 62
7
 10
66.34009345
 20
4.06037473
  0
VERTEX
  8
EGA-301.PLT
 62
7
 10
66.39514427
 20
4.12485130
  0
VERTEX
  8
EGA-301.PLT
 62
7
 10
66.44974977
 20
4.18974979
  0
VERTEX
  8
EGA-301.PLT
 62
7
 10
66.50332404
 20
4.25549206
  0
VERTEX
  8
EGA-301.PLT
 62
7
 10
66.55528112
 20
4.32250000
  0
VERTEX
  8
EGA-301.PLT
 62
7
 10
66.60503509
 20
4.39119550
  0
VERTEX
  8
EGA-301.PLT
 62
7
 10
66.65200002
 20
4.46200044
  0
VERTEX
  8
EGA-301.PLT
 62
7
 10
66.71790428
 20
4.57074436
  0
VERTEX
  8
EGA-301.PLT
 62
7
 10
66.77967185
 20
4.68170318
  0
VERTEX
  8
EGA-301.PLT
 62
7
 10
66.83700973
 20
4.79484174
  0
VERTEX
  8
EGA-301.PLT
 62
7
 10
66.88962494
 20
4.91012487
  0
VERTEX
  8
EGA-301.PLT
 62
7
 10
66.93722452
 20
5.02751741
  0
VERTEX
  8
EGA-301.PLT
 62
7
 10
66.97951548
 20
5.14698419
  0
VERTEX
  8
EGA-301.PLT
 62
7
 10
67.01620484
 20
5.26849004
  0
VERTEX
  8
EGA-301.PLT
 62
7
 10
67.04699963
 20
5.39199980
  0
VERTEX
  8
EGA-301.PLT
 62
7
 10
67.07010918
 20
5.50569126
  0
VERTEX
  8
EGA-301.PLT
 62
7
 10
67.08843743
 20
5.62015615
  0
VERTEX
  8
EGA-301.PLT
 62
7
 10
67.10198439
 20
5.73523041
  0
VERTEX
  8
EGA-301.PLT
 62
7
 10
67.11075008
 20
5.85074998
  0
VERTEX
  8
EGA-301.PLT
 62
7
 10
67.11473450
 20
5.96655080
  0
VERTEX
  8
EGA-301.PLT
 62
7
 10
67.11393766
 20
6.08246881
  0
VERTEX
  8
EGA-301.PLT
 62
7
 10
67.10835958
 20
6.19833994
  0
VERTEX
  8
EGA-301.PLT
 62
7
 10
67.09800027
 20
6.31400013
  0
VERTEX
  8
EGA-301.PLT
 62
7
 10
67.08413507
 20
6.24726188
  0
VERTEX
  8
EGA-301.PLT
 62
7
 10
67.06732842
 20
6.18134394
  0
VERTEX
  8
EGA-301.PLT
 62
7
 10
67.04763893
 20
6.11631662
  0
VERTEX
  8
EGA-301.PLT
 62
7
 10
67.02512522
 20
6.05225023
  0
VERTEX
  8
EGA-301.PLT
 62
7
 10
66.99984589
 20
5.98921508
  0
VERTEX
  8
EGA-301.PLT
 62
7
 10
66.97185957
 20
5.92728149
  0
VERTEX
  8
EGA-301.PLT
 62
7
 10
66.94122488
 20
5.86651977
  0
VERTEX
  8
EGA-301.PLT
 62
7
 10
66.90800042
 20
5.80700023
  0
VERTEX
  8
EGA-301.PLT
 62
7
 10
66.85437517
 20
5.72596876
  0
VERTEX
  8
EGA-301.PLT
 62
7
 10
66.79475013
 20
5.64924985
  0
VERTEX
  8
EGA-301.PLT
 62
7
 10
66.73250011
 20
5.57440610
  0
VERTEX
  8
EGA-301.PLT
 62
7
 10
66.67099991
 20
5.49900012
  0
VERTEX
  8
EGA-301.PLT
 62
7
 10
66.58725022
 20
5.39467189
  0
VERTEX
  8
EGA-301.PLT
 62
7
 10
66.50200029
 20
5.29137491
  0
VERTEX
  8
EGA-301.PLT
 62
7
 10
66.41900016
 20
5.18639044
  0
VERTEX
  8
EGA-301.PLT
 62
7
 10
66.34199992
 20
5.07699974
  0
VERTEX
  8
EGA-301.PLT
 62
7
 10
66.30383994
 20
5.01841183
  0
VERTEX
  8
EGA-301.PLT
 62
7
 10
66.26621896
 20
4.95948408
  0
VERTEX
  8
EGA-301.PLT
 62
7
 10
66.22967605
 20
4.89997040
  0
VERTEX
  8
EGA-301.PLT
 62
7
 10
66.19475029
 20
4.83962469
  0
VERTEX
  8
EGA-301.PLT
 62
7
 10
66.16198078
 20
4.77820087
  0
VERTEX
  8
EGA-301.PLT
 62
7
 10
66.13190658
 20
4.71545283
  0
VERTEX
  8
EGA-301.PLT
 62
7
 10
66.10506678
 20
4.65113449
  0
VERTEX
  8
EGA-301.PLT
 62
7
 10
66.08200047
 20
4.58499975
  0
VERTEX
  8
EGA-301.PLT
 62
7
 10
66.06777557
 20
4.53010986
  0
VERTEX
  8
EGA-301.PLT
 62
7
 10
66.05811823
 20
4.47544306
  0
VERTEX
  8
EGA-301.PLT
 62
7
 10
66.05192871
 20
4.42062854
  0
VERTEX
  8
EGA-301.PLT
 62
7
 10
66.04810727
 20
4.36529551
  0
VERTEX
  8
EGA-301.PLT
 62
7
 10
66.04555419
 20
4.30907316
  0
VERTEX
  8
EGA-301.PLT
 62
7
 10
66.04316972
 20
4.25159069
  0
VERTEX
  8
EGA-301.PLT
 62
7
 10
66.03985412
 20
4.19247729
  0
VERTEX
  8
EGA-301.PLT
 62
7
 10
66.03450768
 20
4.13136217
  0
VERTEX
  8
EGA-301.PLT
 62
7
 10
66.02423261
 20
4.05319270
  0
VERTEX
  8
EGA-301.PLT
 62
7
 10
66.00946781
 20
3.97501951
  0
VERTEX
  8
EGA-301.PLT
 62
7
 10
65.98909607
 20
3.89817719
  0
VERTEX
  8
EGA-301.PLT
 62
7
 10
65.96200022
 20
3.82400036
  0
VERTEX
  8
EGA-301.PLT
 62
7
 10
65.95829712
 20
3.98525015
  0
VERTEX
  8
EGA-301.PLT
 62
7
 10
65.95787525
 20
4.14650003
  0
VERTEX
  8
EGA-301.PLT
 62
7
 10
65.96101585
 20
4.30775009
  0
VERTEX
  8
EGA-301.PLT
 62
7
 10
65.96800019
 20
4.46900040
  0
VERTEX
  8
EGA-301.PLT
 62
7
 10
65.96986946
 20
4.50390045
  0
VERTEX
  8
EGA-301.PLT
 62
7
 10
65.97129470
 20
4.53758895
  0
VERTEX
  8
EGA-301.PLT
 62
7
 10
65.97275206
 20
4.57042290
  0
VERTEX
  8
EGA-301.PLT
 62
7
 10
65.97471766
 20
4.60275924
  0
VERTEX
  8
EGA-301.PLT
 62
7
 10
65.97766762
 20
4.63495497
  0
VERTEX
  8
EGA-301.PLT
 62
7
 10
65.98207809
 20
4.66736704
  0
VERTEX
  8
EGA-301.PLT
 62
7
 10
65.98842518
 20
4.70035243
  0
VERTEX
  8
EGA-301.PLT
 62
7
 10
65.99718504
 20
4.73426810
  0
VERTEX
  8
EGA-301.PLT
 62
7
 10
66.01472132
 20
4.78588149
  0
VERTEX
  8
EGA-301.PLT
 62
7
 10
66.03725130
 20
4.84048038
  0
VERTEX
  8
EGA-301.PLT
 62
7
 10
66.06240644
 20
4.89395410
  0
VERTEX
  8
EGA-301.PLT
 62
7
 10
66.08781820
 20
4.94219199
  0
VERTEX
  8
EGA-301.PLT
 62
7
 10
66.12226728
 20
4.99824625
  0
VERTEX
  8
EGA-301.PLT
 62
7
 10
66.16050267
 20
5.05016201
  0
VERTEX
  8
EGA-301.PLT
 62
7
 10
66.20160602
 20
5.09906876
  0
VERTEX
  8
EGA-301.PLT
 62
7
 10
66.24465901
 20
5.14609601
  0
VERTEX
  8
EGA-301.PLT
 62
7
 10
66.28874328
 20
5.19237327
  0
VERTEX
  8
EGA-301.PLT
 62
7
 10
66.33294049
 20
5.23903004
  0
VERTEX
  8
EGA-301.PLT
 62
7
 10
66.37633232
 20
5.28719582
  0
VERTEX
  8
EGA-301.PLT
 62
7
 10
66.41800042
 20
5.33800011
  0
VERTEX
  8
EGA-301.PLT
 62
7
 10
66.48980309
 20
5.43172458
  0
VERTEX
  8
EGA-301.PLT
 62
7
 10
66.56060968
 20
5.52642177
  0
VERTEX
  8
EGA-301.PLT
 62
7
 10
66.62951784
 20
5.62250183
  0
VERTEX
  8
EGA-301.PLT
 62
7
 10
66.69562523
 20
5.72037491
  0
VERTEX
  8
EGA-301.PLT
 62
7
 10
66.75802952
 20
5.82045114
  0
VERTEX
  8
EGA-301.PLT
 62
7
 10
66.81582837
 20
5.92314067
  0
VERTEX
  8
EGA-301.PLT
 62
7
 10
66.86811944
 20
6.02885365
  0
VERTEX
  8
EGA-301.PLT
 62
7
 10
66.91400038
 20
6.13800020
  0
VERTEX
  8
EGA-301.PLT
 62
7
 10
66.94384201
 20
6.21879306
  0
VERTEX
  8
EGA-301.PLT
 62
7
 10
66.97048445
 20
6.30059374
  0
VERTEX
  8
EGA-301.PLT
 62
7
 10
66.99410349
 20
6.38328506
  0
VERTEX
  8
EGA-301.PLT
 62
7
 10
67.01487493
 20
6.46674985
  0
VERTEX
  8
EGA-301.PLT
 62
7
 10
67.03297454
 20
6.55087092
  0
VERTEX
  8
EGA-301.PLT
 62
7
 10
67.04857814
 20
6.63553111
  0
VERTEX
  8
EGA-301.PLT
 62
7
 10
67.06186149
 20
6.72061323
  0
VERTEX
  8
EGA-301.PLT
 62
7
 10
67.07300041
 20
6.80600012
  0
VERTEX
  8
EGA-301.PLT
 62
7
 10
67.08471909
 20
6.91937517
  0
VERTEX
  8
EGA-301.PLT
 62
7
 10
67.09212528
 20
7.03293771
  0
VERTEX
  8
EGA-301.PLT
 62
7
 10
67.09521898
 20
7.14659398
  0
VERTEX
  8
EGA-301.PLT
 62
7
 10
67.09400017
 20
7.26025021
  0
VERTEX
  8
EGA-301.PLT
 62
7
 10
67.08846884
 20
7.37381265
  0
VERTEX
  8
EGA-301.PLT
 62
7
 10
67.07862499
 20
7.48718754
  0
VERTEX
  8
EGA-301.PLT
 62
7
 10
67.06446859
 20
7.60028111
  0
VERTEX
  8
EGA-301.PLT
 62
7
 10
67.04599964
 20
7.71299961
  0
VERTEX
  8
EGA-301.PLT
 62
7
 10
66.97000007
 20
7.53699968
  0
VERTEX
  8
EGA-301.PLT
 62
7
 10
66.94317208
 20
7.46964054
  0
VERTEX
  8
EGA-301.PLT
 62
7
 10
66.91812524
 20
7.40162499
  0
VERTEX
  8
EGA-301.PLT
 62
7
 10
66.89251574
 20
7.33379693
  0
VERTEX
  8
EGA-301.PLT
 62
7
 10
66.86399974
 20
7.26700029
  0
VERTEX
  8
EGA-301.PLT
 62
7
 10
66.82092185
 20
7.17821886
  0
VERTEX
  8
EGA-301.PLT
 62
7
 10
66.77362514
 20
7.09150001
  0
VERTEX
  8
EGA-301.PLT
 62
7
 10
66.72351577
 20
7.00628132
  0
VERTEX
  8
EGA-301.PLT
 62
7
 10
66.67199990
 20
6.92200039
  0
VERTEX
  8
EGA-301.PLT
 62
7
 10
66.63437898
 20
6.86360975
  0
VERTEX
  8
EGA-301.PLT
 62
7
 10
66.59471893
 20
6.80662535
  0
VERTEX
  8
EGA-301.PLT
 62
7
 10
66.55369945
 20
6.75057844
  0
VERTEX
  8
EGA-301.PLT
 62
7
 10
66.51200023
 20
6.69500029
  0
VERTEX
  8
EGA-301.PLT
 62
7
 10
66.47030097
 20
6.63942213
  0
VERTEX
  8
EGA-301.PLT
 62
7
 10
66.42928136
 20
6.58337523
  0
VERTEX
  8
EGA-301.PLT
 62
7
 10
66.38962109
 20
6.52639083
  0
VERTEX
  8
EGA-301.PLT
 62
7
 10
66.35199986
 20
6.46800019
  0
VERTEX
  8
EGA-301.PLT
 62
7
 10
66.31648049
 20
6.40959197
  0
VERTEX
  8
EGA-301.PLT
 62
7
 10
66.28084387
 20
6.35117203
  0
VERTEX
  8
EGA-301.PLT
 62
7
 10
66.24572283
 20
6.29244740
  0
VERTEX
  8
EGA-301.PLT
 62
7
 10
66.21175020
 20
6.23312513
  0
VERTEX
  8
EGA-301.PLT
 62
7
 10
66.17955880
 20
6.17291223
  0
VERTEX
  8
EGA-301.PLT
 62
7
 10
66.14978148
 20
6.11151575
  0
VERTEX
  8
EGA-301.PLT
 62
7
 10
66.12305106
 20
6.04864271
  0
VERTEX
  8
EGA-301.PLT
 62
7
 10
66.10000037
 20
5.98400015
  0
VERTEX
  8
EGA-301.PLT
 62
7
 10
66.08540221
 20
5.93230523
  0
VERTEX
  8
EGA-301.PLT
 62
7
 10
66.07415522
 20
5.88126302
  0
VERTEX
  8
EGA-301.PLT
 62
7
 10
66.06557984
 20
5.83056220
  0
VERTEX
  8
EGA-301.PLT
 62
7
 10
66.05899655
 20
5.77989145
  0
VERTEX
  8
EGA-301.PLT
 62
7
 10
66.05372579
 20
5.72893946
  0
VERTEX
  8
EGA-301.PLT
 62
7
 10
66.04908803
 20
5.67739490
  0
VERTEX
  8
EGA-301.PLT
 62
7
 10
66.04440372
 20
5.62494644
  0
VERTEX
  8
EGA-301.PLT
 62
7
 10
66.03899331
 20
5.57128278
  0
VERTEX
  8
EGA-301.PLT
 62
7
 10
66.03490377
 20
5.52345613
  0
VERTEX
  8
EGA-301.PLT
 62
7
 10
66.03252561
 20
5.47409793
  0
VERTEX
  8
EGA-301.PLT
 62
7
 10
66.03094462
 20
5.42376557
  0
VERTEX
  8
EGA-301.PLT
 62
7
 10
66.02924660
 20
5.37301645
  0
VERTEX
  8
EGA-301.PLT
 62
7
 10
66.02651734
 20
5.32240794
  0
VERTEX
  8
EGA-301.PLT
 62
7
 10
66.02184262
 20
5.27249746
  0
VERTEX
  8
EGA-301.PLT
 62
7
 10
66.01430824
 20
5.22384238
  0
VERTEX
  8
EGA-301.PLT
 62
7
 10
66.00299999
 20
5.17700010
  0
VERTEX
  8
EGA-301.PLT
 62
7
 10
65.97950012
 20
5.10637503
  0
VERTEX
  8
EGA-301.PLT
 62
7
 10
65.95000029
 20
5.03799996
  0
VERTEX
  8
EGA-301.PLT
 62
7
 10
65.95975024
 20
5.51850001
  0
VERTEX
  8
EGA-301.PLT
 62
7
 10
65.96200022
 20
5.99900007
  0
VERTEX
  8
EGA-301.PLT
 62
7
 10
65.96050023
 20
6.03787485
  0
VERTEX
  8
EGA-301.PLT
 62
7
 10
65.96200022
 20
6.07599963
  0
VERTEX
  8
EGA-301.PLT
 62
7
 10
65.96867357
 20
6.10198931
  0
VERTEX
  8
EGA-301.PLT
 62
7
 10
65.97975563
 20
6.12742484
  0
VERTEX
  8
EGA-301.PLT
 62
7
 10
65.99421434
 20
6.15225655
  0
VERTEX
  8
EGA-301.PLT
 62
7
 10
66.01101764
 20
6.17643477
  0
VERTEX
  8
EGA-301.PLT
 62
7
 10
66.02913347
 20
6.19990982
  0
VERTEX
  8
EGA-301.PLT
 62
7
 10
66.04752979
 20
6.22263204
  0
VERTEX
  8
EGA-301.PLT
 62
7
 10
66.06517453
 20
6.24455175
  0
VERTEX
  8
EGA-301.PLT
 62
7
 10
66.08103563
 20
6.26561928
  0
VERTEX
  8
EGA-301.PLT
 62
7
 10
66.13923307
 20
6.34449142
  0
VERTEX
  8
EGA-301.PLT
 62
7
 10
66.19564286
 20
6.41930978
  0
VERTEX
  8
EGA-301.PLT
 62
7
 10
66.25074016
 20
6.49487797
  0
VERTEX
  8
EGA-301.PLT
 62
7
 10
66.30500013
 20
6.57599957
  0
VERTEX
  8
EGA-301.PLT
 62
7
 10
66.34485751
 20
6.63926144
  0
VERTEX
  8
EGA-301.PLT
 62
7
 10
66.38517194
 20
6.70235923
  0
VERTEX
  8
EGA-301.PLT
 62
7
 10
66.42574419
 20
6.76538669
  0
VERTEX
  8
EGA-301.PLT
 62
7
 10
66.46637506
 20
6.82843757
  0
VERTEX
  8
EGA-301.PLT
 62
7
 10
66.50686530
 20
6.89160561
  0
VERTEX
  8
EGA-301.PLT
 62
7
 10
66.54701572
 20
6.95498458
  0
VERTEX
  8
EGA-301.PLT
 62
7
 10
66.58662708
 20
7.01866822
  0
VERTEX
  8
EGA-301.PLT
 62
7
 10
66.62550017
 20
7.08275029
  0
VERTEX
  8
EGA-301.PLT
 62
7
 10
66.66343576
 20
7.14732453
  0
VERTEX
  8
EGA-301.PLT
 62
7
 10
66.70023463
 20
7.21248469
  0
VERTEX
  8
EGA-301.PLT
 62
7
 10
66.73569758
 20
7.27832453
  0
VERTEX
  8
EGA-301.PLT
 62
7
 10
66.76962536
 20
7.34493779
  0
VERTEX
  8
EGA-301.PLT
 62
7
 10
66.80181877
 20
7.41241824
  0
VERTEX
  8
EGA-301.PLT
 62
7
 10
66.83207858
 20
7.48085960
  0
VERTEX
  8
EGA-301.PLT
 62
7
 10
66.86020558
 20
7.55035565
  0
VERTEX
  8
EGA-301.PLT
 62
7
 10
66.88600054
 20
7.62100013
  0
VERTEX
  8
EGA-301.PLT
 62
7
 10
66.91898668
 20
7.72008590
  0
VERTEX
  8
EGA-301.PLT
 62
7
 10
66.94945332
 20
7.82006236
  0
VERTEX
  8
EGA-301.PLT
 62
7
 10
66.97703718
 20
7.92088263
  0
VERTEX
  8
EGA-301.PLT
 62
7
 10
67.00137500
 20
8.02249982
  0
VERTEX
  8
EGA-301.PLT
 62
7
 10
67.02210351
 20
8.12486706
  0
VERTEX
  8
EGA-301.PLT
 62
7
 10
67.03885944
 20
8.22793745
  0
VERTEX
  8
EGA-301.PLT
 62
7
 10
67.05127952
 20
8.33166410
  0
VERTEX
  8
EGA-301.PLT
 62
7
 10
67.05900049
 20
8.43600014
  0
VERTEX
  8
EGA-301.PLT
 62
7
 10
67.06172117
 20
8.52191020
  0
VERTEX
  8
EGA-301.PLT
 62
7
 10
67.06164108
 20
8.60784376
  0
VERTEX
  8
EGA-301.PLT
 62
7
 10
67.05877192
 20
8.69373049
  0
VERTEX
  8
EGA-301.PLT
 62
7
 10
67.05312540
 20
8.77950005
  0
VERTEX
  8
EGA-301.PLT
 62
7
 10
67.04471323
 20
8.86508211
  0
VERTEX
  8
EGA-301.PLT
 62
7
 10
67.03354712
 20
8.95040634
  0
VERTEX
  8
EGA-301.PLT
 62
7
 10
67.01963876
 20
9.03540241
  0
VERTEX
  8
EGA-301.PLT
 62
7
 10
67.00299988
 20
9.11999997
  0
VERTEX
  8
EGA-301.PLT
 62
7
 10
66.98704684
 20
9.05362480
  0
VERTEX
  8
EGA-301.PLT
 62
7
 10
66.96912507
 20
8.98799979
  0
VERTEX
  8
EGA-301.PLT
 62
7
 10
66.94914081
 20
8.92312478
  0
VERTEX
  8
EGA-301.PLT
 62
7
 10
66.92700031
 20
8.85899960
  0
VERTEX
  8
EGA-301.PLT
 62
7
 10
66.90663879
 20
8.80703110
  0
VERTEX
  8
EGA-301.PLT
 62
7
 10
66.88410939
 20
8.75600002
  0
VERTEX
  8
EGA-301.PLT
 62
7
 10
66.85986913
 20
8.70571887
  0
VERTEX
  8
EGA-301.PLT
 62
7
 10
66.83437502
 20
8.65600017
  0
VERTEX
  8
EGA-301.PLT
 62
7
 10
66.80808409
 20
8.60665642
  0
VERTEX
  8
EGA-301.PLT
 62
7
 10
66.78145335
 20
8.55750013
  0
VERTEX
  8
EGA-301.PLT
 62
7
 10
66.75493981
 20
8.50834383
  0
VERTEX
  8
EGA-301.PLT
 62
7
 10
66.72900051
 20
8.45900001
  0
VERTEX
  8
EGA-301.PLT
 62
7
 10
66.64210968
 20
8.29562510
  0
VERTEX
  8
EGA-301.PLT
 62
7
 10
66.55287511
 20
8.13375000
  0
VERTEX
  8
EGA-301.PLT
 62
7
 10
66.46195306
 20
7.97299990
  0
VERTEX
  8
EGA-301.PLT
 62
7
 10
66.36999976
 20
7.81299997
  0
VERTEX
  8
EGA-301.PLT
 62
7
 10
66.33713077
 20
7.75841399
  0
VERTEX
  8
EGA-301.PLT
 62
7
 10
66.30279687
 20
7.70462489
  0
VERTEX
  8
EGA-301.PLT
 62
7
 10
66.26778325
 20
7.65121078
  0
VERTEX
  8
EGA-301.PLT
 62
7
 10
66.23287508
 20
7.59774980
  0
VERTEX
  8
EGA-301.PLT
 62
7
 10
66.19885752
 20
7.54382007
  0
VERTEX
  8
EGA-301.PLT
 62
7
 10
66.16651576
 20
7.48899972
  0
VERTEX
  8
EGA-301.PLT
 62
7
 10
66.13663496
 20
7.43286688
  0
VERTEX
  8
EGA-301.PLT
 62
7
 10
66.11000031
 20
7.37499967
  0
VERTEX
  8
EGA-301.PLT
 62
7
 10
66.07934370
 20
7.30182807
  0
VERTEX
  8
EGA-301.PLT
 62
7
 10
66.05149983
 20
7.22762505
  0
VERTEX
  8
EGA-301.PLT
 62
7
 10
66.02815611
 20
7.15210953
  0
VERTEX
  8
EGA-301.PLT
 62
7
 10
66.01099995
 20
7.07500045
  0
VERTEX
  8
EGA-301.PLT
 62
7
 10
66.00445701
 20
7.02161954
  0
VERTEX
  8
EGA-301.PLT
 62
7
 10
66.00328124
 20
6.96801599
  0
VERTEX
  8
EGA-301.PLT
 62
7
 10
66.00590232
 20
6.91424836
  0
VERTEX
  8
EGA-301.PLT
 62
7
 10
66.01074995
 20
6.86037528
  0
VERTEX
  8
EGA-301.PLT
 62
7
 10
66.01625382
 20
6.80645531
  0
VERTEX
  8
EGA-301.PLT
 62
7
 10
66.02084364
 20
6.75254707
  0
VERTEX
  8
EGA-301.PLT
 62
7
 10
66.02294910
 20
6.69870914
  0
VERTEX
  8
EGA-301.PLT
 62
7
 10
66.02099989
 20
6.64500011
  0
VERTEX
  8
EGA-301.PLT
 62
7
 10
66.01902529
 20
6.60863673
  0
VERTEX
  8
EGA-301.PLT
 62
7
 10
66.01832803
 20
6.57178122
  0
VERTEX
  8
EGA-301.PLT
 62
7
 10
66.01774795
 20
6.53478514
  0
VERTEX
  8
EGA-301.PLT
 62
7
 10
66.01612492
 20
6.49800002
  0
VERTEX
  8
EGA-301.PLT
 62
7
 10
66.01229877
 20
6.46177739
  0
VERTEX
  8
EGA-301.PLT
 62
7
 10
66.00510935
 20
6.42646879
  0
VERTEX
  8
EGA-301.PLT
 62
7
 10
65.99339653
 20
6.39242578
  0
VERTEX
  8
EGA-301.PLT
 62
7
 10
65.97600014
 20
6.35999987
  0
VERTEX
  8
EGA-301.PLT
 62
7
 10
65.94450032
 20
6.31937510
  0
VERTEX
  8
EGA-301.PLT
 62
7
 10
65.90700053
 20
6.28400030
  0
VERTEX
  8
EGA-301.PLT
 62
7
 10
65.91037552
 20
6.46250013
  0
VERTEX
  8
EGA-301.PLT
 62
7
 10
65.91600048
 20
6.64100013
  0
VERTEX
  8
EGA-301.PLT
 62
7
 10
65.92387544
 20
6.81950013
  0
VERTEX
  8
EGA-301.PLT
 62
7
 10
65.93400038
 20
6.99799996
  0
VERTEX
  8
EGA-301.PLT
 62
7
 10
65.93773474
 20
7.07704694
  0
VERTEX
  8
EGA-301.PLT
 62
7
 10
65.94062534
 20
7.15637499
  0
VERTEX
  8
EGA-301.PLT
 62
7
 10
65.94595344
 20
7.23551554
  0
VERTEX
  8
EGA-301.PLT
 62
7
 10
65.95700025
 20
7.31400002
  0
VERTEX
  8
EGA-301.PLT
 62
7
 10
65.96265647
 20
7.34503111
  0
VERTEX
  8
EGA-301.PLT
 62
7
 10
65.96850019
 20
7.37624978
  0
VERTEX
  8
EGA-301.PLT
 62
7
 10
65.97584389
 20
7.40709363
  0
VERTEX
  8
EGA-301.PLT
 62
7
 10
65.98600009
 20
7.43700025
  0
VERTEX
  8
EGA-301.PLT
 62
7
 10
65.99900005
 20
7.46114465
  0
VERTEX
  8
EGA-301.PLT
 62
7
 10
66.01500007
 20
7.48296875
  0
VERTEX
  8
EGA-301.PLT
 62
7
 10
66.03325011
 20
7.50305852
  0
VERTEX
  8
EGA-301.PLT
 62
7
 10
66.05300017
 20
7.52199988
  0
VERTEX
  8
EGA-301.PLT
 62
7
 10
66.07350022
 20
7.54037880
  0
VERTEX
  8
EGA-301.PLT
 62
7
 10
66.09400026
 20
7.55878120
  0
VERTEX
  8
EGA-301.PLT
 62
7
 10
66.11375025
 20
7.57779304
  0
VERTEX
  8
EGA-301.PLT
 62
7
 10
66.13200019
 20
7.59800026
  0
VERTEX
  8
EGA-301.PLT
 62
7
 10
66.18866033
 20
7.67298066
  0
VERTEX
  8
EGA-301.PLT
 62
7
 10
66.24009387
 20
7.75121885
  0
VERTEX
  8
EGA-301.PLT
 62
7
 10
66.28735552
 20
7.83203518
  0
VERTEX
  8
EGA-301.PLT
 62
7
 10
66.33149998
 20
7.91474997
  0
VERTEX
  8
EGA-301.PLT
 62
7
 10
66.37358195
 20
7.99868355
  0
VERTEX
  8
EGA-301.PLT
 62
7
 10
66.41465614
 20
8.08315624
  0
VERTEX
  8
EGA-301.PLT
 62
7
 10
66.45577724
 20
8.16748837
  0
VERTEX
  8
EGA-301.PLT
 62
7
 10
66.49799996
 20
8.25100026
  0
VERTEX
  8
EGA-301.PLT
 62
7
 10
66.54640238
 20
8.34348646
  0
VERTEX
  8
EGA-301.PLT
 62
7
 10
66.59515634
 20
8.43589068
  0
VERTEX
  8
EGA-301.PLT
 62
7
 10
66.64358216
 20
8.52850589
  0
VERTEX
  8
EGA-301.PLT
 62
7
 10
66.69100014
 20
8.62162502
  0
VERTEX
  8
EGA-301.PLT
 62
7
 10
66.73673059
 20
8.71554102
  0
VERTEX
  8
EGA-301.PLT
 62
7
 10
66.78009381
 20
8.81054683
  0
VERTEX
  8
EGA-301.PLT
 62
7
 10
66.82041010
 20
8.90693541
  0
VERTEX
  8
EGA-301.PLT
 62
7
 10
66.85699978
 20
9.00499970
  0
VERTEX
  8
EGA-301.PLT
 62
7
 10
66.87751717
 20
9.06322017
  0
VERTEX
  8
EGA-301.PLT
 62
7
 10
66.89804481
 20
9.12163840
  0
VERTEX
  8
EGA-301.PLT
 62
7
 10
66.91835859
 20
9.18026464
  0
VERTEX
  8
EGA-301.PLT
 62
7
 10
66.93823437
 20
9.23910913
  0
VERTEX
  8
EGA-301.PLT
 62
7
 10
66.95744805
 20
9.29818214
  0
VERTEX
  8
EGA-301.PLT
 62
7
 10
66.97577549
 20
9.35749392
  0
VERTEX
  8
EGA-301.PLT
 62
7
 10
66.99299258
 20
9.41705472
  0
VERTEX
  8
EGA-301.PLT
 62
7
 10
67.00887519
 20
9.47687480
  0
VERTEX
  8
EGA-301.PLT
 62
7
 10
67.02319921
 20
9.53696441
  0
VERTEX
  8
EGA-301.PLT
 62
7
 10
67.03574051
 20
9.59733380
  0
VERTEX
  8
EGA-301.PLT
 62
7
 10
67.04627497
 20
9.65799322
  0
VERTEX
  8
EGA-301.PLT
 62
7
 10
67.05457848
 20
9.71895294
  0
VERTEX
  8
EGA-301.PLT
 62
7
 10
67.06042690
 20
9.78022320
  0
VERTEX
  8
EGA-301.PLT
 62
7
 10
67.06359612
 20
9.84181427
  0
VERTEX
  8
EGA-301.PLT
 62
7
 10
67.06386202
 20
9.90373638
  0
VERTEX
  8
EGA-301.PLT
 62
7
 10
67.06100048
 20
9.96599980
  0
VERTEX
  8
EGA-301.PLT
 62
7
 10
67.05006289
 20
10.06924991
  0
VERTEX
  8
EGA-301.PLT
 62
7
 10
67.03350017
 20
10.17175003
  0
VERTEX
  8
EGA-301.PLT
 62
7
 10
67.01093748
 20
10.27312515
  0
VERTEX
  8
EGA-301.PLT
 62
7
 10
66.98200000
 20
10.37300028
  0
VERTEX
  8
EGA-301.PLT
 62
7
 10
66.96829695
 20
10.29312505
  0
VERTEX
  8
EGA-301.PLT
 62
7
 10
66.95112517
 20
10.21399990
  0
VERTEX
  8
EGA-301.PLT
 62
7
 10
66.93039091
 20
10.13562493
  0
VERTEX
  8
EGA-301.PLT
 62
7
 10
66.90600043
 20
10.05800021
  0
VERTEX
  8
EGA-301.PLT
 62
7
 10
66.88004692
 20
9.98506257
  0
VERTEX
  8
EGA-301.PLT
 62
7
 10
66.85062493
 20
9.91325010
  0
VERTEX
  8
EGA-301.PLT
 62
7
 10
66.81839064
 20
9.84256263
  0
VERTEX
  8
EGA-301.PLT
 62
7
 10
66.78400019
 20
9.77299997
  0
VERTEX
  8
EGA-301.PLT
 62
7
 10
66.73970518
 20
9.69203914
  0
VERTEX
  8
EGA-301.PLT
 62
7
 10
66.69026566
 20
9.61431266
  0
VERTEX
  8
EGA-301.PLT
 62
7
 10
66.63709959
 20
9.53892990
  0
VERTEX
  8
EGA-301.PLT
 62
7
 10
66.58162495
 20
9.46500021
  0
VERTEX
  8
EGA-301.PLT
 62
7
 10
66.52525969
 20
9.39163298
  0
VERTEX
  8
EGA-301.PLT
 62
7
 10
66.46942177
 20
9.31793758
  0
VERTEX
  8
EGA-301.PLT
 62
7
 10
66.41552915
 20
9.24302336
  0
VERTEX
  8
EGA-301.PLT
 62
7
 10
66.36499979
 20
9.16599971
  0
VERTEX
  8
EGA-301.PLT
 62
7
 10
66.32127929
 20
9.09817162
  0
VERTEX
  8
EGA-301.PLT
 62
7
 10
66.27642201
 20
9.03081228
  0
VERTEX
  8
EGA-301.PLT
 62
7
 10
66.23163497
 20
8.96335919
  0
VERTEX
  8
EGA-301.PLT
 62
7
 10
66.18812521
 20
8.89524985
  0
VERTEX
  8
EGA-301.PLT
 62
7
 10
66.14709978
 20
8.82592178
  0
VERTEX
  8
EGA-301.PLT
 62
7
 10
66.10976569
 20
8.75481246
  0
VERTEX
  8
EGA-301.PLT
 62
7
 10
66.07732999
 20
8.68135940
  0
VERTEX
  8
EGA-301.PLT
 62
7
 10
66.05099972
 20
8.60500011
  0
VERTEX
  8
EGA-301.PLT
 62
7
 10
66.03673417
 20
8.55256256
  0
VERTEX
  8
EGA-301.PLT
 62
7
 10
66.02518737
 20
8.49956251
  0
VERTEX
  8
EGA-301.PLT
 62
7
 10
66.01598429
 20
8.44609372
  0
VERTEX
  8
EGA-301.PLT
 62
7
 10
66.00874996
 20
8.39224993
  0
VERTEX
  8
EGA-301.PLT
 62
7
 10
66.00310937
 20
8.33812489
  0
VERTEX
  8
EGA-301.PLT
 62
7
 10
65.99868752
 20
8.28381235
  0
VERTEX
  8
EGA-301.PLT
 62
7
 10
65.99510941
 20
8.22940606
  0
VERTEX
  8
EGA-301.PLT
 62
7
 10
65.99200005
 20
8.17499977
  0
VERTEX
  8
EGA-301.PLT
 62
7
 10
65.99077154
 20
8.12883371
  0
VERTEX
  8
EGA-301.PLT
 62
7
 10
65.99229693
 20
8.08260912
  0
VERTEX
  8
EGA-301.PLT
 62
7
 10
65.99539261
 20
8.03636114
  0
VERTEX
  8
EGA-301.PLT
 62
7
 10
65.99887501
 20
7.99012489
  0
VERTEX
  8
EGA-301.PLT
 62
7
 10
66.00156055
 20
7.94393552
  0
VERTEX
  8
EGA-301.PLT
 62
7
 10
66.00226562
 20
7.89782816
  0
VERTEX
  8
EGA-301.PLT
 62
7
 10
65.99980665
 20
7.85183795
  0
VERTEX
  8
EGA-301.PLT
 62
7
 10
65.99300005
 20
7.80600001
  0
VERTEX
  8
EGA-301.PLT
 62
7
 10
65.98540634
 20
7.76604697
  0
VERTEX
  8
EGA-301.PLT
 62
7
 10
65.97725014
 20
7.72637500
  0
VERTEX
  8
EGA-301.PLT
 62
7
 10
65.96571895
 20
7.68801552
  0
VERTEX
  8
EGA-301.PLT
 62
7
 10
65.94800030
 20
7.65199996
  0
VERTEX
  8
EGA-301.PLT
 62
7
 10
65.92500043
 20
7.62100013
  0
VERTEX
  8
EGA-301.PLT
 62
7
 10
65.92089108
 20
7.76515626
  0
VERTEX
  8
EGA-301.PLT
 62
7
 10
65.91912547
 20
7.90949989
  0
VERTEX
  8
EGA-301.PLT
 62
7
 10
65.91979734
 20
8.05384351
  0
VERTEX
  8
EGA-301.PLT
 62
7
 10
65.92300044
 20
8.19799964
  0
VERTEX
  8
EGA-301.PLT
 62
7
 10
65.92377974
 20
8.25091375
  0
VERTEX
  8
EGA-301.PLT
 62
7
 10
65.92417231
 20
8.30387473
  0
VERTEX
  8
EGA-301.PLT
 62
7
 10
65.92463520
 20
8.35683572
  0
VERTEX
  8
EGA-301.PLT
 62
7
 10
65.92562543
 20
8.40974983
  0
VERTEX
  8
EGA-301.PLT
 62
7
 10
65.92760003
 20
8.46257019
  0
VERTEX
  8
EGA-301.PLT
 62
7
 10
65.93101602
 20
8.51524992
  0
VERTEX
  8
EGA-301.PLT
 62
7
 10
65.93633045
 20
8.56774216
  0
VERTEX
  8
EGA-301.PLT
 62
7
 10
65.94400032
 20
8.62000003
  0
VERTEX
  8
EGA-301.PLT
 62
7
 10
65.95076591
 20
8.66285930
  0
VERTEX
  8
EGA-301.PLT
 62
7
 10
65.95762525
 20
8.70562500
  0
VERTEX
  8
EGA-301.PLT
 62
7
 10
65.96692207
 20
8.74782821
  0
VERTEX
  8
EGA-301.PLT
 62
7
 10
65.98100012
 20
8.78899999
  0
VERTEX
  8
EGA-301.PLT
 62
7
 10
65.99268364
 20
8.81262881
  0
VERTEX
  8
EGA-301.PLT
 62
7
 10
66.00640624
 20
8.83496863
  0
VERTEX
  8
EGA-301.PLT
 62
7
 10
66.02167572
 20
8.85632412
  0
VERTEX
  8
EGA-301.PLT
 62
7
 10
66.03799991
 20
8.87699996
  0
VERTEX
  8
EGA-301.PLT
 62
7
 10
66.05488664
 20
8.89730079
  0
VERTEX
  8
EGA-301.PLT
 62
7
 10
66.07184374
 20
8.91753130
  0
VERTEX
  8
EGA-301.PLT
 62
7
 10
66.08837903
 20
8.93799613
  0
VERTEX
  8
EGA-301.PLT
 62
7
 10
66.10400034
 20
8.95899996
  0
VERTEX
  8
EGA-301.PLT
 62
7
 10
66.22228160
 20
9.12828109
  0
VERTEX
  8
EGA-301.PLT
 62
7
 10
66.33775029
 20
9.29924988
  0
VERTEX
  8
EGA-301.PLT
 62
7
 10
66.44909383
 20
9.47284366
  0
VERTEX
  8
EGA-301.PLT
 62
7
 10
66.55499964
 20
9.64999974
  0
VERTEX
  8
EGA-301.PLT
 62
7
 10
66.61251333
 20
9.74930651
  0
VERTEX
  8
EGA-301.PLT
 62
7
 10
66.67029656
 20
9.84876562
  0
VERTEX
  8
EGA-301.PLT
 62
7
 10
66.72721260
 20
9.94881063
  0
VERTEX
  8
EGA-301.PLT
 62
7
 10
66.78212474
 20
10.04987514
  0
VERTEX
  8
EGA-301.PLT
 62
7
 10
66.83389628
 20
10.15239272
  0
VERTEX
  8
EGA-301.PLT
 62
7
 10
66.88139050
 20
10.25679696
  0
VERTEX
  8
EGA-301.PLT
 62
7
 10
66.92347069
 20
10.36352142
  0
VERTEX
  8
EGA-301.PLT
 62
7
 10
66.95900013
 20
10.47299971
  0
VERTEX
  8
EGA-301.PLT
 62
7
 10
66.98683204
 20
10.58007987
  0
VERTEX
  8
EGA-301.PLT
 62
7
 10
67.00915624
 20
10.68820300
  0
VERTEX
  8
EGA-301.PLT
 62
7
 10
67.02646488
 20
10.79719331
  0
VERTEX
  8
EGA-301.PLT
 62
7
 10
67.03925014
 20
10.90687503
  0
VERTEX
  8
EGA-301.PLT
 62
7
 10
67.04800416
 20
11.01707236
  0
VERTEX
  8
EGA-301.PLT
 62
7
 10
67.05321912
 20
11.12760954
  0
VERTEX
  8
EGA-301.PLT
 62
7
 10
67.05538719
 20
11.23831078
  0
VERTEX
  8
EGA-301.PLT
 62
7
 10
67.05500051
 20
11.34900030
  0
VERTEX
  8
EGA-301.PLT
 62
7
 10
67.05075039
 20
11.49970326
  0
VERTEX
  8
EGA-301.PLT
 62
7
 10
67.03975013
 20
11.65012498
  0
VERTEX
  8
EGA-301.PLT
 62
7
 10
67.02237491
 20
11.79998420
  0
VERTEX
  8
EGA-301.PLT
 62
7
 10
66.99899990
 20
11.94899968
  0
VERTEX
  8
EGA-301.PLT
 62
7
 10
66.98640622
 20
11.86370313
  0
VERTEX
  8
EGA-301.PLT
 62
7
 10
66.97100006
 20
11.77887506
  0
VERTEX
  8
EGA-301.PLT
 62
7
 10
66.95259391
 20
11.69460932
  0
VERTEX
  8
EGA-301.PLT
 62
7
 10
66.93100029
 20
11.61099974
  0
VERTEX
  8
EGA-301.PLT
 62
7
 10
66.90925401
 20
11.53612677
  0
VERTEX
  8
EGA-301.PLT
 62
7
 10
66.88471875
 20
11.46220301
  0
VERTEX
  8
EGA-301.PLT
 62
7
 10
66.85769917
 20
11.38914644
  0
VERTEX
  8
EGA-301.PLT
 62
7
 10
66.82849994
 20
11.31687502
  0
VERTEX
  8
EGA-301.PLT
 62
7
 10
66.79742572
 20
11.24530672
  0
VERTEX
  8
EGA-301.PLT
 62
7
 10
66.76478118
 20
11.17435951
  0
VERTEX
  8
EGA-301.PLT
 62
7
 10
66.73087097
 20
11.10395136
  0
VERTEX
  8
EGA-301.PLT
 62
7
 10
66.69599977
 20
11.03400023
  0
VERTEX
  8
EGA-301.PLT
 62
7
 10
66.65392379
 20
10.95604690
  0
VERTEX
  8
EGA-301.PLT
 62
7
 10
66.60857823
 20
10.88006238
  0
VERTEX
  8
EGA-301.PLT
 62
7
 10
66.56091230
 20
10.80548416
  0
VERTEX
  8
EGA-301.PLT
 62
7
 10
66.51187523
 20
10.73174975
  0
VERTEX
  8
EGA-301.PLT
 62
7
 10
66.46241625
 20
10.65829662
  0
VERTEX
  8
EGA-301.PLT
 62
7
 10
66.41348457
 20
10.58456229
  0
VERTEX
  8
EGA-301.PLT
 62
7
 10
66.36602943
 20
10.50998422
  0
VERTEX
  8
EGA-301.PLT
 62
7
 10
66.32100004
 20
10.43399993
  0
VERTEX
  8
EGA-301.PLT
 62
7
 10
66.28020024
 20
10.36469546
  0
VERTEX
  8
EGA-301.PLT
 62
7
 10
66.23994982
 20
10.30021938
  0
VERTEX
  8
EGA-301.PLT
 62
7
 10
66.20084690
 20
10.23860283
  0
VERTEX
  8
EGA-301.PLT
 62
7
 10
66.16348960
 20
10.17787696
  0
VERTEX
  8
EGA-301.PLT
 62
7
 10
66.12847603
 20
10.11607293
  0
VERTEX
  8
EGA-301.PLT
 62
7
 10
66.09640432
 20
10.05122189
  0
VERTEX
  8
EGA-301.PLT
 62
7
 10
66.06787259
 20
9.98135499
  0
VERTEX
  8
EGA-301.PLT
 62
7
 10
66.04347895
 20
9.90450339
  0
VERTEX
  8
EGA-301.PLT
 62
7
 10
66.02612569
 20
9.82745548
  0
VERTEX
  8
EGA-301.PLT
 62
7
 10
66.01327372
 20
9.74578642
  0
VERTEX
  8
EGA-301.PLT
 62
7
 10
66.00411012
 20
9.66095848
  0
VERTEX
  8
EGA-301.PLT
 62
7
 10
65.99782194
 20
9.57443391
  0
VERTEX
  8
EGA-301.PLT
 62
7
 10
65.99359625
 20
9.48767497
  0
VERTEX
  8
EGA-301.PLT
 62
7
 10
65.99062012
 20
9.40214391
  0
VERTEX
  8
EGA-301.PLT
 62
7
 10
65.98808060
 20
9.31930299
  0
VERTEX
  8
EGA-301.PLT
 62
7
 10
65.98516475
 20
9.24061446
  0
VERTEX
  8
EGA-301.PLT
 62
7
 10
65.98342029
 20
9.18936199
  0
VERTEX
  8
EGA-301.PLT
 62
7
 10
65.98108245
 20
9.13705711
  0
VERTEX
  8
EGA-301.PLT
 62
7
 10
65.97574462
 20
9.08512741
  0
VERTEX
  8
EGA-301.PLT
 62
7
 10
65.96500021
 20
9.03500045
  0
VERTEX
  8
EGA-301.PLT
 62
7
 10
65.94900030
 20
8.98787491
  0
VERTEX
  8
EGA-301.PLT
 62
7
 10
65.92700042
 20
8.94300005
  0
VERTEX
  8
EGA-301.PLT
 62
7
 10
65.92171920
 20
9.17398450
  0
VERTEX
  8
EGA-301.PLT
 62
7
 10
65.92075046
 20
9.40487521
  0
VERTEX
  8
EGA-301.PLT
 62
7
 10
65.92390669
 20
9.63557841
  0
VERTEX
  8
EGA-301.PLT
 62
7
 10
65.93100040
 20
9.86600037
  0
VERTEX
  8
EGA-301.PLT
 62
7
 10
65.93125040
 20
9.90648453
  0
VERTEX
  8
EGA-301.PLT
 62
7
 10
65.93075040
 20
9.94687503
  0
VERTEX
  8
EGA-301.PLT
 62
7
 10
65.93212539
 20
9.98707820
  0
VERTEX
  8
EGA-301.PLT
 62
7
 10
65.93800036
 20
10.02700038
  0
VERTEX
  8
EGA-301.PLT
 62
7
 10
65.94800030
 20
10.06225018
  0
VERTEX
  8
EGA-301.PLT
 62
7
 10
65.96100023
 20
10.09599999
  0
VERTEX
  8
EGA-301.PLT
 62
7
 10
66.06350011
 20
10.21362479
  0
VERTEX
  8
EGA-301.PLT
 62
7
 10
66.16000003
 20
10.33499957
  0
VERTEX
  8
EGA-301.PLT
 62
7
 10
66.24272256
 20
10.44814024
  0
VERTEX
  8
EGA-301.PLT
 62
7
 10
66.32021856
 20
10.56456215
  0
VERTEX
  8
EGA-301.PLT
 62
7
 10
66.39298022
 20
10.68389030
  0
VERTEX
  8
EGA-301.PLT
 62
7
 10
66.46149971
 20
10.80574967
  0
VERTEX
  8
EGA-301.PLT
 62
7
 10
66.52626922
 20
10.92976529
  0
VERTEX
  8
EGA-301.PLT
 62
7
 10
66.58778094
 20
11.05556215
  0
VERTEX
  8
EGA-301.PLT
 62
7
 10
66.64652704
 20
11.18276525
  0
VERTEX
  8
EGA-301.PLT
 62
7
 10
66.70299973
 20
11.31099959
  0
VERTEX
  8
EGA-301.PLT
 62
7
 10
66.75631618
 20
11.43668906
  0
VERTEX
  8
EGA-301.PLT
 62
7
 10
66.80778106
 20
11.56332782
  0
VERTEX
  8
EGA-301.PLT
 62
7
 10
66.85666782
 20
11.69102130
  0
VERTEX
  8
EGA-301.PLT
 62
7
 10
66.90224987
 20
11.81987495
  0
VERTEX
  8
EGA-301.PLT
 62
7
 10
66.94380065
 20
11.94999421
  0
VERTEX
  8
EGA-301.PLT
 62
7
 10
66.98059360
 20
12.08148454
  0
VERTEX
  8
EGA-301.PLT
 62
7
 10
67.01190213
 20
12.21445139
  0
VERTEX
  8
EGA-301.PLT
 62
7
 10
67.03699969
 20
12.34900019
  0
VERTEX
  8
EGA-301.PLT
 62
7
 10
67.04656048
 20
12.40796700
  0
VERTEX
  8
EGA-301.PLT
 62
7
 10
67.05610949
 20
12.46710959
  0
VERTEX
  8
EGA-301.PLT
 62
7
 10
67.06507249
 20
12.52641624
  0
VERTEX
  8
EGA-301.PLT
 62
7
 10
67.07287529
 20
12.58587523
  0
VERTEX
  8
EGA-301.PLT
 62
7
 10
67.07894368
 20
12.64547485
  0
VERTEX
  8
EGA-301.PLT
 62
7
 10
67.08270346
 20
12.70520338
  0
VERTEX
  8
EGA-301.PLT
 62
7
 10
67.08358042
 20
12.76504909
  0
VERTEX
  8
EGA-301.PLT
 62
7
 10
67.08100036
 20
12.82500027
  0
VERTEX
  8
EGA-301.PLT
 62
7
 10
67.07528942
 20
12.88255497
  0
VERTEX
  8
EGA-301.PLT
 62
7
 10
67.06718780
 20
12.93968780
  0
VERTEX
  8
EGA-301.PLT
 62
7
 10
67.05674239
 20
12.99635185
  0
VERTEX
  8
EGA-301.PLT
 62
7
 10
67.04400011
 20
13.05250025
  0
VERTEX
  8
EGA-301.PLT
 62
7
 10
67.02900784
 20
13.10808611
  0
VERTEX
  8
EGA-301.PLT
 62
7
 10
67.01181247
 20
13.16306254
  0
VERTEX
  8
EGA-301.PLT
 62
7
 10
66.99246092
 20
13.21738267
  0
VERTEX
  8
EGA-301.PLT
 62
7
 10
66.97100006
 20
13.27099959
  0
VERTEX
  8
EGA-301.PLT
 62
7
 10
66.96662508
 20
13.20128109
  0
VERTEX
  8
EGA-301.PLT
 62
7
 10
66.95925013
 20
13.13174992
  0
VERTEX
  8
EGA-301.PLT
 62
7
 10
66.94850019
 20
13.06259374
  0
VERTEX
  8
EGA-301.PLT
 62
7
 10
66.93400027
 20
12.99400023
  0
VERTEX
  8
EGA-301.PLT
 62
7
 10
66.91264087
 20
12.91703137
  0
VERTEX
  8
EGA-301.PLT
 62
7
 10
66.88687507
 20
12.84175017
  0
VERTEX
  8
EGA-301.PLT
 62
7
 10
66.85792179
 20
12.76759397
  0
VERTEX
  8
EGA-301.PLT
 62
7
 10
66.82699995
 20
12.69400008
  0
VERTEX
  8
EGA-301.PLT
 62
7
 10
66.79012316
 20
12.61469546
  0
VERTEX
  8
EGA-301.PLT
 62
7
 10
66.74910961
 20
12.53768763
  0
VERTEX
  8
EGA-301.PLT
 62
7
 10
66.70488507
 20
12.46246100
  0
VERTEX
  8
EGA-301.PLT
 62
7
 10
66.65837533
 20
12.38849996
  0
VERTEX
  8
EGA-301.PLT
 62
7
 10
66.61050618
 20
12.31528892
  0
VERTEX
  8
EGA-301.PLT
 62
7
 10
66.56220340
 20
12.24231228
  0
VERTEX
  8
EGA-301.PLT
 62
7
 10
66.51439279
 20
12.16905443
  0
VERTEX
  8
EGA-301.PLT
 62
7
 10
66.46800013
 20
12.09499977
  0
VERTEX
  8
EGA-301.PLT
 62
7
 10
66.43329690
 20
12.03837280
  0
VERTEX
  8
EGA-301.PLT
 62
7
 10
66.39774998
 20
11.98229659
  0
VERTEX
  8
EGA-301.PLT
 62
7
 10
66.36182811
 20
11.92647820
  0
VERTEX
  8
EGA-301.PLT
 62
7
 10
66.32600001
 20
11.87062466
  0
VERTEX
  8
EGA-301.PLT
 62
7
 10
66.29073441
 20
11.81444299
  0
VERTEX
  8
EGA-301.PLT
 62
7
 10
66.25650003
 20
11.75764023
  0
VERTEX
  8
EGA-301.PLT
 62
7
 10
66.22376560
 20
11.69992341
  0
VERTEX
  8
EGA-301.PLT
 62
7
 10
66.19299984
 20
11.64099957
  0
VERTEX
  8
EGA-301.PLT
 62
7
 10
66.16066999
 20
11.57315310
  0
VERTEX
  8
EGA-301.PLT
 62
7
 10
66.13112395
 20
11.50703223
  0
VERTEX
  8
EGA-301.PLT
 62
7
 10
66.10427751
 20
11.44176488
  0
VERTEX
  8
EGA-301.PLT
 62
7
 10
66.08004650
 20
11.37647898
  0
VERTEX
  8
EGA-301.PLT
 62
7
 10
66.05834673
 20
11.31030246
  0
VERTEX
  8
EGA-301.PLT
 62
7
 10
66.03909400
 20
11.24236326
  0
VERTEX
  8
EGA-301.PLT
 62
7
 10
66.02220413
 20
11.17178928
  0
VERTEX
  8
EGA-301.PLT
 62
7
 10
66.00759293
 20
11.09770847
  0
VERTEX
  8
EGA-301.PLT
 62
7
 10
66.00077636
 20
11.04753243
  0
VERTEX
  8
EGA-301.PLT
 62
7
 10
65.99635644
 20
10.99624173
  0
VERTEX
  8
EGA-301.PLT
 62
7
 10
65.99362805
 20
10.94419229
  0
VERTEX
  8
EGA-301.PLT
 62
7
 10
65.99188604
 20
10.89174005
  0
VERTEX
  8
EGA-301.PLT
 62
7
 10
65.99042528
 20
10.83924094
  0
VERTEX
  8
EGA-301.PLT
 62
7
 10
65.98854063
 20
10.78705088
  0
VERTEX
  8
EGA-301.PLT
 62
7
 10
65.98552696
 20
10.73552580
  0
VERTEX
  8
EGA-301.PLT
 62
7
 10
65.98067912
 20
10.68502163
  0
VERTEX
  8
EGA-301.PLT
 62
7
 10
65.97244807
 20
10.64515902
  0
VERTEX
  8
EGA-301.PLT
 62
7
 10
65.95958974
 20
10.60163601
  0
VERTEX
  8
EGA-301.PLT
 62
7
 10
65.94635641
 20
10.55830049
  0
VERTEX
  8
EGA-301.PLT
 62
7
 10
65.93700036
 20
10.51900037
  0
VERTEX
  8
EGA-301.PLT
 62
7
 10
65.92332857
 20
10.71115637
  0
VERTEX
  8
EGA-301.PLT
 62
7
 10
65.91687548
 20
10.90350005
  0
VERTEX
  8
EGA-301.PLT
 62
7
 10
65.91773485
 20
11.09584372
  0
VERTEX
  8
EGA-301.PLT
 62
7
 10
65.92600043
 20
11.28799972
  0
VERTEX
  8
EGA-301.PLT
 62
7
 10
65.92690630
 20
11.31212086
  0
VERTEX
  8
EGA-301.PLT
 62
7
 10
65.92766668
 20
11.33640580
  0
VERTEX
  8
EGA-301.PLT
 62
7
 10
65.92872070
 20
11.36073741
  0
VERTEX
  8
EGA-301.PLT
 62
7
 10
65.93050745
 20
11.38499859
  0
VERTEX
  8
EGA-301.PLT
 62
7
 10
65.93346608
 20
11.40907223
  0
VERTEX
  8
EGA-301.PLT
 62
7
 10
65.93803570
 20
11.43284122
  0
VERTEX
  8
EGA-301.PLT
 62
7
 10
65.94465542
 20
11.45618844
  0
VERTEX
  8
EGA-301.PLT
 62
7
 10
65.95376438
 20
11.47899679
  0
VERTEX
  8
EGA-301.PLT
 62
7
 10
65.97925718
 20
11.52699871
  0
VERTEX
  8
EGA-301.PLT
 62
7
 10
66.00999995
 20
11.57199996
  0
VERTEX
  8
EGA-301.PLT
 62
7
 10
66.11800015
 20
11.71337509
  0
VERTEX
  8
EGA-301.PLT
 62
7
 10
66.22299967
 20
11.85700020
  0
VERTEX
  8
EGA-301.PLT
 62
7
 10
66.31906232
 20
11.99982821
  0
VERTEX
  8
EGA-301.PLT
 62
7
 10
66.40950000
 20
12.14612495
  0
VERTEX
  8
EGA-301.PLT
 62
7
 10
66.49468771
 20
12.29560917
  0
VERTEX
  8
EGA-301.PLT
 62
7
 10
66.57500045
 20
12.44799963
  0
VERTEX
  8
EGA-301.PLT
 62
7
 10
66.63224653
 20
12.56373599
  0
VERTEX
  8
EGA-301.PLT
 62
7
 10
66.68684412
 20
12.68070282
  0
VERTEX
  8
EGA-301.PLT
 62
7
 10
66.73858231
 20
12.79891183
  0
VERTEX
  8
EGA-301.PLT
 62
7
 10
66.78725018
 20
12.91837474
  0
VERTEX
  8
EGA-301.PLT
 62
7
 10
66.83263681
 20
13.03910326
  0
VERTEX
  8
EGA-301.PLT
 62
7
 10
66.87453131
 20
13.16110913
  0
VERTEX
  8
EGA-301.PLT
 62
7
 10
66.91272274
 20
13.28440404
  0
VERTEX
  8
EGA-301.PLT
 62
7
 10
66.94700020
 20
13.40899974
  0
VERTEX
  8
EGA-301.PLT
 62
7
 10
66.96341125
 20
13.47506490
  0
VERTEX
  8
EGA-301.PLT
 62
7
 10
66.97877349
 20
13.54386494
  0
VERTEX
  8
EGA-301.PLT
 62
7
 10
66.99290529
 20
13.61480658
  0
VERTEX
  8
EGA-301.PLT
 62
7
 10
67.00562499
 20
13.68729657
  0
VERTEX
  8
EGA-301.PLT
 62
7
 10
67.01675096
 20
13.76074164
  0
VERTEX
  8
EGA-301.PLT
 62
7
 10
67.02610155
 20
13.83454853
  0
VERTEX
  8
EGA-301.PLT
 62
7
 10
67.03349512
 20
13.90812398
  0
VERTEX
  8
EGA-301.PLT
 62
7
 10
67.03875002
 20
13.98087473
  0
VERTEX
  8
EGA-301.PLT
 62
7
 10
67.04168461
 20
14.05220753
  0
VERTEX
  8
EGA-301.PLT
 62
7
 10
67.04211725
 20
14.12152910
  0
VERTEX
  8
EGA-301.PLT
 62
7
 10
67.03986629
 20
14.18824619
  0
VERTEX
  8
EGA-301.PLT
 62
7
 10
67.03475009
 20
14.25176553
  0
VERTEX
  8
EGA-301.PLT
 62
7
 10
67.02658700
 20
14.31149387
  0
VERTEX
  8
EGA-301.PLT
 62
7
 10
67.01519539
 20
14.36683794
  0
VERTEX
  8
EGA-301.PLT
 62
7
 10
67.00039360
 20
14.41720449
  0
VERTEX
  8
EGA-301.PLT
 62
7
 10
66.98200000
 20
14.46200025
  0
VERTEX
  8
EGA-301.PLT
 62
7
 10
66.97246880
 20
14.39037510
  0
VERTEX
  8
EGA-301.PLT
 62
7
 10
66.95900013
 20
14.31950013
  0
VERTEX
  8
EGA-301.PLT
 62
7
 10
66.94178148
 20
14.24937515
  0
VERTEX
  8
EGA-301.PLT
 62
7
 10
66.92100034
 20
14.17999999
  0
VERTEX
  8
EGA-301.PLT
 62
7
 10
66.90307436
 20
14.12999993
  0
VERTEX
  8
EGA-301.PLT
 62
7
 10
66.88259378
 20
14.08112488
  0
VERTEX
  8
EGA-301.PLT
 62
7
 10
66.86000390
 20
14.03318733
  0
VERTEX
  8
EGA-301.PLT
 62
7
 10
66.83575002
 20
13.98599982
  0
VERTEX
  8
EGA-301.PLT
 62
7
 10
66.81027744
 20
13.93937485
  0
VERTEX
  8
EGA-301.PLT
 62
7
 10
66.78403146
 20
13.89312493
  0
VERTEX
  8
EGA-301.PLT
 62
7
 10
66.75745738
 20
13.84706257
  0
VERTEX
  8
EGA-301.PLT
 62
7
 10
66.73100049
 20
13.80100029
  0
VERTEX
  8
EGA-301.PLT
 62
7
 10
66.65982834
 20
13.68731274
  0
VERTEX
  8
EGA-301.PLT
 62
7
 10
66.58387506
 20
13.57700017
  0
VERTEX
  8
EGA-301.PLT
 62
7
 10
66.50698445
 20
13.46743760
  0
VERTEX
  8
EGA-301.PLT
 62
7
 10
66.43300033
 20
13.35600004
  0
VERTEX
  8
EGA-301.PLT
 62
7
 10
66.39212717
 20
13.29381254
  0
VERTEX
  8
EGA-301.PLT
 62
7
 10
66.35032824
 20
13.23218754
  0
VERTEX
  8
EGA-301.PLT
 62
7
 10
66.30845903
 20
13.17065629
  0
VERTEX
  8
EGA-301.PLT
 62
7
 10
66.26737500
 20
13.10875005
  0
VERTEX
  8
EGA-301.PLT
 62
7
 10
66.22793162
 20
13.04600006
  0
VERTEX
  8
EGA-301.PLT
 62
7
 10
66.19098439
 20
12.98193757
  0
VERTEX
  8
EGA-301.PLT
 62
7
 10
66.15738876
 20
12.91609385
  0
VERTEX
  8
EGA-301.PLT
 62
7
 10
66.12800021
 20
12.84800014
  0
VERTEX
  8
EGA-301.PLT
 62
7
 10
66.09215652
 20
12.74687502
  0
VERTEX
  8
EGA-301.PLT
 62
7
 10
66.06325011
 20
12.64349991
  0
VERTEX
  8
EGA-301.PLT
 62
7
 10
66.03996868
 20
12.53862481
  0
VERTEX
  8
EGA-301.PLT
 62
7
 10
66.02099989
 20
12.43299971
  0
VERTEX
  8
EGA-301.PLT
 62
7
 10
66.01487297
 20
12.38524603
  0
VERTEX
  8
EGA-301.PLT
 62
7
 10
66.01098432
 20
12.33728134
  0
VERTEX
  8
EGA-301.PLT
 62
7
 10
66.00857222
 20
12.28917597
  0
VERTEX
  8
EGA-301.PLT
 62
7
 10
66.00687497
 20
12.24100022
  0
VERTEX
  8
EGA-301.PLT
 62
7
 10
66.00513084
 20
12.19282443
  0
VERTEX
  8
EGA-301.PLT
 62
7
 10
66.00257812
 20
12.14471892
  0
VERTEX
  8
EGA-301.PLT
 62
7
 10
65.99845509
 20
12.09675402
  0
VERTEX
  8
EGA-301.PLT
 62
7
 10
65.99200005
 20
12.04900004
  0
VERTEX
  8
EGA-301.PLT
 62
7
 10
65.97814076
 20
11.97704677
  0
VERTEX
  8
EGA-301.PLT
 62
7
 10
65.96212522
 20
11.90537492
  0
VERTEX
  8
EGA-301.PLT
 62
7
 10
65.94404720
 20
11.83426558
  0
VERTEX
  8
EGA-301.PLT
 62
7
 10
65.92400044
 20
11.76399980
  0
VERTEX
  8
EGA-301.PLT
 62
7
 10
65.91250050
 20
11.96400005
  0
VERTEX
  8
EGA-301.PLT
 62
7
 10
65.90700053
 20
12.16400031
  0
VERTEX
  8
EGA-301.PLT
 62
7
 10
65.90706303
 20
12.27740660
  0
VERTEX
  8
EGA-301.PLT
 62
7
 10
65.90900052
 20
12.39100030
  0
VERTEX
  8
EGA-301.PLT
 62
7
 10
65.91318800
 20
12.50459382
  0
VERTEX
  8
EGA-301.PLT
 62
7
 10
65.92000046
 20
12.61799959
  0
VERTEX
  8
EGA-301.PLT
 62
7
 10
65.92101608
 20
12.63912477
  0
VERTEX
  8
EGA-301.PLT
 62
7
 10
65.92137545
 20
12.66043738
  0
VERTEX
  8
EGA-301.PLT
 62
7
 10
65.92154733
 20
12.68184368
  0
VERTEX
  8
EGA-301.PLT
 62
7
 10
65.92200045
 20
12.70324992
  0
VERTEX
  8
EGA-301.PLT
 62
7
 10
65.92320357
 20
12.72456236
  0
VERTEX
  8
EGA-301.PLT
 62
7
 10
65.92562543
 20
12.74568728
  0
VERTEX
  8
EGA-301.PLT
 62
7
 10
65.92973478
 20
12.76653092
  0
VERTEX
  8
EGA-301.PLT
 62
7
 10
65.93600037
 20
12.78699956
  0
VERTEX
  8
EGA-301.PLT
 62
7
 10
65.95415652
 20
12.82221864
  0
VERTEX
  8
EGA-301.PLT
 62
7
 10
65.97775013
 20
12.85424999
  0
VERTEX
  8
EGA-301.PLT
 62
7
 10
66.00321874
 20
12.88515616
  0
VERTEX
  8
EGA-301.PLT
 62
7
 10
66.02699985
 20
12.91699975
  0
VERTEX
  8
EGA-301.PLT
 62
7
 10
66.13400017
 20
13.09399967
  0
VERTEX
  8
EGA-301.PLT
 62
7
 10
66.20784389
 20
13.21253680
  0
VERTEX
  8
EGA-301.PLT
 62
7
 10
66.28450016
 20
13.32942160
  0
VERTEX
  8
EGA-301.PLT
 62
7
 10
66.36265646
 20
13.44543921
  0
VERTEX
  8
EGA-301.PLT
 62
7
 10
66.44100029
 20
13.56137480
  0
VERTEX
  8
EGA-301.PLT
 62
7
 10
66.51821912
 20
13.67801350
  0
VERTEX
  8
EGA-301.PLT
 62
7
 10
66.59300044
 20
13.79614048
  0
VERTEX
  8
EGA-301.PLT
 62
7
 10
66.66403174
 20
13.91654088
  0
VERTEX
  8
EGA-301.PLT
 62
7
 10
66.73000050
 20
14.03999986
  0
VERTEX
  8
EGA-301.PLT
 62
7
 10
66.77431669
 20
14.12858400
  0
VERTEX
  8
EGA-301.PLT
 62
7
 10
66.81828139
 20
14.21748448
  0
VERTEX
  8
EGA-301.PLT
 62
7
 10
66.86116802
 20
14.30692397
  0
VERTEX
  8
EGA-301.PLT
 62
7
 10
66.90224999
 20
14.39712515
  0
VERTEX
  8
EGA-301.PLT
 62
7
 10
66.94080072
 20
14.48831071
  0
VERTEX
  8
EGA-301.PLT
 62
7
 10
66.97609364
 20
14.58070331
  0
VERTEX
  8
EGA-301.PLT
 62
7
 10
67.00740216
 20
14.67452563
  0
VERTEX
  8
EGA-301.PLT
 62
7
 10
67.03399970
 20
14.77000035
  0
VERTEX
  8
EGA-301.PLT
 62
7
 10
67.05869909
 20
14.87769545
  0
VERTEX
  8
EGA-301.PLT
 62
7
 10
67.07934373
 20
14.98618748
  0
VERTEX
  8
EGA-301.PLT
 62
7
 10
67.09562896
 20
15.09533583
  0
VERTEX
  8
EGA-301.PLT
 62
7
 10
67.10725010
 20
15.20499986
  0
VERTEX
  8
EGA-301.PLT
 62
7
 10
67.11390247
 20
15.31503892
  0
VERTEX
  8
EGA-301.PLT
 62
7
 10
67.11528140
 20
15.42531240
  0
VERTEX
  8
EGA-301.PLT
 62
7
 10
67.11108222
 20
15.53567964
  0
VERTEX
  8
EGA-301.PLT
 62
7
 10
67.10100025
 20
15.64600002
  0
VERTEX
  8
EGA-301.PLT
 62
7
 10
67.08296896
 20
15.76707815
  0
VERTEX
  8
EGA-301.PLT
 62
7
 10
67.05875003
 20
15.88712504
  0
VERTEX
  8
EGA-301.PLT
 62
7
 10
67.02815613
 20
16.00585944
  0
VERTEX
  8
EGA-301.PLT
 62
7
 10
66.99099995
 20
16.12300009
  0
VERTEX
  8
EGA-301.PLT
 62
7
 10
66.96007823
 20
15.99009390
  0
VERTEX
  8
EGA-301.PLT
 62
7
 10
66.92437521
 20
15.85850020
  0
VERTEX
  8
EGA-301.PLT
 62
7
 10
66.88398454
 20
15.72840650
  0
VERTEX
  8
EGA-301.PLT
 62
7
 10
66.83899988
 20
15.60000028
  0
VERTEX
  8
EGA-301.PLT
 62
7
 10
66.79581248
 20
15.49076583
  0
VERTEX
  8
EGA-301.PLT
 62
7
 10
66.74849993
 20
15.38312512
  0
VERTEX
  8
EGA-301.PLT
 62
7
 10
66.69893739
 20
15.27642191
  0
VERTEX
  8
EGA-301.PLT
 62
7
 10
66.64900003
 20
15.16999994
  0
VERTEX
  8
EGA-301.PLT
 62
7
 10
66.57309366
 20
15.01275012
  0
VERTEX
  8
EGA-301.PLT
 62
7
 10
66.49474998
 20
14.85700021
  0
VERTEX
  8
EGA-301.PLT
 62
7
 10
66.41528131
 20
14.70200012
  0
VERTEX
  8
EGA-301.PLT
 62
7
 10
66.33599996
 20
14.54699977
  0
VERTEX
  8
EGA-301.PLT
 62
7
 10
66.30504892
 20
14.48774390
  0
VERTEX
  8
EGA-301.PLT
 62
7
 10
66.27270329
 20
14.42901537
  0
VERTEX
  8
EGA-301.PLT
 62
7
 10
66.23972482
 20
14.37049777
  0
VERTEX
  8
EGA-301.PLT
 62
7
 10
66.20687522
 20
14.31187471
  0
VERTEX
  8
EGA-301.PLT
 62
7
 10
66.17491625
 20
14.25282978
  0
VERTEX
  8
EGA-301.PLT
 62
7
 10
66.14460963
 20
14.19304656
  0
VERTEX
  8
EGA-301.PLT
 62
7
 10
66.11671711
 20
14.13220867
  0
VERTEX
  8
EGA-301.PLT
 62
7
 10
66.09200041
 20
14.06999969
  0
VERTEX
  8
EGA-301.PLT
 62
7
 10
66.07088694
 20
14.00647236
  0
VERTEX
  8
EGA-301.PLT
 62
7
 10
66.05284385
 20
13.94203097
  0
VERTEX
  8
EGA-301.PLT
 62
7
 10
66.03719143
 20
13.87688646
  0
VERTEX
  8
EGA-301.PLT
 62
7
 10
66.02324999
 20
13.81124977
  0
VERTEX
  8
EGA-301.PLT
 62
7
 10
66.01033984
 20
13.74533183
  0
VERTEX
  8
EGA-301.PLT
 62
7
 10
65.99778128
 20
13.67934357
  0
VERTEX
  8
EGA-301.PLT
 62
7
 10
65.98489463
 20
13.61349594
  0
VERTEX
  8
EGA-301.PLT
 62
7
 10
65.97100017
 20
13.54799987
  0
VERTEX
  8
EGA-301.PLT
 62
7
 10
65.96299240
 20
13.50925396
  0
VERTEX
  8
EGA-301.PLT
 62
7
 10
65.95587524
 20
13.47034390
  0
VERTEX
  8
EGA-301.PLT
 62
7
 10
65.94913306
 20
13.43138691
  0
VERTEX
  8
EGA-301.PLT
 62
7
 10
65.94225022
 20
13.39250018
  0
VERTEX
  8
EGA-301.PLT
 62
7
 10
65.93471109
 20
13.35380090
  0
VERTEX
  8
EGA-301.PLT
 62
7
 10
65.92600004
 20
13.31540627
  0
VERTEX
  8
EGA-301.PLT
 62
7
 10
65.91560143
 20
13.27743349
  0
VERTEX
  8
EGA-301.PLT
 62
7
 10
65.90299963
 20
13.23999977
  0
VERTEX
  8
EGA-301.PLT
 62
7
 10
65.88112476
 20
13.18612507
  0
VERTEX
  8
EGA-301.PLT
 62
7
 10
65.85699989
 20
13.13300037
  0
VERTEX
  8
EGA-301.PLT
 62
7
 10
65.84953118
 20
13.23665619
  0
VERTEX
  8
EGA-301.PLT
 62
7
 10
65.84674995
 20
13.34049978
  0
VERTEX
  8
EGA-301.PLT
 62
7
 10
65.84884369
 20
13.44434353
  0
VERTEX
  8
EGA-301.PLT
 62
7
 10
65.85599990
 20
13.54799987
  0
VERTEX
  8
EGA-301.PLT
 62
7
 10
65.87128121
 20
13.67490610
  0
VERTEX
  8
EGA-301.PLT
 62
7
 10
65.89425014
 20
13.80049983
  0
VERTEX
  8
EGA-301.PLT
 62
7
 10
65.92434404
 20
13.92459357
  0
VERTEX
  8
EGA-301.PLT
 62
7
 10
65.96100023
 20
14.04699982
  0
VERTEX
  8
EGA-301.PLT
 62
7
 10
65.98493763
 20
14.11412284
  0
VERTEX
  8
EGA-301.PLT
 62
7
 10
66.01206258
 20
14.17992164
  0
VERTEX
  8
EGA-301.PLT
 62
7
 10
66.04171881
 20
14.24466576
  0
VERTEX
  8
EGA-301.PLT
 62
7
 10
66.07325006
 20
14.30862473
  0
VERTEX
  8
EGA-301.PLT
 62
7
 10
66.10600004
 20
14.37206808
  0
VERTEX
  8
EGA-301.PLT
 62
7
 10
66.13931250
 20
14.43526533
  0
VERTEX
  8
EGA-301.PLT
 62
7
 10
66.17253117
 20
14.49848602
  0
VERTEX
  8
EGA-301.PLT
 62
7
 10
66.20499977
 20
14.56199968
  0
VERTEX
  8
EGA-301.PLT
 62
7
 10
66.27048433
 20
14.68946840
  0
VERTEX
  8
EGA-301.PLT
 62
7
 10
66.33812494
 20
14.81599963
  0
VERTEX
  8
EGA-301.PLT
 62
7
 10
66.40595306
 20
14.94253086
  0
VERTEX
  8
EGA-301.PLT
 62
7
 10
66.47200011
 20
15.06999958
  0
VERTEX
  8
EGA-301.PLT
 62
7
 10
66.51529705
 20
15.15543334
  0
VERTEX
  8
EGA-301.PLT
 62
7
 10
66.55868767
 20
15.24084361
  0
VERTEX
  8
EGA-301.PLT
 62
7
 10
66.60179700
 20
15.32639445
  0
VERTEX
  8
EGA-301.PLT
 62
7
 10
66.64425006
 20
15.41224996
  0
VERTEX
  8
EGA-301.PLT
 62
7
 10
66.68567188
 20
15.49857421
  0
VERTEX
  8
EGA-301.PLT
 62
7
 10
66.72568747
 20
15.58553129
  0
VERTEX
  8
EGA-301.PLT
 62
7
 10
66.76392188
 20
15.67328529
  0
VERTEX
  8
EGA-301.PLT
 62
7
 10
66.80000010
 20
15.76200029
  0
VERTEX
  8
EGA-301.PLT
 62
7
 10
66.84950990
 20
15.89384789
  0
VERTEX
  8
EGA-301.PLT
 62
7
 10
66.89532824
 20
16.02684393
  0
VERTEX
  8
EGA-301.PLT
 62
7
 10
66.93751374
 20
16.16091808
  0
VERTEX
  8
EGA-301.PLT
 62
7
 10
66.97612503
 20
16.29600004
  0
VERTEX
  8
EGA-301.PLT
 62
7
 10
67.01122071
 20
16.43201949
  0
VERTEX
  8
EGA-301.PLT
 62
7
 10
67.04285940
 20
16.56890613
  0
VERTEX
  8
EGA-301.PLT
 62
7
 10
67.07109972
 20
16.70658964
  0
VERTEX
  8
EGA-301.PLT
 62
7
 10
67.09600028
 20
16.84499971
  0
VERTEX
  8
EGA-301.PLT
 62
7
 10
67.10616013
 20
16.90410836
  0
VERTEX
  8
EGA-301.PLT
 62
7
 10
67.11629508
 20
16.96330637
  0
VERTEX
  8
EGA-301.PLT
 62
7
 10
67.12626305
 20
17.02258934
  0
VERTEX
  8
EGA-301.PLT
 62
7
 10
67.13592193
 20
17.08195288
  0
VERTEX
  8
EGA-301.PLT
 62
7
 10
67.14512964
 20
17.14139258
  0
VERTEX
  8
EGA-301.PLT
 62
7
 10
67.15374409
 20
17.20090407
  0
VERTEX
  8
EGA-301.PLT
 62
7
 10
67.16162320
 20
17.26048294
  0
VERTEX
  8
EGA-301.PLT
 62
7
 10
67.16862487
 20
17.32012479
  0
VERTEX
  8
EGA-301.PLT
 62
7
 10
67.17460701
 20
17.37982524
  0
VERTEX
  8
EGA-301.PLT
 62
7
 10
67.17942754
 20
17.43957989
  0
VERTEX
  8
EGA-301.PLT
 62
7
 10
67.18294436
 20
17.49938434
  0
VERTEX
  8
EGA-301.PLT
 62
7
 10
67.18501540
 20
17.55923420
  0
VERTEX
  8
EGA-301.PLT
 62
7
 10
67.18549855
 20
17.61912508
  0
VERTEX
  8
EGA-301.PLT
 62
7
 10
67.18425173
 20
17.67905257
  0
VERTEX
  8
EGA-301.PLT
 62
7
 10
67.18113285
 20
17.73901230
  0
VERTEX
  8
EGA-301.PLT
 62
7
 10
67.17599982
 20
17.79899985
  0
VERTEX
  8
EGA-301.PLT
 62
7
 10
67.17101548
 20
17.85478134
  0
VERTEX
  8
EGA-301.PLT
 62
7
 10
67.16537488
 20
17.91075015
  0
VERTEX
  8
EGA-301.PLT
 62
7
 10
67.15729681
 20
17.96634396
  0
VERTEX
  8
EGA-301.PLT
 62
7
 10
67.14500000
 20
18.02100045
  0
VERTEX
  8
EGA-301.PLT
 62
7
 10
67.12805865
 20
18.07743962
  0
VERTEX
  8
EGA-301.PLT
 62
7
 10
67.10846881
 20
18.13314060
  0
VERTEX
  8
EGA-301.PLT
 62
7
 10
67.08583207
 20
18.18755258
  0
VERTEX
  8
EGA-301.PLT
 62
7
 10
67.05975002
 20
18.24012478
  0
VERTEX
  8
EGA-301.PLT
 62
7
 10
67.02982424
 20
18.29030642
  0
VERTEX
  8
EGA-301.PLT
 62
7
 10
66.99565631
 20
18.33754670
  0
VERTEX
  8
EGA-301.PLT
 62
7
 10
66.95684784
 20
18.38129483
  0
VERTEX
  8
EGA-301.PLT
 62
7
 10
66.91300039
 20
18.42100003
  0
VERTEX
  8
EGA-301.PLT
 62
7
 10
66.87456671
 20
18.45020108
  0
VERTEX
  8
EGA-301.PLT
 62
7
 10
66.83746902
 20
18.47517174
  0
VERTEX
  8
EGA-301.PLT
 62
7
 10
66.80088699
 20
18.49646279
  0
VERTEX
  8
EGA-301.PLT
 62
7
 10
66.76400031
 20
18.51462496
  0
VERTEX
  8
EGA-301.PLT
 62
7
 10
66.72598863
 20
18.53020903
  0
VERTEX
  8
EGA-301.PLT
 62
7
 10
66.68603162
 20
18.54376574
  0
VERTEX
  8
EGA-301.PLT
 62
7
 10
66.64330897
 20
18.55584586
  0
VERTEX
  8
EGA-301.PLT
 62
7
 10
66.59700033
 20
18.56700013
  0
VERTEX
  8
EGA-301.PLT
 62
7
 10
66.53721887
 20
18.57621883
  0
VERTEX
  8
EGA-301.PLT
 62
7
 10
66.46675014
 20
18.58225004
  0
VERTEX
  8
EGA-301.PLT
 62
7
 10
66.39590642
 20
18.58640627
  0
VERTEX
  8
EGA-301.PLT
 62
7
 10
66.33499996
 20
18.59000000
  0
VERTEX
  8
EGA-301.PLT
 62
7
 10
66.38468771
 20
18.53625016
  0
VERTEX
  8
EGA-301.PLT
 62
7
 10
66.43175022
 20
18.48025016
  0
VERTEX
  8
EGA-301.PLT
 62
7
 10
66.47618757
 20
18.42237517
  0
VERTEX
  8
EGA-301.PLT
 62
7
 10
66.51799985
 20
18.36300036
  0
VERTEX
  8
EGA-301.PLT
 62
7
 10
66.56264076
 20
18.34967217
  0
VERTEX
  8
EGA-301.PLT
 62
7
 10
66.60212518
 20
18.33062508
  0
VERTEX
  8
EGA-301.PLT
 62
7
 10
66.63654696
 20
18.30576553
  0
VERTEX
  8
EGA-301.PLT
 62
7
 10
66.66599994
 20
18.27499993
  0
VERTEX
  8
EGA-301.PLT
 62
7
 10
66.69112494
 20
18.23789062
  0
VERTEX
  8
EGA-301.PLT
 62
7
 10
66.70950015
 20
18.19862490
  0
VERTEX
  8
EGA-301.PLT
 62
7
 10
66.72112541
 20
18.15729669
  0
VERTEX
  8
EGA-301.PLT
 62
7
 10
66.72600052
 20
18.11399992
  0
VERTEX
  8
EGA-301.PLT
 62
7
 10
66.77900022
 20
18.09300004
  0
VERTEX
  8
EGA-301.PLT
 62
7
 10
66.85087493
 20
18.06425020
  0
VERTEX
  8
EGA-301.PLT
 62
7
 10
66.90100046
 20
18.04000034
  0
VERTEX
  8
EGA-301.PLT
 62
7
 10
66.93584401
 20
18.01784368
  0
VERTEX
  8
EGA-301.PLT
 62
7
 10
66.96675008
 20
17.99324979
  0
VERTEX
  8
EGA-301.PLT
 62
7
 10
66.99353118
 20
17.96603110
  0
VERTEX
  8
EGA-301.PLT
 62
7
 10
67.01599981
 20
17.93600000
  0
VERTEX
  8
EGA-301.PLT
 62
7
 10
67.03705077
 20
17.90309363
  0
VERTEX
  8
EGA-301.PLT
 62
7
 10
67.05521887
 20
17.87037483
  0
VERTEX
  8
EGA-301.PLT
 62
7
 10
67.07052754
 20
17.83784356
  0
VERTEX
  8
EGA-301.PLT
 62
7
 10
67.08300024
 20
17.80549982
  0
VERTEX
  8
EGA-301.PLT
 62
7
 10
67.09266040
 20
17.77334357
  0
VERTEX
  8
EGA-301.PLT
 62
7
 10
67.09953149
 20
17.74137480
  0
VERTEX
  8
EGA-301.PLT
 62
7
 10
67.10363695
 20
17.70959349
  0
VERTEX
  8
EGA-301.PLT
 62
7
 10
67.10500023
 20
17.67799961
  0
VERTEX
  8
EGA-301.PLT
 62
7
 10
67.10300024
 20
17.63099988
  0
VERTEX
  8
EGA-301.PLT
 62
7
 10
67.09000031
 20
17.52799954
  0
VERTEX
  8
EGA-301.PLT
 62
7
 10
67.10779709
 20
17.48242166
  0
VERTEX
  8
EGA-301.PLT
 62
7
 10
67.12062514
 20
17.43562495
  0
VERTEX
  8
EGA-301.PLT
 62
7
 10
67.12839072
 20
17.38751557
  0
VERTEX
  8
EGA-301.PLT
 62
7
 10
67.13100008
 20
17.33799969
  0
VERTEX
  8
EGA-301.PLT
 62
7
 10
67.13062508
 20
17.30799986
  0
VERTEX
  8
EGA-301.PLT
 62
7
 10
67.12800010
 20
17.27800003
  0
VERTEX
  8
EGA-301.PLT
 62
7
 10
67.12050404
 20
17.23299998
  0
VERTEX
  8
EGA-301.PLT
 62
7
 10
67.10928144
 20
17.19024998
  0
VERTEX
  8
EGA-301.PLT
 62
7
 10
67.09435571
 20
17.14975001
  0
VERTEX
  8
EGA-301.PLT
 62
7
 10
67.07575028
 20
17.11150005
  0
VERTEX
  8
EGA-301.PLT
 62
7
 10
67.05348857
 20
17.07550007
  0
VERTEX
  8
EGA-301.PLT
 62
7
 10
67.02759402
 20
17.04175007
  0
VERTEX
  8
EGA-301.PLT
 62
7
 10
66.99809006
 20
17.01025000
  0
VERTEX
  8
EGA-301.PLT
 62
7
 10
66.96500009
 20
16.98099986
  0
VERTEX
  8
EGA-301.PLT
 62
7
 10
66.95900013
 20
16.92300019
  0
VERTEX
  8
EGA-301.PLT
 62
7
 10
66.95173454
 20
16.85848439
  0
VERTEX
  8
EGA-301.PLT
 62
7
 10
66.94062523
 20
16.80287506
  0
VERTEX
  8
EGA-301.PLT
 62
7
 10
66.92595344
 20
16.75607835
  0
VERTEX
  8
EGA-301.PLT
 62
7
 10
66.90800042
 20
16.71800042
  0
VERTEX
  8
EGA-301.PLT
 62
7
 10
66.87293758
 20
16.66700018
  0
VERTEX
  8
EGA-301.PLT
 62
7
 10
66.83225004
 20
16.62200016
  0
VERTEX
  8
EGA-301.PLT
 62
7
 10
66.78593770
 20
16.58300028
  0
VERTEX
  8
EGA-301.PLT
 62
7
 10
66.73400048
 20
16.55000045
  0
VERTEX
  8
EGA-301.PLT
 62
7
 10
66.68264084
 20
16.52487506
  0
VERTEX
  8
EGA-301.PLT
 62
7
 10
66.62912515
 20
16.50649989
  0
VERTEX
  8
EGA-301.PLT
 62
7
 10
66.57354696
 20
16.49487485
  0
VERTEX
  8
EGA-301.PLT
 62
7
 10
66.51599986
 20
16.48999987
  0
VERTEX
  8
EGA-301.PLT
 62
7
 10
66.46603125
 20
16.36924986
  0
VERTEX
  8
EGA-301.PLT
 62
7
 10
66.41399998
 20
16.24924984
  0
VERTEX
  8
EGA-301.PLT
 62
7
 10
66.36271870
 20
16.12887483
  0
VERTEX
  8
EGA-301.PLT
 62
7
 10
66.31500007
 20
16.00699983
  0
VERTEX
  8
EGA-301.PLT
 62
7
 10
66.23109375
 20
15.76506231
  0
VERTEX
  8
EGA-301.PLT
 62
7
 10
66.15225007
 20
15.52124980
  0
VERTEX
  8
EGA-301.PLT
 62
7
 10
66.07678137
 20
15.27631230
  0
VERTEX
  8
EGA-301.PLT
 62
7
 10
66.00299999
 20
15.03099980
  0
VERTEX
  8
EGA-301.PLT
 62
7
 10
65.92987494
 20
14.78187482
  0
VERTEX
  8
EGA-301.PLT
 62
7
 10
65.85899988
 20
14.53199985
  0
VERTEX
  8
EGA-301.PLT
 62
7
 10
65.87267169
 20
14.70146887
  0
VERTEX
  8
EGA-301.PLT
 62
7
 10
65.88962482
 20
14.87075013
  0
VERTEX
  8
EGA-301.PLT
 62
7
 10
65.90976561
 20
15.03965622
  0
VERTEX
  8
EGA-301.PLT
 62
7
 10
65.93300039
 20
15.20799972
  0
VERTEX
  8
EGA-301.PLT
 62
7
 10
65.96464085
 20
15.39334367
  0
VERTEX
  8
EGA-301.PLT
 62
7
 10
66.00162511
 20
15.57774994
  0
VERTEX
  8
EGA-301.PLT
 62
7
 10
66.04029704
 20
15.76178122
  0
VERTEX
  8
EGA-301.PLT
 62
7
 10
66.07700050
 20
15.94600017
  0
VERTEX
  8
EGA-301.PLT
 62
7
 10
66.08810981
 20
16.02440614
  0
VERTEX
  8
EGA-301.PLT
 62
7
 10
66.09912537
 20
16.12174975
  0
VERTEX
  8
EGA-301.PLT
 62
7
 10
66.11032843
 20
16.22246853
  0
VERTEX
  8
EGA-301.PLT
 62
7
 10
66.12200024
 20
16.31099995
  0
VERTEX
  8
EGA-301.PLT
 62
7
 10
66.05812514
 20
16.25837514
  0
VERTEX
  8
EGA-301.PLT
 62
7
 10
66.01599992
 20
16.21999954
  0
VERTEX
  8
EGA-301.PLT
 62
7
 10
65.98812508
 20
16.19499969
  0
VERTEX
  8
EGA-301.PLT
 62
7
 10
65.94900030
 20
16.16399986
  0
VERTEX
  8
EGA-301.PLT
 62
7
 10
65.92911509
 20
16.14761242
  0
VERTEX
  8
EGA-301.PLT
 62
7
 10
65.91049658
 20
16.12974988
  0
VERTEX
  8
EGA-301.PLT
 62
7
 10
65.89351995
 20
16.11045664
  0
VERTEX
  8
EGA-301.PLT
 62
7
 10
65.87856036
 20
16.08977711
  0
VERTEX
  8
EGA-301.PLT
 62
7
 10
65.86599299
 20
16.06775568
  0
VERTEX
  8
EGA-301.PLT
 62
7
 10
65.85619301
 20
16.04443677
  0
VERTEX
  8
EGA-301.PLT
 62
7
 10
65.84953558
 20
16.01986476
  0
VERTEX
  8
EGA-301.PLT
 62
7
 10
65.84639588
 20
15.99408408
  0
VERTEX
  8
EGA-301.PLT
 62
7
 10
65.84175033
 20
15.91641038
  0
VERTEX
  8
EGA-301.PLT
 62
7
 10
65.84044957
 20
15.84988601
  0
VERTEX
  8
EGA-301.PLT
 62
7
 10
65.81517403
 20
15.86119143
  0
VERTEX
  8
EGA-301.PLT
 62
7
 10
65.78085266
 20
15.88015769
  0
VERTEX
  8
EGA-301.PLT
 62
7
 10
65.74288174
 20
15.90442855
  0
VERTEX
  8
EGA-301.PLT
 62
7
 10
65.70665754
 20
15.93164780
  0
VERTEX
  8
EGA-301.PLT
 62
7
 10
65.64530011
 20
15.98472974
  0
VERTEX
  8
EGA-301.PLT
 62
7
 10
65.59063010
 20
16.03712570
  0
VERTEX
  8
EGA-301.PLT
 62
7
 10
65.53980946
 20
16.09237073
  0
SEQEND
  0
POLYLINE
  8
EGA-301.PLT
 62
7
 66
1
 70
1
  0
VERTEX
  8
EGA-301.PLT
 62
7
 10
29.65386670
 20
17.78967895
  0
VERTEX
  8
EGA-301.PLT
 62
7
 10
29.62883081
 20
17.82991235
  0
VERTEX
  8
EGA-301.PLT
 62
7
 10
29.60282959
 20
17.87117114
  0
VERTEX
  8
EGA-301.PLT
 62
7
 10
29.57583520
 20
17.91298071
  0
VERTEX
  8
EGA-301.PLT
 62
7
 10
29.54781982
 20
17.95486645
  0
VERTEX
  8
EGA-301.PLT
 62
7
 10
29.51875561
 20
17.99635376
  0
VERTEX
  8
EGA-301.PLT
 62
7
 10
29.48861474
 20
18.03696801
  0
VERTEX
  8
EGA-301.PLT
 62
7
 10
29.45736938
 20
18.07623461
  0
VERTEX
  8
EGA-301.PLT
 62
7
 10
29.42499170
 20
18.11367895
  0
VERTEX
  8
EGA-301.PLT
 62
7
 10
29.39145385
 20
18.14882641
  0
VERTEX
  8
EGA-301.PLT
 62
7
 10
29.35672802
 20
18.18120239
  0
VERTEX
  8
EGA-301.PLT
 62
7
 10
29.32078637
 20
18.21033227
  0
VERTEX
  8
EGA-301.PLT
 62
7
 10
29.28360107
 20
18.23574145
  0
VERTEX
  8
EGA-301.PLT
 62
7
 10
29.24514428
 20
18.25695532
  0
VERTEX
  8
EGA-301.PLT
 62
7
 10
29.20538818
 20
18.27349926
  0
VERTEX
  8
EGA-301.PLT
 62
7
 10
29.16430493
 20
18.28489868
  0
VERTEX
  8
EGA-301.PLT
 62
7
 10
29.12186670
 20
18.29067895
  0
VERTEX
  8
EGA-301.PLT
 62
7
 10
29.09269873
 20
18.29190356
  0
VERTEX
  8
EGA-301.PLT
 62
7
 10
29.06327295
 20
18.29147583
  0
VERTEX
  8
EGA-301.PLT
 62
7
 10
29.03408154
 20
18.28886840
  0
VERTEX
  8
EGA-301.PLT
 62
7
 10
29.00561670
 20
18.28355395
  0
VERTEX
  8
EGA-301.PLT
 62
7
 10
28.97837060
 20
18.27500512
  0
VERTEX
  8
EGA-301.PLT
 62
7
 10
28.95283545
 20
18.26269458
  0
VERTEX
  8
EGA-301.PLT
 62
7
 10
28.92950342
 20
18.24609497
  0
VERTEX
  8
EGA-301.PLT
 62
7
 10
28.90886670
 20
18.22467895
  0
VERTEX
  8
EGA-301.PLT
 62
7
 10
28.89636084
 20
18.20722192
  0
VERTEX
  8
EGA-301.PLT
 62
7
 10
28.88588232
 20
18.18871020
  0
VERTEX
  8
EGA-301.PLT
 62
7
 10
28.87748974
 20
18.16930786
  0
VERTEX
  8
EGA-301.PLT
 62
7
 10
28.87124170
 20
18.14917895
  0
VERTEX
  8
EGA-301.PLT
 62
7
 10
28.86719677
 20
18.12848754
  0
VERTEX
  8
EGA-301.PLT
 62
7
 10
28.86541357
 20
18.10739770
  0
VERTEX
  8
EGA-301.PLT
 62
7
 10
28.86595068
 20
18.08607348
  0
VERTEX
  8
EGA-301.PLT
 62
7
 10
28.86886670
 20
18.06467895
  0
VERTEX
  8
EGA-301.PLT
 62
7
 10
28.82893310
 20
18.04510473
  0
VERTEX
  8
EGA-301.PLT
 62
7
 10
28.78714795
 20
18.02808520
  0
VERTEX
  8
EGA-301.PLT
 62
7
 10
28.74465967
 20
18.01205004
  0
VERTEX
  8
EGA-301.PLT
 62
7
 10
28.70261670
 20
17.99542895
  0
VERTEX
  8
EGA-301.PLT
 62
7
 10
28.66216748
 20
17.97665161
  0
VERTEX
  8
EGA-301.PLT
 62
7
 10
28.62446045
 20
17.95414770
  0
VERTEX
  8
EGA-301.PLT
 62
7
 10
28.59064404
 20
17.92634692
  0
VERTEX
  8
EGA-301.PLT
 62
7
 10
28.56186670
 20
17.89167895
  0
VERTEX
  8
EGA-301.PLT
 62
7
 10
28.54248779
 20
17.86132934
  0
VERTEX
  8
EGA-301.PLT
 62
7
 10
28.52571045
 20
17.83094458
  0
VERTEX
  8
EGA-301.PLT
 62
7
 10
28.51169873
 20
17.80039575
  0
VERTEX
  8
EGA-301.PLT
 62
7
 10
28.50061670
 20
17.76955395
  0
VERTEX
  8
EGA-301.PLT
 62
7
 10
28.49262842
 20
17.73829028
  0
VERTEX
  8
EGA-301.PLT
 62
7
 10
28.48789795
 20
17.70647583
  0
VERTEX
  8
EGA-301.PLT
 62
7
 10
28.48658935
 20
17.67398169
  0
VERTEX
  8
EGA-301.PLT
 62
7
 10
28.48886670
 20
17.64067895
  0
VERTEX
  8
EGA-301.PLT
 62
7
 10
28.53536670
 20
17.68355395
  0
VERTEX
  8
EGA-301.PLT
 62
7
 10
28.58786670
 20
17.71967895
  0
VERTEX
  8
EGA-301.PLT
 62
7
 10
28.63569482
 20
17.74330395
  0
VERTEX
  8
EGA-301.PLT
 62
7
 10
28.68474170
 20
17.76017895
  0
VERTEX
  8
EGA-301.PLT
 62
7
 10
28.73510107
 20
17.77030395
  0
VERTEX
  8
EGA-301.PLT
 62
7
 10
28.78686670
 20
17.77367895
  0
VERTEX
  8
EGA-301.PLT
 62
7
 10
28.81727295
 20
17.77253833
  0
VERTEX
  8
EGA-301.PLT
 62
7
 10
28.84711670
 20
17.76905395
  0
VERTEX
  8
EGA-301.PLT
 62
7
 10
28.87658545
 20
17.76313208
  0
VERTEX
  8
EGA-301.PLT
 62
7
 10
28.90586670
 20
17.75467895
  0
VERTEX
  8
EGA-301.PLT
 62
7
 10
28.95743896
 20
17.73426684
  0
VERTEX
  8
EGA-301.PLT
 62
7
 10
29.00588232
 20
17.70875708
  0
VERTEX
  8
EGA-301.PLT
 62
7
 10
29.05153662
 20
17.67886450
  0
VERTEX
  8
EGA-301.PLT
 62
7
 10
29.09474170
 20
17.64530395
  0
VERTEX
  8
EGA-301.PLT
 62
7
 10
29.13583740
 20
17.60879028
  0
VERTEX
  8
EGA-301.PLT
 62
7
 10
29.17516357
 20
17.57003833
  0
VERTEX
  8
EGA-301.PLT
 62
7
 10
29.21306006
 20
17.52976294
  0
VERTEX
  8
EGA-301.PLT
 62
7
 10
29.24986670
 20
17.48867895
  0
VERTEX
  8
EGA-301.PLT
 62
7
 10
29.25799170
 20
17.51105395
  0
VERTEX
  8
EGA-301.PLT
 62
7
 10
29.26986670
 20
17.53267895
  0
VERTEX
  8
EGA-301.PLT
 62
7
 10
29.28449170
 20
17.55410278
  0
VERTEX
  8
EGA-301.PLT
 62
7
 10
29.30061670
 20
17.57263208
  0
VERTEX
  8
EGA-301.PLT
 62
7
 10
29.31824170
 20
17.58827856
  0
VERTEX
  8
EGA-301.PLT
 62
7
 10
29.33736670
 20
17.60105395
  0
VERTEX
  8
EGA-301.PLT
 62
7
 10
29.35799170
 20
17.61096997
  0
VERTEX
  8
EGA-301.PLT
 62
7
 10
29.38011670
 20
17.61803833
  0
VERTEX
  8
EGA-301.PLT
 62
7
 10
29.40374170
 20
17.62227075
  0
VERTEX
  8
EGA-301.PLT
 62
7
 10
29.42886670
 20
17.62367895
  0
VERTEX
  8
EGA-301.PLT
 62
7
 10
29.45224170
 20
17.62217895
  0
VERTEX
  8
EGA-301.PLT
 62
7
 10
29.47486670
 20
17.61767895
  0
VERTEX
  8
EGA-301.PLT
 62
7
 10
29.48106982
 20
17.64955395
  0
VERTEX
  8
EGA-301.PLT
 62
7
 10
29.49224170
 20
17.67917895
  0
VERTEX
  8
EGA-301.PLT
 62
7
 10
29.50847607
 20
17.70655395
  0
VERTEX
  8
EGA-301.PLT
 62
7
 10
29.52986670
 20
17.73167895
  0
VERTEX
  8
EGA-301.PLT
 62
7
 10
29.55683545
 20
17.75550708
  0
VERTEX
  8
EGA-301.PLT
 62
7
 10
29.58661670
 20
17.77305395
  0
VERTEX
  8
EGA-301.PLT
 62
7
 10
29.61902295
 20
17.78441333
  0
SEQEND
  0
POLYLINE
  8
EGA-301.PLT
 62
7
 66
1
 70
1
  0
VERTEX
  8
EGA-301.PLT
 62
7
 10
65.85813330
 20
17.78967895
  0
VERTEX
  8
EGA-301.PLT
 62
7
 10
65.89297705
 20
17.78441333
  0
VERTEX
  8
EGA-301.PLT
 62
7
 10
65.92538330
 20
17.77305395
  0
VERTEX
  8
EGA-301.PLT
 62
7
 10
65.95516455
 20
17.75550708
  0
VERTEX
  8
EGA-301.PLT
 62
7
 10
65.98213330
 20
17.73167895
  0
VERTEX
  8
EGA-301.PLT
 62
7
 10
66.00352393
 20
17.70655395
  0
VERTEX
  8
EGA-301.PLT
 62
7
 10
66.01975830
 20
17.67917895
  0
VERTEX
  8
EGA-301.PLT
 62
7
 10
66.03093018
 20
17.64955395
  0
VERTEX
  8
EGA-301.PLT
 62
7
 10
66.03713330
 20
17.61767895
  0
VERTEX
  8
EGA-301.PLT
 62
7
 10
66.05975830
 20
17.62217895
  0
VERTEX
  8
EGA-301.PLT
 62
7
 10
66.08313330
 20
17.62367895
  0
VERTEX
  8
EGA-301.PLT
 62
7
 10
66.10825830
 20
17.62227075
  0
VERTEX
  8
EGA-301.PLT
 62
7
 10
66.13188330
 20
17.61803833
  0
VERTEX
  8
EGA-301.PLT
 62
7
 10
66.15400830
 20
17.61096997
  0
VERTEX
  8
EGA-301.PLT
 62
7
 10
66.17463330
 20
17.60105395
  0
VERTEX
  8
EGA-301.PLT
 62
7
 10
66.19375830
 20
17.58827856
  0
VERTEX
  8
EGA-301.PLT
 62
7
 10
66.21138330
 20
17.57263208
  0
VERTEX
  8
EGA-301.PLT
 62
7
 10
66.22750830
 20
17.55410278
  0
VERTEX
  8
EGA-301.PLT
 62
7
 10
66.24213330
 20
17.53267895
  0
VERTEX
  8
EGA-301.PLT
 62
7
 10
66.25400830
 20
17.51105395
  0
VERTEX
  8
EGA-301.PLT
 62
7
 10
66.26213330
 20
17.48867895
  0
VERTEX
  8
EGA-301.PLT
 62
7
 10
66.29893994
 20
17.52976294
  0
VERTEX
  8
EGA-301.PLT
 62
7
 10
66.33683643
 20
17.57003833
  0
VERTEX
  8
EGA-301.PLT
 62
7
 10
66.37616260
 20
17.60879028
  0
VERTEX
  8
EGA-301.PLT
 62
7
 10
66.41725830
 20
17.64530395
  0
VERTEX
  8
EGA-301.PLT
 62
7
 10
66.46046338
 20
17.67886450
  0
VERTEX
  8
EGA-301.PLT
 62
7
 10
66.50611768
 20
17.70875708
  0
VERTEX
  8
EGA-301.PLT
 62
7
 10
66.55456104
 20
17.73426684
  0
VERTEX
  8
EGA-301.PLT
 62
7
 10
66.60613330
 20
17.75467895
  0
VERTEX
  8
EGA-301.PLT
 62
7
 10
66.63541455
 20
17.76313208
  0
VERTEX
  8
EGA-301.PLT
 62
7
 10
66.66488330
 20
17.76905395
  0
VERTEX
  8
EGA-301.PLT
 62
7
 10
66.69472705
 20
17.77253833
  0
VERTEX
  8
EGA-301.PLT
 62
7
 10
66.72513330
 20
17.77367895
  0
VERTEX
  8
EGA-301.PLT
 62
7
 10
66.77689893
 20
17.77030395
  0
VERTEX
  8
EGA-301.PLT
 62
7
 10
66.82725830
 20
17.76017895
  0
VERTEX
  8
EGA-301.PLT
 62
7
 10
66.87630518
 20
17.74330395
  0
VERTEX
  8
EGA-301.PLT
 62
7
 10
66.92413330
 20
17.71967895
  0
VERTEX
  8
EGA-301.PLT
 62
7
 10
66.97663330
 20
17.68355395
  0
VERTEX
  8
EGA-301.PLT
 62
7
 10
67.02313330
 20
17.64067895
  0
VERTEX
  8
EGA-301.PLT
 62
7
 10
67.02541065
 20
17.67398169
  0
VERTEX
  8
EGA-301.PLT
 62
7
 10
67.02410205
 20
17.70647583
  0
VERTEX
  8
EGA-301.PLT
 62
7
 10
67.01937158
 20
17.73829028
  0
VERTEX
  8
EGA-301.PLT
 62
7
 10
67.01138330
 20
17.76955395
  0
VERTEX
  8
EGA-301.PLT
 62
7
 10
67.00030127
 20
17.80039575
  0
VERTEX
  8
EGA-301.PLT
 62
7
 10
66.98628955
 20
17.83094458
  0
VERTEX
  8
EGA-301.PLT
 62
7
 10
66.96951221
 20
17.86132934
  0
VERTEX
  8
EGA-301.PLT
 62
7
 10
66.95013330
 20
17.89167895
  0
VERTEX
  8
EGA-301.PLT
 62
7
 10
66.92135596
 20
17.92634692
  0
VERTEX
  8
EGA-301.PLT
 62
7
 10
66.88753955
 20
17.95414770
  0
VERTEX
  8
EGA-301.PLT
 62
7
 10
66.84983252
 20
17.97665161
  0
VERTEX
  8
EGA-301.PLT
 62
7
 10
66.80938330
 20
17.99542895
  0
VERTEX
  8
EGA-301.PLT
 62
7
 10
66.76734033
 20
18.01205004
  0
VERTEX
  8
EGA-301.PLT
 62
7
 10
66.72485205
 20
18.02808520
  0
VERTEX
  8
EGA-301.PLT
 62
7
 10
66.68306690
 20
18.04510473
  0
VERTEX
  8
EGA-301.PLT
 62
7
 10
66.64313330
 20
18.06467895
  0
VERTEX
  8
EGA-301.PLT
 62
7
 10
66.64604932
 20
18.08607348
  0
VERTEX
  8
EGA-301.PLT
 62
7
 10
66.64658643
 20
18.10739770
  0
VERTEX
  8
EGA-301.PLT
 62
7
 10
66.64480323
 20
18.12848754
  0
VERTEX
  8
EGA-301.PLT
 62
7
 10
66.64075830
 20
18.14917895
  0
VERTEX
  8
EGA-301.PLT
 62
7
 10
66.63451026
 20
18.16930786
  0
VERTEX
  8
EGA-301.PLT
 62
7
 10
66.62611768
 20
18.18871020
  0
VERTEX
  8
EGA-301.PLT
 62
7
 10
66.61563916
 20
18.20722192
  0
VERTEX
  8
EGA-301.PLT
 62
7
 10
66.60313330
 20
18.22467895
  0
VERTEX
  8
EGA-301.PLT
 62
7
 10
66.58249658
 20
18.24609497
  0
VERTEX
  8
EGA-301.PLT
 62
7
 10
66.55916455
 20
18.26269458
  0
VERTEX
  8
EGA-301.PLT
 62
7
 10
66.53362940
 20
18.27500512
  0
VERTEX
  8
EGA-301.PLT
 62
7
 10
66.50638330
 20
18.28355395
  0
VERTEX
  8
EGA-301.PLT
 62
7
 10
66.47791846
 20
18.28886840
  0
VERTEX
  8
EGA-301.PLT
 62
7
 10
66.44872705
 20
18.29147583
  0
VERTEX
  8
EGA-301.PLT
 62
7
 10
66.41930127
 20
18.29190356
  0
VERTEX
  8
EGA-301.PLT
 62
7
 10
66.39013330
 20
18.29067895
  0
VERTEX
  8
EGA-301.PLT
 62
7
 10
66.34769507
 20
18.28489868
  0
VERTEX
  8
EGA-301.PLT
 62
7
 10
66.30661182
 20
18.27349926
  0
VERTEX
  8
EGA-301.PLT
 62
7
 10
66.26685572
 20
18.25695532
  0
VERTEX
  8
EGA-301.PLT
 62
7
 10
66.22839893
 20
18.23574145
  0
VERTEX
  8
EGA-301.PLT
 62
7
 10
66.19121363
 20
18.21033227
  0
VERTEX
  8
EGA-301.PLT
 62
7
 10
66.15527198
 20
18.18120239
  0
VERTEX
  8
EGA-301.PLT
 62
7
 10
66.12054615
 20
18.14882641
  0
VERTEX
  8
EGA-301.PLT
 62
7
 10
66.08700830
 20
18.11367895
  0
VERTEX
  8
EGA-301.PLT
 62
7
 10
66.05463062
 20
18.07623461
  0
VERTEX
  8
EGA-301.PLT
 62
7
 10
66.02338526
 20
18.03696801
  0
VERTEX
  8
EGA-301.PLT
 62
7
 10
65.99324439
 20
17.99635376
  0
VERTEX
  8
EGA-301.PLT
 62
7
 10
65.96418018
 20
17.95486645
  0
VERTEX
  8
EGA-301.PLT
 62
7
 10
65.93616480
 20
17.91298071
  0
VERTEX
  8
EGA-301.PLT
 62
7
 10
65.90917041
 20
17.87117114
  0
VERTEX
  8
EGA-301.PLT
 62
7
 10
65.88316919
 20
17.82991235
  0
SEQEND
  0
POLYLINE
  8
EGA-301.PLT
 62
7
 66
1
 70
1
  0
VERTEX
  8
EGA-301.PLT
 62
7
 10
30.07300000
 20
17.45463115
  0
VERTEX
  8
EGA-301.PLT
 62
7
 10
30.10677930
 20
17.49078935
  0
VERTEX
  8
EGA-301.PLT
 62
7
 10
30.14729687
 20
17.52658427
  0
VERTEX
  8
EGA-301.PLT
 62
7
 10
30.19219727
 20
17.56099638
  0
VERTEX
  8
EGA-301.PLT
 62
7
 10
30.23912500
 20
17.59300615
  0
VERTEX
  8
EGA-301.PLT
 62
7
 10
30.28572461
 20
17.62159404
  0
VERTEX
  8
EGA-301.PLT
 62
7
 10
30.32964063
 20
17.64574052
  0
VERTEX
  8
EGA-301.PLT
 62
7
 10
30.36851758
 20
17.66442607
  0
VERTEX
  8
EGA-301.PLT
 62
7
 10
30.40000000
 20
17.67663115
  0
VERTEX
  8
EGA-301.PLT
 62
7
 10
30.43038086
 20
17.68577763
  0
VERTEX
  8
EGA-301.PLT
 62
7
 10
30.46135938
 20
17.69336552
  0
VERTEX
  8
EGA-301.PLT
 62
7
 10
30.49268945
 20
17.69886747
  0
VERTEX
  8
EGA-301.PLT
 62
7
 10
30.52412500
 20
17.70175615
  0
VERTEX
  8
EGA-301.PLT
 62
7
 10
30.55541992
 20
17.70150419
  0
VERTEX
  8
EGA-301.PLT
 62
7
 10
30.58632813
 20
17.69758427
  0
VERTEX
  8
EGA-301.PLT
 62
7
 10
30.61660352
 20
17.68946904
  0
VERTEX
  8
EGA-301.PLT
 62
7
 10
30.64600000
 20
17.67663115
  0
VERTEX
  8
EGA-301.PLT
 62
7
 10
30.67091016
 20
17.66147490
  0
VERTEX
  8
EGA-301.PLT
 62
7
 10
30.69378125
 20
17.64388115
  0
VERTEX
  8
EGA-301.PLT
 62
7
 10
30.71444922
 20
17.62403740
  0
VERTEX
  8
EGA-301.PLT
 62
7
 10
30.73275000
 20
17.60213115
  0
VERTEX
  8
EGA-301.PLT
 62
7
 10
30.74851953
 20
17.57834990
  0
VERTEX
  8
EGA-301.PLT
 62
7
 10
30.76159375
 20
17.55288115
  0
VERTEX
  8
EGA-301.PLT
 62
7
 10
30.77180859
 20
17.52591240
  0
VERTEX
  8
EGA-301.PLT
 62
7
 10
30.77900000
 20
17.49763115
  0
VERTEX
  8
EGA-301.PLT
 62
7
 10
30.79943750
 20
17.55133427
  0
VERTEX
  8
EGA-301.PLT
 62
7
 10
30.81275000
 20
17.60700615
  0
VERTEX
  8
EGA-301.PLT
 62
7
 10
30.81893750
 20
17.66399052
  0
VERTEX
  8
EGA-301.PLT
 62
7
 10
30.81800000
 20
17.72163115
  0
VERTEX
  8
EGA-301.PLT
 62
7
 10
30.81499609
 20
17.75392412
  0
VERTEX
  8
EGA-301.PLT
 62
7
 10
30.81028125
 20
17.78609990
  0
VERTEX
  8
EGA-301.PLT
 62
7
 10
30.80355078
 20
17.81785380
  0
VERTEX
  8
EGA-301.PLT
 62
7
 10
30.79450000
 20
17.84888115
  0
VERTEX
  8
EGA-301.PLT
 62
7
 10
30.78282422
 20
17.87887724
  0
VERTEX
  8
EGA-301.PLT
 62
7
 10
30.76821875
 20
17.90753740
  0
VERTEX
  8
EGA-301.PLT
 62
7
 10
30.75037891
 20
17.93455693
  0
VERTEX
  8
EGA-301.PLT
 62
7
 10
30.72900000
 20
17.95963115
  0
VERTEX
  8
EGA-301.PLT
 62
7
 10
30.70390625
 20
17.98288115
  0
VERTEX
  8
EGA-301.PLT
 62
7
 10
30.67675000
 20
18.00313115
  0
VERTEX
  8
EGA-301.PLT
 62
7
 10
30.64771875
 20
18.02038115
  0
VERTEX
  8
EGA-301.PLT
 62
7
 10
30.61700000
 20
18.03463115
  0
VERTEX
  8
EGA-301.PLT
 62
7
 10
30.61064453
 20
18.06380107
  0
VERTEX
  8
EGA-301.PLT
 62
7
 10
30.60140625
 20
18.09192802
  0
VERTEX
  8
EGA-301.PLT
 62
7
 10
30.58940234
 20
18.11881279
  0
VERTEX
  8
EGA-301.PLT
 62
7
 10
30.57475000
 20
18.14425615
  0
VERTEX
  8
EGA-301.PLT
 62
7
 10
30.55756641
 20
18.16805888
  0
VERTEX
  8
EGA-301.PLT
 62
7
 10
30.53796875
 20
18.19002177
  0
VERTEX
  8
EGA-301.PLT
 62
7
 10
30.51607422
 20
18.20994560
  0
VERTEX
  8
EGA-301.PLT
 62
7
 10
30.49200000
 20
18.22763115
  0
VERTEX
  8
EGA-301.PLT
 62
7
 10
30.46896484
 20
18.24072099
  0
VERTEX
  8
EGA-301.PLT
 62
7
 10
30.44496875
 20
18.25097490
  0
VERTEX
  8
EGA-301.PLT
 62
7
 10
30.42017578
 20
18.25874443
  0
VERTEX
  8
EGA-301.PLT
 62
7
 10
30.39475000
 20
18.26438115
  0
VERTEX
  8
EGA-301.PLT
 62
7
 10
30.36885547
 20
18.26823662
  0
VERTEX
  8
EGA-301.PLT
 62
7
 10
30.34265625
 20
18.27066240
  0
VERTEX
  8
EGA-301.PLT
 62
7
 10
30.31631641
 20
18.27201005
  0
VERTEX
  8
EGA-301.PLT
 62
7
 10
30.29000000
 20
18.27263115
  0
VERTEX
  8
EGA-301.PLT
 62
7
 10
30.25273828
 20
18.27124052
  0
VERTEX
  8
EGA-301.PLT
 62
7
 10
30.21596875
 20
18.26656865
  0
VERTEX
  8
EGA-301.PLT
 62
7
 10
30.17971484
 20
18.25899052
  0
VERTEX
  8
EGA-301.PLT
 62
7
 10
30.14400000
 20
18.24888115
  0
VERTEX
  8
EGA-301.PLT
 62
7
 10
30.10884766
 20
18.23661552
  0
VERTEX
  8
EGA-301.PLT
 62
7
 10
30.07428125
 20
18.22256865
  0
VERTEX
  8
EGA-301.PLT
 62
7
 10
30.04032422
 20
18.20711552
  0
VERTEX
  8
EGA-301.PLT
 62
7
 10
30.00700000
 20
18.19063115
  0
VERTEX
  8
EGA-301.PLT
 62
7
 10
29.98235034
 20
18.17619536
  0
VERTEX
  8
EGA-301.PLT
 62
7
 10
29.95863086
 20
18.15895732
  0
VERTEX
  8
EGA-301.PLT
 62
7
 10
29.93581079
 20
18.13920854
  0
VERTEX
  8
EGA-301.PLT
 62
7
 10
29.91385938
 20
18.11724052
  0
VERTEX
  8
EGA-301.PLT
 62
7
 10
29.89274585
 20
18.09334477
  0
VERTEX
  8
EGA-301.PLT
 62
7
 10
29.87243945
 20
18.06781279
  0
VERTEX
  8
EGA-301.PLT
 62
7
 10
29.85290942
 20
18.04093608
  0
VERTEX
  8
EGA-301.PLT
 62
7
 10
29.83412500
 20
18.01300615
  0
VERTEX
  8
EGA-301.PLT
 62
7
 10
29.81605542
 20
17.98431450
  0
VERTEX
  8
EGA-301.PLT
 62
7
 10
29.79866992
 20
17.95515263
  0
VERTEX
  8
EGA-301.PLT
 62
7
 10
29.78193774
 20
17.92581205
  0
VERTEX
  8
EGA-301.PLT
 62
7
 10
29.76582812
 20
17.89658427
  0
VERTEX
  8
EGA-301.PLT
 62
7
 10
29.75031030
 20
17.86776078
  0
VERTEX
  8
EGA-301.PLT
 62
7
 10
29.73535352
 20
17.83963310
  0
VERTEX
  8
EGA-301.PLT
 62
7
 10
29.72092700
 20
17.81249272
  0
VERTEX
  8
EGA-301.PLT
 62
7
 10
29.70700000
 20
17.78663115
  0
VERTEX
  8
EGA-301.PLT
 62
7
 10
29.72937500
 20
17.78075615
  0
VERTEX
  8
EGA-301.PLT
 62
7
 10
29.75100000
 20
17.77263115
  0
VERTEX
  8
EGA-301.PLT
 62
7
 10
29.77854688
 20
17.75861552
  0
VERTEX
  8
EGA-301.PLT
 62
7
 10
29.80262500
 20
17.74075615
  0
VERTEX
  8
EGA-301.PLT
 62
7
 10
29.82314063
 20
17.71933427
  0
VERTEX
  8
EGA-301.PLT
 62
7
 10
29.84000000
 20
17.69463115
  0
VERTEX
  8
EGA-301.PLT
 62
7
 10
29.84921875
 20
17.67717802
  0
VERTEX
  8
EGA-301.PLT
 62
7
 10
29.85600000
 20
17.65925615
  0
VERTEX
  8
EGA-301.PLT
 62
7
 10
29.86053125
 20
17.64077177
  0
VERTEX
  8
EGA-301.PLT
 62
7
 10
29.86300000
 20
17.62163115
  0
VERTEX
  8
EGA-301.PLT
 62
7
 10
29.89400000
 20
17.62363115
  0
VERTEX
  8
EGA-301.PLT
 62
7
 10
29.92537500
 20
17.62113115
  0
VERTEX
  8
EGA-301.PLT
 62
7
 10
29.95600000
 20
17.61263115
  0
VERTEX
  8
EGA-301.PLT
 62
7
 10
29.99068750
 20
17.59633427
  0
VERTEX
  8
EGA-301.PLT
 62
7
 10
30.01975000
 20
17.57450615
  0
VERTEX
  8
EGA-301.PLT
 62
7
 10
30.04318750
 20
17.54724052
  0
VERTEX
  8
EGA-301.PLT
 62
7
 10
30.06100000
 20
17.51463115
  0
VERTEX
  8
EGA-301.PLT
 62
7
 10
30.07000000
 20
17.48538115
  0
SEQEND
  0
POLYLINE
  8
EGA-301.PLT
 62
7
 66
1
 70
1
  0
VERTEX
  8
EGA-301.PLT
 62
7
 10
65.43900000
 20
17.45463115
  0
VERTEX
  8
EGA-301.PLT
 62
7
 10
65.44200000
 20
17.48538115
  0
VERTEX
  8
EGA-301.PLT
 62
7
 10
65.45100000
 20
17.51463115
  0
VERTEX
  8
EGA-301.PLT
 62
7
 10
65.46881250
 20
17.54724052
  0
VERTEX
  8
EGA-301.PLT
 62
7
 10
65.49225000
 20
17.57450615
  0
VERTEX
  8
EGA-301.PLT
 62
7
 10
65.52131250
 20
17.59633427
  0
VERTEX
  8
EGA-301.PLT
 62
7
 10
65.55600000
 20
17.61263115
  0
VERTEX
  8
EGA-301.PLT
 62
7
 10
65.58662500
 20
17.62113115
  0
VERTEX
  8
EGA-301.PLT
 62
7
 10
65.61800000
 20
17.62363115
  0
VERTEX
  8
EGA-301.PLT
 62
7
 10
65.64900000
 20
17.62163115
  0
VERTEX
  8
EGA-301.PLT
 62
7
 10
65.65146875
 20
17.64077177
  0
VERTEX
  8
EGA-301.PLT
 62
7
 10
65.65600000
 20
17.65925615
  0
VERTEX
  8
EGA-301.PLT
 62
7
 10
65.66278125
 20
17.67717802
  0
VERTEX
  8
EGA-301.PLT
 62
7
 10
65.67200000
 20
17.69463115
  0
VERTEX
  8
EGA-301.PLT
 62
7
 10
65.68885938
 20
17.71933427
  0
VERTEX
  8
EGA-301.PLT
 62
7
 10
65.70937500
 20
17.74075615
  0
VERTEX
  8
EGA-301.PLT
 62
7
 10
65.73345312
 20
17.75861552
  0
VERTEX
  8
EGA-301.PLT
 62
7
 10
65.76100000
 20
17.77263115
  0
VERTEX
  8
EGA-301.PLT
 62
7
 10
65.78262500
 20
17.78075615
  0
VERTEX
  8
EGA-301.PLT
 62
7
 10
65.80500000
 20
17.78663115
  0
VERTEX
  8
EGA-301.PLT
 62
7
 10
65.79107300
 20
17.81249272
  0
VERTEX
  8
EGA-301.PLT
 62
7
 10
65.77664648
 20
17.83963310
  0
VERTEX
  8
EGA-301.PLT
 62
7
 10
65.76168970
 20
17.86776078
  0
VERTEX
  8
EGA-301.PLT
 62
7
 10
65.74617188
 20
17.89658427
  0
VERTEX
  8
EGA-301.PLT
 62
7
 10
65.73006226
 20
17.92581205
  0
VERTEX
  8
EGA-301.PLT
 62
7
 10
65.71333008
 20
17.95515263
  0
VERTEX
  8
EGA-301.PLT
 62
7
 10
65.69594458
 20
17.98431450
  0
VERTEX
  8
EGA-301.PLT
 62
7
 10
65.67787500
 20
18.01300615
  0
VERTEX
  8
EGA-301.PLT
 62
7
 10
65.65909058
 20
18.04093608
  0
VERTEX
  8
EGA-301.PLT
 62
7
 10
65.63956055
 20
18.06781279
  0
VERTEX
  8
EGA-301.PLT
 62
7
 10
65.61925415
 20
18.09334477
  0
VERTEX
  8
EGA-301.PLT
 62
7
 10
65.59814062
 20
18.11724052
  0
VERTEX
  8
EGA-301.PLT
 62
7
 10
65.57618921
 20
18.13920854
  0
VERTEX
  8
EGA-301.PLT
 62
7
 10
65.55336914
 20
18.15895732
  0
VERTEX
  8
EGA-301.PLT
 62
7
 10
65.52964966
 20
18.17619536
  0
VERTEX
  8
EGA-301.PLT
 62
7
 10
65.50500000
 20
18.19063115
  0
VERTEX
  8
EGA-301.PLT
 62
7
 10
65.47167578
 20
18.20711552
  0
VERTEX
  8
EGA-301.PLT
 62
7
 10
65.43771875
 20
18.22256865
  0
VERTEX
  8
EGA-301.PLT
 62
7
 10
65.40315234
 20
18.23661552
  0
VERTEX
  8
EGA-301.PLT
 62
7
 10
65.36800000
 20
18.24888115
  0
VERTEX
  8
EGA-301.PLT
 62
7
 10
65.33228516
 20
18.25899052
  0
VERTEX
  8
EGA-301.PLT
 62
7
 10
65.29603125
 20
18.26656865
  0
VERTEX
  8
EGA-301.PLT
 62
7
 10
65.25926172
 20
18.27124052
  0
VERTEX
  8
EGA-301.PLT
 62
7
 10
65.22200000
 20
18.27263115
  0
VERTEX
  8
EGA-301.PLT
 62
7
 10
65.19568359
 20
18.27201005
  0
VERTEX
  8
EGA-301.PLT
 62
7
 10
65.16934375
 20
18.27066240
  0
VERTEX
  8
EGA-301.PLT
 62
7
 10
65.14314453
 20
18.26823662
  0
VERTEX
  8
EGA-301.PLT
 62
7
 10
65.11725000
 20
18.26438115
  0
VERTEX
  8
EGA-301.PLT
 62
7
 10
65.09182422
 20
18.25874443
  0
VERTEX
  8
EGA-301.PLT
 62
7
 10
65.06703125
 20
18.25097490
  0
VERTEX
  8
EGA-301.PLT
 62
7
 10
65.04303516
 20
18.24072099
  0
VERTEX
  8
EGA-301.PLT
 62
7
 10
65.02000000
 20
18.22763115
  0
VERTEX
  8
EGA-301.PLT
 62
7
 10
64.99592578
 20
18.20994560
  0
VERTEX
  8
EGA-301.PLT
 62
7
 10
64.97403125
 20
18.19002177
  0
VERTEX
  8
EGA-301.PLT
 62
7
 10
64.95443359
 20
18.16805888
  0
VERTEX
  8
EGA-301.PLT
 62
7
 10
64.93725000
 20
18.14425615
  0
VERTEX
  8
EGA-301.PLT
 62
7
 10
64.92259766
 20
18.11881279
  0
VERTEX
  8
EGA-301.PLT
 62
7
 10
64.91059375
 20
18.09192802
  0
VERTEX
  8
EGA-301.PLT
 62
7
 10
64.90135547
 20
18.06380107
  0
VERTEX
  8
EGA-301.PLT
 62
7
 10
64.89500000
 20
18.03463115
  0
VERTEX
  8
EGA-301.PLT
 62
7
 10
64.86428125
 20
18.02038115
  0
VERTEX
  8
EGA-301.PLT
 62
7
 10
64.83525000
 20
18.00313115
  0
VERTEX
  8
EGA-301.PLT
 62
7
 10
64.80809375
 20
17.98288115
  0
VERTEX
  8
EGA-301.PLT
 62
7
 10
64.78300000
 20
17.95963115
  0
VERTEX
  8
EGA-301.PLT
 62
7
 10
64.76162109
 20
17.93455693
  0
VERTEX
  8
EGA-301.PLT
 62
7
 10
64.74378125
 20
17.90753740
  0
VERTEX
  8
EGA-301.PLT
 62
7
 10
64.72917578
 20
17.87887724
  0
VERTEX
  8
EGA-301.PLT
 62
7
 10
64.71750000
 20
17.84888115
  0
VERTEX
  8
EGA-301.PLT
 62
7
 10
64.70844922
 20
17.81785380
  0
VERTEX
  8
EGA-301.PLT
 62
7
 10
64.70171875
 20
17.78609990
  0
VERTEX
  8
EGA-301.PLT
 62
7
 10
64.69700391
 20
17.75392412
  0
VERTEX
  8
EGA-301.PLT
 62
7
 10
64.69400000
 20
17.72163115
  0
VERTEX
  8
EGA-301.PLT
 62
7
 10
64.69306250
 20
17.66399052
  0
VERTEX
  8
EGA-301.PLT
 62
7
 10
64.69925000
 20
17.60700615
  0
VERTEX
  8
EGA-301.PLT
 62
7
 10
64.71256250
 20
17.55133427
  0
VERTEX
  8
EGA-301.PLT
 62
7
 10
64.73300000
 20
17.49763115
  0
VERTEX
  8
EGA-301.PLT
 62
7
 10
64.74019141
 20
17.52591240
  0
VERTEX
  8
EGA-301.PLT
 62
7
 10
64.75040625
 20
17.55288115
  0
VERTEX
  8
EGA-301.PLT
 62
7
 10
64.76348047
 20
17.57834990
  0
VERTEX
  8
EGA-301.PLT
 62
7
 10
64.77925000
 20
17.60213115
  0
VERTEX
  8
EGA-301.PLT
 62
7
 10
64.79755078
 20
17.62403740
  0
VERTEX
  8
EGA-301.PLT
 62
7
 10
64.81821875
 20
17.64388115
  0
VERTEX
  8
EGA-301.PLT
 62
7
 10
64.84108984
 20
17.66147490
  0
VERTEX
  8
EGA-301.PLT
 62
7
 10
64.86600000
 20
17.67663115
  0
VERTEX
  8
EGA-301.PLT
 62
7
 10
64.89539648
 20
17.68946904
  0
VERTEX
  8
EGA-301.PLT
 62
7
 10
64.92567188
 20
17.69758427
  0
VERTEX
  8
EGA-301.PLT
 62
7
 10
64.95658008
 20
17.70150419
  0
VERTEX
  8
EGA-301.PLT
 62
7
 10
64.98787500
 20
17.70175615
  0
VERTEX
  8
EGA-301.PLT
 62
7
 10
65.01931055
 20
17.69886747
  0
VERTEX
  8
EGA-301.PLT
 62
7
 10
65.05064063
 20
17.69336552
  0
VERTEX
  8
EGA-301.PLT
 62
7
 10
65.08161914
 20
17.68577763
  0
VERTEX
  8
EGA-301.PLT
 62
7
 10
65.11200000
 20
17.67663115
  0
VERTEX
  8
EGA-301.PLT
 62
7
 10
65.14348242
 20
17.66442607
  0
VERTEX
  8
EGA-301.PLT
 62
7
 10
65.18235938
 20
17.64574052
  0
VERTEX
  8
EGA-301.PLT
 62
7
 10
65.22627539
 20
17.62159404
  0
VERTEX
  8
EGA-301.PLT
 62
7
 10
65.27287500
 20
17.59300615
  0
VERTEX
  8
EGA-301.PLT
 62
7
 10
65.31980273
 20
17.56099638
  0
VERTEX
  8
EGA-301.PLT
 62
7
 10
65.36470313
 20
17.52658427
  0
VERTEX
  8
EGA-301.PLT
 62
7
 10
65.40522070
 20
17.49078935
  0
SEQEND
  0
POLYLINE
  8
EGA-301.PLT
 62
7
 66
1
 70
1
  0
VERTEX
  8
EGA-301.PLT
 62
7
 10
29.48099999
 20
17.13800003
  0
VERTEX
  8
EGA-301.PLT
 62
7
 10
29.44923436
 20
17.12209573
  0
VERTEX
  8
EGA-301.PLT
 62
7
 10
29.41249999
 20
17.10207815
  0
VERTEX
  8
EGA-301.PLT
 62
7
 10
29.37314062
 20
17.07899026
  0
VERTEX
  8
EGA-301.PLT
 62
7
 10
29.33350000
 20
17.05387502
  0
VERTEX
  8
EGA-301.PLT
 62
7
 10
29.29592188
 20
17.02777541
  0
VERTEX
  8
EGA-301.PLT
 62
7
 10
29.26275000
 20
17.00173439
  0
VERTEX
  8
EGA-301.PLT
 62
7
 10
29.23632813
 20
16.97679494
  0
VERTEX
  8
EGA-301.PLT
 62
7
 10
29.21900000
 20
16.95400002
  0
VERTEX
  8
EGA-301.PLT
 62
7
 10
29.20222265
 20
16.91688477
  0
VERTEX
  8
EGA-301.PLT
 62
7
 10
29.19184374
 20
16.87851562
  0
VERTEX
  8
EGA-301.PLT
 62
7
 10
29.18704296
 20
16.83923241
  0
VERTEX
  8
EGA-301.PLT
 62
7
 10
29.18699999
 20
16.79937498
  0
VERTEX
  8
EGA-301.PLT
 62
7
 10
29.19089452
 20
16.75928319
  0
VERTEX
  8
EGA-301.PLT
 62
7
 10
29.19790624
 20
16.71929687
  0
VERTEX
  8
EGA-301.PLT
 62
7
 10
29.20721484
 20
16.67975586
  0
VERTEX
  8
EGA-301.PLT
 62
7
 10
29.21800000
 20
16.64100001
  0
VERTEX
  8
EGA-301.PLT
 62
7
 10
29.22838697
 20
16.61066554
  0
VERTEX
  8
EGA-301.PLT
 62
7
 10
29.24137696
 20
16.58216798
  0
VERTEX
  8
EGA-301.PLT
 62
7
 10
29.25671363
 20
16.55532862
  0
VERTEX
  8
EGA-301.PLT
 62
7
 10
29.27414064
 20
16.52996876
  0
VERTEX
  8
EGA-301.PLT
 62
7
 10
29.29340163
 20
16.50590967
  0
VERTEX
  8
EGA-301.PLT
 62
7
 10
29.31424025
 20
16.48297266
  0
VERTEX
  8
EGA-301.PLT
 62
7
 10
29.33640016
 20
16.46097900
  0
VERTEX
  8
EGA-301.PLT
 62
7
 10
29.35962502
 20
16.43974999
  0
VERTEX
  8
EGA-301.PLT
 62
7
 10
29.38365846
 20
16.41910692
  0
VERTEX
  8
EGA-301.PLT
 62
7
 10
29.40824415
 20
16.39887108
  0
VERTEX
  8
EGA-301.PLT
 62
7
 10
29.43312574
 20
16.37886376
  0
VERTEX
  8
EGA-301.PLT
 62
7
 10
29.45804688
 20
16.35890624
  0
VERTEX
  8
EGA-301.PLT
 62
7
 10
29.48275123
 20
16.33881981
  0
VERTEX
  8
EGA-301.PLT
 62
7
 10
29.50698242
 20
16.31842577
  0
VERTEX
  8
EGA-301.PLT
 62
7
 10
29.53048413
 20
16.29754540
  0
VERTEX
  8
EGA-301.PLT
 62
7
 10
29.55299999
 20
16.27599999
  0
VERTEX
  8
EGA-301.PLT
 62
7
 10
29.57270313
 20
16.25766014
  0
VERTEX
  8
EGA-301.PLT
 62
7
 10
29.59381251
 20
16.24046874
  0
VERTEX
  8
EGA-301.PLT
 62
7
 10
29.61557813
 20
16.22379296
  0
VERTEX
  8
EGA-301.PLT
 62
7
 10
29.63725001
 20
16.20700000
  0
VERTEX
  8
EGA-301.PLT
 62
7
 10
29.65807813
 20
16.18945703
  0
VERTEX
  8
EGA-301.PLT
 62
7
 10
29.67731250
 20
16.17053126
  0
VERTEX
  8
EGA-301.PLT
 62
7
 10
29.69420311
 20
16.14958985
  0
VERTEX
  8
EGA-301.PLT
 62
7
 10
29.70799997
 20
16.12600000
  0
VERTEX
  8
EGA-301.PLT
 62
7
 10
29.72239062
 20
16.09048439
  0
VERTEX
  8
EGA-301.PLT
 62
7
 10
29.73237500
 20
16.05337502
  0
VERTEX
  8
EGA-301.PLT
 62
7
 10
29.73767187
 20
16.01532814
  0
VERTEX
  8
EGA-301.PLT
 62
7
 10
29.73800000
 20
15.97700000
  0
VERTEX
  8
EGA-301.PLT
 62
7
 10
29.81128126
 20
16.04035936
  0
VERTEX
  8
EGA-301.PLT
 62
7
 10
29.87950000
 20
16.10887497
  0
VERTEX
  8
EGA-301.PLT
 62
7
 10
29.94246874
 20
16.18245310
  0
VERTEX
  8
EGA-301.PLT
 62
7
 10
29.99999999
 20
16.26099998
  0
VERTEX
  8
EGA-301.PLT
 62
7
 10
30.01893334
 20
16.28925779
  0
VERTEX
  8
EGA-301.PLT
 62
7
 10
30.03807617
 20
16.31779685
  0
VERTEX
  8
EGA-301.PLT
 62
7
 10
30.05719263
 20
16.34664060
  0
VERTEX
  8
EGA-301.PLT
 62
7
 10
30.07604688
 20
16.37581248
  0
VERTEX
  8
EGA-301.PLT
 62
7
 10
30.09440309
 20
16.40533592
  0
VERTEX
  8
EGA-301.PLT
 62
7
 10
30.11202540
 20
16.43523435
  0
VERTEX
  8
EGA-301.PLT
 62
7
 10
30.12867799
 20
16.46553123
  0
VERTEX
  8
EGA-301.PLT
 62
7
 10
30.14412501
 20
16.49624998
  0
VERTEX
  8
EGA-301.PLT
 62
7
 10
30.15813063
 20
16.52741405
  0
VERTEX
  8
EGA-301.PLT
 62
7
 10
30.17045900
 20
16.55904686
  0
VERTEX
  8
EGA-301.PLT
 62
7
 10
30.18087428
 20
16.59117186
  0
VERTEX
  8
EGA-301.PLT
 62
7
 10
30.18914064
 20
16.62381249
  0
VERTEX
  8
EGA-301.PLT
 62
7
 10
30.19502223
 20
16.65699217
  0
VERTEX
  8
EGA-301.PLT
 62
7
 10
30.19828322
 20
16.69073436
  0
VERTEX
  8
EGA-301.PLT
 62
7
 10
30.19868776
 20
16.72506249
  0
VERTEX
  8
EGA-301.PLT
 62
7
 10
30.19600002
 20
16.75999998
  0
VERTEX
  8
EGA-301.PLT
 62
7
 10
30.19096315
 20
16.78786742
  0
VERTEX
  8
EGA-301.PLT
 62
7
 10
30.18312697
 20
16.81554881
  0
VERTEX
  8
EGA-301.PLT
 62
7
 10
30.17271559
 20
16.84297533
  0
VERTEX
  8
EGA-301.PLT
 62
7
 10
30.15995314
 20
16.87007811
  0
VERTEX
  8
EGA-301.PLT
 62
7
 10
30.14506374
 20
16.89678832
  0
VERTEX
  8
EGA-301.PLT
 62
7
 10
30.12827150
 20
16.92303710
  0
VERTEX
  8
EGA-301.PLT
 62
7
 10
30.10980055
 20
16.94875560
  0
VERTEX
  8
EGA-301.PLT
 62
7
 10
30.08987501
 20
16.97387499
  0
VERTEX
  8
EGA-301.PLT
 62
7
 10
30.06871901
 20
16.99832641
  0
VERTEX
  8
EGA-301.PLT
 62
7
 10
30.04655665
 20
17.02204101
  0
VERTEX
  8
EGA-301.PLT
 62
7
 10
30.02361207
 20
17.04494995
  0
VERTEX
  8
EGA-301.PLT
 62
7
 10
30.00010938
 20
17.06698437
  0
VERTEX
  8
EGA-301.PLT
 62
7
 10
29.97627271
 20
17.08807544
  0
VERTEX
  8
EGA-301.PLT
 62
7
 10
29.95232617
 20
17.10815430
  0
VERTEX
  8
EGA-301.PLT
 62
7
 10
29.92849390
 20
17.12715210
  0
VERTEX
  8
EGA-301.PLT
 62
7
 10
29.90500000
 20
17.14500000
  0
VERTEX
  8
EGA-301.PLT
 62
7
 10
29.88999998
 20
17.09299999
  0
VERTEX
  8
EGA-301.PLT
 62
7
 10
29.86100002
 20
17.07599998
  0
VERTEX
  8
EGA-301.PLT
 62
7
 10
29.83062502
 20
17.06228124
  0
VERTEX
  8
EGA-301.PLT
 62
7
 10
29.79500001
 20
17.05250001
  0
VERTEX
  8
EGA-301.PLT
 62
7
 10
29.75412499
 20
17.04646877
  0
VERTEX
  8
EGA-301.PLT
 62
7
 10
29.70799997
 20
17.04400003
  0
VERTEX
  8
EGA-301.PLT
 62
7
 10
29.58100003
 20
17.04299997
  0
VERTEX
  8
EGA-301.PLT
 62
7
 10
29.54300003
 20
17.04600002
  0
SEQEND
  0
POLYLINE
  8
EGA-301.PLT
 62
7
 66
1
 70
1
  0
VERTEX
  8
EGA-301.PLT
 62
7
 10
66.03100001
 20
17.13800003
  0
VERTEX
  8
EGA-301.PLT
 62
7
 10
65.96899997
 20
17.04600002
  0
VERTEX
  8
EGA-301.PLT
 62
7
 10
65.93099997
 20
17.04299997
  0
VERTEX
  8
EGA-301.PLT
 62
7
 10
65.80400003
 20
17.04400003
  0
VERTEX
  8
EGA-301.PLT
 62
7
 10
65.75787501
 20
17.04646877
  0
VERTEX
  8
EGA-301.PLT
 62
7
 10
65.71699999
 20
17.05250001
  0
VERTEX
  8
EGA-301.PLT
 62
7
 10
65.68137498
 20
17.06228124
  0
VERTEX
  8
EGA-301.PLT
 62
7
 10
65.65099998
 20
17.07599998
  0
VERTEX
  8
EGA-301.PLT
 62
7
 10
65.62200002
 20
17.09299999
  0
VERTEX
  8
EGA-301.PLT
 62
7
 10
65.60700000
 20
17.14500000
  0
VERTEX
  8
EGA-301.PLT
 62
7
 10
65.58350610
 20
17.12715210
  0
VERTEX
  8
EGA-301.PLT
 62
7
 10
65.55967383
 20
17.10815430
  0
VERTEX
  8
EGA-301.PLT
 62
7
 10
65.53572729
 20
17.08807544
  0
VERTEX
  8
EGA-301.PLT
 62
7
 10
65.51189062
 20
17.06698437
  0
VERTEX
  8
EGA-301.PLT
 62
7
 10
65.48838793
 20
17.04494995
  0
VERTEX
  8
EGA-301.PLT
 62
7
 10
65.46544335
 20
17.02204101
  0
VERTEX
  8
EGA-301.PLT
 62
7
 10
65.44328099
 20
16.99832641
  0
VERTEX
  8
EGA-301.PLT
 62
7
 10
65.42212499
 20
16.97387499
  0
VERTEX
  8
EGA-301.PLT
 62
7
 10
65.40219945
 20
16.94875560
  0
VERTEX
  8
EGA-301.PLT
 62
7
 10
65.38372850
 20
16.92303710
  0
VERTEX
  8
EGA-301.PLT
 62
7
 10
65.36693626
 20
16.89678832
  0
VERTEX
  8
EGA-301.PLT
 62
7
 10
65.35204686
 20
16.87007811
  0
VERTEX
  8
EGA-301.PLT
 62
7
 10
65.33928441
 20
16.84297533
  0
VERTEX
  8
EGA-301.PLT
 62
7
 10
65.32887303
 20
16.81554881
  0
VERTEX
  8
EGA-301.PLT
 62
7
 10
65.32103685
 20
16.78786742
  0
VERTEX
  8
EGA-301.PLT
 62
7
 10
65.31599998
 20
16.75999998
  0
VERTEX
  8
EGA-301.PLT
 62
7
 10
65.31331224
 20
16.72506249
  0
VERTEX
  8
EGA-301.PLT
 62
7
 10
65.31371678
 20
16.69073436
  0
VERTEX
  8
EGA-301.PLT
 62
7
 10
65.31697777
 20
16.65699217
  0
VERTEX
  8
EGA-301.PLT
 62
7
 10
65.32285936
 20
16.62381249
  0
VERTEX
  8
EGA-301.PLT
 62
7
 10
65.33112572
 20
16.59117186
  0
VERTEX
  8
EGA-301.PLT
 62
7
 10
65.34154100
 20
16.55904686
  0
VERTEX
  8
EGA-301.PLT
 62
7
 10
65.35386937
 20
16.52741405
  0
VERTEX
  8
EGA-301.PLT
 62
7
 10
65.36787499
 20
16.49624998
  0
VERTEX
  8
EGA-301.PLT
 62
7
 10
65.38332201
 20
16.46553123
  0
VERTEX
  8
EGA-301.PLT
 62
7
 10
65.39997460
 20
16.43523435
  0
VERTEX
  8
EGA-301.PLT
 62
7
 10
65.41759691
 20
16.40533592
  0
VERTEX
  8
EGA-301.PLT
 62
7
 10
65.43595312
 20
16.37581248
  0
VERTEX
  8
EGA-301.PLT
 62
7
 10
65.45480737
 20
16.34664060
  0
VERTEX
  8
EGA-301.PLT
 62
7
 10
65.47392383
 20
16.31779685
  0
VERTEX
  8
EGA-301.PLT
 62
7
 10
65.49306666
 20
16.28925779
  0
VERTEX
  8
EGA-301.PLT
 62
7
 10
65.51200001
 20
16.26099998
  0
VERTEX
  8
EGA-301.PLT
 62
7
 10
65.56953126
 20
16.18245310
  0
VERTEX
  8
EGA-301.PLT
 62
7
 10
65.63250000
 20
16.10887497
  0
VERTEX
  8
EGA-301.PLT
 62
7
 10
65.70071874
 20
16.04035936
  0
VERTEX
  8
EGA-301.PLT
 62
7
 10
65.77400000
 20
15.97700000
  0
VERTEX
  8
EGA-301.PLT
 62
7
 10
65.77432813
 20
16.01532814
  0
VERTEX
  8
EGA-301.PLT
 62
7
 10
65.77962500
 20
16.05337502
  0
VERTEX
  8
EGA-301.PLT
 62
7
 10
65.78960938
 20
16.09048439
  0
VERTEX
  8
EGA-301.PLT
 62
7
 10
65.80400003
 20
16.12600000
  0
VERTEX
  8
EGA-301.PLT
 62
7
 10
65.81779689
 20
16.14958985
  0
VERTEX
  8
EGA-301.PLT
 62
7
 10
65.83468750
 20
16.17053126
  0
VERTEX
  8
EGA-301.PLT
 62
7
 10
65.85392187
 20
16.18945703
  0
VERTEX
  8
EGA-301.PLT
 62
7
 10
65.87474999
 20
16.20700000
  0
VERTEX
  8
EGA-301.PLT
 62
7
 10
65.89642187
 20
16.22379296
  0
VERTEX
  8
EGA-301.PLT
 62
7
 10
65.91818749
 20
16.24046874
  0
VERTEX
  8
EGA-301.PLT
 62
7
 10
65.93929687
 20
16.25766014
  0
VERTEX
  8
EGA-301.PLT
 62
7
 10
65.95900001
 20
16.27599999
  0
VERTEX
  8
EGA-301.PLT
 62
7
 10
65.98151587
 20
16.29754540
  0
VERTEX
  8
EGA-301.PLT
 62
7
 10
66.00501758
 20
16.31842577
  0
VERTEX
  8
EGA-301.PLT
 62
7
 10
66.02924877
 20
16.33881981
  0
VERTEX
  8
EGA-301.PLT
 62
7
 10
66.05395312
 20
16.35890624
  0
VERTEX
  8
EGA-301.PLT
 62
7
 10
66.07887426
 20
16.37886376
  0
VERTEX
  8
EGA-301.PLT
 62
7
 10
66.10375585
 20
16.39887108
  0
VERTEX
  8
EGA-301.PLT
 62
7
 10
66.12834154
 20
16.41910692
  0
VERTEX
  8
EGA-301.PLT
 62
7
 10
66.15237498
 20
16.43974999
  0
VERTEX
  8
EGA-301.PLT
 62
7
 10
66.17559984
 20
16.46097900
  0
VERTEX
  8
EGA-301.PLT
 62
7
 10
66.19775975
 20
16.48297266
  0
VERTEX
  8
EGA-301.PLT
 62
7
 10
66.21859837
 20
16.50590967
  0
VERTEX
  8
EGA-301.PLT
 62
7
 10
66.23785936
 20
16.52996876
  0
VERTEX
  8
EGA-301.PLT
 62
7
 10
66.25528637
 20
16.55532862
  0
VERTEX
  8
EGA-301.PLT
 62
7
 10
66.27062304
 20
16.58216798
  0
VERTEX
  8
EGA-301.PLT
 62
7
 10
66.28361303
 20
16.61066554
  0
VERTEX
  8
EGA-301.PLT
 62
7
 10
66.29400000
 20
16.64100001
  0
VERTEX
  8
EGA-301.PLT
 62
7
 10
66.30478516
 20
16.67975586
  0
VERTEX
  8
EGA-301.PLT
 62
7
 10
66.31409376
 20
16.71929687
  0
VERTEX
  8
EGA-301.PLT
 62
7
 10
66.32110548
 20
16.75928319
  0
VERTEX
  8
EGA-301.PLT
 62
7
 10
66.32500001
 20
16.79937498
  0
VERTEX
  8
EGA-301.PLT
 62
7
 10
66.32495704
 20
16.83923241
  0
VERTEX
  8
EGA-301.PLT
 62
7
 10
66.32015626
 20
16.87851562
  0
VERTEX
  8
EGA-301.PLT
 62
7
 10
66.30977735
 20
16.91688477
  0
VERTEX
  8
EGA-301.PLT
 62
7
 10
66.29300000
 20
16.95400002
  0
VERTEX
  8
EGA-301.PLT
 62
7
 10
66.27567187
 20
16.97679494
  0
VERTEX
  8
EGA-301.PLT
 62
7
 10
66.24925000
 20
17.00173439
  0
VERTEX
  8
EGA-301.PLT
 62
7
 10
66.21607812
 20
17.02777541
  0
VERTEX
  8
EGA-301.PLT
 62
7
 10
66.17850000
 20
17.05387502
  0
VERTEX
  8
EGA-301.PLT
 62
7
 10
66.13885938
 20
17.07899026
  0
VERTEX
  8
EGA-301.PLT
 62
7
 10
66.09950001
 20
17.10207815
  0
VERTEX
  8
EGA-301.PLT
 62
7
 10
66.06276564
 20
17.12209573
  0
SEQEND
  0
POLYLINE
  8
EGA-301.PLT
 62
7
 66
1
 70
1
  0
VERTEX
  8
EGA-301.PLT
 62
7
 10
29.93100000
 20
17.24000000
  0
VERTEX
  8
EGA-301.PLT
 62
7
 10
29.94000000
 20
17.23100000
  0
VERTEX
  8
EGA-301.PLT
 62
7
 10
29.99910938
 20
17.18357813
  0
VERTEX
  8
EGA-301.PLT
 62
7
 10
30.05587500
 20
17.13137500
  0
VERTEX
  8
EGA-301.PLT
 62
7
 10
30.10720313
 20
17.07898438
  0
VERTEX
  8
EGA-301.PLT
 62
7
 10
30.15000000
 20
17.03100000
  0
VERTEX
  8
EGA-301.PLT
 62
7
 10
30.18439648
 20
17.03460156
  0
VERTEX
  8
EGA-301.PLT
 62
7
 10
30.21742187
 20
17.03468750
  0
VERTEX
  8
EGA-301.PLT
 62
7
 10
30.24845508
 20
17.03205469
  0
VERTEX
  8
EGA-301.PLT
 62
7
 10
30.27687500
 20
17.02750000
  0
VERTEX
  8
EGA-301.PLT
 62
7
 10
30.30206055
 20
17.02182031
  0
VERTEX
  8
EGA-301.PLT
 62
7
 10
30.32339062
 20
17.01581250
  0
VERTEX
  8
EGA-301.PLT
 62
7
 10
30.34024414
 20
17.01027344
  0
VERTEX
  8
EGA-301.PLT
 62
7
 10
30.35200000
 20
17.00600000
  0
VERTEX
  8
EGA-301.PLT
 62
7
 10
30.40359375
 20
16.98225000
  0
VERTEX
  8
EGA-301.PLT
 62
7
 10
30.45125000
 20
16.95175000
  0
VERTEX
  8
EGA-301.PLT
 62
7
 10
30.49403125
 20
16.91487500
  0
VERTEX
  8
EGA-301.PLT
 62
7
 10
30.53100000
 20
16.87200000
  0
VERTEX
  8
EGA-301.PLT
 62
7
 10
30.55382812
 20
16.83775000
  0
VERTEX
  8
EGA-301.PLT
 62
7
 10
30.57262500
 20
16.80125000
  0
VERTEX
  8
EGA-301.PLT
 62
7
 10
30.58710938
 20
16.76287500
  0
VERTEX
  8
EGA-301.PLT
 62
7
 10
30.59700000
 20
16.72300000
  0
VERTEX
  8
EGA-301.PLT
 62
7
 10
30.53100000
 20
16.76700000
  0
VERTEX
  8
EGA-301.PLT
 62
7
 10
30.44900000
 20
16.82700000
  0
VERTEX
  8
EGA-301.PLT
 62
7
 10
30.41525000
 20
16.77687500
  0
VERTEX
  8
EGA-301.PLT
 62
7
 10
30.38900000
 20
16.72300000
  0
VERTEX
  8
EGA-301.PLT
 62
7
 10
30.38273437
 20
16.70064062
  0
VERTEX
  8
EGA-301.PLT
 62
7
 10
30.37862500
 20
16.67762500
  0
VERTEX
  8
EGA-301.PLT
 62
7
 10
30.37395313
 20
16.65479687
  0
VERTEX
  8
EGA-301.PLT
 62
7
 10
30.36600000
 20
16.63300000
  0
VERTEX
  8
EGA-301.PLT
 62
7
 10
30.35162500
 20
16.60907813
  0
VERTEX
  8
EGA-301.PLT
 62
7
 10
30.33425000
 20
16.58712500
  0
VERTEX
  8
EGA-301.PLT
 62
7
 10
30.31425000
 20
16.56760938
  0
VERTEX
  8
EGA-301.PLT
 62
7
 10
30.29200000
 20
16.55100000
  0
VERTEX
  8
EGA-301.PLT
 62
7
 10
30.34420313
 20
16.54409375
  0
VERTEX
  8
EGA-301.PLT
 62
7
 10
30.39687500
 20
16.54300000
  0
VERTEX
  8
EGA-301.PLT
 62
7
 10
30.44935938
 20
16.54790625
  0
VERTEX
  8
EGA-301.PLT
 62
7
 10
30.50100000
 20
16.55900000
  0
VERTEX
  8
EGA-301.PLT
 62
7
 10
30.53479688
 20
16.56909375
  0
VERTEX
  8
EGA-301.PLT
 62
7
 10
30.56831250
 20
16.58087500
  0
VERTEX
  8
EGA-301.PLT
 62
7
 10
30.60098437
 20
16.59471875
  0
VERTEX
  8
EGA-301.PLT
 62
7
 10
30.63225000
 20
16.61100000
  0
VERTEX
  8
EGA-301.PLT
 62
7
 10
30.66154687
 20
16.63009375
  0
VERTEX
  8
EGA-301.PLT
 62
7
 10
30.68831250
 20
16.65237500
  0
VERTEX
  8
EGA-301.PLT
 62
7
 10
30.71198438
 20
16.67821875
  0
VERTEX
  8
EGA-301.PLT
 62
7
 10
30.73200000
 20
16.70800000
  0
VERTEX
  8
EGA-301.PLT
 62
7
 10
30.74336523
 20
16.73619141
  0
VERTEX
  8
EGA-301.PLT
 62
7
 10
30.74754688
 20
16.76571875
  0
VERTEX
  8
EGA-301.PLT
 62
7
 10
30.74692383
 20
16.79613672
  0
VERTEX
  8
EGA-301.PLT
 62
7
 10
30.74387500
 20
16.82700000
  0
VERTEX
  8
EGA-301.PLT
 62
7
 10
30.74077930
 20
16.85786328
  0
VERTEX
  8
EGA-301.PLT
 62
7
 10
30.74001563
 20
16.88828125
  0
VERTEX
  8
EGA-301.PLT
 62
7
 10
30.74396289
 20
16.91780859
  0
VERTEX
  8
EGA-301.PLT
 62
7
 10
30.75500000
 20
16.94600000
  0
VERTEX
  8
EGA-301.PLT
 62
7
 10
30.76889063
 20
16.96559375
  0
VERTEX
  8
EGA-301.PLT
 62
7
 10
30.78512500
 20
16.98350000
  0
VERTEX
  8
EGA-301.PLT
 62
7
 10
30.80154688
 20
17.00140625
  0
VERTEX
  8
EGA-301.PLT
 62
7
 10
30.81600000
 20
17.02100000
  0
VERTEX
  8
EGA-301.PLT
 62
7
 10
30.83204688
 20
17.05595312
  0
VERTEX
  8
EGA-301.PLT
 62
7
 10
30.84312500
 20
17.09287500
  0
VERTEX
  8
EGA-301.PLT
 62
7
 10
30.84989063
 20
17.13110938
  0
VERTEX
  8
EGA-301.PLT
 62
7
 10
30.85300000
 20
17.17000000
  0
VERTEX
  8
EGA-301.PLT
 62
7
 10
30.85282422
 20
17.21018945
  0
VERTEX
  8
EGA-301.PLT
 62
7
 10
30.84803125
 20
17.24964063
  0
VERTEX
  8
EGA-301.PLT
 62
7
 10
30.83897266
 20
17.28817773
  0
VERTEX
  8
EGA-301.PLT
 62
7
 10
30.82600000
 20
17.32562500
  0
VERTEX
  8
EGA-301.PLT
 62
7
 10
30.80946484
 20
17.36180664
  0
VERTEX
  8
EGA-301.PLT
 62
7
 10
30.78971875
 20
17.39654687
  0
VERTEX
  8
EGA-301.PLT
 62
7
 10
30.76711328
 20
17.42966992
  0
VERTEX
  8
EGA-301.PLT
 62
7
 10
30.74200000
 20
17.46100000
  0
VERTEX
  8
EGA-301.PLT
 62
7
 10
30.71593945
 20
17.48967383
  0
VERTEX
  8
EGA-301.PLT
 62
7
 10
30.68801562
 20
17.51676563
  0
VERTEX
  8
EGA-301.PLT
 62
7
 10
30.65824023
 20
17.54163086
  0
VERTEX
  8
EGA-301.PLT
 62
7
 10
30.62662500
 20
17.56362500
  0
VERTEX
  8
EGA-301.PLT
 62
7
 10
30.59318164
 20
17.58210352
  0
VERTEX
  8
EGA-301.PLT
 62
7
 10
30.55792188
 20
17.59642188
  0
VERTEX
  8
EGA-301.PLT
 62
7
 10
30.52085742
 20
17.60593555
  0
VERTEX
  8
EGA-301.PLT
 62
7
 10
30.48200000
 20
17.61000000
  0
VERTEX
  8
EGA-301.PLT
 62
7
 10
30.45166406
 20
17.60873242
  0
VERTEX
  8
EGA-301.PLT
 62
7
 10
30.42212500
 20
17.60379688
  0
VERTEX
  8
EGA-301.PLT
 62
7
 10
30.39333594
 20
17.59574414
  0
VERTEX
  8
EGA-301.PLT
 62
7
 10
30.36525000
 20
17.58512500
  0
VERTEX
  8
EGA-301.PLT
 62
7
 10
30.33782031
 20
17.57249023
  0
VERTEX
  8
EGA-301.PLT
 62
7
 10
30.31100000
 20
17.55839063
  0
VERTEX
  8
EGA-301.PLT
 62
7
 10
30.28474219
 20
17.54337695
  0
VERTEX
  8
EGA-301.PLT
 62
7
 10
30.25900000
 20
17.52800000
  0
VERTEX
  8
EGA-301.PLT
 62
7
 10
30.16875000
 20
17.46825000
  0
VERTEX
  8
EGA-301.PLT
 62
7
 10
30.06200000
 20
17.38900000
  0
VERTEX
  8
EGA-301.PLT
 62
7
 10
30.04500000
 20
17.35300000
  0
VERTEX
  8
EGA-301.PLT
 62
7
 10
30.02590625
 20
17.32414062
  0
VERTEX
  8
EGA-301.PLT
 62
7
 10
30.00175000
 20
17.30062500
  0
VERTEX
  8
EGA-301.PLT
 62
7
 10
29.97271875
 20
17.28254688
  0
VERTEX
  8
EGA-301.PLT
 62
7
 10
29.93900000
 20
17.27000000
  0
SEQEND
  0
POLYLINE
  8
EGA-301.PLT
 62
7
 66
1
 70
1
  0
VERTEX
  8
EGA-301.PLT
 62
7
 10
65.58100000
 20
17.24000000
  0
VERTEX
  8
EGA-301.PLT
 62
7
 10
65.57300000
 20
17.27000000
  0
VERTEX
  8
EGA-301.PLT
 62
7
 10
65.53928125
 20
17.28254688
  0
VERTEX
  8
EGA-301.PLT
 62
7
 10
65.51025000
 20
17.30062500
  0
VERTEX
  8
EGA-301.PLT
 62
7
 10
65.48609375
 20
17.32414062
  0
VERTEX
  8
EGA-301.PLT
 62
7
 10
65.46700000
 20
17.35300000
  0
VERTEX
  8
EGA-301.PLT
 62
7
 10
65.45000000
 20
17.38900000
  0
VERTEX
  8
EGA-301.PLT
 62
7
 10
65.34325000
 20
17.46825000
  0
VERTEX
  8
EGA-301.PLT
 62
7
 10
65.25300000
 20
17.52800000
  0
VERTEX
  8
EGA-301.PLT
 62
7
 10
65.22725781
 20
17.54337695
  0
VERTEX
  8
EGA-301.PLT
 62
7
 10
65.20100000
 20
17.55839063
  0
VERTEX
  8
EGA-301.PLT
 62
7
 10
65.17417969
 20
17.57249023
  0
VERTEX
  8
EGA-301.PLT
 62
7
 10
65.14675000
 20
17.58512500
  0
VERTEX
  8
EGA-301.PLT
 62
7
 10
65.11866406
 20
17.59574414
  0
VERTEX
  8
EGA-301.PLT
 62
7
 10
65.08987500
 20
17.60379688
  0
VERTEX
  8
EGA-301.PLT
 62
7
 10
65.06033594
 20
17.60873242
  0
VERTEX
  8
EGA-301.PLT
 62
7
 10
65.03000000
 20
17.61000000
  0
VERTEX
  8
EGA-301.PLT
 62
7
 10
64.99114258
 20
17.60593555
  0
VERTEX
  8
EGA-301.PLT
 62
7
 10
64.95407812
 20
17.59642188
  0
VERTEX
  8
EGA-301.PLT
 62
7
 10
64.91881836
 20
17.58210352
  0
VERTEX
  8
EGA-301.PLT
 62
7
 10
64.88537500
 20
17.56362500
  0
VERTEX
  8
EGA-301.PLT
 62
7
 10
64.85375977
 20
17.54163086
  0
VERTEX
  8
EGA-301.PLT
 62
7
 10
64.82398437
 20
17.51676563
  0
VERTEX
  8
EGA-301.PLT
 62
7
 10
64.79606055
 20
17.48967383
  0
VERTEX
  8
EGA-301.PLT
 62
7
 10
64.77000000
 20
17.46100000
  0
VERTEX
  8
EGA-301.PLT
 62
7
 10
64.74488672
 20
17.42966992
  0
VERTEX
  8
EGA-301.PLT
 62
7
 10
64.72228125
 20
17.39654687
  0
VERTEX
  8
EGA-301.PLT
 62
7
 10
64.70253516
 20
17.36180664
  0
VERTEX
  8
EGA-301.PLT
 62
7
 10
64.68600000
 20
17.32562500
  0
VERTEX
  8
EGA-301.PLT
 62
7
 10
64.67302734
 20
17.28817773
  0
VERTEX
  8
EGA-301.PLT
 62
7
 10
64.66396875
 20
17.24964063
  0
VERTEX
  8
EGA-301.PLT
 62
7
 10
64.65917578
 20
17.21018945
  0
VERTEX
  8
EGA-301.PLT
 62
7
 10
64.65900000
 20
17.17000000
  0
VERTEX
  8
EGA-301.PLT
 62
7
 10
64.66210938
 20
17.13110938
  0
VERTEX
  8
EGA-301.PLT
 62
7
 10
64.66887500
 20
17.09287500
  0
VERTEX
  8
EGA-301.PLT
 62
7
 10
64.67995312
 20
17.05595312
  0
VERTEX
  8
EGA-301.PLT
 62
7
 10
64.69600000
 20
17.02100000
  0
VERTEX
  8
EGA-301.PLT
 62
7
 10
64.71045313
 20
17.00140625
  0
VERTEX
  8
EGA-301.PLT
 62
7
 10
64.72687500
 20
16.98350000
  0
VERTEX
  8
EGA-301.PLT
 62
7
 10
64.74310938
 20
16.96559375
  0
VERTEX
  8
EGA-301.PLT
 62
7
 10
64.75700000
 20
16.94600000
  0
VERTEX
  8
EGA-301.PLT
 62
7
 10
64.76803711
 20
16.91780859
  0
VERTEX
  8
EGA-301.PLT
 62
7
 10
64.77198438
 20
16.88828125
  0
VERTEX
  8
EGA-301.PLT
 62
7
 10
64.77122070
 20
16.85786328
  0
VERTEX
  8
EGA-301.PLT
 62
7
 10
64.76812500
 20
16.82700000
  0
VERTEX
  8
EGA-301.PLT
 62
7
 10
64.76507617
 20
16.79613672
  0
VERTEX
  8
EGA-301.PLT
 62
7
 10
64.76445313
 20
16.76571875
  0
VERTEX
  8
EGA-301.PLT
 62
7
 10
64.76863477
 20
16.73619141
  0
VERTEX
  8
EGA-301.PLT
 62
7
 10
64.78000000
 20
16.70800000
  0
VERTEX
  8
EGA-301.PLT
 62
7
 10
64.80001563
 20
16.67821875
  0
VERTEX
  8
EGA-301.PLT
 62
7
 10
64.82368750
 20
16.65237500
  0
VERTEX
  8
EGA-301.PLT
 62
7
 10
64.85045313
 20
16.63009375
  0
VERTEX
  8
EGA-301.PLT
 62
7
 10
64.87975000
 20
16.61100000
  0
VERTEX
  8
EGA-301.PLT
 62
7
 10
64.91101563
 20
16.59471875
  0
VERTEX
  8
EGA-301.PLT
 62
7
 10
64.94368750
 20
16.58087500
  0
VERTEX
  8
EGA-301.PLT
 62
7
 10
64.97720313
 20
16.56909375
  0
VERTEX
  8
EGA-301.PLT
 62
7
 10
65.01100000
 20
16.55900000
  0
VERTEX
  8
EGA-301.PLT
 62
7
 10
65.06264063
 20
16.54790625
  0
VERTEX
  8
EGA-301.PLT
 62
7
 10
65.11512500
 20
16.54300000
  0
VERTEX
  8
EGA-301.PLT
 62
7
 10
65.16779687
 20
16.54409375
  0
VERTEX
  8
EGA-301.PLT
 62
7
 10
65.22000000
 20
16.55100000
  0
VERTEX
  8
EGA-301.PLT
 62
7
 10
65.19775000
 20
16.56760938
  0
VERTEX
  8
EGA-301.PLT
 62
7
 10
65.17775000
 20
16.58712500
  0
VERTEX
  8
EGA-301.PLT
 62
7
 10
65.16037500
 20
16.60907813
  0
VERTEX
  8
EGA-301.PLT
 62
7
 10
65.14600000
 20
16.63300000
  0
VERTEX
  8
EGA-301.PLT
 62
7
 10
65.13804688
 20
16.65479687
  0
VERTEX
  8
EGA-301.PLT
 62
7
 10
65.13337500
 20
16.67762500
  0
VERTEX
  8
EGA-301.PLT
 62
7
 10
65.12926563
 20
16.70064062
  0
VERTEX
  8
EGA-301.PLT
 62
7
 10
65.12300000
 20
16.72300000
  0
VERTEX
  8
EGA-301.PLT
 62
7
 10
65.09675000
 20
16.77687500
  0
VERTEX
  8
EGA-301.PLT
 62
7
 10
65.06300000
 20
16.82700000
  0
VERTEX
  8
EGA-301.PLT
 62
7
 10
64.98100000
 20
16.76700000
  0
VERTEX
  8
EGA-301.PLT
 62
7
 10
64.91500000
 20
16.72300000
  0
VERTEX
  8
EGA-301.PLT
 62
7
 10
64.92489063
 20
16.76287500
  0
VERTEX
  8
EGA-301.PLT
 62
7
 10
64.93937500
 20
16.80125000
  0
VERTEX
  8
EGA-301.PLT
 62
7
 10
64.95817188
 20
16.83775000
  0
VERTEX
  8
EGA-301.PLT
 62
7
 10
64.98100000
 20
16.87200000
  0
VERTEX
  8
EGA-301.PLT
 62
7
 10
65.01796875
 20
16.91487500
  0
VERTEX
  8
EGA-301.PLT
 62
7
 10
65.06075000
 20
16.95175000
  0
VERTEX
  8
EGA-301.PLT
 62
7
 10
65.10840625
 20
16.98225000
  0
VERTEX
  8
EGA-301.PLT
 62
7
 10
65.16000000
 20
17.00600000
  0
VERTEX
  8
EGA-301.PLT
 62
7
 10
65.17175586
 20
17.01027344
  0
VERTEX
  8
EGA-301.PLT
 62
7
 10
65.18860937
 20
17.01581250
  0
VERTEX
  8
EGA-301.PLT
 62
7
 10
65.20993945
 20
17.02182031
  0
VERTEX
  8
EGA-301.PLT
 62
7
 10
65.23512500
 20
17.02750000
  0
VERTEX
  8
EGA-301.PLT
 62
7
 10
65.26354492
 20
17.03205469
  0
VERTEX
  8
EGA-301.PLT
 62
7
 10
65.29457813
 20
17.03468750
  0
VERTEX
  8
EGA-301.PLT
 62
7
 10
65.32760352
 20
17.03460156
  0
VERTEX
  8
EGA-301.PLT
 62
7
 10
65.36200000
 20
17.03100000
  0
VERTEX
  8
EGA-301.PLT
 62
7
 10
65.40479688
 20
17.07898438
  0
VERTEX
  8
EGA-301.PLT
 62
7
 10
65.45612500
 20
17.13137500
  0
VERTEX
  8
EGA-301.PLT
 62
7
 10
65.51289062
 20
17.18357813
  0
VERTEX
  8
EGA-301.PLT
 62
7
 10
65.57200000
 20
17.23100000
  0
SEQEND
  0
POLYLINE
  8
EGA-301.PLT
 62
7
 66
1
 70
1
  0
VERTEX
  8
EGA-301.PLT
 62
7
 10
66.33900000
 20
17.02500000
  0
VERTEX
  8
EGA-301.PLT
 62
7
 10
66.37808081
 20
17.02425854
  0
VERTEX
  8
EGA-301.PLT
 62
7
 10
66.41474023
 20
17.02169336
  0
VERTEX
  8
EGA-301.PLT
 62
7
 10
66.44904126
 20
17.01735571
  0
VERTEX
  8
EGA-301.PLT
 62
7
 10
66.48104688
 20
17.01129687
  0
VERTEX
  8
EGA-301.PLT
 62
7
 10
66.51082007
 20
17.00356812
  0
VERTEX
  8
EGA-301.PLT
 62
7
 10
66.53842383
 20
16.99422070
  0
VERTEX
  8
EGA-301.PLT
 62
7
 10
66.56392114
 20
16.98330591
  0
VERTEX
  8
EGA-301.PLT
 62
7
 10
66.58737500
 20
16.97087500
  0
VERTEX
  8
EGA-301.PLT
 62
7
 10
66.60884839
 20
16.95697925
  0
VERTEX
  8
EGA-301.PLT
 62
7
 10
66.62840430
 20
16.94166992
  0
VERTEX
  8
EGA-301.PLT
 62
7
 10
66.64610571
 20
16.92499829
  0
VERTEX
  8
EGA-301.PLT
 62
7
 10
66.66201562
 20
16.90701563
  0
VERTEX
  8
EGA-301.PLT
 62
7
 10
66.67619702
 20
16.88777319
  0
VERTEX
  8
EGA-301.PLT
 62
7
 10
66.68871289
 20
16.86732227
  0
VERTEX
  8
EGA-301.PLT
 62
7
 10
66.69962622
 20
16.84571411
  0
VERTEX
  8
EGA-301.PLT
 62
7
 10
66.70900000
 20
16.82300000
  0
VERTEX
  8
EGA-301.PLT
 62
7
 10
66.71290625
 20
16.79145313
  0
VERTEX
  8
EGA-301.PLT
 62
7
 10
66.71100000
 20
16.75737500
  0
VERTEX
  8
EGA-301.PLT
 62
7
 10
66.70309375
 20
16.72385938
  0
VERTEX
  8
EGA-301.PLT
 62
7
 10
66.68900000
 20
16.69400000
  0
VERTEX
  8
EGA-301.PLT
 62
7
 10
66.68773438
 20
16.72417188
  0
VERTEX
  8
EGA-301.PLT
 62
7
 10
66.68262500
 20
16.75687500
  0
VERTEX
  8
EGA-301.PLT
 62
7
 10
66.67395312
 20
16.78864062
  0
VERTEX
  8
EGA-301.PLT
 62
7
 10
66.66200000
 20
16.81600000
  0
VERTEX
  8
EGA-301.PLT
 62
7
 10
66.64582812
 20
16.83767188
  0
VERTEX
  8
EGA-301.PLT
 62
7
 10
66.62637500
 20
16.85437500
  0
VERTEX
  8
EGA-301.PLT
 62
7
 10
66.60448437
 20
16.86789063
  0
VERTEX
  8
EGA-301.PLT
 62
7
 10
66.58100000
 20
16.88000000
  0
VERTEX
  8
EGA-301.PLT
 62
7
 10
66.58212891
 20
16.85189844
  0
VERTEX
  8
EGA-301.PLT
 62
7
 10
66.58103125
 20
16.82393750
  0
VERTEX
  8
EGA-301.PLT
 62
7
 10
66.57773047
 20
16.79625781
  0
VERTEX
  8
EGA-301.PLT
 62
7
 10
66.57225000
 20
16.76900000
  0
VERTEX
  8
EGA-301.PLT
 62
7
 10
66.56461328
 20
16.74230469
  0
VERTEX
  8
EGA-301.PLT
 62
7
 10
66.55484375
 20
16.71631250
  0
VERTEX
  8
EGA-301.PLT
 62
7
 10
66.54296484
 20
16.69116406
  0
VERTEX
  8
EGA-301.PLT
 62
7
 10
66.52900000
 20
16.66700000
  0
VERTEX
  8
EGA-301.PLT
 62
7
 10
66.50595313
 20
16.63735937
  0
VERTEX
  8
EGA-301.PLT
 62
7
 10
66.47887500
 20
16.61137500
  0
VERTEX
  8
EGA-301.PLT
 62
7
 10
66.45010937
 20
16.58670313
  0
VERTEX
  8
EGA-301.PLT
 62
7
 10
66.42200000
 20
16.56100000
  0
VERTEX
  8
EGA-301.PLT
 62
7
 10
66.45333813
 20
16.55588184
  0
VERTEX
  8
EGA-301.PLT
 62
7
 10
66.48464258
 20
16.55324219
  0
VERTEX
  8
EGA-301.PLT
 62
7
 10
66.51578589
 20
16.55302832
  0
VERTEX
  8
EGA-301.PLT
 62
7
 10
66.54664062
 20
16.55518750
  0
VERTEX
  8
EGA-301.PLT
 62
7
 10
66.57707935
 20
16.55966699
  0
VERTEX
  8
EGA-301.PLT
 62
7
 10
66.60697461
 20
16.56641406
  0
VERTEX
  8
EGA-301.PLT
 62
7
 10
66.63619897
 20
16.57537598
  0
VERTEX
  8
EGA-301.PLT
 62
7
 10
66.66462500
 20
16.58650000
  0
VERTEX
  8
EGA-301.PLT
 62
7
 10
66.69212524
 20
16.59973340
  0
VERTEX
  8
EGA-301.PLT
 62
7
 10
66.71857227
 20
16.61502344
  0
VERTEX
  8
EGA-301.PLT
 62
7
 10
66.74383862
 20
16.63231738
  0
VERTEX
  8
EGA-301.PLT
 62
7
 10
66.76779688
 20
16.65156250
  0
VERTEX
  8
EGA-301.PLT
 62
7
 10
66.79031958
 20
16.67270605
  0
VERTEX
  8
EGA-301.PLT
 62
7
 10
66.81127930
 20
16.69569531
  0
VERTEX
  8
EGA-301.PLT
 62
7
 10
66.83054858
 20
16.72047754
  0
VERTEX
  8
EGA-301.PLT
 62
7
 10
66.84800000
 20
16.74700000
  0
VERTEX
  8
EGA-301.PLT
 62
7
 10
66.86303125
 20
16.77778906
  0
VERTEX
  8
EGA-301.PLT
 62
7
 10
66.87356250
 20
16.80993750
  0
VERTEX
  8
EGA-301.PLT
 62
7
 10
66.88062500
 20
16.84311719
  0
VERTEX
  8
EGA-301.PLT
 62
7
 10
66.88525000
 20
16.87700000
  0
VERTEX
  8
EGA-301.PLT
 62
7
 10
66.88846875
 20
16.91125781
  0
VERTEX
  8
EGA-301.PLT
 62
7
 10
66.89131250
 20
16.94556250
  0
VERTEX
  8
EGA-301.PLT
 62
7
 10
66.89481250
 20
16.97958594
  0
VERTEX
  8
EGA-301.PLT
 62
7
 10
66.90000000
 20
17.01300000
  0
VERTEX
  8
EGA-301.PLT
 62
7
 10
66.93152148
 20
17.03817188
  0
VERTEX
  8
EGA-301.PLT
 62
7
 10
66.95998438
 20
17.06625000
  0
VERTEX
  8
EGA-301.PLT
 62
7
 10
66.98523633
 20
17.09695312
  0
VERTEX
  8
EGA-301.PLT
 62
7
 10
67.00712500
 20
17.13000000
  0
VERTEX
  8
EGA-301.PLT
 62
7
 10
67.02549805
 20
17.16510938
  0
VERTEX
  8
EGA-301.PLT
 62
7
 10
67.04020313
 20
17.20200000
  0
VERTEX
  8
EGA-301.PLT
 62
7
 10
67.05108789
 20
17.24039063
  0
VERTEX
  8
EGA-301.PLT
 62
7
 10
67.05800000
 20
17.28000000
  0
VERTEX
  8
EGA-301.PLT
 62
7
 10
67.06076563
 20
17.31301953
  0
VERTEX
  8
EGA-301.PLT
 62
7
 10
67.06081250
 20
17.34596875
  0
VERTEX
  8
EGA-301.PLT
 62
7
 10
67.05814062
 20
17.37868359
  0
VERTEX
  8
EGA-301.PLT
 62
7
 10
67.05275000
 20
17.41100000
  0
VERTEX
  8
EGA-301.PLT
 62
7
 10
67.04464063
 20
17.44275391
  0
VERTEX
  8
EGA-301.PLT
 62
7
 10
67.03381250
 20
17.47378125
  0
VERTEX
  8
EGA-301.PLT
 62
7
 10
67.02026562
 20
17.50391797
  0
VERTEX
  8
EGA-301.PLT
 62
7
 10
67.00400000
 20
17.53300000
  0
VERTEX
  8
EGA-301.PLT
 62
7
 10
66.98869287
 20
17.55607397
  0
VERTEX
  8
EGA-301.PLT
 62
7
 10
66.97173047
 20
17.57762305
  0
VERTEX
  8
EGA-301.PLT
 62
7
 10
66.95323877
 20
17.59757544
  0
VERTEX
  8
EGA-301.PLT
 62
7
 10
66.93334375
 20
17.61585937
  0
VERTEX
  8
EGA-301.PLT
 62
7
 10
66.91217139
 20
17.63240308
  0
VERTEX
  8
EGA-301.PLT
 62
7
 10
66.88984766
 20
17.64713477
  0
VERTEX
  8
EGA-301.PLT
 62
7
 10
66.86649854
 20
17.65998267
  0
VERTEX
  8
EGA-301.PLT
 62
7
 10
66.84225000
 20
17.67087500
  0
VERTEX
  8
EGA-301.PLT
 62
7
 10
66.81722803
 20
17.67973999
  0
VERTEX
  8
EGA-301.PLT
 62
7
 10
66.79155859
 20
17.68650586
  0
VERTEX
  8
EGA-301.PLT
 62
7
 10
66.76536768
 20
17.69110083
  0
VERTEX
  8
EGA-301.PLT
 62
7
 10
66.73878125
 20
17.69345313
  0
VERTEX
  8
EGA-301.PLT
 62
7
 10
66.71192529
 20
17.69349097
  0
VERTEX
  8
EGA-301.PLT
 62
7
 10
66.68492578
 20
17.69114258
  0
VERTEX
  8
EGA-301.PLT
 62
7
 10
66.65790869
 20
17.68633618
  0
VERTEX
  8
EGA-301.PLT
 62
7
 10
66.63100000
 20
17.67900000
  0
VERTEX
  8
EGA-301.PLT
 62
7
 10
66.59828125
 20
17.66634180
  0
VERTEX
  8
EGA-301.PLT
 62
7
 10
66.56743750
 20
17.65048438
  0
VERTEX
  8
EGA-301.PLT
 62
7
 10
66.53818750
 20
17.63197852
  0
VERTEX
  8
EGA-301.PLT
 62
7
 10
66.51025000
 20
17.61137500
  0
VERTEX
  8
EGA-301.PLT
 62
7
 10
66.48334375
 20
17.58922461
  0
VERTEX
  8
EGA-301.PLT
 62
7
 10
66.45718750
 20
17.56607813
  0
VERTEX
  8
EGA-301.PLT
 62
7
 10
66.43150000
 20
17.54248633
  0
VERTEX
  8
EGA-301.PLT
 62
7
 10
66.40600000
 20
17.51900000
  0
VERTEX
  8
EGA-301.PLT
 62
7
 10
66.36607227
 20
17.48095117
  0
VERTEX
  8
EGA-301.PLT
 62
7
 10
66.32807813
 20
17.44110938
  0
VERTEX
  8
EGA-301.PLT
 62
7
 10
66.29207617
 20
17.39955664
  0
VERTEX
  8
EGA-301.PLT
 62
7
 10
66.25812500
 20
17.35637500
  0
VERTEX
  8
EGA-301.PLT
 62
7
 10
66.22628320
 20
17.31164648
  0
VERTEX
  8
EGA-301.PLT
 62
7
 10
66.19660937
 20
17.26545313
  0
VERTEX
  8
EGA-301.PLT
 62
7
 10
66.16916211
 20
17.21787695
  0
VERTEX
  8
EGA-301.PLT
 62
7
 10
66.14400000
 20
17.16900000
  0
VERTEX
  8
EGA-301.PLT
 62
7
 10
66.22400000
 20
17.12000000
  0
VERTEX
  8
EGA-301.PLT
 62
7
 10
66.29162500
 20
17.07062500
  0
SEQEND
  0
POLYLINE
  8
EGA-301.PLT
 62
7
 66
1
 70
1
  0
VERTEX
  8
EGA-301.PLT
 62
7
 10
29.17300000
 20
17.02500000
  0
VERTEX
  8
EGA-301.PLT
 62
7
 10
29.22037500
 20
17.07062500
  0
VERTEX
  8
EGA-301.PLT
 62
7
 10
29.28800000
 20
17.12000000
  0
VERTEX
  8
EGA-301.PLT
 62
7
 10
29.36800000
 20
17.16900000
  0
VERTEX
  8
EGA-301.PLT
 62
7
 10
29.34283789
 20
17.21787695
  0
VERTEX
  8
EGA-301.PLT
 62
7
 10
29.31539062
 20
17.26545313
  0
VERTEX
  8
EGA-301.PLT
 62
7
 10
29.28571680
 20
17.31164648
  0
VERTEX
  8
EGA-301.PLT
 62
7
 10
29.25387500
 20
17.35637500
  0
VERTEX
  8
EGA-301.PLT
 62
7
 10
29.21992383
 20
17.39955664
  0
VERTEX
  8
EGA-301.PLT
 62
7
 10
29.18392187
 20
17.44110938
  0
VERTEX
  8
EGA-301.PLT
 62
7
 10
29.14592773
 20
17.48095117
  0
VERTEX
  8
EGA-301.PLT
 62
7
 10
29.10600000
 20
17.51900000
  0
VERTEX
  8
EGA-301.PLT
 62
7
 10
29.08050000
 20
17.54248633
  0
VERTEX
  8
EGA-301.PLT
 62
7
 10
29.05481250
 20
17.56607813
  0
VERTEX
  8
EGA-301.PLT
 62
7
 10
29.02865625
 20
17.58922461
  0
VERTEX
  8
EGA-301.PLT
 62
7
 10
29.00175000
 20
17.61137500
  0
VERTEX
  8
EGA-301.PLT
 62
7
 10
28.97381250
 20
17.63197852
  0
VERTEX
  8
EGA-301.PLT
 62
7
 10
28.94456250
 20
17.65048438
  0
VERTEX
  8
EGA-301.PLT
 62
7
 10
28.91371875
 20
17.66634180
  0
VERTEX
  8
EGA-301.PLT
 62
7
 10
28.88100000
 20
17.67900000
  0
VERTEX
  8
EGA-301.PLT
 62
7
 10
28.85409131
 20
17.68633618
  0
VERTEX
  8
EGA-301.PLT
 62
7
 10
28.82707422
 20
17.69114258
  0
VERTEX
  8
EGA-301.PLT
 62
7
 10
28.80007471
 20
17.69349097
  0
VERTEX
  8
EGA-301.PLT
 62
7
 10
28.77321875
 20
17.69345313
  0
VERTEX
  8
EGA-301.PLT
 62
7
 10
28.74663232
 20
17.69110083
  0
VERTEX
  8
EGA-301.PLT
 62
7
 10
28.72044141
 20
17.68650586
  0
VERTEX
  8
EGA-301.PLT
 62
7
 10
28.69477197
 20
17.67973999
  0
VERTEX
  8
EGA-301.PLT
 62
7
 10
28.66975000
 20
17.67087500
  0
VERTEX
  8
EGA-301.PLT
 62
7
 10
28.64550146
 20
17.65998267
  0
VERTEX
  8
EGA-301.PLT
 62
7
 10
28.62215234
 20
17.64713477
  0
VERTEX
  8
EGA-301.PLT
 62
7
 10
28.59982861
 20
17.63240308
  0
VERTEX
  8
EGA-301.PLT
 62
7
 10
28.57865625
 20
17.61585937
  0
VERTEX
  8
EGA-301.PLT
 62
7
 10
28.55876123
 20
17.59757544
  0
VERTEX
  8
EGA-301.PLT
 62
7
 10
28.54026953
 20
17.57762305
  0
VERTEX
  8
EGA-301.PLT
 62
7
 10
28.52330713
 20
17.55607397
  0
VERTEX
  8
EGA-301.PLT
 62
7
 10
28.50800000
 20
17.53300000
  0
VERTEX
  8
EGA-301.PLT
 62
7
 10
28.49173438
 20
17.50391797
  0
VERTEX
  8
EGA-301.PLT
 62
7
 10
28.47818750
 20
17.47378125
  0
VERTEX
  8
EGA-301.PLT
 62
7
 10
28.46735938
 20
17.44275391
  0
VERTEX
  8
EGA-301.PLT
 62
7
 10
28.45925000
 20
17.41100000
  0
VERTEX
  8
EGA-301.PLT
 62
7
 10
28.45385938
 20
17.37868359
  0
VERTEX
  8
EGA-301.PLT
 62
7
 10
28.45118750
 20
17.34596875
  0
VERTEX
  8
EGA-301.PLT
 62
7
 10
28.45123437
 20
17.31301953
  0
VERTEX
  8
EGA-301.PLT
 62
7
 10
28.45400000
 20
17.28000000
  0
VERTEX
  8
EGA-301.PLT
 62
7
 10
28.46091211
 20
17.24039063
  0
VERTEX
  8
EGA-301.PLT
 62
7
 10
28.47179687
 20
17.20200000
  0
VERTEX
  8
EGA-301.PLT
 62
7
 10
28.48650195
 20
17.16510938
  0
VERTEX
  8
EGA-301.PLT
 62
7
 10
28.50487500
 20
17.13000000
  0
VERTEX
  8
EGA-301.PLT
 62
7
 10
28.52676367
 20
17.09695312
  0
VERTEX
  8
EGA-301.PLT
 62
7
 10
28.55201562
 20
17.06625000
  0
VERTEX
  8
EGA-301.PLT
 62
7
 10
28.58047852
 20
17.03817188
  0
VERTEX
  8
EGA-301.PLT
 62
7
 10
28.61200000
 20
17.01300000
  0
VERTEX
  8
EGA-301.PLT
 62
7
 10
28.61718750
 20
16.97958594
  0
VERTEX
  8
EGA-301.PLT
 62
7
 10
28.62068750
 20
16.94556250
  0
VERTEX
  8
EGA-301.PLT
 62
7
 10
28.62353125
 20
16.91125781
  0
VERTEX
  8
EGA-301.PLT
 62
7
 10
28.62675000
 20
16.87700000
  0
VERTEX
  8
EGA-301.PLT
 62
7
 10
28.63137500
 20
16.84311719
  0
VERTEX
  8
EGA-301.PLT
 62
7
 10
28.63843750
 20
16.80993750
  0
VERTEX
  8
EGA-301.PLT
 62
7
 10
28.64896875
 20
16.77778906
  0
VERTEX
  8
EGA-301.PLT
 62
7
 10
28.66400000
 20
16.74700000
  0
VERTEX
  8
EGA-301.PLT
 62
7
 10
28.68145142
 20
16.72047754
  0
VERTEX
  8
EGA-301.PLT
 62
7
 10
28.70072070
 20
16.69569531
  0
VERTEX
  8
EGA-301.PLT
 62
7
 10
28.72168042
 20
16.67270605
  0
VERTEX
  8
EGA-301.PLT
 62
7
 10
28.74420312
 20
16.65156250
  0
VERTEX
  8
EGA-301.PLT
 62
7
 10
28.76816138
 20
16.63231738
  0
VERTEX
  8
EGA-301.PLT
 62
7
 10
28.79342773
 20
16.61502344
  0
VERTEX
  8
EGA-301.PLT
 62
7
 10
28.81987476
 20
16.59973340
  0
VERTEX
  8
EGA-301.PLT
 62
7
 10
28.84737500
 20
16.58650000
  0
VERTEX
  8
EGA-301.PLT
 62
7
 10
28.87580103
 20
16.57537598
  0
VERTEX
  8
EGA-301.PLT
 62
7
 10
28.90502539
 20
16.56641406
  0
VERTEX
  8
EGA-301.PLT
 62
7
 10
28.93492065
 20
16.55966699
  0
VERTEX
  8
EGA-301.PLT
 62
7
 10
28.96535937
 20
16.55518750
  0
VERTEX
  8
EGA-301.PLT
 62
7
 10
28.99621411
 20
16.55302832
  0
VERTEX
  8
EGA-301.PLT
 62
7
 10
29.02735742
 20
16.55324219
  0
VERTEX
  8
EGA-301.PLT
 62
7
 10
29.05866187
 20
16.55588184
  0
VERTEX
  8
EGA-301.PLT
 62
7
 10
29.09000000
 20
16.56100000
  0
VERTEX
  8
EGA-301.PLT
 62
7
 10
29.06189063
 20
16.58670313
  0
VERTEX
  8
EGA-301.PLT
 62
7
 10
29.03312500
 20
16.61137500
  0
VERTEX
  8
EGA-301.PLT
 62
7
 10
29.00604687
 20
16.63735937
  0
VERTEX
  8
EGA-301.PLT
 62
7
 10
28.98300000
 20
16.66700000
  0
VERTEX
  8
EGA-301.PLT
 62
7
 10
28.96903516
 20
16.69116406
  0
VERTEX
  8
EGA-301.PLT
 62
7
 10
28.95715625
 20
16.71631250
  0
VERTEX
  8
EGA-301.PLT
 62
7
 10
28.94738672
 20
16.74230469
  0
VERTEX
  8
EGA-301.PLT
 62
7
 10
28.93975000
 20
16.76900000
  0
VERTEX
  8
EGA-301.PLT
 62
7
 10
28.93426953
 20
16.79625781
  0
VERTEX
  8
EGA-301.PLT
 62
7
 10
28.93096875
 20
16.82393750
  0
VERTEX
  8
EGA-301.PLT
 62
7
 10
28.92987109
 20
16.85189844
  0
VERTEX
  8
EGA-301.PLT
 62
7
 10
28.93100000
 20
16.88000000
  0
VERTEX
  8
EGA-301.PLT
 62
7
 10
28.90751562
 20
16.86789063
  0
VERTEX
  8
EGA-301.PLT
 62
7
 10
28.88562500
 20
16.85437500
  0
VERTEX
  8
EGA-301.PLT
 62
7
 10
28.86617187
 20
16.83767188
  0
VERTEX
  8
EGA-301.PLT
 62
7
 10
28.85000000
 20
16.81600000
  0
VERTEX
  8
EGA-301.PLT
 62
7
 10
28.83804688
 20
16.78864062
  0
VERTEX
  8
EGA-301.PLT
 62
7
 10
28.82937500
 20
16.75687500
  0
VERTEX
  8
EGA-301.PLT
 62
7
 10
28.82426562
 20
16.72417188
  0
VERTEX
  8
EGA-301.PLT
 62
7
 10
28.82300000
 20
16.69400000
  0
VERTEX
  8
EGA-301.PLT
 62
7
 10
28.80890625
 20
16.72385938
  0
VERTEX
  8
EGA-301.PLT
 62
7
 10
28.80100000
 20
16.75737500
  0
VERTEX
  8
EGA-301.PLT
 62
7
 10
28.79909375
 20
16.79145313
  0
VERTEX
  8
EGA-301.PLT
 62
7
 10
28.80300000
 20
16.82300000
  0
VERTEX
  8
EGA-301.PLT
 62
7
 10
28.81237378
 20
16.84571411
  0
VERTEX
  8
EGA-301.PLT
 62
7
 10
28.82328711
 20
16.86732227
  0
VERTEX
  8
EGA-301.PLT
 62
7
 10
28.83580298
 20
16.88777319
  0
VERTEX
  8
EGA-301.PLT
 62
7
 10
28.84998437
 20
16.90701563
  0
VERTEX
  8
EGA-301.PLT
 62
7
 10
28.86589429
 20
16.92499829
  0
VERTEX
  8
EGA-301.PLT
 62
7
 10
28.88359570
 20
16.94166992
  0
VERTEX
  8
EGA-301.PLT
 62
7
 10
28.90315161
 20
16.95697925
  0
VERTEX
  8
EGA-301.PLT
 62
7
 10
28.92462500
 20
16.97087500
  0
VERTEX
  8
EGA-301.PLT
 62
7
 10
28.94807886
 20
16.98330591
  0
VERTEX
  8
EGA-301.PLT
 62
7
 10
28.97357617
 20
16.99422070
  0
VERTEX
  8
EGA-301.PLT
 62
7
 10
29.00117993
 20
17.00356812
  0
VERTEX
  8
EGA-301.PLT
 62
7
 10
29.03095313
 20
17.01129687
  0
VERTEX
  8
EGA-301.PLT
 62
7
 10
29.06295874
 20
17.01735571
  0
VERTEX
  8
EGA-301.PLT
 62
7
 10
29.09725977
 20
17.02169336
  0
VERTEX
  8
EGA-301.PLT
 62
7
 10
29.13391919
 20
17.02425854
  0
SEQEND
  0
POLYLINE
  8
EGA-301.PLT
 62
7
 66
1
 70
1
  0
VERTEX
  8
EGA-301.PLT
 62
7
 10
30.10000000
 20
18.31800002
  0
VERTEX
  8
EGA-301.PLT
 62
7
 10
30.07311732
 20
18.36364592
  0
VERTEX
  8
EGA-301.PLT
 62
7
 10
30.04983079
 20
18.40419669
  0
VERTEX
  8
EGA-301.PLT
 62
7
 10
30.02843273
 20
18.44019691
  0
VERTEX
  8
EGA-301.PLT
 62
7
 10
30.00721544
 20
18.47219116
  0
VERTEX
  8
EGA-301.PLT
 62
7
 10
29.98447121
 20
18.50072401
  0
VERTEX
  8
EGA-301.PLT
 62
7
 10
29.95849236
 20
18.52634005
  0
VERTEX
  8
EGA-301.PLT
 62
7
 10
29.92757118
 20
18.54958385
  0
VERTEX
  8
EGA-301.PLT
 62
7
 10
29.88999999
 20
18.57099999
  0
VERTEX
  8
EGA-301.PLT
 62
7
 10
29.85937561
 20
18.58625393
  0
VERTEX
  8
EGA-301.PLT
 62
7
 10
29.84013943
 20
18.59378128
  0
VERTEX
  8
EGA-301.PLT
 62
7
 10
29.81908353
 20
18.59716799
  0
VERTEX
  8
EGA-301.PLT
 62
7
 10
29.78299999
 20
18.60000001
  0
VERTEX
  8
EGA-301.PLT
 62
7
 10
29.75738085
 20
18.59097852
  0
VERTEX
  8
EGA-301.PLT
 62
7
 10
29.73610937
 20
18.58707813
  0
VERTEX
  8
EGA-301.PLT
 62
7
 10
29.71818945
 20
18.58704492
  0
VERTEX
  8
EGA-301.PLT
 62
7
 10
29.70262499
 20
18.58962500
  0
VERTEX
  8
EGA-301.PLT
 62
7
 10
29.68841992
 20
18.59356446
  0
VERTEX
  8
EGA-301.PLT
 62
7
 10
29.67457812
 20
18.59760938
  0
VERTEX
  8
EGA-301.PLT
 62
7
 10
29.66010352
 20
18.60050587
  0
VERTEX
  8
EGA-301.PLT
 62
7
 10
29.64400002
 20
18.60100001
  0
VERTEX
  8
EGA-301.PLT
 62
7
 10
29.60746876
 20
18.59912501
  0
VERTEX
  8
EGA-301.PLT
 62
7
 10
29.57150001
 20
18.59350001
  0
VERTEX
  8
EGA-301.PLT
 62
7
 10
29.53628125
 20
18.58412500
  0
VERTEX
  8
EGA-301.PLT
 62
7
 10
29.50200000
 20
18.57099999
  0
VERTEX
  8
EGA-301.PLT
 62
7
 10
29.46407812
 20
18.55186522
  0
VERTEX
  8
EGA-301.PLT
 62
7
 10
29.42737499
 20
18.52910936
  0
VERTEX
  8
EGA-301.PLT
 62
7
 10
29.39273436
 20
18.50295507
  0
VERTEX
  8
EGA-301.PLT
 62
7
 10
29.36099999
 20
18.47362499
  0
VERTEX
  8
EGA-301.PLT
 62
7
 10
29.33301561
 20
18.44134180
  0
VERTEX
  8
EGA-301.PLT
 62
7
 10
29.30962499
 20
18.40632813
  0
VERTEX
  8
EGA-301.PLT
 62
7
 10
29.29167187
 20
18.36880665
  0
VERTEX
  8
EGA-301.PLT
 62
7
 10
29.28000000
 20
18.32900001
  0
VERTEX
  8
EGA-301.PLT
 62
7
 10
29.33214062
 20
18.29975000
  0
VERTEX
  8
EGA-301.PLT
 62
7
 10
29.38362501
 20
18.26299999
  0
VERTEX
  8
EGA-301.PLT
 62
7
 10
29.43454689
 20
18.21875000
  0
VERTEX
  8
EGA-301.PLT
 62
7
 10
29.48500001
 20
18.16700001
  0
VERTEX
  8
EGA-301.PLT
 62
7
 10
29.52640626
 20
18.11768750
  0
VERTEX
  8
EGA-301.PLT
 62
7
 10
29.57250001
 20
18.05675000
  0
VERTEX
  8
EGA-301.PLT
 62
7
 10
29.62309375
 20
17.98418750
  0
VERTEX
  8
EGA-301.PLT
 62
7
 10
29.67799999
 20
17.90000000
  0
VERTEX
  8
EGA-301.PLT
 62
7
 10
29.74187500
 20
18.01562501
  0
VERTEX
  8
EGA-301.PLT
 62
7
 10
29.79299998
 20
18.09600002
  0
VERTEX
  8
EGA-301.PLT
 62
7
 10
29.83515623
 20
18.15034376
  0
VERTEX
  8
EGA-301.PLT
 62
7
 10
29.87899998
 20
18.19625000
  0
VERTEX
  8
EGA-301.PLT
 62
7
 10
29.92434374
 20
18.23353126
  0
VERTEX
  8
EGA-301.PLT
 62
7
 10
29.97100002
 20
18.26200002
  0
VERTEX
  8
EGA-301.PLT
 62
7
 10
30.03699999
 20
18.29337500
  0
SEQEND
  0
POLYLINE
  8
EGA-301.PLT
 62
7
 66
1
 70
1
  0
VERTEX
  8
EGA-301.PLT
 62
7
 10
65.41200000
 20
18.31800002
  0
VERTEX
  8
EGA-301.PLT
 62
7
 10
65.47500001
 20
18.29337500
  0
VERTEX
  8
EGA-301.PLT
 62
7
 10
65.54099998
 20
18.26200002
  0
VERTEX
  8
EGA-301.PLT
 62
7
 10
65.58765626
 20
18.23353126
  0
VERTEX
  8
EGA-301.PLT
 62
7
 10
65.63300002
 20
18.19625000
  0
VERTEX
  8
EGA-301.PLT
 62
7
 10
65.67684377
 20
18.15034376
  0
VERTEX
  8
EGA-301.PLT
 62
7
 10
65.71900002
 20
18.09600002
  0
VERTEX
  8
EGA-301.PLT
 62
7
 10
65.77012500
 20
18.01562501
  0
VERTEX
  8
EGA-301.PLT
 62
7
 10
65.83400001
 20
17.90000000
  0
VERTEX
  8
EGA-301.PLT
 62
7
 10
65.88890625
 20
17.98418750
  0
VERTEX
  8
EGA-301.PLT
 62
7
 10
65.93949999
 20
18.05675000
  0
VERTEX
  8
EGA-301.PLT
 62
7
 10
65.98559374
 20
18.11768750
  0
VERTEX
  8
EGA-301.PLT
 62
7
 10
66.02699999
 20
18.16700001
  0
VERTEX
  8
EGA-301.PLT
 62
7
 10
66.07745311
 20
18.21875000
  0
VERTEX
  8
EGA-301.PLT
 62
7
 10
66.12837499
 20
18.26299999
  0
VERTEX
  8
EGA-301.PLT
 62
7
 10
66.17985938
 20
18.29975000
  0
VERTEX
  8
EGA-301.PLT
 62
7
 10
66.23200000
 20
18.32900001
  0
VERTEX
  8
EGA-301.PLT
 62
7
 10
66.22032813
 20
18.36880665
  0
VERTEX
  8
EGA-301.PLT
 62
7
 10
66.20237501
 20
18.40632813
  0
VERTEX
  8
EGA-301.PLT
 62
7
 10
66.17898439
 20
18.44134180
  0
VERTEX
  8
EGA-301.PLT
 62
7
 10
66.15100001
 20
18.47362499
  0
VERTEX
  8
EGA-301.PLT
 62
7
 10
66.11926564
 20
18.50295507
  0
VERTEX
  8
EGA-301.PLT
 62
7
 10
66.08462501
 20
18.52910936
  0
VERTEX
  8
EGA-301.PLT
 62
7
 10
66.04792188
 20
18.55186522
  0
VERTEX
  8
EGA-301.PLT
 62
7
 10
66.01000000
 20
18.57099999
  0
VERTEX
  8
EGA-301.PLT
 62
7
 10
65.97571875
 20
18.58412500
  0
VERTEX
  8
EGA-301.PLT
 62
7
 10
65.94049999
 20
18.59350001
  0
VERTEX
  8
EGA-301.PLT
 62
7
 10
65.90453124
 20
18.59912501
  0
VERTEX
  8
EGA-301.PLT
 62
7
 10
65.86799998
 20
18.60100001
  0
VERTEX
  8
EGA-301.PLT
 62
7
 10
65.85189648
 20
18.60050587
  0
VERTEX
  8
EGA-301.PLT
 62
7
 10
65.83742188
 20
18.59760938
  0
VERTEX
  8
EGA-301.PLT
 62
7
 10
65.82358008
 20
18.59356446
  0
VERTEX
  8
EGA-301.PLT
 62
7
 10
65.80937501
 20
18.58962500
  0
VERTEX
  8
EGA-301.PLT
 62
7
 10
65.79381055
 20
18.58704492
  0
VERTEX
  8
EGA-301.PLT
 62
7
 10
65.77589063
 20
18.58707813
  0
VERTEX
  8
EGA-301.PLT
 62
7
 10
65.75461915
 20
18.59097852
  0
VERTEX
  8
EGA-301.PLT
 62
7
 10
65.72900001
 20
18.60000001
  0
VERTEX
  8
EGA-301.PLT
 62
7
 10
65.69291647
 20
18.59716799
  0
VERTEX
  8
EGA-301.PLT
 62
7
 10
65.67186057
 20
18.59378128
  0
VERTEX
  8
EGA-301.PLT
 62
7
 10
65.65262439
 20
18.58625393
  0
VERTEX
  8
EGA-301.PLT
 62
7
 10
65.62200001
 20
18.57099999
  0
VERTEX
  8
EGA-301.PLT
 62
7
 10
65.58442882
 20
18.54958385
  0
VERTEX
  8
EGA-301.PLT
 62
7
 10
65.55350764
 20
18.52634005
  0
VERTEX
  8
EGA-301.PLT
 62
7
 10
65.52752879
 20
18.50072401
  0
VERTEX
  8
EGA-301.PLT
 62
7
 10
65.50478456
 20
18.47219116
  0
VERTEX
  8
EGA-301.PLT
 62
7
 10
65.48356727
 20
18.44019691
  0
VERTEX
  8
EGA-301.PLT
 62
7
 10
65.46216921
 20
18.40419669
  0
VERTEX
  8
EGA-301.PLT
 62
7
 10
65.43888268
 20
18.36364592
  0
SEQEND
  0
POLYLINE
  8
EGA-301.PLT
 62
7
 66
1
 70
1
  0
VERTEX
  8
EGA-301.PLT
 62
7
 10
29.82200000
 20
17.14599998
  0
VERTEX
  8
EGA-301.PLT
 62
7
 10
29.87543458
 20
17.34080369
  0
VERTEX
  8
EGA-301.PLT
 62
7
 10
29.90758542
 20
17.34372499
  0
VERTEX
  8
EGA-301.PLT
 62
7
 10
29.93421729
 20
17.35127685
  0
VERTEX
  8
EGA-301.PLT
 62
7
 10
29.95634915
 20
17.36614120
  0
VERTEX
  8
EGA-301.PLT
 62
7
 10
29.97499998
 20
17.39099999
  0
VERTEX
  8
EGA-301.PLT
 62
7
 10
29.98503124
 20
17.41340625
  0
VERTEX
  8
EGA-301.PLT
 62
7
 10
29.99149999
 20
17.43675000
  0
VERTEX
  8
EGA-301.PLT
 62
7
 10
29.99271874
 20
17.46046876
  0
VERTEX
  8
EGA-301.PLT
 62
7
 10
29.98699999
 20
17.48400002
  0
VERTEX
  8
EGA-301.PLT
 62
7
 10
29.97679686
 20
17.50200001
  0
VERTEX
  8
EGA-301.PLT
 62
7
 10
29.96312499
 20
17.51700001
  0
VERTEX
  8
EGA-301.PLT
 62
7
 10
29.94664062
 20
17.52900001
  0
VERTEX
  8
EGA-301.PLT
 62
7
 10
29.92799999
 20
17.53800002
  0
VERTEX
  8
EGA-301.PLT
 62
7
 10
29.91094531
 20
17.54242969
  0
VERTEX
  8
EGA-301.PLT
 62
7
 10
29.89375000
 20
17.54381250
  0
VERTEX
  8
EGA-301.PLT
 62
7
 10
29.87674218
 20
17.54228906
  0
VERTEX
  8
EGA-301.PLT
 62
7
 10
29.86025000
 20
17.53800000
  0
VERTEX
  8
EGA-301.PLT
 62
7
 10
29.84460156
 20
17.53108594
  0
VERTEX
  8
EGA-301.PLT
 62
7
 10
29.83012499
 20
17.52168750
  0
VERTEX
  8
EGA-301.PLT
 62
7
 10
29.81714843
 20
17.50994531
  0
VERTEX
  8
EGA-301.PLT
 62
7
 10
29.80599998
 20
17.49599999
  0
VERTEX
  8
EGA-301.PLT
 62
7
 10
29.79812499
 20
17.48240233
  0
VERTEX
  8
EGA-301.PLT
 62
7
 10
29.79250000
 20
17.46803125
  0
VERTEX
  8
EGA-301.PLT
 62
7
 10
29.78912500
 20
17.45314453
  0
VERTEX
  8
EGA-301.PLT
 62
7
 10
29.78800000
 20
17.43800000
  0
VERTEX
  8
EGA-301.PLT
 62
7
 10
29.78912500
 20
17.42285547
  0
VERTEX
  8
EGA-301.PLT
 62
7
 10
29.79250000
 20
17.40796875
  0
VERTEX
  8
EGA-301.PLT
 62
7
 10
29.79812499
 20
17.39359765
  0
VERTEX
  8
EGA-301.PLT
 62
7
 10
29.80599998
 20
17.37999998
  0
VERTEX
  8
EGA-301.PLT
 62
7
 10
29.73400001
 20
17.21599999
  0
VERTEX
  8
EGA-301.PLT
 62
7
 10
29.73000001
 20
17.50799999
  0
VERTEX
  8
EGA-301.PLT
 62
7
 10
29.75349999
 20
17.52887500
  0
VERTEX
  8
EGA-301.PLT
 62
7
 10
29.77100000
 20
17.55499999
  0
VERTEX
  8
EGA-301.PLT
 62
7
 10
29.78000001
 20
17.57918750
  0
VERTEX
  8
EGA-301.PLT
 62
7
 10
29.78375001
 20
17.60450000
  0
VERTEX
  8
EGA-301.PLT
 62
7
 10
29.78112501
 20
17.62981251
  0
VERTEX
  8
EGA-301.PLT
 62
7
 10
29.77100000
 20
17.65400002
  0
VERTEX
  8
EGA-301.PLT
 62
7
 10
29.76120680
 20
17.66824770
  0
VERTEX
  8
EGA-301.PLT
 62
7
 10
29.74888676
 20
17.68076762
  0
VERTEX
  8
EGA-301.PLT
 62
7
 10
29.73487922
 20
17.69122505
  0
VERTEX
  8
EGA-301.PLT
 62
7
 10
29.72002351
 20
17.69928525
  0
VERTEX
  8
EGA-301.PLT
 62
7
 10
29.70255362
 20
17.70527850
  0
VERTEX
  8
EGA-301.PLT
 62
7
 10
29.68481766
 20
17.70894251
  0
VERTEX
  8
EGA-301.PLT
 62
7
 10
29.66707619
 20
17.71017869
  0
VERTEX
  8
EGA-301.PLT
 62
7
 10
29.64958978
 20
17.70888845
  0
VERTEX
  8
EGA-301.PLT
 62
7
 10
29.63261900
 20
17.70497321
  0
VERTEX
  8
EGA-301.PLT
 62
7
 10
29.61642440
 20
17.69833439
  0
VERTEX
  8
EGA-301.PLT
 62
7
 10
29.60126656
 20
17.68887338
  0
VERTEX
  8
EGA-301.PLT
 62
7
 10
29.58740604
 20
17.67649162
  0
VERTEX
  8
EGA-301.PLT
 62
7
 10
29.57787436
 20
17.66553826
  0
VERTEX
  8
EGA-301.PLT
 62
7
 10
29.56965447
 20
17.65314415
  0
VERTEX
  8
EGA-301.PLT
 62
7
 10
29.56293411
 20
17.63963330
  0
VERTEX
  8
EGA-301.PLT
 62
7
 10
29.55790101
 20
17.62532970
  0
VERTEX
  8
EGA-301.PLT
 62
7
 10
29.55474291
 20
17.61055735
  0
VERTEX
  8
EGA-301.PLT
 62
7
 10
29.55364755
 20
17.59564025
  0
VERTEX
  8
EGA-301.PLT
 62
7
 10
29.55480266
 20
17.58090240
  0
VERTEX
  8
EGA-301.PLT
 62
7
 10
29.55839598
 20
17.56666778
  0
VERTEX
  8
EGA-301.PLT
 62
7
 10
29.56412935
 20
17.55274165
  0
VERTEX
  8
EGA-301.PLT
 62
7
 10
29.57204969
 20
17.53971865
  0
VERTEX
  8
EGA-301.PLT
 62
7
 10
29.58173740
 20
17.52798187
  0
VERTEX
  8
EGA-301.PLT
 62
7
 10
29.59277287
 20
17.51791443
  0
VERTEX
  8
EGA-301.PLT
 62
7
 10
29.60473648
 20
17.50989942
  0
VERTEX
  8
EGA-301.PLT
 62
7
 10
29.61720861
 20
17.50431994
  0
VERTEX
  8
EGA-301.PLT
 62
7
 10
29.62976965
 20
17.50155910
  0
VERTEX
  8
EGA-301.PLT
 62
7
 10
29.64199999
 20
17.50199999
  0
VERTEX
  8
EGA-301.PLT
 62
7
 10
29.62899998
 20
17.25700002
  0
VERTEX
  8
EGA-301.PLT
 62
7
 10
29.51899998
 20
17.38499999
  0
VERTEX
  8
EGA-301.PLT
 62
7
 10
29.52874999
 20
17.41337500
  0
VERTEX
  8
EGA-301.PLT
 62
7
 10
29.53099999
 20
17.44399999
  0
VERTEX
  8
EGA-301.PLT
 62
7
 10
29.52637500
 20
17.47025000
  0
VERTEX
  8
EGA-301.PLT
 62
7
 10
29.51575000
 20
17.49425000
  0
VERTEX
  8
EGA-301.PLT
 62
7
 10
29.49950000
 20
17.51487501
  0
VERTEX
  8
EGA-301.PLT
 62
7
 10
29.47800000
 20
17.53100001
  0
VERTEX
  8
EGA-301.PLT
 62
7
 10
29.45884946
 20
17.53931900
  0
VERTEX
  8
EGA-301.PLT
 62
7
 10
29.43921602
 20
17.54341514
  0
VERTEX
  8
EGA-301.PLT
 62
7
 10
29.41957692
 20
17.54349713
  0
VERTEX
  8
EGA-301.PLT
 62
7
 10
29.40040940
 20
17.53977370
  0
VERTEX
  8
EGA-301.PLT
 62
7
 10
29.38219071
 20
17.53245355
  0
VERTEX
  8
EGA-301.PLT
 62
7
 10
29.36539808
 20
17.52174541
  0
VERTEX
  8
EGA-301.PLT
 62
7
 10
29.35050877
 20
17.50785798
  0
VERTEX
  8
EGA-301.PLT
 62
7
 10
29.33800002
 20
17.49099998
  0
VERTEX
  8
EGA-301.PLT
 62
7
 10
29.32985146
 20
17.47512591
  0
VERTEX
  8
EGA-301.PLT
 62
7
 10
29.32423836
 20
17.45847584
  0
VERTEX
  8
EGA-301.PLT
 62
7
 10
29.32125350
 20
17.44140192
  0
VERTEX
  8
EGA-301.PLT
 62
7
 10
29.32098965
 20
17.42425631
  0
VERTEX
  8
EGA-301.PLT
 62
7
 10
29.32353960
 20
17.40739115
  0
VERTEX
  8
EGA-301.PLT
 62
7
 10
29.32899611
 20
17.39115862
  0
VERTEX
  8
EGA-301.PLT
 62
7
 10
29.33745198
 20
17.37591085
  0
VERTEX
  8
EGA-301.PLT
 62
7
 10
29.34899998
 20
17.36200001
  0
VERTEX
  8
EGA-301.PLT
 62
7
 10
29.36943749
 20
17.34743750
  0
VERTEX
  8
EGA-301.PLT
 62
7
 10
29.39250000
 20
17.33850000
  0
VERTEX
  8
EGA-301.PLT
 62
7
 10
29.41706250
 20
17.33556249
  0
VERTEX
  8
EGA-301.PLT
 62
7
 10
29.44200001
 20
17.33900000
  0
VERTEX
  8
EGA-301.PLT
 62
7
 10
29.58799999
 20
17.12300001
  0
VERTEX
  8
EGA-301.PLT
 62
7
 10
29.62300000
 20
17.12150000
  0
VERTEX
  8
EGA-301.PLT
 62
7
 10
29.65800000
 20
17.12300001
  0
VERTEX
  8
EGA-301.PLT
 62
7
 10
29.68009961
 20
17.12419337
  0
VERTEX
  8
EGA-301.PLT
 62
7
 10
29.70148438
 20
17.12448438
  0
VERTEX
  8
EGA-301.PLT
 62
7
 10
29.72228320
 20
17.12456446
  0
VERTEX
  8
EGA-301.PLT
 62
7
 10
29.74262500
 20
17.12512500
  0
VERTEX
  8
EGA-301.PLT
 62
7
 10
29.76263867
 20
17.12685742
  0
VERTEX
  8
EGA-301.PLT
 62
7
 10
29.78245312
 20
17.13045312
  0
VERTEX
  8
EGA-301.PLT
 62
7
 10
29.80219726
 20
17.13660350
  0
SEQEND
  0
POLYLINE
  8
EGA-301.PLT
 62
7
 66
1
 70
1
  0
VERTEX
  8
EGA-301.PLT
 62
7
 10
65.69000000
 20
17.14599998
  0
VERTEX
  8
EGA-301.PLT
 62
7
 10
65.70980274
 20
17.13660350
  0
VERTEX
  8
EGA-301.PLT
 62
7
 10
65.72954688
 20
17.13045312
  0
VERTEX
  8
EGA-301.PLT
 62
7
 10
65.74936133
 20
17.12685742
  0
VERTEX
  8
EGA-301.PLT
 62
7
 10
65.76937500
 20
17.12512500
  0
VERTEX
  8
EGA-301.PLT
 62
7
 10
65.78971680
 20
17.12456446
  0
VERTEX
  8
EGA-301.PLT
 62
7
 10
65.81051562
 20
17.12448438
  0
VERTEX
  8
EGA-301.PLT
 62
7
 10
65.83190039
 20
17.12419337
  0
VERTEX
  8
EGA-301.PLT
 62
7
 10
65.85400000
 20
17.12300001
  0
VERTEX
  8
EGA-301.PLT
 62
7
 10
65.88900000
 20
17.12150000
  0
VERTEX
  8
EGA-301.PLT
 62
7
 10
65.92400001
 20
17.12300001
  0
VERTEX
  8
EGA-301.PLT
 62
7
 10
66.06999999
 20
17.33900000
  0
VERTEX
  8
EGA-301.PLT
 62
7
 10
66.09493750
 20
17.33556249
  0
VERTEX
  8
EGA-301.PLT
 62
7
 10
66.11950000
 20
17.33850000
  0
VERTEX
  8
EGA-301.PLT
 62
7
 10
66.14256251
 20
17.34743750
  0
VERTEX
  8
EGA-301.PLT
 62
7
 10
66.16300002
 20
17.36200001
  0
VERTEX
  8
EGA-301.PLT
 62
7
 10
66.17454802
 20
17.37591085
  0
VERTEX
  8
EGA-301.PLT
 62
7
 10
66.18300389
 20
17.39115862
  0
VERTEX
  8
EGA-301.PLT
 62
7
 10
66.18846040
 20
17.40739115
  0
VERTEX
  8
EGA-301.PLT
 62
7
 10
66.19101035
 20
17.42425631
  0
VERTEX
  8
EGA-301.PLT
 62
7
 10
66.19074650
 20
17.44140192
  0
VERTEX
  8
EGA-301.PLT
 62
7
 10
66.18776164
 20
17.45847584
  0
VERTEX
  8
EGA-301.PLT
 62
7
 10
66.18214854
 20
17.47512591
  0
VERTEX
  8
EGA-301.PLT
 62
7
 10
66.17399998
 20
17.49099998
  0
VERTEX
  8
EGA-301.PLT
 62
7
 10
66.16149123
 20
17.50785798
  0
VERTEX
  8
EGA-301.PLT
 62
7
 10
66.14660192
 20
17.52174541
  0
VERTEX
  8
EGA-301.PLT
 62
7
 10
66.12980929
 20
17.53245355
  0
VERTEX
  8
EGA-301.PLT
 62
7
 10
66.11159060
 20
17.53977370
  0
VERTEX
  8
EGA-301.PLT
 62
7
 10
66.09242308
 20
17.54349713
  0
VERTEX
  8
EGA-301.PLT
 62
7
 10
66.07278398
 20
17.54341514
  0
VERTEX
  8
EGA-301.PLT
 62
7
 10
66.05315054
 20
17.53931900
  0
VERTEX
  8
EGA-301.PLT
 62
7
 10
66.03400000
 20
17.53100001
  0
VERTEX
  8
EGA-301.PLT
 62
7
 10
66.01250000
 20
17.51487501
  0
VERTEX
  8
EGA-301.PLT
 62
7
 10
65.99625000
 20
17.49425000
  0
VERTEX
  8
EGA-301.PLT
 62
7
 10
65.98562500
 20
17.47025000
  0
VERTEX
  8
EGA-301.PLT
 62
7
 10
65.98100001
 20
17.44399999
  0
VERTEX
  8
EGA-301.PLT
 62
7
 10
65.98325001
 20
17.41337500
  0
VERTEX
  8
EGA-301.PLT
 62
7
 10
65.99300002
 20
17.38499999
  0
VERTEX
  8
EGA-301.PLT
 62
7
 10
65.88300002
 20
17.25700002
  0
VERTEX
  8
EGA-301.PLT
 62
7
 10
65.87000001
 20
17.50199999
  0
VERTEX
  8
EGA-301.PLT
 62
7
 10
65.88223035
 20
17.50155910
  0
VERTEX
  8
EGA-301.PLT
 62
7
 10
65.89479139
 20
17.50431994
  0
VERTEX
  8
EGA-301.PLT
 62
7
 10
65.90726352
 20
17.50989942
  0
VERTEX
  8
EGA-301.PLT
 62
7
 10
65.91922713
 20
17.51791443
  0
VERTEX
  8
EGA-301.PLT
 62
7
 10
65.93026260
 20
17.52798187
  0
VERTEX
  8
EGA-301.PLT
 62
7
 10
65.93995031
 20
17.53971865
  0
VERTEX
  8
EGA-301.PLT
 62
7
 10
65.94787065
 20
17.55274165
  0
VERTEX
  8
EGA-301.PLT
 62
7
 10
65.95360402
 20
17.56666778
  0
VERTEX
  8
EGA-301.PLT
 62
7
 10
65.95719734
 20
17.58090240
  0
VERTEX
  8
EGA-301.PLT
 62
7
 10
65.95835245
 20
17.59564025
  0
VERTEX
  8
EGA-301.PLT
 62
7
 10
65.95725709
 20
17.61055735
  0
VERTEX
  8
EGA-301.PLT
 62
7
 10
65.95409899
 20
17.62532970
  0
VERTEX
  8
EGA-301.PLT
 62
7
 10
65.94906589
 20
17.63963330
  0
VERTEX
  8
EGA-301.PLT
 62
7
 10
65.94234553
 20
17.65314415
  0
VERTEX
  8
EGA-301.PLT
 62
7
 10
65.93412564
 20
17.66553826
  0
VERTEX
  8
EGA-301.PLT
 62
7
 10
65.92459396
 20
17.67649162
  0
VERTEX
  8
EGA-301.PLT
 62
7
 10
65.91073344
 20
17.68887338
  0
VERTEX
  8
EGA-301.PLT
 62
7
 10
65.89557560
 20
17.69833439
  0
VERTEX
  8
EGA-301.PLT
 62
7
 10
65.87938100
 20
17.70497321
  0
VERTEX
  8
EGA-301.PLT
 62
7
 10
65.86241022
 20
17.70888845
  0
VERTEX
  8
EGA-301.PLT
 62
7
 10
65.84492381
 20
17.71017869
  0
VERTEX
  8
EGA-301.PLT
 62
7
 10
65.82718234
 20
17.70894251
  0
VERTEX
  8
EGA-301.PLT
 62
7
 10
65.80944638
 20
17.70527850
  0
VERTEX
  8
EGA-301.PLT
 62
7
 10
65.79197649
 20
17.69928525
  0
VERTEX
  8
EGA-301.PLT
 62
7
 10
65.77712078
 20
17.69122505
  0
VERTEX
  8
EGA-301.PLT
 62
7
 10
65.76311324
 20
17.68076762
  0
VERTEX
  8
EGA-301.PLT
 62
7
 10
65.75079320
 20
17.66824770
  0
VERTEX
  8
EGA-301.PLT
 62
7
 10
65.74100000
 20
17.65400002
  0
VERTEX
  8
EGA-301.PLT
 62
7
 10
65.73087499
 20
17.62981251
  0
VERTEX
  8
EGA-301.PLT
 62
7
 10
65.72824999
 20
17.60450000
  0
VERTEX
  8
EGA-301.PLT
 62
7
 10
65.73199999
 20
17.57918750
  0
VERTEX
  8
EGA-301.PLT
 62
7
 10
65.74100000
 20
17.55499999
  0
VERTEX
  8
EGA-301.PLT
 62
7
 10
65.75850001
 20
17.52887500
  0
VERTEX
  8
EGA-301.PLT
 62
7
 10
65.78199999
 20
17.50799999
  0
VERTEX
  8
EGA-301.PLT
 62
7
 10
65.77799999
 20
17.21599999
  0
VERTEX
  8
EGA-301.PLT
 62
7
 10
65.70600002
 20
17.37999998
  0
VERTEX
  8
EGA-301.PLT
 62
7
 10
65.71387501
 20
17.39359765
  0
VERTEX
  8
EGA-301.PLT
 62
7
 10
65.71950000
 20
17.40796875
  0
VERTEX
  8
EGA-301.PLT
 62
7
 10
65.72287500
 20
17.42285547
  0
VERTEX
  8
EGA-301.PLT
 62
7
 10
65.72400000
 20
17.43800000
  0
VERTEX
  8
EGA-301.PLT
 62
7
 10
65.72287500
 20
17.45314453
  0
VERTEX
  8
EGA-301.PLT
 62
7
 10
65.71950000
 20
17.46803125
  0
VERTEX
  8
EGA-301.PLT
 62
7
 10
65.71387501
 20
17.48240233
  0
VERTEX
  8
EGA-301.PLT
 62
7
 10
65.70600002
 20
17.49599999
  0
VERTEX
  8
EGA-301.PLT
 62
7
 10
65.69485157
 20
17.50994531
  0
VERTEX
  8
EGA-301.PLT
 62
7
 10
65.68187501
 20
17.52168750
  0
VERTEX
  8
EGA-301.PLT
 62
7
 10
65.66739844
 20
17.53108594
  0
VERTEX
  8
EGA-301.PLT
 62
7
 10
65.65175000
 20
17.53800000
  0
VERTEX
  8
EGA-301.PLT
 62
7
 10
65.63525782
 20
17.54228906
  0
VERTEX
  8
EGA-301.PLT
 62
7
 10
65.61825000
 20
17.54381250
  0
VERTEX
  8
EGA-301.PLT
 62
7
 10
65.60105469
 20
17.54242969
  0
VERTEX
  8
EGA-301.PLT
 62
7
 10
65.58400001
 20
17.53800002
  0
VERTEX
  8
EGA-301.PLT
 62
7
 10
65.56535938
 20
17.52900001
  0
VERTEX
  8
EGA-301.PLT
 62
7
 10
65.54887501
 20
17.51700001
  0
VERTEX
  8
EGA-301.PLT
 62
7
 10
65.53520314
 20
17.50200001
  0
VERTEX
  8
EGA-301.PLT
 62
7
 10
65.52500001
 20
17.48400002
  0
VERTEX
  8
EGA-301.PLT
 62
7
 10
65.51928126
 20
17.46046876
  0
VERTEX
  8
EGA-301.PLT
 62
7
 10
65.52050001
 20
17.43675000
  0
VERTEX
  8
EGA-301.PLT
 62
7
 10
65.52696876
 20
17.41340625
  0
VERTEX
  8
EGA-301.PLT
 62
7
 10
65.53700002
 20
17.39099999
  0
VERTEX
  8
EGA-301.PLT
 62
7
 10
65.55565085
 20
17.36614120
  0
VERTEX
  8
EGA-301.PLT
 62
7
 10
65.57778271
 20
17.35127685
  0
VERTEX
  8
EGA-301.PLT
 62
7
 10
65.60441458
 20
17.34372499
  0
VERTEX
  8
EGA-301.PLT
 62
7
 10
65.63656542
 20
17.34080369
  0
SEQEND
  0
POLYLINE
  8
EGA-301.PLT
 62
7
 66
1
 70
1
  0
VERTEX
  8
EGA-301.PLT
 62
7
 10
64.83100000
 20
3.07000000
  0
VERTEX
  8
EGA-301.PLT
 62
7
 10
65.24053256
 20
3.07272860
  0
VERTEX
  8
EGA-301.PLT
 62
7
 10
65.18803243
 20
3.11693410
  0
VERTEX
  8
EGA-301.PLT
 62
7
 10
65.14333214
 20
3.15943617
  0
VERTEX
  8
EGA-301.PLT
 62
7
 10
65.10013184
 20
3.20456324
  0
VERTEX
  8
EGA-301.PLT
 62
7
 10
65.05213169
 20
3.25664373
  0
VERTEX
  8
EGA-301.PLT
 62
7
 10
64.98937675
 20
3.32910565
  0
VERTEX
  8
EGA-301.PLT
 62
7
 10
64.93044086
 20
3.40557187
  0
VERTEX
  8
EGA-301.PLT
 62
7
 10
64.87356746
 20
3.48391309
  0
VERTEX
  8
EGA-301.PLT
 62
7
 10
64.81700001
 20
3.56200002
  0
VERTEX
  8
EGA-301.PLT
 62
7
 10
64.77270313
 20
3.62515626
  0
VERTEX
  8
EGA-301.PLT
 62
7
 10
64.73112500
 20
3.69000000
  0
VERTEX
  8
EGA-301.PLT
 62
7
 10
64.69198438
 20
3.75634375
  0
VERTEX
  8
EGA-301.PLT
 62
7
 10
64.65499999
 20
3.82400000
  0
VERTEX
  8
EGA-301.PLT
 62
7
 10
64.64044335
 20
3.76595899
  0
VERTEX
  8
EGA-301.PLT
 62
7
 10
64.62929686
 20
3.70617188
  0
VERTEX
  8
EGA-301.PLT
 62
7
 10
64.62197069
 20
3.64514258
  0
VERTEX
  8
EGA-301.PLT
 62
7
 10
64.61887499
 20
3.58337500
  0
VERTEX
  8
EGA-301.PLT
 62
7
 10
64.62041992
 20
3.52137305
  0
VERTEX
  8
EGA-301.PLT
 62
7
 10
64.62701562
 20
3.45964062
  0
VERTEX
  8
EGA-301.PLT
 62
7
 10
64.63907226
 20
3.39868164
  0
VERTEX
  8
EGA-301.PLT
 62
7
 10
64.65700000
 20
3.33900000
  0
VERTEX
  8
EGA-301.PLT
 62
7
 10
64.67144921
 20
3.30344726
  0
VERTEX
  8
EGA-301.PLT
 62
7
 10
64.68896874
 20
3.26757812
  0
VERTEX
  8
EGA-301.PLT
 62
7
 10
64.70906640
 20
3.23182617
  0
VERTEX
  8
EGA-301.PLT
 62
7
 10
64.73125000
 20
3.19662500
  0
VERTEX
  8
EGA-301.PLT
 62
7
 10
64.75502735
 20
3.16240820
  0
VERTEX
  8
EGA-301.PLT
 62
7
 10
64.77990625
 20
3.12960937
  0
VERTEX
  8
EGA-301.PLT
 62
7
 10
64.80539453
 20
3.09866211
  0
SEQEND
  0
POLYLINE
  8
EGA-301.PLT
 62
7
 66
1
 70
1
  0
VERTEX
  8
EGA-301.PLT
 62
7
 10
30.68100000
 20
3.07000000
  0
VERTEX
  8
EGA-301.PLT
 62
7
 10
30.70660547
 20
3.09866211
  0
VERTEX
  8
EGA-301.PLT
 62
7
 10
30.73209375
 20
3.12960937
  0
VERTEX
  8
EGA-301.PLT
 62
7
 10
30.75697265
 20
3.16240820
  0
VERTEX
  8
EGA-301.PLT
 62
7
 10
30.78075000
 20
3.19662500
  0
VERTEX
  8
EGA-301.PLT
 62
7
 10
30.80293360
 20
3.23182617
  0
VERTEX
  8
EGA-301.PLT
 62
7
 10
30.82303126
 20
3.26757812
  0
VERTEX
  8
EGA-301.PLT
 62
7
 10
30.84055079
 20
3.30344726
  0
VERTEX
  8
EGA-301.PLT
 62
7
 10
30.85500000
 20
3.33900000
  0
VERTEX
  8
EGA-301.PLT
 62
7
 10
30.87292774
 20
3.39868164
  0
VERTEX
  8
EGA-301.PLT
 62
7
 10
30.88498438
 20
3.45964062
  0
VERTEX
  8
EGA-301.PLT
 62
7
 10
30.89158008
 20
3.52137305
  0
VERTEX
  8
EGA-301.PLT
 62
7
 10
30.89312501
 20
3.58337500
  0
VERTEX
  8
EGA-301.PLT
 62
7
 10
30.89002931
 20
3.64514258
  0
VERTEX
  8
EGA-301.PLT
 62
7
 10
30.88270314
 20
3.70617188
  0
VERTEX
  8
EGA-301.PLT
 62
7
 10
30.87155665
 20
3.76595899
  0
VERTEX
  8
EGA-301.PLT
 62
7
 10
30.85700001
 20
3.82400000
  0
VERTEX
  8
EGA-301.PLT
 62
7
 10
30.82001562
 20
3.75634375
  0
VERTEX
  8
EGA-301.PLT
 62
7
 10
30.78087500
 20
3.69000000
  0
VERTEX
  8
EGA-301.PLT
 62
7
 10
30.73929687
 20
3.62515626
  0
VERTEX
  8
EGA-301.PLT
 62
7
 10
30.69499999
 20
3.56200002
  0
VERTEX
  8
EGA-301.PLT
 62
7
 10
30.63843254
 20
3.48391309
  0
VERTEX
  8
EGA-301.PLT
 62
7
 10
30.58155914
 20
3.40557187
  0
VERTEX
  8
EGA-301.PLT
 62
7
 10
30.52262325
 20
3.32910565
  0
VERTEX
  8
EGA-301.PLT
 62
7
 10
30.45986831
 20
3.25664373
  0
VERTEX
  8
EGA-301.PLT
 62
7
 10
30.41186816
 20
3.20456324
  0
VERTEX
  8
EGA-301.PLT
 62
7
 10
30.36866786
 20
3.15943617
  0
VERTEX
  8
EGA-301.PLT
 62
7
 10
30.32396757
 20
3.11693410
  0
VERTEX
  8
EGA-301.PLT
 62
7
 10
30.27146744
 20
3.07272860
  0
SEQEND
  0
POLYLINE
  8
EGA-301.PLT
 62
7
 66
1
 70
1
  0
VERTEX
  8
EGA-301.PLT
 62
7
 10
28.83800000
 20
3.07100000
  0
VERTEX
  8
EGA-301.PLT
 62
7
 10
28.80827344
 20
3.10938281
  0
VERTEX
  8
EGA-301.PLT
 62
7
 10
28.77981250
 20
3.15118750
  0
VERTEX
  8
EGA-301.PLT
 62
7
 10
28.75257031
 20
3.19552344
  0
VERTEX
  8
EGA-301.PLT
 62
7
 10
28.72650000
 20
3.24150000
  0
VERTEX
  8
EGA-301.PLT
 62
7
 10
28.70155469
 20
3.28822656
  0
VERTEX
  8
EGA-301.PLT
 62
7
 10
28.67768750
 20
3.33481250
  0
VERTEX
  8
EGA-301.PLT
 62
7
 10
28.65485156
 20
3.38036719
  0
VERTEX
  8
EGA-301.PLT
 62
7
 10
28.63300000
 20
3.42400000
  0
VERTEX
  8
EGA-301.PLT
 62
7
 10
28.58953125
 20
3.51843750
  0
VERTEX
  8
EGA-301.PLT
 62
7
 10
28.55225000
 20
3.61550000
  0
VERTEX
  8
EGA-301.PLT
 62
7
 10
28.52134375
 20
3.71481250
  0
VERTEX
  8
EGA-301.PLT
 62
7
 10
28.49700000
 20
3.81600000
  0
VERTEX
  8
EGA-301.PLT
 62
7
 10
28.48742773
 20
3.77562500
  0
VERTEX
  8
EGA-301.PLT
 62
7
 10
28.47704687
 20
3.73543750
  0
VERTEX
  8
EGA-301.PLT
 62
7
 10
28.46636133
 20
3.69534375
  0
VERTEX
  8
EGA-301.PLT
 62
7
 10
28.45587500
 20
3.65525000
  0
VERTEX
  8
EGA-301.PLT
 62
7
 10
28.44609180
 20
3.61506250
  0
VERTEX
  8
EGA-301.PLT
 62
7
 10
28.43751563
 20
3.57468750
  0
VERTEX
  8
EGA-301.PLT
 62
7
 10
28.43065039
 20
3.53403125
  0
VERTEX
  8
EGA-301.PLT
 62
7
 10
28.42600000
 20
3.49300000
  0
VERTEX
  8
EGA-301.PLT
 62
7
 10
28.42311914
 20
3.44012500
  0
VERTEX
  8
EGA-301.PLT
 62
7
 10
28.42207812
 20
3.38668750
  0
VERTEX
  8
EGA-301.PLT
 62
7
 10
28.42302930
 20
3.33296875
  0
VERTEX
  8
EGA-301.PLT
 62
7
 10
28.42612500
 20
3.27925000
  0
VERTEX
  8
EGA-301.PLT
 62
7
 10
28.43151758
 20
3.22581250
  0
VERTEX
  8
EGA-301.PLT
 62
7
 10
28.43935937
 20
3.17293750
  0
VERTEX
  8
EGA-301.PLT
 62
7
 10
28.44980273
 20
3.12090625
  0
VERTEX
  8
EGA-301.PLT
 62
7
 10
28.46300000
 20
3.07000000
  0
SEQEND
  0
POLYLINE
  8
EGA-301.PLT
 62
7
 66
1
 70
1
  0
VERTEX
  8
EGA-301.PLT
 62
7
 10
66.67400000
 20
3.07100000
  0
VERTEX
  8
EGA-301.PLT
 62
7
 10
67.04900000
 20
3.07000000
  0
VERTEX
  8
EGA-301.PLT
 62
7
 10
67.06219727
 20
3.12090625
  0
VERTEX
  8
EGA-301.PLT
 62
7
 10
67.07264063
 20
3.17293750
  0
VERTEX
  8
EGA-301.PLT
 62
7
 10
67.08048242
 20
3.22581250
  0
VERTEX
  8
EGA-301.PLT
 62
7
 10
67.08587500
 20
3.27925000
  0
VERTEX
  8
EGA-301.PLT
 62
7
 10
67.08897070
 20
3.33296875
  0
VERTEX
  8
EGA-301.PLT
 62
7
 10
67.08992188
 20
3.38668750
  0
VERTEX
  8
EGA-301.PLT
 62
7
 10
67.08888086
 20
3.44012500
  0
VERTEX
  8
EGA-301.PLT
 62
7
 10
67.08600000
 20
3.49300000
  0
VERTEX
  8
EGA-301.PLT
 62
7
 10
67.08134961
 20
3.53403125
  0
VERTEX
  8
EGA-301.PLT
 62
7
 10
67.07448437
 20
3.57468750
  0
VERTEX
  8
EGA-301.PLT
 62
7
 10
67.06590820
 20
3.61506250
  0
VERTEX
  8
EGA-301.PLT
 62
7
 10
67.05612500
 20
3.65525000
  0
VERTEX
  8
EGA-301.PLT
 62
7
 10
67.04563867
 20
3.69534375
  0
VERTEX
  8
EGA-301.PLT
 62
7
 10
67.03495313
 20
3.73543750
  0
VERTEX
  8
EGA-301.PLT
 62
7
 10
67.02457227
 20
3.77562500
  0
VERTEX
  8
EGA-301.PLT
 62
7
 10
67.01500000
 20
3.81600000
  0
VERTEX
  8
EGA-301.PLT
 62
7
 10
66.99065625
 20
3.71481250
  0
VERTEX
  8
EGA-301.PLT
 62
7
 10
66.95975000
 20
3.61550000
  0
VERTEX
  8
EGA-301.PLT
 62
7
 10
66.92246875
 20
3.51843750
  0
VERTEX
  8
EGA-301.PLT
 62
7
 10
66.87900000
 20
3.42400000
  0
VERTEX
  8
EGA-301.PLT
 62
7
 10
66.85714844
 20
3.38036719
  0
VERTEX
  8
EGA-301.PLT
 62
7
 10
66.83431250
 20
3.33481250
  0
VERTEX
  8
EGA-301.PLT
 62
7
 10
66.81044531
 20
3.28822656
  0
VERTEX
  8
EGA-301.PLT
 62
7
 10
66.78550000
 20
3.24150000
  0
VERTEX
  8
EGA-301.PLT
 62
7
 10
66.75942969
 20
3.19552344
  0
VERTEX
  8
EGA-301.PLT
 62
7
 10
66.73218750
 20
3.15118750
  0
VERTEX
  8
EGA-301.PLT
 62
7
 10
66.70372656
 20
3.10938281
  0
SEQEND
  0
POLYLINE
  8
EGA-301.PLT
 62
7
 66
1
  0
VERTEX
  8
EGA-301.PLT
 62
7
 10
33.66200000
 20
23.50300000
  0
VERTEX
  8
EGA-301.PLT
 62
7
 10
33.66200000
 20
24.00300000
  0
SEQEND
  0
POLYLINE
  8
EGA-301.PLT
 62
7
 66
1
  0
VERTEX
  8
EGA-301.PLT
 62
7
 10
68.92700000
 20
22.18600000
  0
VERTEX
  8
EGA-301.PLT
 62
7
 10
68.92700000
 20
21.68600000
  0
SEQEND
  0
POLYLINE
  8
EGA-301.PLT
 62
7
 66
1
  0
VERTEX
  8
EGA-301.PLT
 62
7
 10
26.51300000
 20
22.18600000
  0
VERTEX
  8
EGA-301.PLT
 62
7
 10
26.51300000
 20
21.68600000
  0
SEQEND
  0
ENDSEC
  0
EOF
