  0
SECTION
  2
ENTITIES
  0
POLYLINE
  8
Layer 1
 62
7
 66
1
 70
1
  0
VERTEX
  8
Layer 1
 62
7
 10
22.16000000
 20
1.99000055
  0
VERTEX
  8
Layer 1
 62
7
 10
22.01000000
 20
1.99000000
  0
VERTEX
  8
Layer 1
 62
7
 10
22.01000000
 20
1.83999999
  0
VERTEX
  8
Layer 1
 62
7
 10
22.16000000
 20
1.84000000
  0
SEQEND
  0
POLYLINE
  8
Layer 1
 62
7
 66
1
 70
1
  0
VERTEX
  8
Layer 1
 62
7
 10
21.66999978
 20
1.93000000
  0
VERTEX
  8
Layer 1
 62
7
 10
21.66999978
 20
2.33000022
  0
VERTEX
  8
Layer 1
 62
7
 10
22.07000000
 20
2.33000022
  0
VERTEX
  8
Layer 1
 62
7
 10
22.07000000
 20
9.67000040
  0
VERTEX
  8
Layer 1
 62
7
 10
21.66999978
 20
9.67000040
  0
VERTEX
  8
Layer 1
 62
7
 10
21.66999978
 20
10.07000062
  0
VERTEX
  8
Layer 1
 62
7
 10
2.33000022
 20
10.07000062
  0
VERTEX
  8
Layer 1
 62
7
 10
2.33000022
 20
9.67000040
  0
VERTEX
  8
Layer 1
 62
7
 10
1.93000000
 20
9.67000040
  0
VERTEX
  8
Layer 1
 62
7
 10
1.93000000
 20
2.33000022
  0
VERTEX
  8
Layer 1
 62
7
 10
2.33000022
 20
2.33000022
  0
VERTEX
  8
Layer 1
 62
7
 10
2.33000022
 20
1.93000000
  0
SEQEND
  0
POLYLINE
  8
Layer 1
 62
7
 66
1
 70
1
  0
VERTEX
  8
Layer 1
 62
7
 10
21.76000017
 20
1.84000000
  0
VERTEX
  8
Layer 1
 62
7
 10
21.76000017
 20
2.23999983
  0
VERTEX
  8
Layer 1
 62
7
 10
22.16000000
 20
2.23999983
  0
VERTEX
  8
Layer 1
 62
7
 10
22.16000000
 20
9.76000033
  0
VERTEX
  8
Layer 1
 62
7
 10
21.76000017
 20
9.76000033
  0
VERTEX
  8
Layer 1
 62
7
 10
21.76000017
 20
10.16000016
  0
VERTEX
  8
Layer 1
 62
7
 10
2.23999983
 20
10.16000016
  0
VERTEX
  8
Layer 1
 62
7
 10
2.23999983
 20
9.76000033
  0
VERTEX
  8
Layer 1
 62
7
 10
1.84000000
 20
9.76000033
  0
VERTEX
  8
Layer 1
 62
7
 10
1.84000000
 20
2.23999983
  0
VERTEX
  8
Layer 1
 62
7
 10
2.23999983
 20
2.23999983
  0
VERTEX
  8
Layer 1
 62
7
 10
2.23999983
 20
1.84000000
  0
SEQEND
  0
POLYLINE
  8
Layer 1
 62
7
 66
1
 70
1
  0
VERTEX
  8
Layer 1
 62
7
 10
22.41000000
 20
1.59000000
  0
VERTEX
  8
Layer 1
 62
7
 10
22.41000000
 20
10.41000069
  0
VERTEX
  8
Layer 1
 62
7
 10
1.59000000
 20
10.41000069
  0
VERTEX
  8
Layer 1
 62
7
 10
1.59000000
 20
1.59000000
  0
SEQEND
  0
POLYLINE
  8
Layer 1
 62
7
 66
1
 70
1
  0
VERTEX
  8
Layer 1
 62
7
 10
22.50000000
 20
1.50000000
  0
VERTEX
  8
Layer 1
 62
7
 10
22.50000000
 20
10.50000000
  0
VERTEX
  8
Layer 1
 62
7
 10
1.50000000
 20
10.50000000
  0
VERTEX
  8
Layer 1
 62
7
 10
1.50000000
 20
1.50000000
  0
SEQEND
  0
POLYLINE
  8
Layer 1
 62
7
 66
1
 70
1
  0
VERTEX
  8
Layer 1
 62
7
 10
0.00000000
 20
0.00000000
  0
VERTEX
  8
Layer 1
 62
7
 10
24.00000000
 20
0.00000000
  0
VERTEX
  8
Layer 1
 62
7
 10
24.00000000
 20
12.00000000
  0
VERTEX
  8
Layer 1
 62
7
 10
0.00000000
 20
12.00000000
  0
SEQEND
  0
POLYLINE
  8
Layer 1
 62
7
 66
1
 70
1
  0
VERTEX
  8
Layer 1
 62
7
 10
22.16000000
 20
10.00999945
  0
VERTEX
  8
Layer 1
 62
7
 10
22.01000000
 20
10.01000000
  0
VERTEX
  8
Layer 1
 62
7
 10
22.01000000
 20
10.16000001
  0
VERTEX
  8
Layer 1
 62
7
 10
22.16000000
 20
10.16000000
  0
SEQEND
  0
POLYLINE
  8
Layer 1
 62
7
 66
1
 70
1
  0
VERTEX
  8
Layer 1
 62
7
 10
1.84000000
 20
1.99000055
  0
VERTEX
  8
Layer 1
 62
7
 10
1.99000000
 20
1.99000000
  0
VERTEX
  8
Layer 1
 62
7
 10
1.99000000
 20
1.83999999
  0
VERTEX
  8
Layer 1
 62
7
 10
1.84000000
 20
1.84000000
  0
SEQEND
  0
POLYLINE
  8
Layer 1
 62
7
 66
1
 70
1
  0
VERTEX
  8
Layer 1
 62
7
 10
1.84000000
 20
10.00999945
  0
VERTEX
  8
Layer 1
 62
7
 10
1.99000000
 20
10.01000000
  0
VERTEX
  8
Layer 1
 62
7
 10
1.99000000
 20
10.16000001
  0
VERTEX
  8
Layer 1
 62
7
 10
1.84000000
 20
10.16000000
  0
SEQEND
  0
POLYLINE
  8
Layer 1
 62
7
 66
1
 70
1
  0
VERTEX
  8
Layer 1
 62
7
 10
12.07494140
 20
9.26716351
  0
VERTEX
  8
Layer 1
 62
7
 10
12.09219726
 20
9.28990179
  0
VERTEX
  8
Layer 1
 62
7
 10
12.10723827
 20
9.31388226
  0
VERTEX
  8
Layer 1
 62
7
 10
12.12009960
 20
9.33912836
  0
VERTEX
  8
Layer 1
 62
7
 10
12.13081640
 20
9.36566351
  0
VERTEX
  8
Layer 1
 62
7
 10
12.13942382
 20
9.39351117
  0
VERTEX
  8
Layer 1
 62
7
 10
12.14595702
 20
9.42269476
  0
VERTEX
  8
Layer 1
 62
7
 10
12.15045117
 20
9.45323773
  0
VERTEX
  8
Layer 1
 62
7
 10
12.15294140
 20
9.48516351
  0
VERTEX
  8
Layer 1
 62
7
 10
12.15269921
 20
9.51452289
  0
VERTEX
  8
Layer 1
 62
7
 10
12.15044140
 20
9.54397601
  0
VERTEX
  8
Layer 1
 62
7
 10
12.14612109
 20
9.57333539
  0
VERTEX
  8
Layer 1
 62
7
 10
12.13969140
 20
9.60241351
  0
VERTEX
  8
Layer 1
 62
7
 10
12.13110546
 20
9.63102289
  0
VERTEX
  8
Layer 1
 62
7
 10
12.12031640
 20
9.65897601
  0
VERTEX
  8
Layer 1
 62
7
 10
12.10727734
 20
9.68608539
  0
VERTEX
  8
Layer 1
 62
7
 10
12.09194140
 20
9.71216351
  0
VERTEX
  8
Layer 1
 62
7
 10
12.06569140
 20
9.74797601
  0
VERTEX
  8
Layer 1
 62
7
 10
12.03644140
 20
9.78041351
  0
VERTEX
  8
Layer 1
 62
7
 10
12.00419140
 20
9.80947601
  0
VERTEX
  8
Layer 1
 62
7
 10
11.96894140
 20
9.83516351
  0
VERTEX
  8
Layer 1
 62
7
 10
11.95231640
 20
9.78428851
  0
VERTEX
  8
Layer 1
 62
7
 10
11.93494140
 20
9.74016351
  0
VERTEX
  8
Layer 1
 62
7
 10
11.90094140
 20
9.66216351
  0
VERTEX
  8
Layer 1
 62
7
 10
11.88362890
 20
9.62189789
  0
VERTEX
  8
Layer 1
 62
7
 10
11.86894140
 20
9.58078851
  0
VERTEX
  8
Layer 1
 62
7
 10
11.85875390
 20
9.53911664
  0
VERTEX
  8
Layer 1
 62
7
 10
11.85494140
 20
9.49716351
  0
VERTEX
  8
Layer 1
 62
7
 10
11.85610546
 20
9.46566547
  0
VERTEX
  8
Layer 1
 62
7
 10
11.85956640
 20
9.43492914
  0
VERTEX
  8
Layer 1
 62
7
 10
11.86527734
 20
9.40496625
  0
VERTEX
  8
Layer 1
 62
7
 10
11.87319140
 20
9.37578851
  0
VERTEX
  8
Layer 1
 62
7
 10
11.88326171
 20
9.34740765
  0
VERTEX
  8
Layer 1
 62
7
 10
11.89544140
 20
9.31983539
  0
VERTEX
  8
Layer 1
 62
7
 10
11.90968359
 20
9.29308344
  0
VERTEX
  8
Layer 1
 62
7
 10
11.92594140
 20
9.26716351
  0
SEQEND
  0
POLYLINE
  8
Layer 1
 62
7
 66
1
 70
1
  0
VERTEX
  8
Layer 1
 62
7
 10
13.84518448
 20
9.01612162
  0
VERTEX
  8
Layer 1
 62
7
 10
13.86398136
 20
9.05890287
  0
VERTEX
  8
Layer 1
 62
7
 10
13.87705948
 20
9.10037162
  0
VERTEX
  8
Layer 1
 62
7
 10
13.88470011
 20
9.14071537
  0
VERTEX
  8
Layer 1
 62
7
 10
13.88718448
 20
9.18012162
  0
VERTEX
  8
Layer 1
 62
7
 10
13.88585245
 20
9.20917240
  0
VERTEX
  8
Layer 1
 62
7
 10
13.88196573
 20
9.23777787
  0
VERTEX
  8
Layer 1
 62
7
 10
13.87568839
 20
9.26586772
  0
VERTEX
  8
Layer 1
 62
7
 10
13.86718448
 20
9.29337162
  0
VERTEX
  8
Layer 1
 62
7
 10
13.85661808
 20
9.32021928
  0
VERTEX
  8
Layer 1
 62
7
 10
13.84415323
 20
9.34634037
  0
VERTEX
  8
Layer 1
 62
7
 10
13.82995401
 20
9.37166459
  0
VERTEX
  8
Layer 1
 62
7
 10
13.81418448
 20
9.39612162
  0
VERTEX
  8
Layer 1
 62
7
 10
13.78005948
 20
9.43987162
  0
VERTEX
  8
Layer 1
 62
7
 10
13.74218448
 20
9.47612162
  0
VERTEX
  8
Layer 1
 62
7
 10
13.70918448
 20
9.38712162
  0
VERTEX
  8
Layer 1
 62
7
 10
13.68380948
 20
9.32930912
  0
VERTEX
  8
Layer 1
 62
7
 10
13.66293448
 20
9.27412162
  0
VERTEX
  8
Layer 1
 62
7
 10
13.64843448
 20
9.22343412
  0
VERTEX
  8
Layer 1
 62
7
 10
13.64218448
 20
9.17912162
  0
VERTEX
  8
Layer 1
 62
7
 10
13.64502823
 20
9.13635600
  0
VERTEX
  8
Layer 1
 62
7
 10
13.65368448
 20
9.09499662
  0
VERTEX
  8
Layer 1
 62
7
 10
13.66834073
 20
9.05494975
  0
VERTEX
  8
Layer 1
 62
7
 10
13.68918448
 20
9.01612162
  0
SEQEND
  0
POLYLINE
  8
Layer 1
 62
7
 66
1
 70
1
  0
VERTEX
  8
Layer 1
 62
7
 10
13.35812588
 20
9.10253514
  0
VERTEX
  8
Layer 1
 62
7
 10
13.37692276
 20
9.14531639
  0
VERTEX
  8
Layer 1
 62
7
 10
13.39000088
 20
9.18678514
  0
VERTEX
  8
Layer 1
 62
7
 10
13.39764151
 20
9.22712889
  0
VERTEX
  8
Layer 1
 62
7
 10
13.40012588
 20
9.26653514
  0
VERTEX
  8
Layer 1
 62
7
 10
13.39879385
 20
9.29558592
  0
VERTEX
  8
Layer 1
 62
7
 10
13.39490713
 20
9.32419139
  0
VERTEX
  8
Layer 1
 62
7
 10
13.38862979
 20
9.35228123
  0
VERTEX
  8
Layer 1
 62
7
 10
13.38012588
 20
9.37978514
  0
VERTEX
  8
Layer 1
 62
7
 10
13.36955948
 20
9.40663279
  0
VERTEX
  8
Layer 1
 62
7
 10
13.35709463
 20
9.43275389
  0
VERTEX
  8
Layer 1
 62
7
 10
13.34289541
 20
9.45807810
  0
VERTEX
  8
Layer 1
 62
7
 10
13.32712588
 20
9.48253514
  0
VERTEX
  8
Layer 1
 62
7
 10
13.29300088
 20
9.52628514
  0
VERTEX
  8
Layer 1
 62
7
 10
13.25512588
 20
9.56253514
  0
VERTEX
  8
Layer 1
 62
7
 10
13.22212588
 20
9.47353514
  0
VERTEX
  8
Layer 1
 62
7
 10
13.19675088
 20
9.41572264
  0
VERTEX
  8
Layer 1
 62
7
 10
13.17587588
 20
9.36053514
  0
VERTEX
  8
Layer 1
 62
7
 10
13.16137588
 20
9.30984764
  0
VERTEX
  8
Layer 1
 62
7
 10
13.15512588
 20
9.26553514
  0
VERTEX
  8
Layer 1
 62
7
 10
13.15796963
 20
9.22276951
  0
VERTEX
  8
Layer 1
 62
7
 10
13.16662588
 20
9.18141014
  0
VERTEX
  8
Layer 1
 62
7
 10
13.18128213
 20
9.14136326
  0
VERTEX
  8
Layer 1
 62
7
 10
13.20212588
 20
9.10253514
  0
SEQEND
  0
POLYLINE
  8
Layer 1
 62
7
 66
1
 70
1
  0
VERTEX
  8
Layer 1
 62
7
 10
12.79811123
 20
9.18172838
  0
VERTEX
  8
Layer 1
 62
7
 10
12.81690811
 20
9.22450963
  0
VERTEX
  8
Layer 1
 62
7
 10
12.82998623
 20
9.26597838
  0
VERTEX
  8
Layer 1
 62
7
 10
12.83762686
 20
9.30632213
  0
VERTEX
  8
Layer 1
 62
7
 10
12.84011123
 20
9.34572838
  0
VERTEX
  8
Layer 1
 62
7
 10
12.83877920
 20
9.37477916
  0
VERTEX
  8
Layer 1
 62
7
 10
12.83489248
 20
9.40338463
  0
VERTEX
  8
Layer 1
 62
7
 10
12.82861514
 20
9.43147447
  0
VERTEX
  8
Layer 1
 62
7
 10
12.82011123
 20
9.45897838
  0
VERTEX
  8
Layer 1
 62
7
 10
12.80954483
 20
9.48582603
  0
VERTEX
  8
Layer 1
 62
7
 10
12.79707998
 20
9.51194713
  0
VERTEX
  8
Layer 1
 62
7
 10
12.78288076
 20
9.53727135
  0
VERTEX
  8
Layer 1
 62
7
 10
12.76711123
 20
9.56172838
  0
VERTEX
  8
Layer 1
 62
7
 10
12.73298623
 20
9.60547838
  0
VERTEX
  8
Layer 1
 62
7
 10
12.69511123
 20
9.64172838
  0
VERTEX
  8
Layer 1
 62
7
 10
12.66211123
 20
9.55272838
  0
VERTEX
  8
Layer 1
 62
7
 10
12.63673623
 20
9.49491588
  0
VERTEX
  8
Layer 1
 62
7
 10
12.61586123
 20
9.43972838
  0
VERTEX
  8
Layer 1
 62
7
 10
12.60136123
 20
9.38904088
  0
VERTEX
  8
Layer 1
 62
7
 10
12.59511123
 20
9.34472838
  0
VERTEX
  8
Layer 1
 62
7
 10
12.59795498
 20
9.30196275
  0
VERTEX
  8
Layer 1
 62
7
 10
12.60661123
 20
9.26060338
  0
VERTEX
  8
Layer 1
 62
7
 10
12.62126748
 20
9.22055650
  0
VERTEX
  8
Layer 1
 62
7
 10
12.64211123
 20
9.18172838
  0
SEQEND
  0
POLYLINE
  8
Layer 1
 62
7
 66
1
 70
1
  0
VERTEX
  8
Layer 1
 62
7
 10
12.00000001
 20
8.21507128
  0
VERTEX
  8
Layer 1
 62
7
 10
11.98395600
 20
8.21550855
  0
VERTEX
  8
Layer 1
 62
7
 10
11.96809315
 20
8.21791356
  0
VERTEX
  8
Layer 1
 62
7
 10
11.95256875
 20
8.22242245
  0
VERTEX
  8
Layer 1
 62
7
 10
11.93754005
 20
8.22917139
  0
VERTEX
  8
Layer 1
 62
7
 10
11.91415422
 20
8.24085081
  0
VERTEX
  8
Layer 1
 62
7
 10
11.89332599
 20
8.25580665
  0
VERTEX
  8
Layer 1
 62
7
 10
11.87561908
 20
8.27302557
  0
VERTEX
  8
Layer 1
 62
7
 10
11.86159721
 20
8.29149423
  0
VERTEX
  8
Layer 1
 62
7
 10
11.85182410
 20
8.31019931
  0
VERTEX
  8
Layer 1
 62
7
 10
11.84686347
 20
8.32812745
  0
VERTEX
  8
Layer 1
 62
7
 10
11.84727904
 20
8.34426533
  0
VERTEX
  8
Layer 1
 62
7
 10
11.85363454
 20
8.35759960
  0
VERTEX
  8
Layer 1
 62
7
 10
11.89699087
 20
8.40925293
  0
VERTEX
  8
Layer 1
 62
7
 10
11.93361735
 20
8.45580278
  0
VERTEX
  8
Layer 1
 62
7
 10
11.96684380
 20
8.50203155
  0
VERTEX
  8
Layer 1
 62
7
 10
12.00000001
 20
8.55272164
  0
VERTEX
  8
Layer 1
 62
7
 10
12.03315621
 20
8.50203155
  0
VERTEX
  8
Layer 1
 62
7
 10
12.06638265
 20
8.45580278
  0
VERTEX
  8
Layer 1
 62
7
 10
12.10300913
 20
8.40925293
  0
VERTEX
  8
Layer 1
 62
7
 10
12.14636546
 20
8.35759960
  0
VERTEX
  8
Layer 1
 62
7
 10
12.15272095
 20
8.34426533
  0
VERTEX
  8
Layer 1
 62
7
 10
12.15313653
 20
8.32812745
  0
VERTEX
  8
Layer 1
 62
7
 10
12.14817590
 20
8.31019931
  0
VERTEX
  8
Layer 1
 62
7
 10
12.13840279
 20
8.29149423
  0
VERTEX
  8
Layer 1
 62
7
 10
12.12438092
 20
8.27302557
  0
VERTEX
  8
Layer 1
 62
7
 10
12.10667402
 20
8.25580665
  0
VERTEX
  8
Layer 1
 62
7
 10
12.08584579
 20
8.24085081
  0
VERTEX
  8
Layer 1
 62
7
 10
12.06245996
 20
8.22917139
  0
VERTEX
  8
Layer 1
 62
7
 10
12.04743126
 20
8.22242245
  0
VERTEX
  8
Layer 1
 62
7
 10
12.03190685
 20
8.21791356
  0
VERTEX
  8
Layer 1
 62
7
 10
12.01604401
 20
8.21550855
  0
SEQEND
  0
POLYLINE
  8
Layer 1
 62
7
 66
1
 70
1
  0
VERTEX
  8
Layer 1
 62
7
 10
12.74333932
 20
8.49972538
  0
VERTEX
  8
Layer 1
 62
7
 10
12.77568840
 20
8.45379415
  0
VERTEX
  8
Layer 1
 62
7
 10
12.80757784
 20
8.41664345
  0
VERTEX
  8
Layer 1
 62
7
 10
12.78913743
 20
8.40126570
  0
VERTEX
  8
Layer 1
 62
7
 10
12.77084654
 20
8.38754139
  0
VERTEX
  8
Layer 1
 62
7
 10
12.75233075
 20
8.37552105
  0
VERTEX
  8
Layer 1
 62
7
 10
12.73321566
 20
8.36525520
  0
VERTEX
  8
Layer 1
 62
7
 10
12.71312687
 20
8.35679438
  0
VERTEX
  8
Layer 1
 62
7
 10
12.69168997
 20
8.35018910
  0
VERTEX
  8
Layer 1
 62
7
 10
12.66853057
 20
8.34548989
  0
VERTEX
  8
Layer 1
 62
7
 10
12.64327426
 20
8.34274728
  0
VERTEX
  8
Layer 1
 62
7
 10
12.62685760
 20
8.34057876
  0
VERTEX
  8
Layer 1
 62
7
 10
12.60696668
 20
8.34113691
  0
VERTEX
  8
Layer 1
 62
7
 10
12.58841003
 20
8.34321395
  0
VERTEX
  8
Layer 1
 62
7
 10
12.57599620
 20
8.34560211
  0
VERTEX
  8
Layer 1
 62
7
 10
12.62000232
 20
8.37783648
  0
VERTEX
  8
Layer 1
 62
7
 10
12.66256154
 20
8.41426849
  0
VERTEX
  8
Layer 1
 62
7
 10
12.70367388
 20
8.45489813
  0
SEQEND
  0
POLYLINE
  8
Layer 1
 62
7
 66
1
 70
1
  0
VERTEX
  8
Layer 1
 62
7
 10
11.70214792
 20
7.69613253
  0
VERTEX
  8
Layer 1
 62
7
 10
11.73145193
 20
7.74971864
  0
VERTEX
  8
Layer 1
 62
7
 10
11.75713559
 20
7.80476119
  0
VERTEX
  8
Layer 1
 62
7
 10
11.77919889
 20
7.86126018
  0
VERTEX
  8
Layer 1
 62
7
 10
11.79764183
 20
7.91921560
  0
VERTEX
  8
Layer 1
 62
7
 10
11.85799518
 20
7.89673194
  0
VERTEX
  8
Layer 1
 62
7
 10
11.89539789
 20
7.88745281
  0
VERTEX
  8
Layer 1
 62
7
 10
11.93493041
 20
7.88096850
  0
VERTEX
  8
Layer 1
 62
7
 10
11.97355146
 20
7.87716299
  0
VERTEX
  8
Layer 1
 62
7
 10
12.00821975
 20
7.87592027
  0
VERTEX
  8
Layer 1
 62
7
 10
12.04031935
 20
7.87716299
  0
VERTEX
  8
Layer 1
 62
7
 10
12.07328933
 20
7.88096850
  0
VERTEX
  8
Layer 1
 62
7
 10
12.10717079
 20
7.88745281
  0
VERTEX
  8
Layer 1
 62
7
 10
12.14200485
 20
7.89673194
  0
VERTEX
  8
Layer 1
 62
7
 10
12.20235816
 20
7.91921560
  0
VERTEX
  8
Layer 1
 62
7
 10
12.22080110
 20
7.86126018
  0
VERTEX
  8
Layer 1
 62
7
 10
12.24286441
 20
7.80476119
  0
VERTEX
  8
Layer 1
 62
7
 10
12.26854807
 20
7.74971864
  0
VERTEX
  8
Layer 1
 62
7
 10
12.29785207
 20
7.69613253
  0
SEQEND
  0
POLYLINE
  8
Layer 1
 62
7
 66
1
 70
1
  0
VERTEX
  8
Layer 1
 62
7
 10
12.22836556
 20
9.17543760
  0
VERTEX
  8
Layer 1
 62
7
 10
12.17361359
 20
9.09451479
  0
VERTEX
  8
Layer 1
 62
7
 10
12.17483442
 20
9.05880977
  0
VERTEX
  8
Layer 1
 62
7
 10
12.18101960
 20
9.01759743
  0
VERTEX
  8
Layer 1
 62
7
 10
12.19147840
 20
8.97249408
  0
VERTEX
  8
Layer 1
 62
7
 10
12.20552007
 20
8.92511607
  0
VERTEX
  8
Layer 1
 62
7
 10
12.22245389
 20
8.87707971
  0
VERTEX
  8
Layer 1
 62
7
 10
12.24158911
 20
8.83000133
  0
VERTEX
  8
Layer 1
 62
7
 10
12.26223501
 20
8.78549726
  0
VERTEX
  8
Layer 1
 62
7
 10
12.28370085
 20
8.74518382
  0
VERTEX
  8
Layer 1
 62
7
 10
12.29781919
 20
8.71961212
  0
VERTEX
  8
Layer 1
 62
7
 10
12.31682404
 20
8.68839179
  0
VERTEX
  8
Layer 1
 62
7
 10
12.34194496
 20
8.65293448
  0
VERTEX
  8
Layer 1
 62
7
 10
12.37441152
 20
8.61465183
  0
VERTEX
  8
Layer 1
 62
7
 10
12.40243495
 20
8.63469320
  0
VERTEX
  8
Layer 1
 62
7
 10
12.42565768
 20
8.65692146
  0
VERTEX
  8
Layer 1
 62
7
 10
12.44923643
 20
8.68635464
  0
VERTEX
  8
Layer 1
 62
7
 10
12.47832792
 20
8.72801077
  0
VERTEX
  8
Layer 1
 62
7
 10
12.49338778
 20
8.75388826
  0
VERTEX
  8
Layer 1
 62
7
 10
12.50692164
 20
8.78431575
  0
VERTEX
  8
Layer 1
 62
7
 10
12.51886422
 20
8.81830715
  0
VERTEX
  8
Layer 1
 62
7
 10
12.52915022
 20
8.85487637
  0
VERTEX
  8
Layer 1
 62
7
 10
12.53771433
 20
8.89303733
  0
VERTEX
  8
Layer 1
 62
7
 10
12.54449125
 20
8.93180396
  0
VERTEX
  8
Layer 1
 62
7
 10
12.54941570
 20
8.97019015
  0
VERTEX
  8
Layer 1
 62
7
 10
12.55242238
 20
9.00720983
  0
VERTEX
  8
Layer 1
 62
7
 10
12.49550073
 20
9.09166212
  0
VERTEX
  8
Layer 1
 62
7
 10
12.94772241
 20
9.09166212
  0
VERTEX
  8
Layer 1
 62
7
 10
12.89070370
 20
9.00313400
  0
VERTEX
  8
Layer 1
 62
7
 10
12.89141704
 20
8.95487578
  0
VERTEX
  8
Layer 1
 62
7
 10
12.89751106
 20
8.90435025
  0
VERTEX
  8
Layer 1
 62
7
 10
12.90777768
 20
8.85494796
  0
VERTEX
  8
Layer 1
 62
7
 10
12.92100880
 20
8.81005943
  0
VERTEX
  8
Layer 1
 62
7
 10
12.93292393
 20
8.78361006
  0
VERTEX
  8
Layer 1
 62
7
 10
12.95071537
 20
8.75733673
  0
VERTEX
  8
Layer 1
 62
7
 10
12.96891846
 20
8.73357341
  0
VERTEX
  8
Layer 1
 62
7
 10
12.98206852
 20
8.71465408
  0
VERTEX
  8
Layer 1
 62
7
 10
13.01002928
 20
8.73071642
  0
VERTEX
  8
Layer 1
 62
7
 10
13.03740357
 20
8.75090825
  0
VERTEX
  8
Layer 1
 62
7
 10
13.05271259
 20
8.77018773
  0
VERTEX
  8
Layer 1
 62
7
 10
13.06578230
 20
8.78958467
  0
VERTEX
  8
Layer 1
 62
7
 10
13.07669886
 20
8.80939540
  0
VERTEX
  8
Layer 1
 62
7
 10
13.08554847
 20
8.82991623
  0
VERTEX
  8
Layer 1
 62
7
 10
13.09241729
 20
8.85144346
  0
VERTEX
  8
Layer 1
 62
7
 10
13.09739152
 20
8.87427340
  0
VERTEX
  8
Layer 1
 62
7
 10
13.10055732
 20
8.89870237
  0
VERTEX
  8
Layer 1
 62
7
 10
13.10200087
 20
8.92502667
  0
VERTEX
  8
Layer 1
 62
7
 10
13.04121969
 20
9.01266383
  0
VERTEX
  8
Layer 1
 62
7
 10
13.52587917
 20
9.01266383
  0
VERTEX
  8
Layer 1
 62
7
 10
13.46779280
 20
8.93012128
  0
VERTEX
  8
Layer 1
 62
7
 10
13.47520248
 20
8.89292412
  0
VERTEX
  8
Layer 1
 62
7
 10
13.47935735
 20
8.85674801
  0
VERTEX
  8
Layer 1
 62
7
 10
13.48080292
 20
8.82342688
  0
VERTEX
  8
Layer 1
 62
7
 10
13.48008468
 20
8.79479468
  0
VERTEX
  8
Layer 1
 62
7
 10
13.47816350
 20
8.76652278
  0
VERTEX
  8
Layer 1
 62
7
 10
13.47482573
 20
8.73102492
  0
VERTEX
  8
Layer 1
 62
7
 10
13.46934716
 20
8.69306602
  0
VERTEX
  8
Layer 1
 62
7
 10
13.46100357
 20
8.65741097
  0
VERTEX
  8
Layer 1
 62
7
 10
13.48742637
 20
8.66372101
  0
VERTEX
  8
Layer 1
 62
7
 10
13.51142933
 20
8.67328378
  0
VERTEX
  8
Layer 1
 62
7
 10
13.53168561
 20
8.68492765
  0
VERTEX
  8
Layer 1
 62
7
 10
13.54686836
 20
8.69748103
  0
VERTEX
  8
Layer 1
 62
7
 10
13.56418881
 20
8.71522360
  0
VERTEX
  8
Layer 1
 62
7
 10
13.57785918
 20
8.73170960
  0
VERTEX
  8
Layer 1
 62
7
 10
13.58840178
 20
8.74763865
  0
VERTEX
  8
Layer 1
 62
7
 10
13.59633893
 20
8.76371036
  0
VERTEX
  8
Layer 1
 62
7
 10
13.60219293
 20
8.78062436
  0
VERTEX
  8
Layer 1
 62
7
 10
13.60648610
 20
8.79908027
  0
VERTEX
  8
Layer 1
 62
7
 10
13.60974075
 20
8.81977772
  0
VERTEX
  8
Layer 1
 62
7
 10
13.61247919
 20
8.84341633
  0
VERTEX
  8
Layer 1
 62
7
 10
13.55640892
 20
8.92454590
  0
VERTEX
  8
Layer 1
 62
7
 10
14.00068736
 20
8.92493009
  0
VERTEX
  8
Layer 1
 62
7
 10
13.95295213
 20
8.84494116
  0
VERTEX
  8
Layer 1
 62
7
 10
13.95650737
 20
8.77442220
  0
VERTEX
  8
Layer 1
 62
7
 10
13.95432169
 20
8.72255109
  0
VERTEX
  8
Layer 1
 62
7
 10
13.95030259
 20
8.67761765
  0
VERTEX
  8
Layer 1
 62
7
 10
13.94385303
 20
8.63800088
  0
VERTEX
  8
Layer 1
 62
7
 10
13.93437599
 20
8.60207979
  0
VERTEX
  8
Layer 1
 62
7
 10
13.92127442
 20
8.56823340
  0
VERTEX
  8
Layer 1
 62
7
 10
13.90395129
 20
8.53484071
  0
VERTEX
  8
Layer 1
 62
7
 10
13.88180957
 20
8.50028073
  0
VERTEX
  8
Layer 1
 62
7
 10
13.85425221
 20
8.46293247
  0
VERTEX
  8
Layer 1
 62
7
 10
13.80072395
 20
8.40791871
  0
VERTEX
  8
Layer 1
 62
7
 10
13.74165803
 20
8.35997800
  0
VERTEX
  8
Layer 1
 62
7
 10
13.67781330
 20
8.31919112
  0
VERTEX
  8
Layer 1
 62
7
 10
13.60994864
 20
8.28563887
  0
VERTEX
  8
Layer 1
 62
7
 10
13.53882292
 20
8.25940204
  0
VERTEX
  8
Layer 1
 62
7
 10
13.46519501
 20
8.24056142
  0
VERTEX
  8
Layer 1
 62
7
 10
13.38982377
 20
8.22919780
  0
VERTEX
  8
Layer 1
 62
7
 10
13.31346807
 20
8.22539197
  0
VERTEX
  8
Layer 1
 62
7
 10
13.26509094
 20
8.22706126
  0
VERTEX
  8
Layer 1
 62
7
 10
13.21517821
 20
8.23206915
  0
VERTEX
  8
Layer 1
 62
7
 10
13.16372998
 20
8.24041566
  0
VERTEX
  8
Layer 1
 62
7
 10
13.11074634
 20
8.25210081
  0
VERTEX
  8
Layer 1
 62
7
 10
13.07445413
 20
8.20823783
  0
VERTEX
  8
Layer 1
 62
7
 10
13.03458505
 20
8.16835967
  0
VERTEX
  8
Layer 1
 62
7
 10
12.99113907
 20
8.13246631
  0
VERTEX
  8
Layer 1
 62
7
 10
12.94411614
 20
8.10055770
  0
VERTEX
  8
Layer 1
 62
7
 10
12.90585115
 20
8.07921247
  0
VERTEX
  8
Layer 1
 62
7
 10
12.86623137
 20
8.06109505
  0
VERTEX
  8
Layer 1
 62
7
 10
12.82544806
 20
8.04608777
  0
VERTEX
  8
Layer 1
 62
7
 10
12.78369251
 20
8.03407296
  0
VERTEX
  8
Layer 1
 62
7
 10
12.74115600
 20
8.02493294
  0
VERTEX
  8
Layer 1
 62
7
 10
12.69802980
 20
8.01855005
  0
VERTEX
  8
Layer 1
 62
7
 10
12.65450520
 20
8.01480660
  0
VERTEX
  8
Layer 1
 62
7
 10
12.61077346
 20
8.01358494
  0
VERTEX
  8
Layer 1
 62
7
 10
12.54474425
 20
8.01671939
  0
VERTEX
  8
Layer 1
 62
7
 10
12.48284028
 20
8.02612272
  0
VERTEX
  8
Layer 1
 62
7
 10
12.42506151
 20
8.04179491
  0
VERTEX
  8
Layer 1
 62
7
 10
12.37140789
 20
8.06373595
  0
VERTEX
  8
Layer 1
 62
7
 10
12.35500369
 20
8.03962628
  0
VERTEX
  8
Layer 1
 62
7
 10
12.32097741
 20
7.99993090
  0
VERTEX
  8
Layer 1
 62
7
 10
12.28270235
 20
7.96701372
  0
VERTEX
  8
Layer 1
 62
7
 10
12.30409687
 20
7.89573561
  0
VERTEX
  8
Layer 1
 62
7
 10
12.33147451
 20
7.82682938
  0
VERTEX
  8
Layer 1
 62
7
 10
12.36483519
 20
7.76029509
  0
VERTEX
  8
Layer 1
 62
7
 10
12.40417885
 20
7.69613278
  0
VERTEX
  8
Layer 1
 62
7
 10
12.81794210
 20
7.69613278
  0
VERTEX
  8
Layer 1
 62
7
 10
12.83490363
 20
7.69488416
  0
VERTEX
  8
Layer 1
 62
7
 10
12.85095610
 20
7.69126717
  0
VERTEX
  8
Layer 1
 62
7
 10
12.86607394
 20
7.68547512
  0
VERTEX
  8
Layer 1
 62
7
 10
12.88023160
 20
7.67770131
  0
VERTEX
  8
Layer 1
 62
7
 10
12.89340352
 20
7.66813904
  0
VERTEX
  8
Layer 1
 62
7
 10
12.90556413
 20
7.65698160
  0
VERTEX
  8
Layer 1
 62
7
 10
12.91668789
 20
7.64442232
  0
VERTEX
  8
Layer 1
 62
7
 10
12.92674924
 20
7.63065447
  0
VERTEX
  8
Layer 1
 62
7
 10
12.93572261
 20
7.61587138
  0
VERTEX
  8
Layer 1
 62
7
 10
12.94358245
 20
7.60026633
  0
VERTEX
  8
Layer 1
 62
7
 10
12.95030321
 20
7.58403264
  0
VERTEX
  8
Layer 1
 62
7
 10
12.95585932
 20
7.56736360
  0
VERTEX
  8
Layer 1
 62
7
 10
12.96022523
 20
7.55045252
  0
VERTEX
  8
Layer 1
 62
7
 10
12.96337538
 20
7.53349270
  0
VERTEX
  8
Layer 1
 62
7
 10
12.96528421
 20
7.51667744
  0
VERTEX
  8
Layer 1
 62
7
 10
12.96592617
 20
7.50020004
  0
VERTEX
  8
Layer 1
 62
7
 10
12.88166872
 20
7.50063288
  0
VERTEX
  8
Layer 1
 62
7
 10
12.87974153
 20
7.51308708
  0
VERTEX
  8
Layer 1
 62
7
 10
12.87433202
 20
7.52587607
  0
VERTEX
  8
Layer 1
 62
7
 10
12.86599831
 20
7.53838483
  0
VERTEX
  8
Layer 1
 62
7
 10
12.85529848
 20
7.54999837
  0
VERTEX
  8
Layer 1
 62
7
 10
12.84279066
 20
7.56010169
  0
VERTEX
  8
Layer 1
 62
7
 10
12.82903293
 20
7.56807977
  0
VERTEX
  8
Layer 1
 62
7
 10
12.81458341
 20
7.57331763
  0
VERTEX
  8
Layer 1
 62
7
 10
12.80000019
 20
7.57520024
  0
VERTEX
  8
Layer 1
 62
7
 10
11.19999988
 20
7.57520024
  0
VERTEX
  8
Layer 1
 62
7
 10
11.18541666
 20
7.57331763
  0
VERTEX
  8
Layer 1
 62
7
 10
11.17096714
 20
7.56807977
  0
VERTEX
  8
Layer 1
 62
7
 10
11.15720941
 20
7.56010169
  0
VERTEX
  8
Layer 1
 62
7
 10
11.14470158
 20
7.54999837
  0
VERTEX
  8
Layer 1
 62
7
 10
11.13400176
 20
7.53838483
  0
VERTEX
  8
Layer 1
 62
7
 10
11.12566805
 20
7.52587607
  0
VERTEX
  8
Layer 1
 62
7
 10
11.12025854
 20
7.51308708
  0
VERTEX
  8
Layer 1
 62
7
 10
11.11833135
 20
7.50063288
  0
VERTEX
  8
Layer 1
 62
7
 10
11.03407390
 20
7.50020004
  0
VERTEX
  8
Layer 1
 62
7
 10
11.03471586
 20
7.51667744
  0
VERTEX
  8
Layer 1
 62
7
 10
11.03662468
 20
7.53349270
  0
VERTEX
  8
Layer 1
 62
7
 10
11.03977482
 20
7.55045252
  0
VERTEX
  8
Layer 1
 62
7
 10
11.04414072
 20
7.56736360
  0
VERTEX
  8
Layer 1
 62
7
 10
11.04969681
 20
7.58403264
  0
VERTEX
  8
Layer 1
 62
7
 10
11.05641755
 20
7.60026633
  0
VERTEX
  8
Layer 1
 62
7
 10
11.06427738
 20
7.61587138
  0
VERTEX
  8
Layer 1
 62
7
 10
11.07325074
 20
7.63065447
  0
VERTEX
  8
Layer 1
 62
7
 10
11.08331208
 20
7.64442232
  0
VERTEX
  8
Layer 1
 62
7
 10
11.09443583
 20
7.65698160
  0
VERTEX
  8
Layer 1
 62
7
 10
11.10659645
 20
7.66813904
  0
VERTEX
  8
Layer 1
 62
7
 10
11.11976837
 20
7.67770131
  0
VERTEX
  8
Layer 1
 62
7
 10
11.13392604
 20
7.68547512
  0
VERTEX
  8
Layer 1
 62
7
 10
11.14904390
 20
7.69126717
  0
VERTEX
  8
Layer 1
 62
7
 10
11.16509640
 20
7.69488416
  0
VERTEX
  8
Layer 1
 62
7
 10
11.18205797
 20
7.69613278
  0
VERTEX
  8
Layer 1
 62
7
 10
11.59582122
 20
7.69613278
  0
VERTEX
  8
Layer 1
 62
7
 10
11.63516488
 20
7.76029509
  0
VERTEX
  8
Layer 1
 62
7
 10
11.66852556
 20
7.82682938
  0
VERTEX
  8
Layer 1
 62
7
 10
11.69590320
 20
7.89573561
  0
VERTEX
  8
Layer 1
 62
7
 10
11.71729772
 20
7.96701372
  0
VERTEX
  8
Layer 1
 62
7
 10
11.67902266
 20
7.99993090
  0
VERTEX
  8
Layer 1
 62
7
 10
11.64499638
 20
8.03962628
  0
VERTEX
  8
Layer 1
 62
7
 10
11.62859218
 20
8.06373595
  0
VERTEX
  8
Layer 1
 62
7
 10
11.57493852
 20
8.04179491
  0
VERTEX
  8
Layer 1
 62
7
 10
11.51715967
 20
8.02612272
  0
VERTEX
  8
Layer 1
 62
7
 10
11.45525561
 20
8.01671939
  0
VERTEX
  8
Layer 1
 62
7
 10
11.38922637
 20
8.01358494
  0
VERTEX
  8
Layer 1
 62
7
 10
11.34549464
 20
8.01480660
  0
VERTEX
  8
Layer 1
 62
7
 10
11.30197006
 20
8.01855005
  0
VERTEX
  8
Layer 1
 62
7
 10
11.25884389
 20
8.02493294
  0
VERTEX
  8
Layer 1
 62
7
 10
11.21630741
 20
8.03407296
  0
VERTEX
  8
Layer 1
 62
7
 10
11.17455187
 20
8.04608777
  0
VERTEX
  8
Layer 1
 62
7
 10
11.13376856
 20
8.06109505
  0
VERTEX
  8
Layer 1
 62
7
 10
11.09414874
 20
8.07921247
  0
VERTEX
  8
Layer 1
 62
7
 10
11.05588369
 20
8.10055770
  0
VERTEX
  8
Layer 1
 62
7
 10
11.00886086
 20
8.13246631
  0
VERTEX
  8
Layer 1
 62
7
 10
10.96541490
 20
8.16835967
  0
VERTEX
  8
Layer 1
 62
7
 10
10.92554584
 20
8.20823783
  0
VERTEX
  8
Layer 1
 62
7
 10
10.88925373
 20
8.25210081
  0
VERTEX
  8
Layer 1
 62
7
 10
10.83627005
 20
8.24041566
  0
VERTEX
  8
Layer 1
 62
7
 10
10.78482174
 20
8.23206915
  0
VERTEX
  8
Layer 1
 62
7
 10
10.73490893
 20
8.22706126
  0
VERTEX
  8
Layer 1
 62
7
 10
10.68653176
 20
8.22539197
  0
VERTEX
  8
Layer 1
 62
7
 10
10.61017613
 20
8.22919780
  0
VERTEX
  8
Layer 1
 62
7
 10
10.53480493
 20
8.24056142
  0
VERTEX
  8
Layer 1
 62
7
 10
10.46117703
 20
8.25940204
  0
VERTEX
  8
Layer 1
 62
7
 10
10.39005131
 20
8.28563887
  0
VERTEX
  8
Layer 1
 62
7
 10
10.32218665
 20
8.31919112
  0
VERTEX
  8
Layer 1
 62
7
 10
10.25834194
 20
8.35997800
  0
VERTEX
  8
Layer 1
 62
7
 10
10.19927605
 20
8.40791871
  0
VERTEX
  8
Layer 1
 62
7
 10
10.14574786
 20
8.46293247
  0
VERTEX
  8
Layer 1
 62
7
 10
10.11819050
 20
8.50028073
  0
VERTEX
  8
Layer 1
 62
7
 10
10.09604878
 20
8.53484071
  0
VERTEX
  8
Layer 1
 62
7
 10
10.07872565
 20
8.56823340
  0
VERTEX
  8
Layer 1
 62
7
 10
10.06562408
 20
8.60207979
  0
VERTEX
  8
Layer 1
 62
7
 10
10.05614703
 20
8.63800088
  0
VERTEX
  8
Layer 1
 62
7
 10
10.04969748
 20
8.67761765
  0
VERTEX
  8
Layer 1
 62
7
 10
10.04567838
 20
8.72255109
  0
VERTEX
  8
Layer 1
 62
7
 10
10.04349270
 20
8.77442220
  0
VERTEX
  8
Layer 1
 62
7
 10
10.04704794
 20
8.84494116
  0
VERTEX
  8
Layer 1
 62
7
 10
9.99931271
 20
8.92493009
  0
VERTEX
  8
Layer 1
 62
7
 10
10.44359115
 20
8.92454590
  0
VERTEX
  8
Layer 1
 62
7
 10
10.38752088
 20
8.84341633
  0
VERTEX
  8
Layer 1
 62
7
 10
10.39025932
 20
8.81977772
  0
VERTEX
  8
Layer 1
 62
7
 10
10.39351397
 20
8.79908027
  0
VERTEX
  8
Layer 1
 62
7
 10
10.39780714
 20
8.78062436
  0
VERTEX
  8
Layer 1
 62
7
 10
10.40366114
 20
8.76371036
  0
VERTEX
  8
Layer 1
 62
7
 10
10.41159829
 20
8.74763865
  0
VERTEX
  8
Layer 1
 62
7
 10
10.42214089
 20
8.73170960
  0
VERTEX
  8
Layer 1
 62
7
 10
10.43581126
 20
8.71522360
  0
VERTEX
  8
Layer 1
 62
7
 10
10.45313171
 20
8.69748103
  0
VERTEX
  8
Layer 1
 62
7
 10
10.46831443
 20
8.68492765
  0
VERTEX
  8
Layer 1
 62
7
 10
10.48857065
 20
8.67328378
  0
VERTEX
  8
Layer 1
 62
7
 10
10.51257360
 20
8.66372101
  0
VERTEX
  8
Layer 1
 62
7
 10
10.53899650
 20
8.65741097
  0
VERTEX
  8
Layer 1
 62
7
 10
10.53065281
 20
8.69306602
  0
VERTEX
  8
Layer 1
 62
7
 10
10.52517425
 20
8.73102492
  0
VERTEX
  8
Layer 1
 62
7
 10
10.52183654
 20
8.76652278
  0
VERTEX
  8
Layer 1
 62
7
 10
10.51991539
 20
8.79479468
  0
VERTEX
  8
Layer 1
 62
7
 10
10.51919715
 20
8.82342688
  0
VERTEX
  8
Layer 1
 62
7
 10
10.52064271
 20
8.85674801
  0
VERTEX
  8
Layer 1
 62
7
 10
10.52479759
 20
8.89292412
  0
VERTEX
  8
Layer 1
 62
7
 10
10.53220727
 20
8.93012128
  0
VERTEX
  8
Layer 1
 62
7
 10
10.47412089
 20
9.01266383
  0
VERTEX
  8
Layer 1
 62
7
 10
10.95878037
 20
9.01266383
  0
VERTEX
  8
Layer 1
 62
7
 10
10.89799896
 20
8.92502667
  0
VERTEX
  8
Layer 1
 62
7
 10
10.89944259
 20
8.89870237
  0
VERTEX
  8
Layer 1
 62
7
 10
10.90260845
 20
8.87427340
  0
VERTEX
  8
Layer 1
 62
7
 10
10.90758272
 20
8.85144346
  0
VERTEX
  8
Layer 1
 62
7
 10
10.91445157
 20
8.82991623
  0
VERTEX
  8
Layer 1
 62
7
 10
10.92330119
 20
8.80939540
  0
VERTEX
  8
Layer 1
 62
7
 10
10.93421777
 20
8.78958467
  0
VERTEX
  8
Layer 1
 62
7
 10
10.94728748
 20
8.77018773
  0
VERTEX
  8
Layer 1
 62
7
 10
10.96259650
 20
8.75090825
  0
VERTEX
  8
Layer 1
 62
7
 10
10.98997070
 20
8.73071642
  0
VERTEX
  8
Layer 1
 62
7
 10
11.01793155
 20
8.71465408
  0
VERTEX
  8
Layer 1
 62
7
 10
11.03108158
 20
8.73357341
  0
VERTEX
  8
Layer 1
 62
7
 10
11.04928458
 20
8.75733673
  0
VERTEX
  8
Layer 1
 62
7
 10
11.06707594
 20
8.78361006
  0
VERTEX
  8
Layer 1
 62
7
 10
11.07899103
 20
8.81005943
  0
VERTEX
  8
Layer 1
 62
7
 10
11.09222228
 20
8.85494796
  0
VERTEX
  8
Layer 1
 62
7
 10
11.10248898
 20
8.90435025
  0
VERTEX
  8
Layer 1
 62
7
 10
11.10858303
 20
8.95487578
  0
VERTEX
  8
Layer 1
 62
7
 10
11.10929637
 20
9.00313400
  0
VERTEX
  8
Layer 1
 62
7
 10
11.05227766
 20
9.09166212
  0
VERTEX
  8
Layer 1
 62
7
 10
11.50449934
 20
9.09166212
  0
VERTEX
  8
Layer 1
 62
7
 10
11.44757745
 20
9.00720983
  0
VERTEX
  8
Layer 1
 62
7
 10
11.45058413
 20
8.97019015
  0
VERTEX
  8
Layer 1
 62
7
 10
11.45550858
 20
8.93180396
  0
VERTEX
  8
Layer 1
 62
7
 10
11.46228552
 20
8.89303733
  0
VERTEX
  8
Layer 1
 62
7
 10
11.47084964
 20
8.85487637
  0
VERTEX
  8
Layer 1
 62
7
 10
11.48113567
 20
8.81830715
  0
VERTEX
  8
Layer 1
 62
7
 10
11.49307829
 20
8.78431575
  0
VERTEX
  8
Layer 1
 62
7
 10
11.50661221
 20
8.75388826
  0
VERTEX
  8
Layer 1
 62
7
 10
11.52167215
 20
8.72801077
  0
VERTEX
  8
Layer 1
 62
7
 10
11.55076354
 20
8.68635464
  0
VERTEX
  8
Layer 1
 62
7
 10
11.57434230
 20
8.65692146
  0
VERTEX
  8
Layer 1
 62
7
 10
11.59756508
 20
8.63469320
  0
VERTEX
  8
Layer 1
 62
7
 10
11.62558855
 20
8.61465183
  0
VERTEX
  8
Layer 1
 62
7
 10
11.65805510
 20
8.65293448
  0
VERTEX
  8
Layer 1
 62
7
 10
11.68317603
 20
8.68839179
  0
VERTEX
  8
Layer 1
 62
7
 10
11.70218087
 20
8.71961212
  0
VERTEX
  8
Layer 1
 62
7
 10
11.71629922
 20
8.74518382
  0
VERTEX
  8
Layer 1
 62
7
 10
11.73776505
 20
8.78549726
  0
VERTEX
  8
Layer 1
 62
7
 10
11.75841096
 20
8.83000133
  0
VERTEX
  8
Layer 1
 62
7
 10
11.77754618
 20
8.87707971
  0
VERTEX
  8
Layer 1
 62
7
 10
11.79448000
 20
8.92511607
  0
VERTEX
  8
Layer 1
 62
7
 10
11.80852167
 20
8.97249408
  0
VERTEX
  8
Layer 1
 62
7
 10
11.81898047
 20
9.01759743
  0
VERTEX
  8
Layer 1
 62
7
 10
11.82516565
 20
9.05880977
  0
VERTEX
  8
Layer 1
 62
7
 10
11.82638648
 20
9.09451479
  0
VERTEX
  8
Layer 1
 62
7
 10
11.77163427
 20
9.17543760
  0
SEQEND
  0
POLYLINE
  8
Layer 1
 62
7
 66
1
 70
1
  0
VERTEX
  8
Layer 1
 62
7
 10
11.91592758
 20
9.08543724
  0
VERTEX
  8
Layer 1
 62
7
 10
11.91233495
 20
9.03806595
  0
VERTEX
  8
Layer 1
 62
7
 10
11.90372449
 20
8.98706901
  0
VERTEX
  8
Layer 1
 62
7
 10
11.89088593
 20
8.93399482
  0
VERTEX
  8
Layer 1
 62
7
 10
11.87460898
 20
8.88039180
  0
VERTEX
  8
Layer 1
 62
7
 10
11.85568336
 20
8.82780834
  0
VERTEX
  8
Layer 1
 62
7
 10
11.83489878
 20
8.77779285
  0
VERTEX
  8
Layer 1
 62
7
 10
11.81304495
 20
8.73189375
  0
VERTEX
  8
Layer 1
 62
7
 10
11.79091160
 20
8.69165943
  0
VERTEX
  8
Layer 1
 62
7
 10
11.76292264
 20
8.64424456
  0
VERTEX
  8
Layer 1
 62
7
 10
11.72843555
 20
8.59511391
  0
VERTEX
  8
Layer 1
 62
7
 10
11.68792933
 20
8.54800873
  0
VERTEX
  8
Layer 1
 62
7
 10
11.64188300
 20
8.50667026
  0
VERTEX
  8
Layer 1
 62
7
 10
11.60966292
 20
8.52005709
  0
VERTEX
  8
Layer 1
 62
7
 10
11.58121238
 20
8.53588912
  0
VERTEX
  8
Layer 1
 62
7
 10
11.55580806
 20
8.55416610
  0
VERTEX
  8
Layer 1
 62
7
 10
11.53272665
 20
8.57488778
  0
VERTEX
  8
Layer 1
 62
7
 10
11.51124485
 20
8.59805388
  0
VERTEX
  8
Layer 1
 62
7
 10
11.49063936
 20
8.62366416
  0
VERTEX
  8
Layer 1
 62
7
 10
11.47018686
 20
8.65171835
  0
VERTEX
  8
Layer 1
 62
7
 10
11.44916405
 20
8.68221620
  0
VERTEX
  8
Layer 1
 62
7
 10
11.43419696
 20
8.71109277
  0
VERTEX
  8
Layer 1
 62
7
 10
11.41958556
 20
8.74436132
  0
VERTEX
  8
Layer 1
 62
7
 10
11.40568556
 20
8.78140501
  0
VERTEX
  8
Layer 1
 62
7
 10
11.39285264
 20
8.82160701
  0
VERTEX
  8
Layer 1
 62
7
 10
11.38144248
 20
8.86435050
  0
VERTEX
  8
Layer 1
 62
7
 10
11.37181077
 20
8.90901866
  0
VERTEX
  8
Layer 1
 62
7
 10
11.36431319
 20
8.95499465
  0
VERTEX
  8
Layer 1
 62
7
 10
11.35930543
 20
9.00166165
  0
VERTEX
  8
Layer 1
 62
7
 10
11.19876462
 20
9.00166165
  0
VERTEX
  8
Layer 1
 62
7
 10
11.19349734
 20
8.95273089
  0
VERTEX
  8
Layer 1
 62
7
 10
11.18491923
 20
8.88785552
  0
VERTEX
  8
Layer 1
 62
7
 10
11.17383258
 20
8.82387320
  0
VERTEX
  8
Layer 1
 62
7
 10
11.16103968
 20
8.77762162
  0
VERTEX
  8
Layer 1
 62
7
 10
11.15140686
 20
8.75454176
  0
VERTEX
  8
Layer 1
 62
7
 10
11.13937945
 20
8.73090651
  0
VERTEX
  8
Layer 1
 62
7
 10
11.12517983
 20
8.70739444
  0
VERTEX
  8
Layer 1
 62
7
 10
11.10903031
 20
8.68468414
  0
VERTEX
  8
Layer 1
 62
7
 10
11.09115327
 20
8.66345421
  0
VERTEX
  8
Layer 1
 62
7
 10
11.07177103
 20
8.64438322
  0
VERTEX
  8
Layer 1
 62
7
 10
11.05110594
 20
8.62814978
  0
VERTEX
  8
Layer 1
 62
7
 10
11.02938035
 20
8.61543247
  0
VERTEX
  8
Layer 1
 62
7
 10
11.00987055
 20
8.61918331
  0
VERTEX
  8
Layer 1
 62
7
 10
10.99140449
 20
8.62507616
  0
VERTEX
  8
Layer 1
 62
7
 10
10.97389635
 20
8.63290120
  0
VERTEX
  8
Layer 1
 62
7
 10
10.95726031
 20
8.64244858
  0
VERTEX
  8
Layer 1
 62
7
 10
10.94141056
 20
8.65350848
  0
VERTEX
  8
Layer 1
 62
7
 10
10.92626127
 20
8.66587105
  0
VERTEX
  8
Layer 1
 62
7
 10
10.91172661
 20
8.67932646
  0
VERTEX
  8
Layer 1
 62
7
 10
10.89772078
 20
8.69366488
  0
VERTEX
  8
Layer 1
 62
7
 10
10.87900032
 20
8.71547602
  0
VERTEX
  8
Layer 1
 62
7
 10
10.86280750
 20
8.73844794
  0
VERTEX
  8
Layer 1
 62
7
 10
10.84898607
 20
8.76297362
  0
VERTEX
  8
Layer 1
 62
7
 10
10.83737978
 20
8.78944608
  0
VERTEX
  8
Layer 1
 62
7
 10
10.82783238
 20
8.81825829
  0
VERTEX
  8
Layer 1
 62
7
 10
10.82018760
 20
8.84980325
  0
VERTEX
  8
Layer 1
 62
7
 10
10.81428921
 20
8.88447397
  0
VERTEX
  8
Layer 1
 62
7
 10
10.80998094
 20
8.92266343
  0
VERTEX
  8
Layer 1
 62
7
 10
10.62268374
 20
8.92266343
  0
VERTEX
  8
Layer 1
 62
7
 10
10.61855083
 20
8.89604539
  0
VERTEX
  8
Layer 1
 62
7
 10
10.61290598
 20
8.86381412
  0
VERTEX
  8
Layer 1
 62
7
 10
10.60792413
 20
8.83047139
  0
VERTEX
  8
Layer 1
 62
7
 10
10.60578019
 20
8.80051897
  0
VERTEX
  8
Layer 1
 62
7
 10
10.60801926
 20
8.77318752
  0
VERTEX
  8
Layer 1
 62
7
 10
10.61140672
 20
8.74448514
  0
VERTEX
  8
Layer 1
 62
7
 10
10.61617293
 20
8.71481076
  0
VERTEX
  8
Layer 1
 62
7
 10
10.62254825
 20
8.68456332
  0
VERTEX
  8
Layer 1
 62
7
 10
10.63076304
 20
8.65414174
  0
VERTEX
  8
Layer 1
 62
7
 10
10.64104767
 20
8.62394496
  0
VERTEX
  8
Layer 1
 62
7
 10
10.65363251
 20
8.59437192
  0
VERTEX
  8
Layer 1
 62
7
 10
10.66874791
 20
8.56582154
  0
VERTEX
  8
Layer 1
 62
7
 10
10.63649212
 20
8.55925575
  0
VERTEX
  8
Layer 1
 62
7
 10
10.60082004
 20
8.55699056
  0
VERTEX
  8
Layer 1
 62
7
 10
10.56314120
 20
8.55897212
  0
VERTEX
  8
Layer 1
 62
7
 10
10.52486518
 20
8.56514661
  0
VERTEX
  8
Layer 1
 62
7
 10
10.48740153
 20
8.57546019
  0
VERTEX
  8
Layer 1
 62
7
 10
10.45215980
 20
8.58985903
  0
VERTEX
  8
Layer 1
 62
7
 10
10.42054955
 20
8.60828929
  0
VERTEX
  8
Layer 1
 62
7
 10
10.39398033
 20
8.63069715
  0
VERTEX
  8
Layer 1
 62
7
 10
10.37289857
 20
8.65069219
  0
VERTEX
  8
Layer 1
 62
7
 10
10.35471695
 20
8.67221887
  0
VERTEX
  8
Layer 1
 62
7
 10
10.33926784
 20
8.69532108
  0
VERTEX
  8
Layer 1
 62
7
 10
10.32638362
 20
8.72004272
  0
VERTEX
  8
Layer 1
 62
7
 10
10.31589668
 20
8.74642770
  0
VERTEX
  8
Layer 1
 62
7
 10
10.30763940
 20
8.77451992
  0
VERTEX
  8
Layer 1
 62
7
 10
10.30144415
 20
8.80436328
  0
VERTEX
  8
Layer 1
 62
7
 10
10.29714332
 20
8.83600167
  0
VERTEX
  8
Layer 1
 62
7
 10
10.13660274
 20
8.83600167
  0
VERTEX
  8
Layer 1
 62
7
 10
10.13361299
 20
8.78720571
  0
VERTEX
  8
Layer 1
 62
7
 10
10.13460492
 20
8.74126926
  0
VERTEX
  8
Layer 1
 62
7
 10
10.13946973
 20
8.69809566
  0
VERTEX
  8
Layer 1
 62
7
 10
10.14809859
 20
8.65758831
  0
VERTEX
  8
Layer 1
 62
7
 10
10.16038269
 20
8.61965056
  0
VERTEX
  8
Layer 1
 62
7
 10
10.17621321
 20
8.58418579
  0
VERTEX
  8
Layer 1
 62
7
 10
10.19548135
 20
8.55109737
  0
VERTEX
  8
Layer 1
 62
7
 10
10.21807828
 20
8.52028866
  0
VERTEX
  8
Layer 1
 62
7
 10
10.24389519
 20
8.49166304
  0
VERTEX
  8
Layer 1
 62
7
 10
10.27282326
 20
8.46512388
  0
VERTEX
  8
Layer 1
 62
7
 10
10.30475369
 20
8.44057454
  0
VERTEX
  8
Layer 1
 62
7
 10
10.33957765
 20
8.41791840
  0
VERTEX
  8
Layer 1
 62
7
 10
10.37718633
 20
8.39705883
  0
VERTEX
  8
Layer 1
 62
7
 10
10.41747091
 20
8.37789920
  0
VERTEX
  8
Layer 1
 62
7
 10
10.46032259
 20
8.36034287
  0
VERTEX
  8
Layer 1
 62
7
 10
10.50563254
 20
8.34429321
  0
VERTEX
  8
Layer 1
 62
7
 10
10.55715049
 20
8.32983658
  0
VERTEX
  8
Layer 1
 62
7
 10
10.60871291
 20
8.32045509
  0
VERTEX
  8
Layer 1
 62
7
 10
10.66047295
 20
8.31589086
  0
VERTEX
  8
Layer 1
 62
7
 10
10.71258376
 20
8.31588598
  0
VERTEX
  8
Layer 1
 62
7
 10
10.76519849
 20
8.32018259
  0
VERTEX
  8
Layer 1
 62
7
 10
10.81847028
 20
8.32852280
  0
VERTEX
  8
Layer 1
 62
7
 10
10.87255229
 20
8.34064871
  0
VERTEX
  8
Layer 1
 62
7
 10
10.92759765
 20
8.35630245
  0
VERTEX
  8
Layer 1
 62
7
 10
10.94499459
 20
8.32897781
  0
VERTEX
  8
Layer 1
 62
7
 10
10.96380146
 20
8.30297197
  0
VERTEX
  8
Layer 1
 62
7
 10
10.98395874
 20
8.27833372
  0
VERTEX
  8
Layer 1
 62
7
 10
11.00540688
 20
8.25511184
  0
VERTEX
  8
Layer 1
 62
7
 10
11.02808635
 20
8.23335511
  0
VERTEX
  8
Layer 1
 62
7
 10
11.05193762
 20
8.21311230
  0
VERTEX
  8
Layer 1
 62
7
 10
11.07690115
 20
8.19443220
  0
VERTEX
  8
Layer 1
 62
7
 10
11.10291741
 20
8.17736359
  0
VERTEX
  8
Layer 1
 62
7
 10
11.12992685
 20
8.16195524
  0
VERTEX
  8
Layer 1
 62
7
 10
11.15786995
 20
8.14825594
  0
VERTEX
  8
Layer 1
 62
7
 10
11.18668716
 20
8.13631448
  0
VERTEX
  8
Layer 1
 62
7
 10
11.21631895
 20
8.12617962
  0
VERTEX
  8
Layer 1
 62
7
 10
11.24670579
 20
8.11790015
  0
VERTEX
  8
Layer 1
 62
7
 10
11.27778814
 20
8.11152484
  0
VERTEX
  8
Layer 1
 62
7
 10
11.30950646
 20
8.10710249
  0
VERTEX
  8
Layer 1
 62
7
 10
11.34180122
 20
8.10468187
  0
VERTEX
  8
Layer 1
 62
7
 10
11.38295026
 20
8.10366232
  0
VERTEX
  8
Layer 1
 62
7
 10
11.42384119
 20
8.10444112
  0
VERTEX
  8
Layer 1
 62
7
 10
11.46440114
 20
8.10779305
  0
VERTEX
  8
Layer 1
 62
7
 10
11.50455729
 20
8.11449285
  0
VERTEX
  8
Layer 1
 62
7
 10
11.54423676
 20
8.12531531
  0
VERTEX
  8
Layer 1
 62
7
 10
11.58336671
 20
8.14103518
  0
VERTEX
  8
Layer 1
 62
7
 10
11.62187429
 20
8.16242723
  0
VERTEX
  8
Layer 1
 62
7
 10
11.65968665
 20
8.19026622
  0
VERTEX
  8
Layer 1
 62
7
 10
11.67412666
 20
8.16348075
  0
VERTEX
  8
Layer 1
 62
7
 10
11.68814322
 20
8.13843615
  0
VERTEX
  8
Layer 1
 62
7
 10
11.70226317
 20
8.11514176
  0
VERTEX
  8
Layer 1
 62
7
 10
11.71701331
 20
8.09360697
  0
VERTEX
  8
Layer 1
 62
7
 10
11.73292047
 20
8.07384114
  0
VERTEX
  8
Layer 1
 62
7
 10
11.75051145
 20
8.05585363
  0
VERTEX
  8
Layer 1
 62
7
 10
11.77031307
 20
8.03965382
  0
VERTEX
  8
Layer 1
 62
7
 10
11.79285215
 20
8.02525106
  0
VERTEX
  8
Layer 1
 62
7
 10
11.81176342
 20
8.01309306
  0
VERTEX
  8
Layer 1
 62
7
 10
11.83420851
 20
8.00165681
  0
VERTEX
  8
Layer 1
 62
7
 10
11.85941798
 20
7.99124061
  0
VERTEX
  8
Layer 1
 62
7
 10
11.88662236
 20
7.98214273
  0
VERTEX
  8
Layer 1
 62
7
 10
11.91505220
 20
7.97466145
  0
VERTEX
  8
Layer 1
 62
7
 10
11.94393804
 20
7.96909506
  0
VERTEX
  8
Layer 1
 62
7
 10
11.97251043
 20
7.96574183
  0
VERTEX
  8
Layer 1
 62
7
 10
11.99999990
 20
7.96490004
  0
VERTEX
  8
Layer 1
 62
7
 10
12.02710003
 20
7.96574183
  0
VERTEX
  8
Layer 1
 62
7
 10
12.05548968
 20
7.96909506
  0
VERTEX
  8
Layer 1
 62
7
 10
12.08435172
 20
7.97466145
  0
VERTEX
  8
Layer 1
 62
7
 10
12.11286901
 20
7.98214273
  0
VERTEX
  8
Layer 1
 62
7
 10
12.14022440
 20
7.99124061
  0
VERTEX
  8
Layer 1
 62
7
 10
12.16560077
 20
8.00165681
  0
VERTEX
  8
Layer 1
 62
7
 10
12.18818097
 20
8.01309306
  0
VERTEX
  8
Layer 1
 62
7
 10
12.20714787
 20
8.02525106
  0
VERTEX
  8
Layer 1
 62
7
 10
12.22968695
 20
8.03965382
  0
VERTEX
  8
Layer 1
 62
7
 10
12.24948858
 20
8.05585363
  0
VERTEX
  8
Layer 1
 62
7
 10
12.26707956
 20
8.07384114
  0
VERTEX
  8
Layer 1
 62
7
 10
12.28298671
 20
8.09360697
  0
VERTEX
  8
Layer 1
 62
7
 10
12.29773685
 20
8.11514176
  0
VERTEX
  8
Layer 1
 62
7
 10
12.31185680
 20
8.13843615
  0
VERTEX
  8
Layer 1
 62
7
 10
12.32587337
 20
8.16348075
  0
VERTEX
  8
Layer 1
 62
7
 10
12.34031337
 20
8.19026622
  0
VERTEX
  8
Layer 1
 62
7
 10
12.37812573
 20
8.16242723
  0
VERTEX
  8
Layer 1
 62
7
 10
12.41663331
 20
8.14103518
  0
VERTEX
  8
Layer 1
 62
7
 10
12.45576325
 20
8.12531531
  0
VERTEX
  8
Layer 1
 62
7
 10
12.49544271
 20
8.11449285
  0
VERTEX
  8
Layer 1
 62
7
 10
12.53559882
 20
8.10779305
  0
VERTEX
  8
Layer 1
 62
7
 10
12.57615874
 20
8.10444112
  0
VERTEX
  8
Layer 1
 62
7
 10
12.61704961
 20
8.10366232
  0
VERTEX
  8
Layer 1
 62
7
 10
12.65819858
 20
8.10468187
  0
VERTEX
  8
Layer 1
 62
7
 10
12.69049338
 20
8.10710249
  0
VERTEX
  8
Layer 1
 62
7
 10
12.72221173
 20
8.11152484
  0
VERTEX
  8
Layer 1
 62
7
 10
12.75329411
 20
8.11790015
  0
VERTEX
  8
Layer 1
 62
7
 10
12.78368098
 20
8.12617962
  0
VERTEX
  8
Layer 1
 62
7
 10
12.81331279
 20
8.13631448
  0
VERTEX
  8
Layer 1
 62
7
 10
12.84213002
 20
8.14825594
  0
VERTEX
  8
Layer 1
 62
7
 10
12.87007313
 20
8.16195524
  0
VERTEX
  8
Layer 1
 62
7
 10
12.89708259
 20
8.17736359
  0
VERTEX
  8
Layer 1
 62
7
 10
12.92309885
 20
8.19443220
  0
VERTEX
  8
Layer 1
 62
7
 10
12.94806239
 20
8.21311230
  0
VERTEX
  8
Layer 1
 62
7
 10
12.97191366
 20
8.23335511
  0
VERTEX
  8
Layer 1
 62
7
 10
12.99459314
 20
8.25511184
  0
VERTEX
  8
Layer 1
 62
7
 10
13.01604129
 20
8.27833372
  0
VERTEX
  8
Layer 1
 62
7
 10
13.03619856
 20
8.30297197
  0
VERTEX
  8
Layer 1
 62
7
 10
13.05500544
 20
8.32897781
  0
VERTEX
  8
Layer 1
 62
7
 10
13.07240237
 20
8.35630245
  0
VERTEX
  8
Layer 1
 62
7
 10
13.12744774
 20
8.34064871
  0
VERTEX
  8
Layer 1
 62
7
 10
13.18152974
 20
8.32852280
  0
VERTEX
  8
Layer 1
 62
7
 10
13.23480154
 20
8.32018259
  0
VERTEX
  8
Layer 1
 62
7
 10
13.28741626
 20
8.31588598
  0
VERTEX
  8
Layer 1
 62
7
 10
13.33952707
 20
8.31589086
  0
VERTEX
  8
Layer 1
 62
7
 10
13.39128712
 20
8.32045509
  0
VERTEX
  8
Layer 1
 62
7
 10
13.44284954
 20
8.32983658
  0
VERTEX
  8
Layer 1
 62
7
 10
13.49436748
 20
8.34429321
  0
VERTEX
  8
Layer 1
 62
7
 10
13.53967744
 20
8.36034287
  0
VERTEX
  8
Layer 1
 62
7
 10
13.58252911
 20
8.37789920
  0
VERTEX
  8
Layer 1
 62
7
 10
13.62281370
 20
8.39705883
  0
VERTEX
  8
Layer 1
 62
7
 10
13.66042238
 20
8.41791840
  0
VERTEX
  8
Layer 1
 62
7
 10
13.69524634
 20
8.44057454
  0
VERTEX
  8
Layer 1
 62
7
 10
13.72717676
 20
8.46512388
  0
VERTEX
  8
Layer 1
 62
7
 10
13.75610484
 20
8.49166304
  0
VERTEX
  8
Layer 1
 62
7
 10
13.78192175
 20
8.52028866
  0
VERTEX
  8
Layer 1
 62
7
 10
13.80451868
 20
8.55109737
  0
VERTEX
  8
Layer 1
 62
7
 10
13.82378681
 20
8.58418579
  0
VERTEX
  8
Layer 1
 62
7
 10
13.83961733
 20
8.61965056
  0
VERTEX
  8
Layer 1
 62
7
 10
13.85190143
 20
8.65758831
  0
VERTEX
  8
Layer 1
 62
7
 10
13.86053029
 20
8.69809566
  0
VERTEX
  8
Layer 1
 62
7
 10
13.86539510
 20
8.74126926
  0
VERTEX
  8
Layer 1
 62
7
 10
13.86638703
 20
8.78720571
  0
VERTEX
  8
Layer 1
 62
7
 10
13.86339728
 20
8.83600167
  0
VERTEX
  8
Layer 1
 62
7
 10
13.70285670
 20
8.83600167
  0
VERTEX
  8
Layer 1
 62
7
 10
13.69855587
 20
8.80436328
  0
VERTEX
  8
Layer 1
 62
7
 10
13.69236062
 20
8.77451992
  0
VERTEX
  8
Layer 1
 62
7
 10
13.68410334
 20
8.74642770
  0
VERTEX
  8
Layer 1
 62
7
 10
13.67361640
 20
8.72004272
  0
VERTEX
  8
Layer 1
 62
7
 10
13.66073218
 20
8.69532108
  0
VERTEX
  8
Layer 1
 62
7
 10
13.64528307
 20
8.67221887
  0
VERTEX
  8
Layer 1
 62
7
 10
13.62710145
 20
8.65069219
  0
VERTEX
  8
Layer 1
 62
7
 10
13.60601969
 20
8.63069715
  0
VERTEX
  8
Layer 1
 62
7
 10
13.57945046
 20
8.60828929
  0
VERTEX
  8
Layer 1
 62
7
 10
13.54784019
 20
8.58985903
  0
VERTEX
  8
Layer 1
 62
7
 10
13.51259843
 20
8.57546019
  0
VERTEX
  8
Layer 1
 62
7
 10
13.47513475
 20
8.56514661
  0
VERTEX
  8
Layer 1
 62
7
 10
13.43685872
 20
8.55897212
  0
VERTEX
  8
Layer 1
 62
7
 10
13.39917989
 20
8.55699056
  0
VERTEX
  8
Layer 1
 62
7
 10
13.36350783
 20
8.55925575
  0
VERTEX
  8
Layer 1
 62
7
 10
13.33125211
 20
8.56582154
  0
VERTEX
  8
Layer 1
 62
7
 10
13.34636751
 20
8.59437192
  0
VERTEX
  8
Layer 1
 62
7
 10
13.35895235
 20
8.62394496
  0
VERTEX
  8
Layer 1
 62
7
 10
13.36923698
 20
8.65414174
  0
VERTEX
  8
Layer 1
 62
7
 10
13.37745178
 20
8.68456332
  0
VERTEX
  8
Layer 1
 62
7
 10
13.38382710
 20
8.71481076
  0
VERTEX
  8
Layer 1
 62
7
 10
13.38859330
 20
8.74448514
  0
VERTEX
  8
Layer 1
 62
7
 10
13.39198076
 20
8.77318752
  0
VERTEX
  8
Layer 1
 62
7
 10
13.39421983
 20
8.80051897
  0
VERTEX
  8
Layer 1
 62
7
 10
13.39207590
 20
8.83047139
  0
VERTEX
  8
Layer 1
 62
7
 10
13.38709404
 20
8.86381412
  0
VERTEX
  8
Layer 1
 62
7
 10
13.38144919
 20
8.89604539
  0
VERTEX
  8
Layer 1
 62
7
 10
13.37731628
 20
8.92266343
  0
VERTEX
  8
Layer 1
 62
7
 10
13.19001909
 20
8.92266343
  0
VERTEX
  8
Layer 1
 62
7
 10
13.18571082
 20
8.88447397
  0
VERTEX
  8
Layer 1
 62
7
 10
13.17981242
 20
8.84980325
  0
VERTEX
  8
Layer 1
 62
7
 10
13.17216765
 20
8.81825829
  0
VERTEX
  8
Layer 1
 62
7
 10
13.16262024
 20
8.78944608
  0
VERTEX
  8
Layer 1
 62
7
 10
13.15101395
 20
8.76297362
  0
VERTEX
  8
Layer 1
 62
7
 10
13.13719252
 20
8.73844794
  0
VERTEX
  8
Layer 1
 62
7
 10
13.12099970
 20
8.71547602
  0
VERTEX
  8
Layer 1
 62
7
 10
13.10227924
 20
8.69366488
  0
VERTEX
  8
Layer 1
 62
7
 10
13.08827341
 20
8.67932646
  0
VERTEX
  8
Layer 1
 62
7
 10
13.07373876
 20
8.66587105
  0
VERTEX
  8
Layer 1
 62
7
 10
13.05858946
 20
8.65350848
  0
VERTEX
  8
Layer 1
 62
7
 10
13.04273971
 20
8.64244858
  0
VERTEX
  8
Layer 1
 62
7
 10
13.02610367
 20
8.63290120
  0
VERTEX
  8
Layer 1
 62
7
 10
13.00859554
 20
8.62507616
  0
VERTEX
  8
Layer 1
 62
7
 10
12.99012948
 20
8.61918331
  0
VERTEX
  8
Layer 1
 62
7
 10
12.97061968
 20
8.61543247
  0
VERTEX
  8
Layer 1
 62
7
 10
12.94889409
 20
8.62814978
  0
VERTEX
  8
Layer 1
 62
7
 10
12.92822900
 20
8.64438322
  0
VERTEX
  8
Layer 1
 62
7
 10
12.90884676
 20
8.66345421
  0
VERTEX
  8
Layer 1
 62
7
 10
12.89096971
 20
8.68468414
  0
VERTEX
  8
Layer 1
 62
7
 10
12.87482020
 20
8.70739444
  0
VERTEX
  8
Layer 1
 62
7
 10
12.86062057
 20
8.73090651
  0
VERTEX
  8
Layer 1
 62
7
 10
12.84859317
 20
8.75454176
  0
VERTEX
  8
Layer 1
 62
7
 10
12.83896034
 20
8.77762162
  0
VERTEX
  8
Layer 1
 62
7
 10
12.82616744
 20
8.82387320
  0
VERTEX
  8
Layer 1
 62
7
 10
12.81508079
 20
8.88785552
  0
VERTEX
  8
Layer 1
 62
7
 10
12.80650268
 20
8.95273089
  0
VERTEX
  8
Layer 1
 62
7
 10
12.80123540
 20
9.00166165
  0
VERTEX
  8
Layer 1
 62
7
 10
12.64069437
 20
9.00166165
  0
VERTEX
  8
Layer 1
 62
7
 10
12.63568668
 20
8.95499465
  0
VERTEX
  8
Layer 1
 62
7
 10
12.62818916
 20
8.90901866
  0
VERTEX
  8
Layer 1
 62
7
 10
12.61855748
 20
8.86435050
  0
VERTEX
  8
Layer 1
 62
7
 10
12.60714735
 20
8.82160701
  0
VERTEX
  8
Layer 1
 62
7
 10
12.59431445
 20
8.78140501
  0
VERTEX
  8
Layer 1
 62
7
 10
12.58041446
 20
8.74436132
  0
VERTEX
  8
Layer 1
 62
7
 10
12.56580307
 20
8.71109277
  0
VERTEX
  8
Layer 1
 62
7
 10
12.55083597
 20
8.68221620
  0
VERTEX
  8
Layer 1
 62
7
 10
12.52981316
 20
8.65171835
  0
VERTEX
  8
Layer 1
 62
7
 10
12.50936066
 20
8.62366416
  0
VERTEX
  8
Layer 1
 62
7
 10
12.48875517
 20
8.59805388
  0
VERTEX
  8
Layer 1
 62
7
 10
12.46727337
 20
8.57488778
  0
VERTEX
  8
Layer 1
 62
7
 10
12.44419197
 20
8.55416610
  0
VERTEX
  8
Layer 1
 62
7
 10
12.41878765
 20
8.53588912
  0
VERTEX
  8
Layer 1
 62
7
 10
12.39033710
 20
8.52005709
  0
VERTEX
  8
Layer 1
 62
7
 10
12.35811702
 20
8.50667026
  0
VERTEX
  8
Layer 1
 62
7
 10
12.31207069
 20
8.54800873
  0
VERTEX
  8
Layer 1
 62
7
 10
12.27156445
 20
8.59511391
  0
VERTEX
  8
Layer 1
 62
7
 10
12.23707729
 20
8.64424456
  0
VERTEX
  8
Layer 1
 62
7
 10
12.20908820
 20
8.69165943
  0
VERTEX
  8
Layer 1
 62
7
 10
12.18695491
 20
8.73189375
  0
VERTEX
  8
Layer 1
 62
7
 10
12.16510112
 20
8.77779285
  0
VERTEX
  8
Layer 1
 62
7
 10
12.14431655
 20
8.82780834
  0
VERTEX
  8
Layer 1
 62
7
 10
12.12539093
 20
8.88039180
  0
VERTEX
  8
Layer 1
 62
7
 10
12.10911398
 20
8.93399482
  0
VERTEX
  8
Layer 1
 62
7
 10
12.09627543
 20
8.98706901
  0
VERTEX
  8
Layer 1
 62
7
 10
12.08766501
 20
9.03806595
  0
VERTEX
  8
Layer 1
 62
7
 10
12.08407245
 20
9.08543724
  0
SEQEND
  0
POLYLINE
  8
Layer 1
 62
7
 66
1
 70
1
  0
VERTEX
  8
Layer 1
 62
7
 10
10.15481552
 20
9.01612162
  0
VERTEX
  8
Layer 1
 62
7
 10
10.13601864
 20
9.05890287
  0
VERTEX
  8
Layer 1
 62
7
 10
10.12294052
 20
9.10037162
  0
VERTEX
  8
Layer 1
 62
7
 10
10.11529989
 20
9.14071537
  0
VERTEX
  8
Layer 1
 62
7
 10
10.11281552
 20
9.18012162
  0
VERTEX
  8
Layer 1
 62
7
 10
10.11414755
 20
9.20917240
  0
VERTEX
  8
Layer 1
 62
7
 10
10.11803427
 20
9.23777787
  0
VERTEX
  8
Layer 1
 62
7
 10
10.12431161
 20
9.26586772
  0
VERTEX
  8
Layer 1
 62
7
 10
10.13281552
 20
9.29337162
  0
VERTEX
  8
Layer 1
 62
7
 10
10.14338192
 20
9.32021928
  0
VERTEX
  8
Layer 1
 62
7
 10
10.15584677
 20
9.34634037
  0
VERTEX
  8
Layer 1
 62
7
 10
10.17004599
 20
9.37166459
  0
VERTEX
  8
Layer 1
 62
7
 10
10.18581552
 20
9.39612162
  0
VERTEX
  8
Layer 1
 62
7
 10
10.21994052
 20
9.43987162
  0
VERTEX
  8
Layer 1
 62
7
 10
10.25781552
 20
9.47612162
  0
VERTEX
  8
Layer 1
 62
7
 10
10.29081552
 20
9.38712162
  0
VERTEX
  8
Layer 1
 62
7
 10
10.31619052
 20
9.32930912
  0
VERTEX
  8
Layer 1
 62
7
 10
10.33706552
 20
9.27412162
  0
VERTEX
  8
Layer 1
 62
7
 10
10.35156552
 20
9.22343412
  0
VERTEX
  8
Layer 1
 62
7
 10
10.35781552
 20
9.17912162
  0
VERTEX
  8
Layer 1
 62
7
 10
10.35497177
 20
9.13635600
  0
VERTEX
  8
Layer 1
 62
7
 10
10.34631552
 20
9.09499662
  0
VERTEX
  8
Layer 1
 62
7
 10
10.33165927
 20
9.05494975
  0
VERTEX
  8
Layer 1
 62
7
 10
10.31081552
 20
9.01612162
  0
SEQEND
  0
POLYLINE
  8
Layer 1
 62
7
 66
1
 70
1
  0
VERTEX
  8
Layer 1
 62
7
 10
10.64187412
 20
9.10253514
  0
VERTEX
  8
Layer 1
 62
7
 10
10.62307724
 20
9.14531639
  0
VERTEX
  8
Layer 1
 62
7
 10
10.60999912
 20
9.18678514
  0
VERTEX
  8
Layer 1
 62
7
 10
10.60235849
 20
9.22712889
  0
VERTEX
  8
Layer 1
 62
7
 10
10.59987412
 20
9.26653514
  0
VERTEX
  8
Layer 1
 62
7
 10
10.60120615
 20
9.29558592
  0
VERTEX
  8
Layer 1
 62
7
 10
10.60509287
 20
9.32419139
  0
VERTEX
  8
Layer 1
 62
7
 10
10.61137021
 20
9.35228123
  0
VERTEX
  8
Layer 1
 62
7
 10
10.61987412
 20
9.37978514
  0
VERTEX
  8
Layer 1
 62
7
 10
10.63044052
 20
9.40663279
  0
VERTEX
  8
Layer 1
 62
7
 10
10.64290537
 20
9.43275389
  0
VERTEX
  8
Layer 1
 62
7
 10
10.65710459
 20
9.45807810
  0
VERTEX
  8
Layer 1
 62
7
 10
10.67287412
 20
9.48253514
  0
VERTEX
  8
Layer 1
 62
7
 10
10.70699912
 20
9.52628514
  0
VERTEX
  8
Layer 1
 62
7
 10
10.74487412
 20
9.56253514
  0
VERTEX
  8
Layer 1
 62
7
 10
10.77787412
 20
9.47353514
  0
VERTEX
  8
Layer 1
 62
7
 10
10.80324912
 20
9.41572264
  0
VERTEX
  8
Layer 1
 62
7
 10
10.82412412
 20
9.36053514
  0
VERTEX
  8
Layer 1
 62
7
 10
10.83862412
 20
9.30984764
  0
VERTEX
  8
Layer 1
 62
7
 10
10.84487412
 20
9.26553514
  0
VERTEX
  8
Layer 1
 62
7
 10
10.84203037
 20
9.22276951
  0
VERTEX
  8
Layer 1
 62
7
 10
10.83337412
 20
9.18141014
  0
VERTEX
  8
Layer 1
 62
7
 10
10.81871787
 20
9.14136326
  0
VERTEX
  8
Layer 1
 62
7
 10
10.79787412
 20
9.10253514
  0
SEQEND
  0
POLYLINE
  8
Layer 1
 62
7
 66
1
 70
1
  0
VERTEX
  8
Layer 1
 62
7
 10
11.20188877
 20
9.18172838
  0
VERTEX
  8
Layer 1
 62
7
 10
11.18309189
 20
9.22450963
  0
VERTEX
  8
Layer 1
 62
7
 10
11.17001377
 20
9.26597838
  0
VERTEX
  8
Layer 1
 62
7
 10
11.16237314
 20
9.30632213
  0
VERTEX
  8
Layer 1
 62
7
 10
11.15988877
 20
9.34572838
  0
VERTEX
  8
Layer 1
 62
7
 10
11.16122080
 20
9.37477916
  0
VERTEX
  8
Layer 1
 62
7
 10
11.16510752
 20
9.40338463
  0
VERTEX
  8
Layer 1
 62
7
 10
11.17138486
 20
9.43147447
  0
VERTEX
  8
Layer 1
 62
7
 10
11.17988877
 20
9.45897838
  0
VERTEX
  8
Layer 1
 62
7
 10
11.19045517
 20
9.48582603
  0
VERTEX
  8
Layer 1
 62
7
 10
11.20292002
 20
9.51194713
  0
VERTEX
  8
Layer 1
 62
7
 10
11.21711924
 20
9.53727135
  0
VERTEX
  8
Layer 1
 62
7
 10
11.23288877
 20
9.56172838
  0
VERTEX
  8
Layer 1
 62
7
 10
11.26701377
 20
9.60547838
  0
VERTEX
  8
Layer 1
 62
7
 10
11.30488877
 20
9.64172838
  0
VERTEX
  8
Layer 1
 62
7
 10
11.33788877
 20
9.55272838
  0
VERTEX
  8
Layer 1
 62
7
 10
11.36326377
 20
9.49491588
  0
VERTEX
  8
Layer 1
 62
7
 10
11.38413877
 20
9.43972838
  0
VERTEX
  8
Layer 1
 62
7
 10
11.39863877
 20
9.38904088
  0
VERTEX
  8
Layer 1
 62
7
 10
11.40488877
 20
9.34472838
  0
VERTEX
  8
Layer 1
 62
7
 10
11.40204502
 20
9.30196275
  0
VERTEX
  8
Layer 1
 62
7
 10
11.39338877
 20
9.26060338
  0
VERTEX
  8
Layer 1
 62
7
 10
11.37873252
 20
9.22055650
  0
VERTEX
  8
Layer 1
 62
7
 10
11.35788877
 20
9.18172838
  0
SEQEND
  0
POLYLINE
  8
Layer 1
 62
7
 66
1
 70
1
  0
VERTEX
  8
Layer 1
 62
7
 10
11.25666068
 20
8.49972538
  0
VERTEX
  8
Layer 1
 62
7
 10
11.22431160
 20
8.45379415
  0
VERTEX
  8
Layer 1
 62
7
 10
11.19242216
 20
8.41664345
  0
VERTEX
  8
Layer 1
 62
7
 10
11.21086257
 20
8.40126570
  0
VERTEX
  8
Layer 1
 62
7
 10
11.22915346
 20
8.38754139
  0
VERTEX
  8
Layer 1
 62
7
 10
11.24766925
 20
8.37552105
  0
VERTEX
  8
Layer 1
 62
7
 10
11.26678434
 20
8.36525520
  0
VERTEX
  8
Layer 1
 62
7
 10
11.28687313
 20
8.35679438
  0
VERTEX
  8
Layer 1
 62
7
 10
11.30831003
 20
8.35018910
  0
VERTEX
  8
Layer 1
 62
7
 10
11.33146943
 20
8.34548989
  0
VERTEX
  8
Layer 1
 62
7
 10
11.35672574
 20
8.34274728
  0
VERTEX
  8
Layer 1
 62
7
 10
11.37314240
 20
8.34057876
  0
VERTEX
  8
Layer 1
 62
7
 10
11.39303332
 20
8.34113691
  0
VERTEX
  8
Layer 1
 62
7
 10
11.41158997
 20
8.34321395
  0
VERTEX
  8
Layer 1
 62
7
 10
11.42400380
 20
8.34560211
  0
VERTEX
  8
Layer 1
 62
7
 10
11.37999768
 20
8.37783648
  0
VERTEX
  8
Layer 1
 62
7
 10
11.33743846
 20
8.41426849
  0
VERTEX
  8
Layer 1
 62
7
 10
11.29632612
 20
8.45489813
  0
SEQEND
  0
ENDSEC
  0
EOF
