  0
SECTION
  2
ENTITIES
  0
POLYLINE
  8
B-448.PLT
 62
7
 66
1
 70
1
  0
VERTEX
  8
B-448.PLT
 62
7
 10
0.00000000
 20
0.00000000
  0
VERTEX
  8
B-448.PLT
 62
7
 10
24.00000000
 20
0.00000000
  0
VERTEX
  8
B-448.PLT
 62
7
 10
24.00000000
 20
12.00000000
  0
VERTEX
  8
B-448.PLT
 62
7
 10
0.00000000
 20
12.00000000
  0
SEQEND
  0
POLYLINE
  8
B-448.PLT
 62
7
 66
1
 70
1
  0
VERTEX
  8
B-448.PLT
 62
7
 10
23.00000000
 20
1.00000000
  0
VERTEX
  8
B-448.PLT
 62
7
 10
1.00000000
 20
1.00000000
  0
VERTEX
  8
B-448.PLT
 62
7
 10
1.00000000
 20
8.15500000
  0
VERTEX
  8
B-448.PLT
 62
7
 10
0.94947266
 20
8.20403125
  0
VERTEX
  8
B-448.PLT
 62
7
 10
0.90365625
 20
8.25737500
  0
VERTEX
  8
B-448.PLT
 62
7
 10
0.86257422
 20
8.31503125
  0
VERTEX
  8
B-448.PLT
 62
7
 10
0.82625000
 20
8.37700000
  0
VERTEX
  8
B-448.PLT
 62
7
 10
0.79470703
 20
8.44328125
  0
VERTEX
  8
B-448.PLT
 62
7
 10
0.76796875
 20
8.51387500
  0
VERTEX
  8
B-448.PLT
 62
7
 10
0.74605859
 20
8.58878125
  0
VERTEX
  8
B-448.PLT
 62
7
 10
0.72900000
 20
8.66800000
  0
VERTEX
  8
B-448.PLT
 62
7
 10
0.72155664
 20
8.73172656
  0
VERTEX
  8
B-448.PLT
 62
7
 10
0.71782813
 20
8.79587500
  0
VERTEX
  8
B-448.PLT
 62
7
 10
0.71759180
 20
8.86002344
  0
VERTEX
  8
B-448.PLT
 62
7
 10
0.72062500
 20
8.92375000
  0
VERTEX
  8
B-448.PLT
 62
7
 10
0.72670508
 20
8.98663281
  0
VERTEX
  8
B-448.PLT
 62
7
 10
0.73560938
 20
9.04825000
  0
VERTEX
  8
B-448.PLT
 62
7
 10
0.74711523
 20
9.10817969
  0
VERTEX
  8
B-448.PLT
 62
7
 10
0.76100000
 20
9.16600000
  0
VERTEX
  8
B-448.PLT
 62
7
 10
0.77840039
 20
9.23068164
  0
VERTEX
  8
B-448.PLT
 62
7
 10
0.79989062
 20
9.29664063
  0
VERTEX
  8
B-448.PLT
 62
7
 10
0.82552930
 20
9.36412305
  0
VERTEX
  8
B-448.PLT
 62
7
 10
0.85537500
 20
9.43337500
  0
VERTEX
  8
B-448.PLT
 62
7
 10
0.88948633
 20
9.50464258
  0
VERTEX
  8
B-448.PLT
 62
7
 10
0.92792188
 20
9.57817188
  0
VERTEX
  8
B-448.PLT
 62
7
 10
0.97074023
 20
9.65420898
  0
VERTEX
  8
B-448.PLT
 62
7
 10
1.01800000
 20
9.73300000
  0
VERTEX
  8
B-448.PLT
 62
7
 10
1.06867187
 20
9.81151563
  0
VERTEX
  8
B-448.PLT
 62
7
 10
1.12318750
 20
9.88806250
  0
VERTEX
  8
B-448.PLT
 62
7
 10
1.18154688
 20
9.96264063
  0
VERTEX
  8
B-448.PLT
 62
7
 10
1.24375000
 20
10.03525000
  0
VERTEX
  8
B-448.PLT
 62
7
 10
1.30979688
 20
10.10589063
  0
VERTEX
  8
B-448.PLT
 62
7
 10
1.37968750
 20
10.17456250
  0
VERTEX
  8
B-448.PLT
 62
7
 10
1.45342188
 20
10.24126563
  0
VERTEX
  8
B-448.PLT
 62
7
 10
1.53100000
 20
10.30600000
  0
VERTEX
  8
B-448.PLT
 62
7
 10
1.60918750
 20
10.36712500
  0
VERTEX
  8
B-448.PLT
 62
7
 10
1.69075000
 20
10.42600000
  0
VERTEX
  8
B-448.PLT
 62
7
 10
1.77568750
 20
10.48262500
  0
VERTEX
  8
B-448.PLT
 62
7
 10
1.86400000
 20
10.53700000
  0
VERTEX
  8
B-448.PLT
 62
7
 10
1.94856250
 20
10.58476562
  0
VERTEX
  8
B-448.PLT
 62
7
 10
2.03650000
 20
10.62906250
  0
VERTEX
  8
B-448.PLT
 62
7
 10
2.12781250
 20
10.66989063
  0
VERTEX
  8
B-448.PLT
 62
7
 10
2.22250000
 20
10.70725000
  0
VERTEX
  8
B-448.PLT
 62
7
 10
2.32056250
 20
10.74114063
  0
VERTEX
  8
B-448.PLT
 62
7
 10
2.42200000
 20
10.77156250
  0
VERTEX
  8
B-448.PLT
 62
7
 10
2.52681250
 20
10.79851563
  0
VERTEX
  8
B-448.PLT
 62
7
 10
2.63500000
 20
10.82200000
  0
VERTEX
  8
B-448.PLT
 62
7
 10
2.72143750
 20
10.83802930
  0
VERTEX
  8
B-448.PLT
 62
7
 10
2.81200000
 20
10.85235938
  0
VERTEX
  8
B-448.PLT
 62
7
 10
2.90668750
 20
10.86497852
  0
VERTEX
  8
B-448.PLT
 62
7
 10
3.00550000
 20
10.87587500
  0
VERTEX
  8
B-448.PLT
 62
7
 10
3.10843750
 20
10.88503711
  0
VERTEX
  8
B-448.PLT
 62
7
 10
3.21550000
 20
10.89245312
  0
VERTEX
  8
B-448.PLT
 62
7
 10
3.32668750
 20
10.89811133
  0
VERTEX
  8
B-448.PLT
 62
7
 10
3.44200000
 20
10.90200000
  0
VERTEX
  8
B-448.PLT
 62
7
 10
3.44300000
 20
10.90200000
  0
VERTEX
  8
B-448.PLT
 62
7
 10
3.55200000
 20
10.90300000
  0
VERTEX
  8
B-448.PLT
 62
7
 10
3.55300000
 20
10.90300000
  0
VERTEX
  8
B-448.PLT
 62
7
 10
3.65276099
 20
10.90173413
  0
VERTEX
  8
B-448.PLT
 62
7
 10
3.75179102
 20
10.89793555
  0
VERTEX
  8
B-448.PLT
 62
7
 10
3.85008569
 20
10.89160278
  0
VERTEX
  8
B-448.PLT
 62
7
 10
3.94764063
 20
10.88273438
  0
VERTEX
  8
B-448.PLT
 62
7
 10
4.04445142
 20
10.87132886
  0
VERTEX
  8
B-448.PLT
 62
7
 10
4.14051367
 20
10.85738477
  0
VERTEX
  8
B-448.PLT
 62
7
 10
4.23582300
 20
10.84090063
  0
VERTEX
  8
B-448.PLT
 62
7
 10
4.33037500
 20
10.82187500
  0
VERTEX
  8
B-448.PLT
 62
7
 10
4.42416528
 20
10.80030640
  0
VERTEX
  8
B-448.PLT
 62
7
 10
4.51718945
 20
10.77619336
  0
VERTEX
  8
B-448.PLT
 62
7
 10
4.60944312
 20
10.74953442
  0
VERTEX
  8
B-448.PLT
 62
7
 10
4.70092187
 20
10.72032813
  0
VERTEX
  8
B-448.PLT
 62
7
 10
4.79162134
 20
10.68857300
  0
VERTEX
  8
B-448.PLT
 62
7
 10
4.88153711
 20
10.65426758
  0
VERTEX
  8
B-448.PLT
 62
7
 10
4.97066479
 20
10.61741040
  0
VERTEX
  8
B-448.PLT
 62
7
 10
5.05900000
 20
10.57800000
  0
VERTEX
  8
B-448.PLT
 62
7
 10
18.94100000
 20
10.57800000
  0
VERTEX
  8
B-448.PLT
 62
7
 10
19.02933521
 20
10.61741040
  0
VERTEX
  8
B-448.PLT
 62
7
 10
19.11846289
 20
10.65426758
  0
VERTEX
  8
B-448.PLT
 62
7
 10
19.20837866
 20
10.68857300
  0
VERTEX
  8
B-448.PLT
 62
7
 10
19.29907813
 20
10.72032813
  0
VERTEX
  8
B-448.PLT
 62
7
 10
19.39055688
 20
10.74953442
  0
VERTEX
  8
B-448.PLT
 62
7
 10
19.48281055
 20
10.77619336
  0
VERTEX
  8
B-448.PLT
 62
7
 10
19.57583472
 20
10.80030640
  0
VERTEX
  8
B-448.PLT
 62
7
 10
19.66962500
 20
10.82187500
  0
VERTEX
  8
B-448.PLT
 62
7
 10
19.76417700
 20
10.84090063
  0
VERTEX
  8
B-448.PLT
 62
7
 10
19.85948633
 20
10.85738477
  0
VERTEX
  8
B-448.PLT
 62
7
 10
19.95554858
 20
10.87132886
  0
VERTEX
  8
B-448.PLT
 62
7
 10
20.05235938
 20
10.88273438
  0
VERTEX
  8
B-448.PLT
 62
7
 10
20.14991431
 20
10.89160278
  0
VERTEX
  8
B-448.PLT
 62
7
 10
20.24820898
 20
10.89793555
  0
VERTEX
  8
B-448.PLT
 62
7
 10
20.34723901
 20
10.90173413
  0
VERTEX
  8
B-448.PLT
 62
7
 10
20.44700000
 20
10.90300000
  0
VERTEX
  8
B-448.PLT
 62
7
 10
20.44800000
 20
10.90300000
  0
VERTEX
  8
B-448.PLT
 62
7
 10
20.55700000
 20
10.90200000
  0
VERTEX
  8
B-448.PLT
 62
7
 10
20.55800000
 20
10.90200000
  0
VERTEX
  8
B-448.PLT
 62
7
 10
20.67331250
 20
10.89811133
  0
VERTEX
  8
B-448.PLT
 62
7
 10
20.78450000
 20
10.89245312
  0
VERTEX
  8
B-448.PLT
 62
7
 10
20.89156250
 20
10.88503711
  0
VERTEX
  8
B-448.PLT
 62
7
 10
20.99450000
 20
10.87587500
  0
VERTEX
  8
B-448.PLT
 62
7
 10
21.09331250
 20
10.86497852
  0
VERTEX
  8
B-448.PLT
 62
7
 10
21.18800000
 20
10.85235938
  0
VERTEX
  8
B-448.PLT
 62
7
 10
21.27856250
 20
10.83802930
  0
VERTEX
  8
B-448.PLT
 62
7
 10
21.36500000
 20
10.82200000
  0
VERTEX
  8
B-448.PLT
 62
7
 10
21.47318750
 20
10.79851563
  0
VERTEX
  8
B-448.PLT
 62
7
 10
21.57800000
 20
10.77156250
  0
VERTEX
  8
B-448.PLT
 62
7
 10
21.67943750
 20
10.74114063
  0
VERTEX
  8
B-448.PLT
 62
7
 10
21.77750000
 20
10.70725000
  0
VERTEX
  8
B-448.PLT
 62
7
 10
21.87218750
 20
10.66989063
  0
VERTEX
  8
B-448.PLT
 62
7
 10
21.96350000
 20
10.62906250
  0
VERTEX
  8
B-448.PLT
 62
7
 10
22.05143750
 20
10.58476562
  0
VERTEX
  8
B-448.PLT
 62
7
 10
22.13600000
 20
10.53700000
  0
VERTEX
  8
B-448.PLT
 62
7
 10
22.22431250
 20
10.48262500
  0
VERTEX
  8
B-448.PLT
 62
7
 10
22.30925000
 20
10.42600000
  0
VERTEX
  8
B-448.PLT
 62
7
 10
22.39081250
 20
10.36712500
  0
VERTEX
  8
B-448.PLT
 62
7
 10
22.46900000
 20
10.30600000
  0
VERTEX
  8
B-448.PLT
 62
7
 10
22.54657813
 20
10.24126563
  0
VERTEX
  8
B-448.PLT
 62
7
 10
22.62031250
 20
10.17456250
  0
VERTEX
  8
B-448.PLT
 62
7
 10
22.69020313
 20
10.10589063
  0
VERTEX
  8
B-448.PLT
 62
7
 10
22.75625000
 20
10.03525000
  0
VERTEX
  8
B-448.PLT
 62
7
 10
22.81845313
 20
9.96264063
  0
VERTEX
  8
B-448.PLT
 62
7
 10
22.87681250
 20
9.88806250
  0
VERTEX
  8
B-448.PLT
 62
7
 10
22.93132813
 20
9.81151563
  0
VERTEX
  8
B-448.PLT
 62
7
 10
22.98200000
 20
9.73300000
  0
VERTEX
  8
B-448.PLT
 62
7
 10
23.02925977
 20
9.65420898
  0
VERTEX
  8
B-448.PLT
 62
7
 10
23.07207813
 20
9.57817188
  0
VERTEX
  8
B-448.PLT
 62
7
 10
23.11051367
 20
9.50464258
  0
VERTEX
  8
B-448.PLT
 62
7
 10
23.14462500
 20
9.43337500
  0
VERTEX
  8
B-448.PLT
 62
7
 10
23.17447070
 20
9.36412305
  0
VERTEX
  8
B-448.PLT
 62
7
 10
23.20010938
 20
9.29664063
  0
VERTEX
  8
B-448.PLT
 62
7
 10
23.22159961
 20
9.23068164
  0
VERTEX
  8
B-448.PLT
 62
7
 10
23.23900000
 20
9.16600000
  0
VERTEX
  8
B-448.PLT
 62
7
 10
23.25288477
 20
9.10817969
  0
VERTEX
  8
B-448.PLT
 62
7
 10
23.26439063
 20
9.04825000
  0
VERTEX
  8
B-448.PLT
 62
7
 10
23.27329492
 20
8.98663281
  0
VERTEX
  8
B-448.PLT
 62
7
 10
23.27937500
 20
8.92375000
  0
VERTEX
  8
B-448.PLT
 62
7
 10
23.28240820
 20
8.86002344
  0
VERTEX
  8
B-448.PLT
 62
7
 10
23.28217188
 20
8.79587500
  0
VERTEX
  8
B-448.PLT
 62
7
 10
23.27844336
 20
8.73172656
  0
VERTEX
  8
B-448.PLT
 62
7
 10
23.27100000
 20
8.66800000
  0
VERTEX
  8
B-448.PLT
 62
7
 10
23.25394141
 20
8.58878125
  0
VERTEX
  8
B-448.PLT
 62
7
 10
23.23203125
 20
8.51387500
  0
VERTEX
  8
B-448.PLT
 62
7
 10
23.20529297
 20
8.44328125
  0
VERTEX
  8
B-448.PLT
 62
7
 10
23.17375000
 20
8.37700000
  0
VERTEX
  8
B-448.PLT
 62
7
 10
23.13742578
 20
8.31503125
  0
VERTEX
  8
B-448.PLT
 62
7
 10
23.09634375
 20
8.25737500
  0
VERTEX
  8
B-448.PLT
 62
7
 10
23.05052734
 20
8.20403125
  0
VERTEX
  8
B-448.PLT
 62
7
 10
23.00000000
 20
8.15500000
  0
SEQEND
  0
POLYLINE
  8
B-448.PLT
 62
7
 66
1
 70
1
  0
VERTEX
  8
B-448.PLT
 62
7
 10
4.95500000
 20
10.22800000
  0
VERTEX
  8
B-448.PLT
 62
7
 10
19.04500000
 20
10.22800000
  0
VERTEX
  8
B-448.PLT
 62
7
 10
19.13875000
 20
10.27437500
  0
VERTEX
  8
B-448.PLT
 62
7
 10
19.23400000
 20
10.31700000
  0
VERTEX
  8
B-448.PLT
 62
7
 10
19.35115625
 20
10.36465625
  0
VERTEX
  8
B-448.PLT
 62
7
 10
19.47000000
 20
10.40725000
  0
VERTEX
  8
B-448.PLT
 62
7
 10
19.59034375
 20
10.44496875
  0
VERTEX
  8
B-448.PLT
 62
7
 10
19.71200000
 20
10.47800000
  0
VERTEX
  8
B-448.PLT
 62
7
 10
19.84604687
 20
10.50893750
  0
VERTEX
  8
B-448.PLT
 62
7
 10
19.98112500
 20
10.53425000
  0
VERTEX
  8
B-448.PLT
 62
7
 10
20.11714063
 20
10.55393750
  0
VERTEX
  8
B-448.PLT
 62
7
 10
20.25400000
 20
10.56800000
  0
VERTEX
  8
B-448.PLT
 62
7
 10
20.35678711
 20
10.57498828
  0
VERTEX
  8
B-448.PLT
 62
7
 10
20.45960937
 20
10.57871875
  0
VERTEX
  8
B-448.PLT
 62
7
 10
20.56240820
 20
10.57921484
  0
VERTEX
  8
B-448.PLT
 62
7
 10
20.66512500
 20
10.57650000
  0
VERTEX
  8
B-448.PLT
 62
7
 10
20.76770117
 20
10.57059766
  0
VERTEX
  8
B-448.PLT
 62
7
 10
20.87007812
 20
10.56153125
  0
VERTEX
  8
B-448.PLT
 62
7
 10
20.97219727
 20
10.54932422
  0
VERTEX
  8
B-448.PLT
 62
7
 10
21.07400000
 20
10.53400000
  0
VERTEX
  8
B-448.PLT
 62
7
 10
21.22087500
 20
10.50825000
  0
VERTEX
  8
B-448.PLT
 62
7
 10
21.36700000
 20
10.47800000
  0
VERTEX
  8
B-448.PLT
 62
7
 10
21.45110742
 20
10.45816211
  0
VERTEX
  8
B-448.PLT
 62
7
 10
21.53454688
 20
10.43592188
  0
VERTEX
  8
B-448.PLT
 62
7
 10
21.61711914
 20
10.41093945
  0
VERTEX
  8
B-448.PLT
 62
7
 10
21.69862500
 20
10.38287500
  0
VERTEX
  8
B-448.PLT
 62
7
 10
21.77886523
 20
10.35138867
  0
VERTEX
  8
B-448.PLT
 62
7
 10
21.85764062
 20
10.31614062
  0
VERTEX
  8
B-448.PLT
 62
7
 10
21.93475195
 20
10.27679102
  0
VERTEX
  8
B-448.PLT
 62
7
 10
22.01000000
 20
10.23300000
  0
VERTEX
  8
B-448.PLT
 62
7
 10
22.01800000
 20
10.22800000
  0
VERTEX
  8
B-448.PLT
 62
7
 10
22.11114258
 20
10.16653320
  0
VERTEX
  8
B-448.PLT
 62
7
 10
22.20120312
 20
10.10057813
  0
VERTEX
  8
B-448.PLT
 62
7
 10
22.28763086
 20
10.03005273
  0
VERTEX
  8
B-448.PLT
 62
7
 10
22.36987500
 20
9.95487500
  0
VERTEX
  8
B-448.PLT
 62
7
 10
22.44738477
 20
9.87496289
  0
VERTEX
  8
B-448.PLT
 62
7
 10
22.51960938
 20
9.79023438
  0
VERTEX
  8
B-448.PLT
 62
7
 10
22.58599805
 20
9.70060742
  0
VERTEX
  8
B-448.PLT
 62
7
 10
22.64600000
 20
9.60600000
  0
VERTEX
  8
B-448.PLT
 62
7
 10
22.72700000
 20
9.46400000
  0
VERTEX
  8
B-448.PLT
 62
7
 10
22.77123437
 20
9.45759375
  0
VERTEX
  8
B-448.PLT
 62
7
 10
22.81387500
 20
9.44575000
  0
VERTEX
  8
B-448.PLT
 62
7
 10
22.85482813
 20
9.42828125
  0
VERTEX
  8
B-448.PLT
 62
7
 10
22.89400000
 20
9.40500000
  0
VERTEX
  8
B-448.PLT
 62
7
 10
22.93800000
 20
9.37500000
  0
VERTEX
  8
B-448.PLT
 62
7
 10
22.91900000
 20
9.31900000
  0
VERTEX
  8
B-448.PLT
 62
7
 10
22.95307227
 20
9.30427734
  0
VERTEX
  8
B-448.PLT
 62
7
 10
22.98551563
 20
9.28709375
  0
VERTEX
  8
B-448.PLT
 62
7
 10
23.01629492
 20
9.26742578
  0
VERTEX
  8
B-448.PLT
 62
7
 10
23.04537500
 20
9.24525000
  0
VERTEX
  8
B-448.PLT
 62
7
 10
23.07272070
 20
9.22054297
  0
VERTEX
  8
B-448.PLT
 62
7
 10
23.09829687
 20
9.19328125
  0
VERTEX
  8
B-448.PLT
 62
7
 10
23.12206836
 20
9.16344141
  0
VERTEX
  8
B-448.PLT
 62
7
 10
23.14400000
 20
9.13100000
  0
VERTEX
  8
B-448.PLT
 62
7
 10
23.12452734
 20
9.20413867
  0
VERTEX
  8
B-448.PLT
 62
7
 10
23.10090625
 20
9.27585937
  0
VERTEX
  8
B-448.PLT
 62
7
 10
23.07358203
 20
9.34624414
  0
VERTEX
  8
B-448.PLT
 62
7
 10
23.04300000
 20
9.41537500
  0
VERTEX
  8
B-448.PLT
 62
7
 10
23.00960547
 20
9.48333398
  0
VERTEX
  8
B-448.PLT
 62
7
 10
22.97384375
 20
9.55020312
  0
VERTEX
  8
B-448.PLT
 62
7
 10
22.93616016
 20
9.61606445
  0
VERTEX
  8
B-448.PLT
 62
7
 10
22.89700000
 20
9.68100000
  0
VERTEX
  8
B-448.PLT
 62
7
 10
22.84645508
 20
9.75876758
  0
VERTEX
  8
B-448.PLT
 62
7
 10
22.79245313
 20
9.83382813
  0
VERTEX
  8
B-448.PLT
 62
7
 10
22.73519336
 20
9.90619336
  0
VERTEX
  8
B-448.PLT
 62
7
 10
22.67487500
 20
9.97587500
  0
VERTEX
  8
B-448.PLT
 62
7
 10
22.61169727
 20
10.04288477
  0
VERTEX
  8
B-448.PLT
 62
7
 10
22.54585937
 20
10.10723438
  0
VERTEX
  8
B-448.PLT
 62
7
 10
22.47756055
 20
10.16893555
  0
VERTEX
  8
B-448.PLT
 62
7
 10
22.40700000
 20
10.22800000
  0
VERTEX
  8
B-448.PLT
 62
7
 10
22.32940625
 20
10.28801563
  0
VERTEX
  8
B-448.PLT
 62
7
 10
22.24975000
 20
10.34512500
  0
VERTEX
  8
B-448.PLT
 62
7
 10
22.16821875
 20
10.39942188
  0
VERTEX
  8
B-448.PLT
 62
7
 10
22.08500000
 20
10.45100000
  0
VERTEX
  8
B-448.PLT
 62
7
 10
21.99764771
 20
10.49994189
  0
VERTEX
  8
B-448.PLT
 62
7
 10
21.90855664
 20
10.54417578
  0
VERTEX
  8
B-448.PLT
 62
7
 10
21.81786304
 20
10.58393896
  0
VERTEX
  8
B-448.PLT
 62
7
 10
21.72570312
 20
10.61946875
  0
VERTEX
  8
B-448.PLT
 62
7
 10
21.63221313
 20
10.65100244
  0
VERTEX
  8
B-448.PLT
 62
7
 10
21.53752930
 20
10.67877734
  0
VERTEX
  8
B-448.PLT
 62
7
 10
21.44178784
 20
10.70303076
  0
VERTEX
  8
B-448.PLT
 62
7
 10
21.34512500
 20
10.72400000
  0
VERTEX
  8
B-448.PLT
 62
7
 10
21.24767700
 20
10.74192236
  0
VERTEX
  8
B-448.PLT
 62
7
 10
21.14958008
 20
10.75703516
  0
VERTEX
  8
B-448.PLT
 62
7
 10
21.05097046
 20
10.76957568
  0
VERTEX
  8
B-448.PLT
 62
7
 10
20.95198437
 20
10.77978125
  0
VERTEX
  8
B-448.PLT
 62
7
 10
20.85275806
 20
10.78788916
  0
VERTEX
  8
B-448.PLT
 62
7
 10
20.75342773
 20
10.79413672
  0
VERTEX
  8
B-448.PLT
 62
7
 10
20.65412964
 20
10.79876123
  0
VERTEX
  8
B-448.PLT
 62
7
 10
20.55500000
 20
10.80200000
  0
VERTEX
  8
B-448.PLT
 62
7
 10
20.45093335
 20
10.80346997
  0
VERTEX
  8
B-448.PLT
 62
7
 10
20.34759180
 20
10.80222852
  0
VERTEX
  8
B-448.PLT
 62
7
 10
20.24495044
 20
10.79823608
  0
VERTEX
  8
B-448.PLT
 62
7
 10
20.14298438
 20
10.79145313
  0
VERTEX
  8
B-448.PLT
 62
7
 10
20.04166870
 20
10.78184009
  0
VERTEX
  8
B-448.PLT
 62
7
 10
19.94097852
 20
10.76935742
  0
VERTEX
  8
B-448.PLT
 62
7
 10
19.84088892
 20
10.75396558
  0
VERTEX
  8
B-448.PLT
 62
7
 10
19.74137500
 20
10.73562500
  0
VERTEX
  8
B-448.PLT
 62
7
 10
19.64241187
 20
10.71429614
  0
VERTEX
  8
B-448.PLT
 62
7
 10
19.54397461
 20
10.68993945
  0
VERTEX
  8
B-448.PLT
 62
7
 10
19.44603833
 20
10.66251538
  0
VERTEX
  8
B-448.PLT
 62
7
 10
19.34857813
 20
10.63198438
  0
VERTEX
  8
B-448.PLT
 62
7
 10
19.25156909
 20
10.59830688
  0
VERTEX
  8
B-448.PLT
 62
7
 10
19.15498633
 20
10.56144336
  0
VERTEX
  8
B-448.PLT
 62
7
 10
19.05880493
 20
10.52135425
  0
VERTEX
  8
B-448.PLT
 62
7
 10
18.96300000
 20
10.47800000
  0
VERTEX
  8
B-448.PLT
 62
7
 10
5.03700000
 20
10.47800000
  0
VERTEX
  8
B-448.PLT
 62
7
 10
4.94119507
 20
10.52135425
  0
VERTEX
  8
B-448.PLT
 62
7
 10
4.84501367
 20
10.56144336
  0
VERTEX
  8
B-448.PLT
 62
7
 10
4.74843091
 20
10.59830688
  0
VERTEX
  8
B-448.PLT
 62
7
 10
4.65142187
 20
10.63198438
  0
VERTEX
  8
B-448.PLT
 62
7
 10
4.55396167
 20
10.66251538
  0
VERTEX
  8
B-448.PLT
 62
7
 10
4.45602539
 20
10.68993945
  0
VERTEX
  8
B-448.PLT
 62
7
 10
4.35758813
 20
10.71429614
  0
VERTEX
  8
B-448.PLT
 62
7
 10
4.25862500
 20
10.73562500
  0
VERTEX
  8
B-448.PLT
 62
7
 10
4.15911108
 20
10.75396558
  0
VERTEX
  8
B-448.PLT
 62
7
 10
4.05902148
 20
10.76935742
  0
VERTEX
  8
B-448.PLT
 62
7
 10
3.95833130
 20
10.78184009
  0
VERTEX
  8
B-448.PLT
 62
7
 10
3.85701562
 20
10.79145313
  0
VERTEX
  8
B-448.PLT
 62
7
 10
3.75504956
 20
10.79823608
  0
VERTEX
  8
B-448.PLT
 62
7
 10
3.65240820
 20
10.80222852
  0
VERTEX
  8
B-448.PLT
 62
7
 10
3.54906665
 20
10.80346997
  0
VERTEX
  8
B-448.PLT
 62
7
 10
3.44500000
 20
10.80200000
  0
VERTEX
  8
B-448.PLT
 62
7
 10
3.34587036
 20
10.79876123
  0
VERTEX
  8
B-448.PLT
 62
7
 10
3.24657227
 20
10.79413672
  0
VERTEX
  8
B-448.PLT
 62
7
 10
3.14724194
 20
10.78788916
  0
VERTEX
  8
B-448.PLT
 62
7
 10
3.04801563
 20
10.77978125
  0
VERTEX
  8
B-448.PLT
 62
7
 10
2.94902954
 20
10.76957568
  0
VERTEX
  8
B-448.PLT
 62
7
 10
2.85041992
 20
10.75703516
  0
VERTEX
  8
B-448.PLT
 62
7
 10
2.75232300
 20
10.74192236
  0
VERTEX
  8
B-448.PLT
 62
7
 10
2.65487500
 20
10.72400000
  0
VERTEX
  8
B-448.PLT
 62
7
 10
2.55821216
 20
10.70303076
  0
VERTEX
  8
B-448.PLT
 62
7
 10
2.46247070
 20
10.67877734
  0
VERTEX
  8
B-448.PLT
 62
7
 10
2.36778687
 20
10.65100244
  0
VERTEX
  8
B-448.PLT
 62
7
 10
2.27429688
 20
10.61946875
  0
VERTEX
  8
B-448.PLT
 62
7
 10
2.18213696
 20
10.58393896
  0
VERTEX
  8
B-448.PLT
 62
7
 10
2.09144336
 20
10.54417578
  0
VERTEX
  8
B-448.PLT
 62
7
 10
2.00235229
 20
10.49994189
  0
VERTEX
  8
B-448.PLT
 62
7
 10
1.91500000
 20
10.45100000
  0
VERTEX
  8
B-448.PLT
 62
7
 10
1.83178125
 20
10.39942188
  0
VERTEX
  8
B-448.PLT
 62
7
 10
1.75025000
 20
10.34512500
  0
VERTEX
  8
B-448.PLT
 62
7
 10
1.67059375
 20
10.28801563
  0
VERTEX
  8
B-448.PLT
 62
7
 10
1.59300000
 20
10.22800000
  0
VERTEX
  8
B-448.PLT
 62
7
 10
1.52243945
 20
10.16893555
  0
VERTEX
  8
B-448.PLT
 62
7
 10
1.45414063
 20
10.10723438
  0
VERTEX
  8
B-448.PLT
 62
7
 10
1.38830273
 20
10.04288477
  0
VERTEX
  8
B-448.PLT
 62
7
 10
1.32512500
 20
9.97587500
  0
VERTEX
  8
B-448.PLT
 62
7
 10
1.26480664
 20
9.90619336
  0
VERTEX
  8
B-448.PLT
 62
7
 10
1.20754688
 20
9.83382813
  0
VERTEX
  8
B-448.PLT
 62
7
 10
1.15354492
 20
9.75876758
  0
VERTEX
  8
B-448.PLT
 62
7
 10
1.10300000
 20
9.68100000
  0
VERTEX
  8
B-448.PLT
 62
7
 10
1.06383984
 20
9.61606445
  0
VERTEX
  8
B-448.PLT
 62
7
 10
1.02615625
 20
9.55020312
  0
VERTEX
  8
B-448.PLT
 62
7
 10
0.99039453
 20
9.48333398
  0
VERTEX
  8
B-448.PLT
 62
7
 10
0.95700000
 20
9.41537500
  0
VERTEX
  8
B-448.PLT
 62
7
 10
0.92641797
 20
9.34624414
  0
VERTEX
  8
B-448.PLT
 62
7
 10
0.89909375
 20
9.27585937
  0
VERTEX
  8
B-448.PLT
 62
7
 10
0.87547266
 20
9.20413867
  0
VERTEX
  8
B-448.PLT
 62
7
 10
0.85600000
 20
9.13100000
  0
VERTEX
  8
B-448.PLT
 62
7
 10
0.87793164
 20
9.16344141
  0
VERTEX
  8
B-448.PLT
 62
7
 10
0.90170313
 20
9.19328125
  0
VERTEX
  8
B-448.PLT
 62
7
 10
0.92727930
 20
9.22054297
  0
VERTEX
  8
B-448.PLT
 62
7
 10
0.95462500
 20
9.24525000
  0
VERTEX
  8
B-448.PLT
 62
7
 10
0.98370508
 20
9.26742578
  0
VERTEX
  8
B-448.PLT
 62
7
 10
1.01448438
 20
9.28709375
  0
VERTEX
  8
B-448.PLT
 62
7
 10
1.04692773
 20
9.30427734
  0
VERTEX
  8
B-448.PLT
 62
7
 10
1.08100000
 20
9.31900000
  0
VERTEX
  8
B-448.PLT
 62
7
 10
1.06200000
 20
9.37500000
  0
VERTEX
  8
B-448.PLT
 62
7
 10
1.10600000
 20
9.40500000
  0
VERTEX
  8
B-448.PLT
 62
7
 10
1.14517188
 20
9.42828125
  0
VERTEX
  8
B-448.PLT
 62
7
 10
1.18612500
 20
9.44575000
  0
VERTEX
  8
B-448.PLT
 62
7
 10
1.22876563
 20
9.45759375
  0
VERTEX
  8
B-448.PLT
 62
7
 10
1.27300000
 20
9.46400000
  0
VERTEX
  8
B-448.PLT
 62
7
 10
1.35400000
 20
9.60600000
  0
VERTEX
  8
B-448.PLT
 62
7
 10
1.41428906
 20
9.70060742
  0
VERTEX
  8
B-448.PLT
 62
7
 10
1.48081250
 20
9.79023438
  0
VERTEX
  8
B-448.PLT
 62
7
 10
1.55305469
 20
9.87496289
  0
VERTEX
  8
B-448.PLT
 62
7
 10
1.63050000
 20
9.95487500
  0
VERTEX
  8
B-448.PLT
 62
7
 10
1.71263281
 20
10.03005273
  0
VERTEX
  8
B-448.PLT
 62
7
 10
1.79893750
 20
10.10057813
  0
VERTEX
  8
B-448.PLT
 62
7
 10
1.88889844
 20
10.16653320
  0
VERTEX
  8
B-448.PLT
 62
7
 10
1.98200000
 20
10.22800000
  0
VERTEX
  8
B-448.PLT
 62
7
 10
1.99000000
 20
10.23300000
  0
VERTEX
  8
B-448.PLT
 62
7
 10
2.06524805
 20
10.27679102
  0
VERTEX
  8
B-448.PLT
 62
7
 10
2.14235937
 20
10.31614062
  0
VERTEX
  8
B-448.PLT
 62
7
 10
2.22113477
 20
10.35138867
  0
VERTEX
  8
B-448.PLT
 62
7
 10
2.30137500
 20
10.38287500
  0
VERTEX
  8
B-448.PLT
 62
7
 10
2.38288086
 20
10.41093945
  0
VERTEX
  8
B-448.PLT
 62
7
 10
2.46545312
 20
10.43592188
  0
VERTEX
  8
B-448.PLT
 62
7
 10
2.54889258
 20
10.45816211
  0
VERTEX
  8
B-448.PLT
 62
7
 10
2.63300000
 20
10.47800000
  0
VERTEX
  8
B-448.PLT
 62
7
 10
2.77912500
 20
10.50825000
  0
VERTEX
  8
B-448.PLT
 62
7
 10
2.92600000
 20
10.53400000
  0
VERTEX
  8
B-448.PLT
 62
7
 10
3.02780273
 20
10.54932422
  0
VERTEX
  8
B-448.PLT
 62
7
 10
3.12992188
 20
10.56153125
  0
VERTEX
  8
B-448.PLT
 62
7
 10
3.23229883
 20
10.57059766
  0
VERTEX
  8
B-448.PLT
 62
7
 10
3.33487500
 20
10.57650000
  0
VERTEX
  8
B-448.PLT
 62
7
 10
3.43759180
 20
10.57921484
  0
VERTEX
  8
B-448.PLT
 62
7
 10
3.54039063
 20
10.57871875
  0
VERTEX
  8
B-448.PLT
 62
7
 10
3.64321289
 20
10.57498828
  0
VERTEX
  8
B-448.PLT
 62
7
 10
3.74600000
 20
10.56800000
  0
VERTEX
  8
B-448.PLT
 62
7
 10
3.88285937
 20
10.55393750
  0
VERTEX
  8
B-448.PLT
 62
7
 10
4.01887500
 20
10.53425000
  0
VERTEX
  8
B-448.PLT
 62
7
 10
4.15395313
 20
10.50893750
  0
VERTEX
  8
B-448.PLT
 62
7
 10
4.28800000
 20
10.47800000
  0
VERTEX
  8
B-448.PLT
 62
7
 10
4.40965625
 20
10.44496875
  0
VERTEX
  8
B-448.PLT
 62
7
 10
4.53000000
 20
10.40725000
  0
VERTEX
  8
B-448.PLT
 62
7
 10
4.64884375
 20
10.36465625
  0
VERTEX
  8
B-448.PLT
 62
7
 10
4.76600000
 20
10.31700000
  0
VERTEX
  8
B-448.PLT
 62
7
 10
4.86125000
 20
10.27437500
  0
SEQEND
  0
POLYLINE
  8
B-448.PLT
 62
7
 66
1
 70
1
  0
VERTEX
  8
B-448.PLT
 62
7
 10
1.10000000
 20
1.10000000
  0
VERTEX
  8
B-448.PLT
 62
7
 10
22.90000000
 20
1.10000000
  0
VERTEX
  8
B-448.PLT
 62
7
 10
22.90000000
 20
8.08000000
  0
VERTEX
  8
B-448.PLT
 62
7
 10
22.83689062
 20
8.04321875
  0
VERTEX
  8
B-448.PLT
 62
7
 10
22.77312500
 20
8.01150000
  0
VERTEX
  8
B-448.PLT
 62
7
 10
22.71029688
 20
7.98578125
  0
VERTEX
  8
B-448.PLT
 62
7
 10
22.65000000
 20
7.96700000
  0
VERTEX
  8
B-448.PLT
 62
7
 10
22.65000000
 20
1.35000000
  0
VERTEX
  8
B-448.PLT
 62
7
 10
1.35000000
 20
1.35000000
  0
VERTEX
  8
B-448.PLT
 62
7
 10
1.35000000
 20
7.96700000
  0
VERTEX
  8
B-448.PLT
 62
7
 10
1.28970313
 20
7.98578125
  0
VERTEX
  8
B-448.PLT
 62
7
 10
1.22687500
 20
8.01150000
  0
VERTEX
  8
B-448.PLT
 62
7
 10
1.16310937
 20
8.04321875
  0
VERTEX
  8
B-448.PLT
 62
7
 10
1.10000000
 20
8.08000000
  0
SEQEND
  0
POLYLINE
  8
B-448.PLT
 62
7
 66
1
 70
1
  0
VERTEX
  8
B-448.PLT
 62
7
 10
22.55000000
 20
1.45000000
  0
VERTEX
  8
B-448.PLT
 62
7
 10
22.55000000
 20
7.95000000
  0
VERTEX
  8
B-448.PLT
 62
7
 10
22.45200000
 20
7.95100000
  0
VERTEX
  8
B-448.PLT
 62
7
 10
22.39669141
 20
7.95835937
  0
VERTEX
  8
B-448.PLT
 62
7
 10
22.34553125
 20
7.96843750
  0
VERTEX
  8
B-448.PLT
 62
7
 10
22.29854297
 20
7.98123437
  0
VERTEX
  8
B-448.PLT
 62
7
 10
22.25575000
 20
7.99675000
  0
VERTEX
  8
B-448.PLT
 62
7
 10
22.21717578
 20
8.01498437
  0
VERTEX
  8
B-448.PLT
 62
7
 10
22.18284375
 20
8.03593750
  0
VERTEX
  8
B-448.PLT
 62
7
 10
22.15277734
 20
8.05960938
  0
VERTEX
  8
B-448.PLT
 62
7
 10
22.12700000
 20
8.08600000
  0
VERTEX
  8
B-448.PLT
 62
7
 10
22.10375391
 20
8.11558008
  0
VERTEX
  8
B-448.PLT
 62
7
 10
22.08353125
 20
8.14582812
  0
VERTEX
  8
B-448.PLT
 62
7
 10
22.06635547
 20
8.17675586
  0
VERTEX
  8
B-448.PLT
 62
7
 10
22.05225000
 20
8.20837500
  0
VERTEX
  8
B-448.PLT
 62
7
 10
22.04123828
 20
8.24069727
  0
VERTEX
  8
B-448.PLT
 62
7
 10
22.03334375
 20
8.27373438
  0
VERTEX
  8
B-448.PLT
 62
7
 10
22.02858984
 20
8.30749805
  0
VERTEX
  8
B-448.PLT
 62
7
 10
22.02700000
 20
8.34200000
  0
VERTEX
  8
B-448.PLT
 62
7
 10
22.02925000
 20
8.38059375
  0
VERTEX
  8
B-448.PLT
 62
7
 10
22.03600000
 20
8.41825000
  0
VERTEX
  8
B-448.PLT
 62
7
 10
22.04725000
 20
8.45478125
  0
VERTEX
  8
B-448.PLT
 62
7
 10
22.06300000
 20
8.49000000
  0
VERTEX
  8
B-448.PLT
 62
7
 10
22.08665625
 20
8.52934375
  0
VERTEX
  8
B-448.PLT
 62
7
 10
22.11425000
 20
8.56475000
  0
VERTEX
  8
B-448.PLT
 62
7
 10
22.14596875
 20
8.59603125
  0
VERTEX
  8
B-448.PLT
 62
7
 10
22.18200000
 20
8.62300000
  0
VERTEX
  8
B-448.PLT
 62
7
 10
22.22342188
 20
8.64662500
  0
VERTEX
  8
B-448.PLT
 62
7
 10
22.26662500
 20
8.66350000
  0
VERTEX
  8
B-448.PLT
 62
7
 10
22.31151562
 20
8.67362500
  0
VERTEX
  8
B-448.PLT
 62
7
 10
22.35800000
 20
8.67700000
  0
VERTEX
  8
B-448.PLT
 62
7
 10
22.35900000
 20
8.67700000
  0
VERTEX
  8
B-448.PLT
 62
7
 10
22.37400000
 20
8.67700000
  0
VERTEX
  8
B-448.PLT
 62
7
 10
22.37600000
 20
8.67700000
  0
VERTEX
  8
B-448.PLT
 62
7
 10
22.38400000
 20
8.67600000
  0
VERTEX
  8
B-448.PLT
 62
7
 10
22.38100000
 20
8.68300000
  0
VERTEX
  8
B-448.PLT
 62
7
 10
22.35500000
 20
8.74300000
  0
VERTEX
  8
B-448.PLT
 62
7
 10
22.33312500
 20
8.79050000
  0
VERTEX
  8
B-448.PLT
 62
7
 10
22.31500000
 20
8.81700000
  0
VERTEX
  8
B-448.PLT
 62
7
 10
22.29701563
 20
8.83368750
  0
VERTEX
  8
B-448.PLT
 62
7
 10
22.27762500
 20
8.84775000
  0
VERTEX
  8
B-448.PLT
 62
7
 10
22.25692188
 20
8.85918750
  0
VERTEX
  8
B-448.PLT
 62
7
 10
22.23500000
 20
8.86800000
  0
VERTEX
  8
B-448.PLT
 62
7
 10
22.21575000
 20
8.86350000
  0
VERTEX
  8
B-448.PLT
 62
7
 10
22.19800000
 20
8.85600000
  0
VERTEX
  8
B-448.PLT
 62
7
 10
22.18875000
 20
8.84612500
  0
VERTEX
  8
B-448.PLT
 62
7
 10
22.17200000
 20
8.82200000
  0
VERTEX
  8
B-448.PLT
 62
7
 10
22.13937500
 20
8.77550000
  0
VERTEX
  8
B-448.PLT
 62
7
 10
22.10900000
 20
8.74400000
  0
VERTEX
  8
B-448.PLT
 62
7
 10
22.07811133
 20
8.71929883
  0
VERTEX
  8
B-448.PLT
 62
7
 10
22.04695313
 20
8.69695313
  0
VERTEX
  8
B-448.PLT
 62
7
 10
22.01553711
 20
8.67697461
  0
VERTEX
  8
B-448.PLT
 62
7
 10
21.98387500
 20
8.65937500
  0
VERTEX
  8
B-448.PLT
 62
7
 10
21.95197852
 20
8.64416602
  0
VERTEX
  8
B-448.PLT
 62
7
 10
21.91985938
 20
8.63135938
  0
VERTEX
  8
B-448.PLT
 62
7
 10
21.88752930
 20
8.62096680
  0
VERTEX
  8
B-448.PLT
 62
7
 10
21.85500000
 20
8.61300000
  0
VERTEX
  8
B-448.PLT
 62
7
 10
21.80100000
 20
8.60487500
  0
VERTEX
  8
B-448.PLT
 62
7
 10
21.74700000
 20
8.60200000
  0
VERTEX
  8
B-448.PLT
 62
7
 10
21.69225000
 20
8.60487500
  0
VERTEX
  8
B-448.PLT
 62
7
 10
21.63900000
 20
8.61300000
  0
VERTEX
  8
B-448.PLT
 62
7
 10
21.55400000
 20
8.63100000
  0
VERTEX
  8
B-448.PLT
 62
7
 10
21.56200000
 20
8.75900000
  0
VERTEX
  8
B-448.PLT
 62
7
 10
21.49748437
 20
8.77626563
  0
VERTEX
  8
B-448.PLT
 62
7
 10
21.43887500
 20
8.79962500
  0
VERTEX
  8
B-448.PLT
 62
7
 10
21.38607813
 20
8.82917188
  0
VERTEX
  8
B-448.PLT
 62
7
 10
21.33900000
 20
8.86500000
  0
VERTEX
  8
B-448.PLT
 62
7
 10
21.31223437
 20
8.89040430
  0
VERTEX
  8
B-448.PLT
 62
7
 10
21.28818750
 20
8.91635938
  0
VERTEX
  8
B-448.PLT
 62
7
 10
21.26685937
 20
8.94285352
  0
VERTEX
  8
B-448.PLT
 62
7
 10
21.24825000
 20
8.96987500
  0
VERTEX
  8
B-448.PLT
 62
7
 10
21.23235938
 20
8.99741211
  0
VERTEX
  8
B-448.PLT
 62
7
 10
21.21918750
 20
9.02545313
  0
VERTEX
  8
B-448.PLT
 62
7
 10
21.20873437
 20
9.05398633
  0
VERTEX
  8
B-448.PLT
 62
7
 10
21.20100000
 20
9.08300000
  0
VERTEX
  8
B-448.PLT
 62
7
 10
21.17900000
 20
9.18600000
  0
VERTEX
  8
B-448.PLT
 62
7
 10
21.12900000
 20
9.17800000
  0
VERTEX
  8
B-448.PLT
 62
7
 10
21.09912500
 20
9.17437500
  0
VERTEX
  8
B-448.PLT
 62
7
 10
21.08500000
 20
9.17000000
  0
VERTEX
  8
B-448.PLT
 62
7
 10
20.95300000
 20
9.08200000
  0
VERTEX
  8
B-448.PLT
 62
7
 10
20.93200000
 20
9.23000000
  0
VERTEX
  8
B-448.PLT
 62
7
 10
20.92225000
 20
9.23750000
  0
VERTEX
  8
B-448.PLT
 62
7
 10
20.90800000
 20
9.24500000
  0
VERTEX
  8
B-448.PLT
 62
7
 10
20.89400000
 20
9.24900000
  0
VERTEX
  8
B-448.PLT
 62
7
 10
20.88000000
 20
9.25000000
  0
VERTEX
  8
B-448.PLT
 62
7
 10
20.87500000
 20
9.25000000
  0
VERTEX
  8
B-448.PLT
 62
7
 10
20.74500000
 20
9.16700000
  0
VERTEX
  8
B-448.PLT
 62
7
 10
20.73400000
 20
9.25900000
  0
VERTEX
  8
B-448.PLT
 62
7
 10
20.68923242
 20
9.23472070
  0
VERTEX
  8
B-448.PLT
 62
7
 10
20.64342188
 20
9.21364063
  0
VERTEX
  8
B-448.PLT
 62
7
 10
20.59655664
 20
9.19577148
  0
VERTEX
  8
B-448.PLT
 62
7
 10
20.54862500
 20
9.18112500
  0
VERTEX
  8
B-448.PLT
 62
7
 10
20.49961523
 20
9.16971289
  0
VERTEX
  8
B-448.PLT
 62
7
 10
20.44951563
 20
9.16154688
  0
VERTEX
  8
B-448.PLT
 62
7
 10
20.39831445
 20
9.15663867
  0
VERTEX
  8
B-448.PLT
 62
7
 10
20.34600000
 20
9.15500000
  0
VERTEX
  8
B-448.PLT
 62
7
 10
20.30906250
 20
9.15706250
  0
VERTEX
  8
B-448.PLT
 62
7
 10
20.26575000
 20
9.16325000
  0
VERTEX
  8
B-448.PLT
 62
7
 10
20.21606250
 20
9.17356250
  0
VERTEX
  8
B-448.PLT
 62
7
 10
20.16000000
 20
9.18800000
  0
VERTEX
  8
B-448.PLT
 62
7
 10
20.10800000
 20
9.20100000
  0
VERTEX
  8
B-448.PLT
 62
7
 10
19.97600000
 20
9.15800000
  0
VERTEX
  8
B-448.PLT
 62
7
 10
19.93300000
 20
9.20100000
  0
VERTEX
  8
B-448.PLT
 62
7
 10
19.89550000
 20
9.24150000
  0
VERTEX
  8
B-448.PLT
 62
7
 10
19.86400000
 20
9.28500000
  0
VERTEX
  8
B-448.PLT
 62
7
 10
19.83457813
 20
9.22876562
  0
VERTEX
  8
B-448.PLT
 62
7
 10
19.80037500
 20
9.17712500
  0
VERTEX
  8
B-448.PLT
 62
7
 10
19.76148437
 20
9.13017188
  0
VERTEX
  8
B-448.PLT
 62
7
 10
19.71800000
 20
9.08800000
  0
VERTEX
  8
B-448.PLT
 62
7
 10
19.68509180
 20
9.06118750
  0
VERTEX
  8
B-448.PLT
 62
7
 10
19.65085938
 20
9.03700000
  0
VERTEX
  8
B-448.PLT
 62
7
 10
19.61529102
 20
9.01543750
  0
VERTEX
  8
B-448.PLT
 62
7
 10
19.57837500
 20
8.99650000
  0
VERTEX
  8
B-448.PLT
 62
7
 10
19.54009961
 20
8.98018750
  0
VERTEX
  8
B-448.PLT
 62
7
 10
19.50045313
 20
8.96650000
  0
VERTEX
  8
B-448.PLT
 62
7
 10
19.45942383
 20
8.95543750
  0
VERTEX
  8
B-448.PLT
 62
7
 10
19.41700000
 20
8.94700000
  0
VERTEX
  8
B-448.PLT
 62
7
 10
19.30100000
 20
8.92900000
  0
VERTEX
  8
B-448.PLT
 62
7
 10
19.30100000
 20
9.03900000
  0
VERTEX
  8
B-448.PLT
 62
7
 10
19.23742187
 20
9.04854687
  0
VERTEX
  8
B-448.PLT
 62
7
 10
19.17562500
 20
9.06512500
  0
VERTEX
  8
B-448.PLT
 62
7
 10
19.11551563
 20
9.08864063
  0
VERTEX
  8
B-448.PLT
 62
7
 10
19.05700000
 20
9.11900000
  0
VERTEX
  8
B-448.PLT
 62
7
 10
19.02004687
 20
9.14484375
  0
VERTEX
  8
B-448.PLT
 62
7
 10
18.98112500
 20
9.18025000
  0
VERTEX
  8
B-448.PLT
 62
7
 10
18.94014063
 20
9.22503125
  0
VERTEX
  8
B-448.PLT
 62
7
 10
18.89700000
 20
9.27900000
  0
VERTEX
  8
B-448.PLT
 62
7
 10
18.85800000
 20
9.32800000
  0
VERTEX
  8
B-448.PLT
 62
7
 10
5.14200000
 20
9.32800000
  0
VERTEX
  8
B-448.PLT
 62
7
 10
5.10300000
 20
9.27900000
  0
VERTEX
  8
B-448.PLT
 62
7
 10
5.05985938
 20
9.22503125
  0
VERTEX
  8
B-448.PLT
 62
7
 10
5.01887500
 20
9.18025000
  0
VERTEX
  8
B-448.PLT
 62
7
 10
4.97995312
 20
9.14484375
  0
VERTEX
  8
B-448.PLT
 62
7
 10
4.94300000
 20
9.11900000
  0
VERTEX
  8
B-448.PLT
 62
7
 10
4.88448438
 20
9.08864063
  0
VERTEX
  8
B-448.PLT
 62
7
 10
4.82437500
 20
9.06512500
  0
VERTEX
  8
B-448.PLT
 62
7
 10
4.76257813
 20
9.04854687
  0
VERTEX
  8
B-448.PLT
 62
7
 10
4.69900000
 20
9.03900000
  0
VERTEX
  8
B-448.PLT
 62
7
 10
4.69900000
 20
8.92900000
  0
VERTEX
  8
B-448.PLT
 62
7
 10
4.58300000
 20
8.94700000
  0
VERTEX
  8
B-448.PLT
 62
7
 10
4.54057617
 20
8.95543750
  0
VERTEX
  8
B-448.PLT
 62
7
 10
4.49954688
 20
8.96650000
  0
VERTEX
  8
B-448.PLT
 62
7
 10
4.45990039
 20
8.98018750
  0
VERTEX
  8
B-448.PLT
 62
7
 10
4.42162500
 20
8.99650000
  0
VERTEX
  8
B-448.PLT
 62
7
 10
4.38470898
 20
9.01543750
  0
VERTEX
  8
B-448.PLT
 62
7
 10
4.34914063
 20
9.03700000
  0
VERTEX
  8
B-448.PLT
 62
7
 10
4.31490820
 20
9.06118750
  0
VERTEX
  8
B-448.PLT
 62
7
 10
4.28200000
 20
9.08800000
  0
VERTEX
  8
B-448.PLT
 62
7
 10
4.23851562
 20
9.13017188
  0
VERTEX
  8
B-448.PLT
 62
7
 10
4.19962500
 20
9.17712500
  0
VERTEX
  8
B-448.PLT
 62
7
 10
4.16542187
 20
9.22876562
  0
VERTEX
  8
B-448.PLT
 62
7
 10
4.13600000
 20
9.28500000
  0
VERTEX
  8
B-448.PLT
 62
7
 10
4.10450000
 20
9.24150000
  0
VERTEX
  8
B-448.PLT
 62
7
 10
4.06700000
 20
9.20100000
  0
VERTEX
  8
B-448.PLT
 62
7
 10
4.02400000
 20
9.15800000
  0
VERTEX
  8
B-448.PLT
 62
7
 10
3.89200000
 20
9.20100000
  0
VERTEX
  8
B-448.PLT
 62
7
 10
3.84000000
 20
9.18800000
  0
VERTEX
  8
B-448.PLT
 62
7
 10
3.78393750
 20
9.17356250
  0
VERTEX
  8
B-448.PLT
 62
7
 10
3.73425000
 20
9.16325000
  0
VERTEX
  8
B-448.PLT
 62
7
 10
3.69093750
 20
9.15706250
  0
VERTEX
  8
B-448.PLT
 62
7
 10
3.65400000
 20
9.15500000
  0
VERTEX
  8
B-448.PLT
 62
7
 10
3.60168555
 20
9.15663867
  0
VERTEX
  8
B-448.PLT
 62
7
 10
3.55048437
 20
9.16154688
  0
VERTEX
  8
B-448.PLT
 62
7
 10
3.50038477
 20
9.16971289
  0
VERTEX
  8
B-448.PLT
 62
7
 10
3.45137500
 20
9.18112500
  0
VERTEX
  8
B-448.PLT
 62
7
 10
3.40344336
 20
9.19577148
  0
VERTEX
  8
B-448.PLT
 62
7
 10
3.35657813
 20
9.21364063
  0
VERTEX
  8
B-448.PLT
 62
7
 10
3.31076758
 20
9.23472070
  0
VERTEX
  8
B-448.PLT
 62
7
 10
3.26600000
 20
9.25900000
  0
VERTEX
  8
B-448.PLT
 62
7
 10
3.25500000
 20
9.16700000
  0
VERTEX
  8
B-448.PLT
 62
7
 10
3.12500000
 20
9.25000000
  0
VERTEX
  8
B-448.PLT
 62
7
 10
3.12000000
 20
9.25000000
  0
VERTEX
  8
B-448.PLT
 62
7
 10
3.10600000
 20
9.24900000
  0
VERTEX
  8
B-448.PLT
 62
7
 10
3.09200000
 20
9.24500000
  0
VERTEX
  8
B-448.PLT
 62
7
 10
3.07775000
 20
9.23750000
  0
VERTEX
  8
B-448.PLT
 62
7
 10
3.06800000
 20
9.23000000
  0
VERTEX
  8
B-448.PLT
 62
7
 10
3.04700000
 20
9.08200000
  0
VERTEX
  8
B-448.PLT
 62
7
 10
2.91500000
 20
9.17000000
  0
VERTEX
  8
B-448.PLT
 62
7
 10
2.90087500
 20
9.17437500
  0
VERTEX
  8
B-448.PLT
 62
7
 10
2.87100000
 20
9.17800000
  0
VERTEX
  8
B-448.PLT
 62
7
 10
2.82100000
 20
9.18600000
  0
VERTEX
  8
B-448.PLT
 62
7
 10
2.79900000
 20
9.08300000
  0
VERTEX
  8
B-448.PLT
 62
7
 10
2.79126562
 20
9.05398633
  0
VERTEX
  8
B-448.PLT
 62
7
 10
2.78081250
 20
9.02545313
  0
VERTEX
  8
B-448.PLT
 62
7
 10
2.76764062
 20
8.99741211
  0
VERTEX
  8
B-448.PLT
 62
7
 10
2.75175000
 20
8.96987500
  0
VERTEX
  8
B-448.PLT
 62
7
 10
2.73314062
 20
8.94285352
  0
VERTEX
  8
B-448.PLT
 62
7
 10
2.71181250
 20
8.91635938
  0
VERTEX
  8
B-448.PLT
 62
7
 10
2.68776562
 20
8.89040430
  0
VERTEX
  8
B-448.PLT
 62
7
 10
2.66100000
 20
8.86500000
  0
VERTEX
  8
B-448.PLT
 62
7
 10
2.61392188
 20
8.82917188
  0
VERTEX
  8
B-448.PLT
 62
7
 10
2.56112500
 20
8.79962500
  0
VERTEX
  8
B-448.PLT
 62
7
 10
2.50251563
 20
8.77626563
  0
VERTEX
  8
B-448.PLT
 62
7
 10
2.43800000
 20
8.75900000
  0
VERTEX
  8
B-448.PLT
 62
7
 10
2.44600000
 20
8.63100000
  0
VERTEX
  8
B-448.PLT
 62
7
 10
2.36100000
 20
8.61300000
  0
VERTEX
  8
B-448.PLT
 62
7
 10
2.30775000
 20
8.60487500
  0
VERTEX
  8
B-448.PLT
 62
7
 10
2.25300000
 20
8.60200000
  0
VERTEX
  8
B-448.PLT
 62
7
 10
2.19900000
 20
8.60487500
  0
VERTEX
  8
B-448.PLT
 62
7
 10
2.14500000
 20
8.61300000
  0
VERTEX
  8
B-448.PLT
 62
7
 10
2.11247070
 20
8.62096680
  0
VERTEX
  8
B-448.PLT
 62
7
 10
2.08014062
 20
8.63135938
  0
VERTEX
  8
B-448.PLT
 62
7
 10
2.04802148
 20
8.64416602
  0
VERTEX
  8
B-448.PLT
 62
7
 10
2.01612500
 20
8.65937500
  0
VERTEX
  8
B-448.PLT
 62
7
 10
1.98446289
 20
8.67697461
  0
VERTEX
  8
B-448.PLT
 62
7
 10
1.95304688
 20
8.69695313
  0
VERTEX
  8
B-448.PLT
 62
7
 10
1.92188867
 20
8.71929883
  0
VERTEX
  8
B-448.PLT
 62
7
 10
1.89100000
 20
8.74400000
  0
VERTEX
  8
B-448.PLT
 62
7
 10
1.86062500
 20
8.77550000
  0
VERTEX
  8
B-448.PLT
 62
7
 10
1.82800000
 20
8.82200000
  0
VERTEX
  8
B-448.PLT
 62
7
 10
1.81125000
 20
8.84612500
  0
VERTEX
  8
B-448.PLT
 62
7
 10
1.80200000
 20
8.85600000
  0
VERTEX
  8
B-448.PLT
 62
7
 10
1.78425000
 20
8.86350000
  0
VERTEX
  8
B-448.PLT
 62
7
 10
1.76500000
 20
8.86800000
  0
VERTEX
  8
B-448.PLT
 62
7
 10
1.74307813
 20
8.85918750
  0
VERTEX
  8
B-448.PLT
 62
7
 10
1.72237500
 20
8.84775000
  0
VERTEX
  8
B-448.PLT
 62
7
 10
1.70298438
 20
8.83368750
  0
VERTEX
  8
B-448.PLT
 62
7
 10
1.68500000
 20
8.81700000
  0
VERTEX
  8
B-448.PLT
 62
7
 10
1.66687500
 20
8.79050000
  0
VERTEX
  8
B-448.PLT
 62
7
 10
1.64500000
 20
8.74300000
  0
VERTEX
  8
B-448.PLT
 62
7
 10
1.61900000
 20
8.68300000
  0
VERTEX
  8
B-448.PLT
 62
7
 10
1.61600000
 20
8.67600000
  0
VERTEX
  8
B-448.PLT
 62
7
 10
1.62400000
 20
8.67700000
  0
VERTEX
  8
B-448.PLT
 62
7
 10
1.62600000
 20
8.67700000
  0
VERTEX
  8
B-448.PLT
 62
7
 10
1.64100000
 20
8.67700000
  0
VERTEX
  8
B-448.PLT
 62
7
 10
1.64200000
 20
8.67700000
  0
VERTEX
  8
B-448.PLT
 62
7
 10
1.68848438
 20
8.67362500
  0
VERTEX
  8
B-448.PLT
 62
7
 10
1.73337500
 20
8.66350000
  0
VERTEX
  8
B-448.PLT
 62
7
 10
1.77657812
 20
8.64662500
  0
VERTEX
  8
B-448.PLT
 62
7
 10
1.81800000
 20
8.62300000
  0
VERTEX
  8
B-448.PLT
 62
7
 10
1.85403125
 20
8.59603125
  0
VERTEX
  8
B-448.PLT
 62
7
 10
1.88575000
 20
8.56475000
  0
VERTEX
  8
B-448.PLT
 62
7
 10
1.91334375
 20
8.52934375
  0
VERTEX
  8
B-448.PLT
 62
7
 10
1.93700000
 20
8.49000000
  0
VERTEX
  8
B-448.PLT
 62
7
 10
1.95275000
 20
8.45478125
  0
VERTEX
  8
B-448.PLT
 62
7
 10
1.96400000
 20
8.41825000
  0
VERTEX
  8
B-448.PLT
 62
7
 10
1.97075000
 20
8.38059375
  0
VERTEX
  8
B-448.PLT
 62
7
 10
1.97300000
 20
8.34200000
  0
VERTEX
  8
B-448.PLT
 62
7
 10
1.97141016
 20
8.30749805
  0
VERTEX
  8
B-448.PLT
 62
7
 10
1.96665625
 20
8.27373438
  0
VERTEX
  8
B-448.PLT
 62
7
 10
1.95876172
 20
8.24069727
  0
VERTEX
  8
B-448.PLT
 62
7
 10
1.94775000
 20
8.20837500
  0
VERTEX
  8
B-448.PLT
 62
7
 10
1.93364453
 20
8.17675586
  0
VERTEX
  8
B-448.PLT
 62
7
 10
1.91646875
 20
8.14582812
  0
VERTEX
  8
B-448.PLT
 62
7
 10
1.89624609
 20
8.11558008
  0
VERTEX
  8
B-448.PLT
 62
7
 10
1.87300000
 20
8.08600000
  0
VERTEX
  8
B-448.PLT
 62
7
 10
1.84722266
 20
8.05960938
  0
VERTEX
  8
B-448.PLT
 62
7
 10
1.81715625
 20
8.03593750
  0
VERTEX
  8
B-448.PLT
 62
7
 10
1.78282422
 20
8.01498437
  0
VERTEX
  8
B-448.PLT
 62
7
 10
1.74425000
 20
7.99675000
  0
VERTEX
  8
B-448.PLT
 62
7
 10
1.70145703
 20
7.98123437
  0
VERTEX
  8
B-448.PLT
 62
7
 10
1.65446875
 20
7.96843750
  0
VERTEX
  8
B-448.PLT
 62
7
 10
1.60330859
 20
7.95835937
  0
VERTEX
  8
B-448.PLT
 62
7
 10
1.54800000
 20
7.95100000
  0
VERTEX
  8
B-448.PLT
 62
7
 10
1.45000000
 20
7.95000000
  0
VERTEX
  8
B-448.PLT
 62
7
 10
1.45000000
 20
1.45000000
  0
SEQEND
  0
POLYLINE
  8
B-448.PLT
 62
7
 66
1
 70
1
  0
VERTEX
  8
B-448.PLT
 62
7
 10
18.75300000
 20
9.42800000
  0
VERTEX
  8
B-448.PLT
 62
7
 10
18.71625000
 20
9.44184375
  0
VERTEX
  8
B-448.PLT
 62
7
 10
18.67650000
 20
9.46225000
  0
VERTEX
  8
B-448.PLT
 62
7
 10
18.63375000
 20
9.48903125
  0
VERTEX
  8
B-448.PLT
 62
7
 10
18.58800000
 20
9.52200000
  0
VERTEX
  8
B-448.PLT
 62
7
 10
18.54200000
 20
9.55600000
  0
VERTEX
  8
B-448.PLT
 62
7
 10
18.47375000
 20
9.60725000
  0
VERTEX
  8
B-448.PLT
 62
7
 10
18.38600000
 20
9.67800000
  0
VERTEX
  8
B-448.PLT
 62
7
 10
5.61400000
 20
9.67800000
  0
VERTEX
  8
B-448.PLT
 62
7
 10
5.52625000
 20
9.60725000
  0
VERTEX
  8
B-448.PLT
 62
7
 10
5.45800000
 20
9.55600000
  0
VERTEX
  8
B-448.PLT
 62
7
 10
5.41200000
 20
9.52200000
  0
VERTEX
  8
B-448.PLT
 62
7
 10
5.36625000
 20
9.48903125
  0
VERTEX
  8
B-448.PLT
 62
7
 10
5.32350000
 20
9.46225000
  0
VERTEX
  8
B-448.PLT
 62
7
 10
5.28375000
 20
9.44184375
  0
VERTEX
  8
B-448.PLT
 62
7
 10
5.24700000
 20
9.42800000
  0
SEQEND
  0
POLYLINE
  8
B-448.PLT
 62
7
 66
1
 70
1
  0
VERTEX
  8
B-448.PLT
 62
7
 10
17.46700000
 20
9.77800000
  0
VERTEX
  8
B-448.PLT
 62
7
 10
17.45912500
 20
9.80595313
  0
VERTEX
  8
B-448.PLT
 62
7
 10
17.45350000
 20
9.83437500
  0
VERTEX
  8
B-448.PLT
 62
7
 10
17.45012500
 20
9.86335937
  0
VERTEX
  8
B-448.PLT
 62
7
 10
17.44900000
 20
9.89300000
  0
VERTEX
  8
B-448.PLT
 62
7
 10
17.44995313
 20
9.92073438
  0
VERTEX
  8
B-448.PLT
 62
7
 10
17.45287500
 20
9.94837500
  0
VERTEX
  8
B-448.PLT
 62
7
 10
17.45785938
 20
9.97582812
  0
VERTEX
  8
B-448.PLT
 62
7
 10
17.46500000
 20
10.00300000
  0
VERTEX
  8
B-448.PLT
 62
7
 10
17.47796875
 20
10.03785938
  0
VERTEX
  8
B-448.PLT
 62
7
 10
17.49450000
 20
10.07037500
  0
VERTEX
  8
B-448.PLT
 62
7
 10
17.51478125
 20
10.10045313
  0
VERTEX
  8
B-448.PLT
 62
7
 10
17.53900000
 20
10.12800000
  0
VERTEX
  8
B-448.PLT
 62
7
 10
6.46100000
 20
10.12800000
  0
VERTEX
  8
B-448.PLT
 62
7
 10
6.48521875
 20
10.10045313
  0
VERTEX
  8
B-448.PLT
 62
7
 10
6.50550000
 20
10.07037500
  0
VERTEX
  8
B-448.PLT
 62
7
 10
6.52203125
 20
10.03785938
  0
VERTEX
  8
B-448.PLT
 62
7
 10
6.53500000
 20
10.00300000
  0
VERTEX
  8
B-448.PLT
 62
7
 10
6.54214063
 20
9.97582812
  0
VERTEX
  8
B-448.PLT
 62
7
 10
6.54712500
 20
9.94837500
  0
VERTEX
  8
B-448.PLT
 62
7
 10
6.55004687
 20
9.92073438
  0
VERTEX
  8
B-448.PLT
 62
7
 10
6.55100000
 20
9.89300000
  0
VERTEX
  8
B-448.PLT
 62
7
 10
6.54987500
 20
9.86335937
  0
VERTEX
  8
B-448.PLT
 62
7
 10
6.54650000
 20
9.83437500
  0
VERTEX
  8
B-448.PLT
 62
7
 10
6.54087500
 20
9.80595313
  0
VERTEX
  8
B-448.PLT
 62
7
 10
6.53300000
 20
9.77800000
  0
SEQEND
  0
POLYLINE
  8
B-448.PLT
 62
7
 66
1
 70
1
  0
VERTEX
  8
B-448.PLT
 62
7
 10
1.27900000
 20
8.70300000
  0
VERTEX
  8
B-448.PLT
 62
7
 10
1.18700000
 20
8.67800000
  0
VERTEX
  8
B-448.PLT
 62
7
 10
1.18876367
 20
8.65083984
  0
VERTEX
  8
B-448.PLT
 62
7
 10
1.19323438
 20
8.62421875
  0
VERTEX
  8
B-448.PLT
 62
7
 10
1.20030664
 20
8.59830078
  0
VERTEX
  8
B-448.PLT
 62
7
 10
1.20987500
 20
8.57325000
  0
VERTEX
  8
B-448.PLT
 62
7
 10
1.22183398
 20
8.54923047
  0
VERTEX
  8
B-448.PLT
 62
7
 10
1.23607812
 20
8.52640625
  0
VERTEX
  8
B-448.PLT
 62
7
 10
1.25250195
 20
8.50494141
  0
VERTEX
  8
B-448.PLT
 62
7
 10
1.27100000
 20
8.48500000
  0
VERTEX
  8
B-448.PLT
 62
7
 10
1.29771875
 20
8.46239062
  0
VERTEX
  8
B-448.PLT
 62
7
 10
1.32725000
 20
8.44212500
  0
VERTEX
  8
B-448.PLT
 62
7
 10
1.35790625
 20
8.42354687
  0
VERTEX
  8
B-448.PLT
 62
7
 10
1.38800000
 20
8.40600000
  0
VERTEX
  8
B-448.PLT
 62
7
 10
1.41603125
 20
8.50445312
  0
VERTEX
  8
B-448.PLT
 62
7
 10
1.44650000
 20
8.58387500
  0
VERTEX
  8
B-448.PLT
 62
7
 10
1.48221875
 20
8.65560937
  0
VERTEX
  8
B-448.PLT
 62
7
 10
1.52600000
 20
8.73100000
  0
VERTEX
  8
B-448.PLT
 62
7
 10
1.53724023
 20
8.74955933
  0
VERTEX
  8
B-448.PLT
 62
7
 10
1.54917188
 20
8.76903711
  0
VERTEX
  8
B-448.PLT
 62
7
 10
1.56173633
 20
8.78913306
  0
VERTEX
  8
B-448.PLT
 62
7
 10
1.57487500
 20
8.80954688
  0
VERTEX
  8
B-448.PLT
 62
7
 10
1.58852930
 20
8.82997827
  0
VERTEX
  8
B-448.PLT
 62
7
 10
1.60264063
 20
8.85012695
  0
VERTEX
  8
B-448.PLT
 62
7
 10
1.61715039
 20
8.86969263
  0
VERTEX
  8
B-448.PLT
 62
7
 10
1.63200000
 20
8.88837500
  0
VERTEX
  8
B-448.PLT
 62
7
 10
1.64713086
 20
8.90587378
  0
VERTEX
  8
B-448.PLT
 62
7
 10
1.66248438
 20
8.92188867
  0
VERTEX
  8
B-448.PLT
 62
7
 10
1.67800195
 20
8.93611938
  0
VERTEX
  8
B-448.PLT
 62
7
 10
1.69362500
 20
8.94826562
  0
VERTEX
  8
B-448.PLT
 62
7
 10
1.70929492
 20
8.95802710
  0
VERTEX
  8
B-448.PLT
 62
7
 10
1.72495313
 20
8.96510352
  0
VERTEX
  8
B-448.PLT
 62
7
 10
1.74054102
 20
8.96919458
  0
VERTEX
  8
B-448.PLT
 62
7
 10
1.75600000
 20
8.97000000
  0
VERTEX
  8
B-448.PLT
 62
7
 10
1.77979687
 20
8.96735937
  0
VERTEX
  8
B-448.PLT
 62
7
 10
1.80312500
 20
8.96237500
  0
VERTEX
  8
B-448.PLT
 62
7
 10
1.82589063
 20
8.95495312
  0
VERTEX
  8
B-448.PLT
 62
7
 10
1.84800000
 20
8.94500000
  0
VERTEX
  8
B-448.PLT
 62
7
 10
1.86556055
 20
8.93364063
  0
VERTEX
  8
B-448.PLT
 62
7
 10
1.88048438
 20
8.91956250
  0
VERTEX
  8
B-448.PLT
 62
7
 10
1.89350977
 20
8.90351563
  0
VERTEX
  8
B-448.PLT
 62
7
 10
1.90537500
 20
8.88625000
  0
VERTEX
  8
B-448.PLT
 62
7
 10
1.91681836
 20
8.86851563
  0
VERTEX
  8
B-448.PLT
 62
7
 10
1.92857813
 20
8.85106250
  0
VERTEX
  8
B-448.PLT
 62
7
 10
1.94139258
 20
8.83464063
  0
VERTEX
  8
B-448.PLT
 62
7
 10
1.95600000
 20
8.82000000
  0
VERTEX
  8
B-448.PLT
 62
7
 10
1.97929492
 20
8.80133008
  0
VERTEX
  8
B-448.PLT
 62
7
 10
2.00342187
 20
8.78370313
  0
VERTEX
  8
B-448.PLT
 62
7
 10
2.02836914
 20
8.76731836
  0
VERTEX
  8
B-448.PLT
 62
7
 10
2.05412500
 20
8.75237500
  0
VERTEX
  8
B-448.PLT
 62
7
 10
2.08067773
 20
8.73907227
  0
VERTEX
  8
B-448.PLT
 62
7
 10
2.10801563
 20
8.72760938
  0
VERTEX
  8
B-448.PLT
 62
7
 10
2.13612695
 20
8.71818555
  0
VERTEX
  8
B-448.PLT
 62
7
 10
2.16500000
 20
8.71100000
  0
VERTEX
  8
B-448.PLT
 62
7
 10
2.20881250
 20
8.70425000
  0
VERTEX
  8
B-448.PLT
 62
7
 10
2.25300000
 20
8.70200000
  0
VERTEX
  8
B-448.PLT
 62
7
 10
2.29718750
 20
8.70425000
  0
VERTEX
  8
B-448.PLT
 62
7
 10
2.34100000
 20
8.71100000
  0
VERTEX
  8
B-448.PLT
 62
7
 10
2.33500000
 20
8.81000000
  0
VERTEX
  8
B-448.PLT
 62
7
 10
2.37078125
 20
8.81497070
  0
VERTEX
  8
B-448.PLT
 62
7
 10
2.40600000
 20
8.82426563
  0
VERTEX
  8
B-448.PLT
 62
7
 10
2.44046875
 20
8.83733398
  0
VERTEX
  8
B-448.PLT
 62
7
 10
2.47400000
 20
8.85362500
  0
VERTEX
  8
B-448.PLT
 62
7
 10
2.50640625
 20
8.87258789
  0
VERTEX
  8
B-448.PLT
 62
7
 10
2.53750000
 20
8.89367188
  0
VERTEX
  8
B-448.PLT
 62
7
 10
2.56709375
 20
8.91632617
  0
VERTEX
  8
B-448.PLT
 62
7
 10
2.59500000
 20
8.94000000
  0
VERTEX
  8
B-448.PLT
 62
7
 10
2.61239258
 20
8.95611133
  0
VERTEX
  8
B-448.PLT
 62
7
 10
2.62914062
 20
8.97307813
  0
VERTEX
  8
B-448.PLT
 62
7
 10
2.64497461
 20
8.99109961
  0
VERTEX
  8
B-448.PLT
 62
7
 10
2.65962500
 20
9.01037500
  0
VERTEX
  8
B-448.PLT
 62
7
 10
2.67282227
 20
9.03110352
  0
VERTEX
  8
B-448.PLT
 62
7
 10
2.68429687
 20
9.05348438
  0
VERTEX
  8
B-448.PLT
 62
7
 10
2.69377930
 20
9.07771680
  0
VERTEX
  8
B-448.PLT
 62
7
 10
2.70100000
 20
9.10400000
  0
VERTEX
  8
B-448.PLT
 62
7
 10
2.66980469
 20
9.09963672
  0
VERTEX
  8
B-448.PLT
 62
7
 10
2.63856250
 20
9.09778125
  0
VERTEX
  8
B-448.PLT
 62
7
 10
2.60741406
 20
9.09841016
  0
VERTEX
  8
B-448.PLT
 62
7
 10
2.57650000
 20
9.10150000
  0
VERTEX
  8
B-448.PLT
 62
7
 10
2.54596094
 20
9.10702734
  0
VERTEX
  8
B-448.PLT
 62
7
 10
2.51593750
 20
9.11496875
  0
VERTEX
  8
B-448.PLT
 62
7
 10
2.48657031
 20
9.12530078
  0
VERTEX
  8
B-448.PLT
 62
7
 10
2.45800000
 20
9.13800000
  0
VERTEX
  8
B-448.PLT
 62
7
 10
2.39100000
 20
9.18000000
  0
VERTEX
  8
B-448.PLT
 62
7
 10
2.41400000
 20
9.27200000
  0
VERTEX
  8
B-448.PLT
 62
7
 10
2.37017188
 20
9.28262500
  0
VERTEX
  8
B-448.PLT
 62
7
 10
2.33037500
 20
9.29175000
  0
VERTEX
  8
B-448.PLT
 62
7
 10
2.29039063
 20
9.29675000
  0
VERTEX
  8
B-448.PLT
 62
7
 10
2.24600000
 20
9.29500000
  0
VERTEX
  8
B-448.PLT
 62
7
 10
2.21340039
 20
9.29093555
  0
VERTEX
  8
B-448.PLT
 62
7
 10
2.18095312
 20
9.28667187
  0
VERTEX
  8
B-448.PLT
 62
7
 10
2.14881055
 20
9.28172852
  0
VERTEX
  8
B-448.PLT
 62
7
 10
2.11712500
 20
9.27562500
  0
VERTEX
  8
B-448.PLT
 62
7
 10
2.08604883
 20
9.26788086
  0
VERTEX
  8
B-448.PLT
 62
7
 10
2.05573438
 20
9.25801563
  0
VERTEX
  8
B-448.PLT
 62
7
 10
2.02633398
 20
9.24554883
  0
VERTEX
  8
B-448.PLT
 62
7
 10
1.99800000
 20
9.23000000
  0
VERTEX
  8
B-448.PLT
 62
7
 10
1.98404688
 20
9.21991016
  0
VERTEX
  8
B-448.PLT
 62
7
 10
1.97112500
 20
9.20815625
  0
VERTEX
  8
B-448.PLT
 62
7
 10
1.95876563
 20
9.19551172
  0
VERTEX
  8
B-448.PLT
 62
7
 10
1.94650000
 20
9.18275000
  0
VERTEX
  8
B-448.PLT
 62
7
 10
1.93385937
 20
9.17064453
  0
VERTEX
  8
B-448.PLT
 62
7
 10
1.92037500
 20
9.15996875
  0
VERTEX
  8
B-448.PLT
 62
7
 10
1.90557812
 20
9.15149609
  0
VERTEX
  8
B-448.PLT
 62
7
 10
1.88900000
 20
9.14600000
  0
VERTEX
  8
B-448.PLT
 62
7
 10
1.85600000
 20
9.14225000
  0
VERTEX
  8
B-448.PLT
 62
7
 10
1.82300000
 20
9.14600000
  0
VERTEX
  8
B-448.PLT
 62
7
 10
1.83289063
 20
9.17667188
  0
VERTEX
  8
B-448.PLT
 62
7
 10
1.84737500
 20
9.20537500
  0
VERTEX
  8
B-448.PLT
 62
7
 10
1.86617188
 20
9.23164063
  0
VERTEX
  8
B-448.PLT
 62
7
 10
1.88900000
 20
9.25500000
  0
VERTEX
  8
B-448.PLT
 62
7
 10
1.91432812
 20
9.27110938
  0
VERTEX
  8
B-448.PLT
 62
7
 10
1.94237500
 20
9.28187500
  0
VERTEX
  8
B-448.PLT
 62
7
 10
1.97098438
 20
9.29170312
  0
VERTEX
  8
B-448.PLT
 62
7
 10
1.99800000
 20
9.30500000
  0
VERTEX
  8
B-448.PLT
 62
7
 10
2.02171484
 20
9.32099414
  0
VERTEX
  8
B-448.PLT
 62
7
 10
2.04465625
 20
9.33826563
  0
VERTEX
  8
B-448.PLT
 62
7
 10
2.06651953
 20
9.35687305
  0
VERTEX
  8
B-448.PLT
 62
7
 10
2.08700000
 20
9.37687500
  0
VERTEX
  8
B-448.PLT
 62
7
 10
2.10579297
 20
9.39833008
  0
VERTEX
  8
B-448.PLT
 62
7
 10
2.12259375
 20
9.42129687
  0
VERTEX
  8
B-448.PLT
 62
7
 10
2.13709766
 20
9.44583398
  0
VERTEX
  8
B-448.PLT
 62
7
 10
2.14900000
 20
9.47200000
  0
VERTEX
  8
B-448.PLT
 62
7
 10
2.16232813
 20
9.51482812
  0
VERTEX
  8
B-448.PLT
 62
7
 10
2.16937500
 20
9.55887500
  0
VERTEX
  8
B-448.PLT
 62
7
 10
2.17023438
 20
9.60348438
  0
VERTEX
  8
B-448.PLT
 62
7
 10
2.16500000
 20
9.64800000
  0
VERTEX
  8
B-448.PLT
 62
7
 10
2.07300000
 20
9.64800000
  0
VERTEX
  8
B-448.PLT
 62
7
 10
2.06888281
 20
9.68075195
  0
VERTEX
  8
B-448.PLT
 62
7
 10
2.06256250
 20
9.71295313
  0
VERTEX
  8
B-448.PLT
 62
7
 10
2.05408594
 20
9.74452148
  0
VERTEX
  8
B-448.PLT
 62
7
 10
2.04350000
 20
9.77537500
  0
VERTEX
  8
B-448.PLT
 62
7
 10
2.03085156
 20
9.80543164
  0
VERTEX
  8
B-448.PLT
 62
7
 10
2.01618750
 20
9.83460937
  0
VERTEX
  8
B-448.PLT
 62
7
 10
1.99955469
 20
9.86282617
  0
VERTEX
  8
B-448.PLT
 62
7
 10
1.98100000
 20
9.89000000
  0
VERTEX
  8
B-448.PLT
 62
7
 10
1.94771875
 20
9.92781250
  0
VERTEX
  8
B-448.PLT
 62
7
 10
1.90975000
 20
9.96075000
  0
VERTEX
  8
B-448.PLT
 62
7
 10
1.86990625
 20
9.99181250
  0
VERTEX
  8
B-448.PLT
 62
7
 10
1.83100000
 20
10.02400000
  0
VERTEX
  8
B-448.PLT
 62
7
 10
1.82921094
 20
9.99808594
  0
VERTEX
  8
B-448.PLT
 62
7
 10
1.82362500
 20
9.97400000
  0
VERTEX
  8
B-448.PLT
 62
7
 10
1.81503906
 20
9.95122656
  0
VERTEX
  8
B-448.PLT
 62
7
 10
1.80425000
 20
9.92925000
  0
VERTEX
  8
B-448.PLT
 62
7
 10
1.79205469
 20
9.90755469
  0
VERTEX
  8
B-448.PLT
 62
7
 10
1.77925000
 20
9.88562500
  0
VERTEX
  8
B-448.PLT
 62
7
 10
1.76663281
 20
9.86294531
  0
VERTEX
  8
B-448.PLT
 62
7
 10
1.75500000
 20
9.83900000
  0
VERTEX
  8
B-448.PLT
 62
7
 10
1.74389844
 20
9.81723047
  0
VERTEX
  8
B-448.PLT
 62
7
 10
1.73050000
 20
9.79609375
  0
VERTEX
  8
B-448.PLT
 62
7
 10
1.71541406
 20
9.77547266
  0
VERTEX
  8
B-448.PLT
 62
7
 10
1.69925000
 20
9.75525000
  0
VERTEX
  8
B-448.PLT
 62
7
 10
1.68261719
 20
9.73530859
  0
VERTEX
  8
B-448.PLT
 62
7
 10
1.66612500
 20
9.71553125
  0
VERTEX
  8
B-448.PLT
 62
7
 10
1.65038281
 20
9.69580078
  0
VERTEX
  8
B-448.PLT
 62
7
 10
1.63600000
 20
9.67600000
  0
VERTEX
  8
B-448.PLT
 62
7
 10
1.55500000
 20
9.73100000
  0
VERTEX
  8
B-448.PLT
 62
7
 10
1.54487695
 20
9.69956836
  0
VERTEX
  8
B-448.PLT
 62
7
 10
1.53701563
 20
9.66760937
  0
VERTEX
  8
B-448.PLT
 62
7
 10
1.53142773
 20
9.63525195
  0
VERTEX
  8
B-448.PLT
 62
7
 10
1.52812500
 20
9.60262500
  0
VERTEX
  8
B-448.PLT
 62
7
 10
1.52711914
 20
9.56985742
  0
VERTEX
  8
B-448.PLT
 62
7
 10
1.52842188
 20
9.53707813
  0
VERTEX
  8
B-448.PLT
 62
7
 10
1.53204492
 20
9.50441602
  0
VERTEX
  8
B-448.PLT
 62
7
 10
1.53800000
 20
9.47200000
  0
VERTEX
  8
B-448.PLT
 62
7
 10
1.55001562
 20
9.43042188
  0
VERTEX
  8
B-448.PLT
 62
7
 10
1.56662500
 20
9.39062500
  0
VERTEX
  8
B-448.PLT
 62
7
 10
1.58567188
 20
9.35176563
  0
VERTEX
  8
B-448.PLT
 62
7
 10
1.60500000
 20
9.31300000
  0
VERTEX
  8
B-448.PLT
 62
7
 10
1.61249805
 20
9.29945898
  0
VERTEX
  8
B-448.PLT
 62
7
 10
1.62110938
 20
9.28642188
  0
VERTEX
  8
B-448.PLT
 62
7
 10
1.63025977
 20
9.27364258
  0
VERTEX
  8
B-448.PLT
 62
7
 10
1.63937500
 20
9.26087500
  0
VERTEX
  8
B-448.PLT
 62
7
 10
1.64788086
 20
9.24787305
  0
VERTEX
  8
B-448.PLT
 62
7
 10
1.65520313
 20
9.23439062
  0
VERTEX
  8
B-448.PLT
 62
7
 10
1.66076758
 20
9.22018164
  0
VERTEX
  8
B-448.PLT
 62
7
 10
1.66400000
 20
9.20500000
  0
VERTEX
  8
B-448.PLT
 62
7
 10
1.66550000
 20
9.18400000
  0
VERTEX
  8
B-448.PLT
 62
7
 10
1.66400000
 20
9.16300000
  0
VERTEX
  8
B-448.PLT
 62
7
 10
1.64621875
 20
9.16298438
  0
VERTEX
  8
B-448.PLT
 62
7
 10
1.62900000
 20
9.16587500
  0
VERTEX
  8
B-448.PLT
 62
7
 10
1.61253125
 20
9.17157812
  0
VERTEX
  8
B-448.PLT
 62
7
 10
1.59700000
 20
9.18000000
  0
VERTEX
  8
B-448.PLT
 62
7
 10
1.58046875
 20
9.19565625
  0
VERTEX
  8
B-448.PLT
 62
7
 10
1.56900000
 20
9.21525000
  0
VERTEX
  8
B-448.PLT
 62
7
 10
1.55903125
 20
9.23596875
  0
VERTEX
  8
B-448.PLT
 62
7
 10
1.54700000
 20
9.25500000
  0
VERTEX
  8
B-448.PLT
 62
7
 10
1.52818359
 20
9.27728711
  0
VERTEX
  8
B-448.PLT
 62
7
 10
1.50840625
 20
9.29885937
  0
VERTEX
  8
B-448.PLT
 62
7
 10
1.48755078
 20
9.31928320
  0
VERTEX
  8
B-448.PLT
 62
7
 10
1.46550000
 20
9.33812500
  0
VERTEX
  8
B-448.PLT
 62
7
 10
1.44213672
 20
9.35495117
  0
VERTEX
  8
B-448.PLT
 62
7
 10
1.41734375
 20
9.36932812
  0
VERTEX
  8
B-448.PLT
 62
7
 10
1.39100391
 20
9.38082227
  0
VERTEX
  8
B-448.PLT
 62
7
 10
1.36300000
 20
9.38900000
  0
VERTEX
  8
B-448.PLT
 62
7
 10
1.33472461
 20
9.39355273
  0
VERTEX
  8
B-448.PLT
 62
7
 10
1.30629687
 20
9.39523437
  0
VERTEX
  8
B-448.PLT
 62
7
 10
1.27793945
 20
9.39408008
  0
VERTEX
  8
B-448.PLT
 62
7
 10
1.24987500
 20
9.39012500
  0
VERTEX
  8
B-448.PLT
 62
7
 10
1.22232617
 20
9.38340430
  0
VERTEX
  8
B-448.PLT
 62
7
 10
1.19551563
 20
9.37395312
  0
VERTEX
  8
B-448.PLT
 62
7
 10
1.16966602
 20
9.36180664
  0
VERTEX
  8
B-448.PLT
 62
7
 10
1.14500000
 20
9.34700000
  0
VERTEX
  8
B-448.PLT
 62
7
 10
1.17000000
 20
9.27200000
  0
VERTEX
  8
B-448.PLT
 62
7
 10
1.13024219
 20
9.26134570
  0
VERTEX
  8
B-448.PLT
 62
7
 10
1.09212500
 20
9.24676563
  0
VERTEX
  8
B-448.PLT
 62
7
 10
1.05588281
 20
9.22845898
  0
VERTEX
  8
B-448.PLT
 62
7
 10
1.02175000
 20
9.20662500
  0
VERTEX
  8
B-448.PLT
 62
7
 10
0.98996094
 20
9.18146289
  0
VERTEX
  8
B-448.PLT
 62
7
 10
0.96075000
 20
9.15317188
  0
VERTEX
  8
B-448.PLT
 62
7
 10
0.93435156
 20
9.12195117
  0
VERTEX
  8
B-448.PLT
 62
7
 10
0.91100000
 20
9.08800000
  0
VERTEX
  8
B-448.PLT
 62
7
 10
0.89894922
 20
9.06567969
  0
VERTEX
  8
B-448.PLT
 62
7
 10
0.88940625
 20
9.04237500
  0
VERTEX
  8
B-448.PLT
 62
7
 10
0.88178516
 20
9.01832031
  0
VERTEX
  8
B-448.PLT
 62
7
 10
0.87550000
 20
8.99375000
  0
VERTEX
  8
B-448.PLT
 62
7
 10
0.86996484
 20
8.96889844
  0
VERTEX
  8
B-448.PLT
 62
7
 10
0.86459375
 20
8.94400000
  0
VERTEX
  8
B-448.PLT
 62
7
 10
0.85880078
 20
8.91928906
  0
VERTEX
  8
B-448.PLT
 62
7
 10
0.85200000
 20
8.89500000
  0
VERTEX
  8
B-448.PLT
 62
7
 10
0.90182812
 20
8.90287500
  0
VERTEX
  8
B-448.PLT
 62
7
 10
0.95212500
 20
8.90700000
  0
VERTEX
  8
B-448.PLT
 62
7
 10
1.00260938
 20
8.90737500
  0
VERTEX
  8
B-448.PLT
 62
7
 10
1.05300000
 20
8.90400000
  0
VERTEX
  8
B-448.PLT
 62
7
 10
1.15300000
 20
8.88700000
  0
VERTEX
  8
B-448.PLT
 62
7
 10
1.14800000
 20
8.80100000
  0
VERTEX
  8
B-448.PLT
 62
7
 10
1.16786914
 20
8.79600781
  0
VERTEX
  8
B-448.PLT
 62
7
 10
1.18770313
 20
8.79050000
  0
VERTEX
  8
B-448.PLT
 62
7
 10
1.20746680
 20
8.78517969
  0
VERTEX
  8
B-448.PLT
 62
7
 10
1.22712500
 20
8.78075000
  0
VERTEX
  8
B-448.PLT
 62
7
 10
1.24664258
 20
8.77791406
  0
VERTEX
  8
B-448.PLT
 62
7
 10
1.26598437
 20
8.77737500
  0
VERTEX
  8
B-448.PLT
 62
7
 10
1.28511523
 20
8.77983594
  0
VERTEX
  8
B-448.PLT
 62
7
 10
1.30400000
 20
8.78600000
  0
VERTEX
  8
B-448.PLT
 62
7
 10
1.33410937
 20
8.80487500
  0
VERTEX
  8
B-448.PLT
 62
7
 10
1.36037500
 20
8.82900000
  0
VERTEX
  8
B-448.PLT
 62
7
 10
1.38570313
 20
8.85462500
  0
VERTEX
  8
B-448.PLT
 62
7
 10
1.41300000
 20
8.87800000
  0
VERTEX
  8
B-448.PLT
 62
7
 10
1.42764063
 20
8.88983789
  0
VERTEX
  8
B-448.PLT
 62
7
 10
1.44181250
 20
8.90295312
  0
VERTEX
  8
B-448.PLT
 62
7
 10
1.45589063
 20
8.91637305
  0
VERTEX
  8
B-448.PLT
 62
7
 10
1.47025000
 20
8.92912500
  0
VERTEX
  8
B-448.PLT
 62
7
 10
1.48526563
 20
8.94023633
  0
VERTEX
  8
B-448.PLT
 62
7
 10
1.50131250
 20
8.94873438
  0
VERTEX
  8
B-448.PLT
 62
7
 10
1.51876562
 20
8.95364648
  0
VERTEX
  8
B-448.PLT
 62
7
 10
1.53800000
 20
8.95400000
  0
VERTEX
  8
B-448.PLT
 62
7
 10
1.55537500
 20
8.95100000
  0
VERTEX
  8
B-448.PLT
 62
7
 10
1.57200000
 20
8.94500000
  0
VERTEX
  8
B-448.PLT
 62
7
 10
1.54671875
 20
8.92009570
  0
VERTEX
  8
B-448.PLT
 62
7
 10
1.52500000
 20
8.89482813
  0
VERTEX
  8
B-448.PLT
 62
7
 10
1.50590625
 20
8.86911523
  0
VERTEX
  8
B-448.PLT
 62
7
 10
1.48850000
 20
8.84287500
  0
VERTEX
  8
B-448.PLT
 62
7
 10
1.47184375
 20
8.81602539
  0
VERTEX
  8
B-448.PLT
 62
7
 10
1.45500000
 20
8.78848437
  0
VERTEX
  8
B-448.PLT
 62
7
 10
1.43703125
 20
8.76016992
  0
VERTEX
  8
B-448.PLT
 62
7
 10
1.41700000
 20
8.73100000
  0
VERTEX
  8
B-448.PLT
 62
7
 10
1.37962500
 20
8.65475000
  0
VERTEX
  8
B-448.PLT
 62
7
 10
1.34600000
 20
8.57700000
  0
VERTEX
  8
B-448.PLT
 62
7
 10
1.29600000
 20
8.66900000
  0
SEQEND
  0
POLYLINE
  8
B-448.PLT
 62
7
 66
1
 70
1
  0
VERTEX
  8
B-448.PLT
 62
7
 10
22.72100000
 20
8.70300000
  0
VERTEX
  8
B-448.PLT
 62
7
 10
22.70400000
 20
8.66900000
  0
VERTEX
  8
B-448.PLT
 62
7
 10
22.65400000
 20
8.57700000
  0
VERTEX
  8
B-448.PLT
 62
7
 10
22.62037500
 20
8.65475000
  0
VERTEX
  8
B-448.PLT
 62
7
 10
22.58300000
 20
8.73100000
  0
VERTEX
  8
B-448.PLT
 62
7
 10
22.56296875
 20
8.76016992
  0
VERTEX
  8
B-448.PLT
 62
7
 10
22.54500000
 20
8.78848437
  0
VERTEX
  8
B-448.PLT
 62
7
 10
22.52815625
 20
8.81602539
  0
VERTEX
  8
B-448.PLT
 62
7
 10
22.51150000
 20
8.84287500
  0
VERTEX
  8
B-448.PLT
 62
7
 10
22.49409375
 20
8.86911523
  0
VERTEX
  8
B-448.PLT
 62
7
 10
22.47500000
 20
8.89482813
  0
VERTEX
  8
B-448.PLT
 62
7
 10
22.45328125
 20
8.92009570
  0
VERTEX
  8
B-448.PLT
 62
7
 10
22.42800000
 20
8.94500000
  0
VERTEX
  8
B-448.PLT
 62
7
 10
22.44462500
 20
8.95100000
  0
VERTEX
  8
B-448.PLT
 62
7
 10
22.46200000
 20
8.95400000
  0
VERTEX
  8
B-448.PLT
 62
7
 10
22.48123438
 20
8.95364648
  0
VERTEX
  8
B-448.PLT
 62
7
 10
22.49868750
 20
8.94873438
  0
VERTEX
  8
B-448.PLT
 62
7
 10
22.51473438
 20
8.94023633
  0
VERTEX
  8
B-448.PLT
 62
7
 10
22.52975000
 20
8.92912500
  0
VERTEX
  8
B-448.PLT
 62
7
 10
22.54410938
 20
8.91637305
  0
VERTEX
  8
B-448.PLT
 62
7
 10
22.55818750
 20
8.90295312
  0
VERTEX
  8
B-448.PLT
 62
7
 10
22.57235938
 20
8.88983789
  0
VERTEX
  8
B-448.PLT
 62
7
 10
22.58700000
 20
8.87800000
  0
VERTEX
  8
B-448.PLT
 62
7
 10
22.61429688
 20
8.85462500
  0
VERTEX
  8
B-448.PLT
 62
7
 10
22.63962500
 20
8.82900000
  0
VERTEX
  8
B-448.PLT
 62
7
 10
22.66589062
 20
8.80487500
  0
VERTEX
  8
B-448.PLT
 62
7
 10
22.69600000
 20
8.78600000
  0
VERTEX
  8
B-448.PLT
 62
7
 10
22.71488477
 20
8.77983594
  0
VERTEX
  8
B-448.PLT
 62
7
 10
22.73401563
 20
8.77737500
  0
VERTEX
  8
B-448.PLT
 62
7
 10
22.75335742
 20
8.77791406
  0
VERTEX
  8
B-448.PLT
 62
7
 10
22.77287500
 20
8.78075000
  0
VERTEX
  8
B-448.PLT
 62
7
 10
22.79253320
 20
8.78517969
  0
VERTEX
  8
B-448.PLT
 62
7
 10
22.81229688
 20
8.79050000
  0
VERTEX
  8
B-448.PLT
 62
7
 10
22.83213086
 20
8.79600781
  0
VERTEX
  8
B-448.PLT
 62
7
 10
22.85200000
 20
8.80100000
  0
VERTEX
  8
B-448.PLT
 62
7
 10
22.84700000
 20
8.88700000
  0
VERTEX
  8
B-448.PLT
 62
7
 10
22.94700000
 20
8.90400000
  0
VERTEX
  8
B-448.PLT
 62
7
 10
22.99739063
 20
8.90737500
  0
VERTEX
  8
B-448.PLT
 62
7
 10
23.04787500
 20
8.90700000
  0
VERTEX
  8
B-448.PLT
 62
7
 10
23.09817187
 20
8.90287500
  0
VERTEX
  8
B-448.PLT
 62
7
 10
23.14800000
 20
8.89500000
  0
VERTEX
  8
B-448.PLT
 62
7
 10
23.14119922
 20
8.91928906
  0
VERTEX
  8
B-448.PLT
 62
7
 10
23.13540625
 20
8.94400000
  0
VERTEX
  8
B-448.PLT
 62
7
 10
23.13003516
 20
8.96889844
  0
VERTEX
  8
B-448.PLT
 62
7
 10
23.12450000
 20
8.99375000
  0
VERTEX
  8
B-448.PLT
 62
7
 10
23.11821484
 20
9.01832031
  0
VERTEX
  8
B-448.PLT
 62
7
 10
23.11059375
 20
9.04237500
  0
VERTEX
  8
B-448.PLT
 62
7
 10
23.10105078
 20
9.06567969
  0
VERTEX
  8
B-448.PLT
 62
7
 10
23.08900000
 20
9.08800000
  0
VERTEX
  8
B-448.PLT
 62
7
 10
23.06564844
 20
9.12195117
  0
VERTEX
  8
B-448.PLT
 62
7
 10
23.03925000
 20
9.15317188
  0
VERTEX
  8
B-448.PLT
 62
7
 10
23.01003906
 20
9.18146289
  0
VERTEX
  8
B-448.PLT
 62
7
 10
22.97825000
 20
9.20662500
  0
VERTEX
  8
B-448.PLT
 62
7
 10
22.94411719
 20
9.22845898
  0
VERTEX
  8
B-448.PLT
 62
7
 10
22.90787500
 20
9.24676563
  0
VERTEX
  8
B-448.PLT
 62
7
 10
22.86975781
 20
9.26134570
  0
VERTEX
  8
B-448.PLT
 62
7
 10
22.83000000
 20
9.27200000
  0
VERTEX
  8
B-448.PLT
 62
7
 10
22.85500000
 20
9.34700000
  0
VERTEX
  8
B-448.PLT
 62
7
 10
22.83033398
 20
9.36180664
  0
VERTEX
  8
B-448.PLT
 62
7
 10
22.80448438
 20
9.37395312
  0
VERTEX
  8
B-448.PLT
 62
7
 10
22.77767383
 20
9.38340430
  0
VERTEX
  8
B-448.PLT
 62
7
 10
22.75012500
 20
9.39012500
  0
VERTEX
  8
B-448.PLT
 62
7
 10
22.72206055
 20
9.39408008
  0
VERTEX
  8
B-448.PLT
 62
7
 10
22.69370312
 20
9.39523437
  0
VERTEX
  8
B-448.PLT
 62
7
 10
22.66527539
 20
9.39355273
  0
VERTEX
  8
B-448.PLT
 62
7
 10
22.63700000
 20
9.38900000
  0
VERTEX
  8
B-448.PLT
 62
7
 10
22.60899609
 20
9.38082227
  0
VERTEX
  8
B-448.PLT
 62
7
 10
22.58265625
 20
9.36932812
  0
VERTEX
  8
B-448.PLT
 62
7
 10
22.55786328
 20
9.35495117
  0
VERTEX
  8
B-448.PLT
 62
7
 10
22.53450000
 20
9.33812500
  0
VERTEX
  8
B-448.PLT
 62
7
 10
22.51244922
 20
9.31928320
  0
VERTEX
  8
B-448.PLT
 62
7
 10
22.49159375
 20
9.29885937
  0
VERTEX
  8
B-448.PLT
 62
7
 10
22.47181641
 20
9.27728711
  0
VERTEX
  8
B-448.PLT
 62
7
 10
22.45300000
 20
9.25500000
  0
VERTEX
  8
B-448.PLT
 62
7
 10
22.44096875
 20
9.23596875
  0
VERTEX
  8
B-448.PLT
 62
7
 10
22.43100000
 20
9.21525000
  0
VERTEX
  8
B-448.PLT
 62
7
 10
22.41953125
 20
9.19565625
  0
VERTEX
  8
B-448.PLT
 62
7
 10
22.40300000
 20
9.18000000
  0
VERTEX
  8
B-448.PLT
 62
7
 10
22.38746875
 20
9.17157812
  0
VERTEX
  8
B-448.PLT
 62
7
 10
22.37100000
 20
9.16587500
  0
VERTEX
  8
B-448.PLT
 62
7
 10
22.35378125
 20
9.16298438
  0
VERTEX
  8
B-448.PLT
 62
7
 10
22.33600000
 20
9.16300000
  0
VERTEX
  8
B-448.PLT
 62
7
 10
22.33450000
 20
9.18400000
  0
VERTEX
  8
B-448.PLT
 62
7
 10
22.33600000
 20
9.20500000
  0
VERTEX
  8
B-448.PLT
 62
7
 10
22.33923242
 20
9.22018164
  0
VERTEX
  8
B-448.PLT
 62
7
 10
22.34479688
 20
9.23439062
  0
VERTEX
  8
B-448.PLT
 62
7
 10
22.35211914
 20
9.24787305
  0
VERTEX
  8
B-448.PLT
 62
7
 10
22.36062500
 20
9.26087500
  0
VERTEX
  8
B-448.PLT
 62
7
 10
22.36974023
 20
9.27364258
  0
VERTEX
  8
B-448.PLT
 62
7
 10
22.37889063
 20
9.28642188
  0
VERTEX
  8
B-448.PLT
 62
7
 10
22.38750195
 20
9.29945898
  0
VERTEX
  8
B-448.PLT
 62
7
 10
22.39500000
 20
9.31300000
  0
VERTEX
  8
B-448.PLT
 62
7
 10
22.41432813
 20
9.35176563
  0
VERTEX
  8
B-448.PLT
 62
7
 10
22.43337500
 20
9.39062500
  0
VERTEX
  8
B-448.PLT
 62
7
 10
22.44998438
 20
9.43042188
  0
VERTEX
  8
B-448.PLT
 62
7
 10
22.46200000
 20
9.47200000
  0
VERTEX
  8
B-448.PLT
 62
7
 10
22.46795508
 20
9.50441602
  0
VERTEX
  8
B-448.PLT
 62
7
 10
22.47157813
 20
9.53707813
  0
VERTEX
  8
B-448.PLT
 62
7
 10
22.47288086
 20
9.56985742
  0
VERTEX
  8
B-448.PLT
 62
7
 10
22.47187500
 20
9.60262500
  0
VERTEX
  8
B-448.PLT
 62
7
 10
22.46857227
 20
9.63525195
  0
VERTEX
  8
B-448.PLT
 62
7
 10
22.46298438
 20
9.66760937
  0
VERTEX
  8
B-448.PLT
 62
7
 10
22.45512305
 20
9.69956836
  0
VERTEX
  8
B-448.PLT
 62
7
 10
22.44500000
 20
9.73100000
  0
VERTEX
  8
B-448.PLT
 62
7
 10
22.36400000
 20
9.67600000
  0
VERTEX
  8
B-448.PLT
 62
7
 10
22.34961719
 20
9.69580078
  0
VERTEX
  8
B-448.PLT
 62
7
 10
22.33387500
 20
9.71553125
  0
VERTEX
  8
B-448.PLT
 62
7
 10
22.31738281
 20
9.73530859
  0
VERTEX
  8
B-448.PLT
 62
7
 10
22.30075000
 20
9.75525000
  0
VERTEX
  8
B-448.PLT
 62
7
 10
22.28458594
 20
9.77547266
  0
VERTEX
  8
B-448.PLT
 62
7
 10
22.26950000
 20
9.79609375
  0
VERTEX
  8
B-448.PLT
 62
7
 10
22.25610156
 20
9.81723047
  0
VERTEX
  8
B-448.PLT
 62
7
 10
22.24500000
 20
9.83900000
  0
VERTEX
  8
B-448.PLT
 62
7
 10
22.23336719
 20
9.86294531
  0
VERTEX
  8
B-448.PLT
 62
7
 10
22.22075000
 20
9.88562500
  0
VERTEX
  8
B-448.PLT
 62
7
 10
22.20794531
 20
9.90755469
  0
VERTEX
  8
B-448.PLT
 62
7
 10
22.19575000
 20
9.92925000
  0
VERTEX
  8
B-448.PLT
 62
7
 10
22.18496094
 20
9.95122656
  0
VERTEX
  8
B-448.PLT
 62
7
 10
22.17637500
 20
9.97400000
  0
VERTEX
  8
B-448.PLT
 62
7
 10
22.17078906
 20
9.99808594
  0
VERTEX
  8
B-448.PLT
 62
7
 10
22.16900000
 20
10.02400000
  0
VERTEX
  8
B-448.PLT
 62
7
 10
22.13009375
 20
9.99181250
  0
VERTEX
  8
B-448.PLT
 62
7
 10
22.09025000
 20
9.96075000
  0
VERTEX
  8
B-448.PLT
 62
7
 10
22.05228125
 20
9.92781250
  0
VERTEX
  8
B-448.PLT
 62
7
 10
22.01900000
 20
9.89000000
  0
VERTEX
  8
B-448.PLT
 62
7
 10
22.00044531
 20
9.86282617
  0
VERTEX
  8
B-448.PLT
 62
7
 10
21.98381250
 20
9.83460937
  0
VERTEX
  8
B-448.PLT
 62
7
 10
21.96914844
 20
9.80543164
  0
VERTEX
  8
B-448.PLT
 62
7
 10
21.95650000
 20
9.77537500
  0
VERTEX
  8
B-448.PLT
 62
7
 10
21.94591406
 20
9.74452148
  0
VERTEX
  8
B-448.PLT
 62
7
 10
21.93743750
 20
9.71295313
  0
VERTEX
  8
B-448.PLT
 62
7
 10
21.93111719
 20
9.68075195
  0
VERTEX
  8
B-448.PLT
 62
7
 10
21.92700000
 20
9.64800000
  0
VERTEX
  8
B-448.PLT
 62
7
 10
21.83500000
 20
9.64800000
  0
VERTEX
  8
B-448.PLT
 62
7
 10
21.82976563
 20
9.60348438
  0
VERTEX
  8
B-448.PLT
 62
7
 10
21.83062500
 20
9.55887500
  0
VERTEX
  8
B-448.PLT
 62
7
 10
21.83767188
 20
9.51482812
  0
VERTEX
  8
B-448.PLT
 62
7
 10
21.85100000
 20
9.47200000
  0
VERTEX
  8
B-448.PLT
 62
7
 10
21.86290234
 20
9.44583398
  0
VERTEX
  8
B-448.PLT
 62
7
 10
21.87740625
 20
9.42129687
  0
VERTEX
  8
B-448.PLT
 62
7
 10
21.89420703
 20
9.39833008
  0
VERTEX
  8
B-448.PLT
 62
7
 10
21.91300000
 20
9.37687500
  0
VERTEX
  8
B-448.PLT
 62
7
 10
21.93348047
 20
9.35687305
  0
VERTEX
  8
B-448.PLT
 62
7
 10
21.95534375
 20
9.33826563
  0
VERTEX
  8
B-448.PLT
 62
7
 10
21.97828516
 20
9.32099414
  0
VERTEX
  8
B-448.PLT
 62
7
 10
22.00200000
 20
9.30500000
  0
VERTEX
  8
B-448.PLT
 62
7
 10
22.02901563
 20
9.29170312
  0
VERTEX
  8
B-448.PLT
 62
7
 10
22.05762500
 20
9.28187500
  0
VERTEX
  8
B-448.PLT
 62
7
 10
22.08567187
 20
9.27110938
  0
VERTEX
  8
B-448.PLT
 62
7
 10
22.11100000
 20
9.25500000
  0
VERTEX
  8
B-448.PLT
 62
7
 10
22.13382813
 20
9.23164063
  0
VERTEX
  8
B-448.PLT
 62
7
 10
22.15262500
 20
9.20537500
  0
VERTEX
  8
B-448.PLT
 62
7
 10
22.16710937
 20
9.17667188
  0
VERTEX
  8
B-448.PLT
 62
7
 10
22.17700000
 20
9.14600000
  0
VERTEX
  8
B-448.PLT
 62
7
 10
22.14400000
 20
9.14225000
  0
VERTEX
  8
B-448.PLT
 62
7
 10
22.11100000
 20
9.14600000
  0
VERTEX
  8
B-448.PLT
 62
7
 10
22.09442187
 20
9.15149609
  0
VERTEX
  8
B-448.PLT
 62
7
 10
22.07962500
 20
9.15996875
  0
VERTEX
  8
B-448.PLT
 62
7
 10
22.06614062
 20
9.17064453
  0
VERTEX
  8
B-448.PLT
 62
7
 10
22.05350000
 20
9.18275000
  0
VERTEX
  8
B-448.PLT
 62
7
 10
22.04123437
 20
9.19551172
  0
VERTEX
  8
B-448.PLT
 62
7
 10
22.02887500
 20
9.20815625
  0
VERTEX
  8
B-448.PLT
 62
7
 10
22.01595312
 20
9.21991016
  0
VERTEX
  8
B-448.PLT
 62
7
 10
22.00200000
 20
9.23000000
  0
VERTEX
  8
B-448.PLT
 62
7
 10
21.97366602
 20
9.24554883
  0
VERTEX
  8
B-448.PLT
 62
7
 10
21.94426563
 20
9.25801563
  0
VERTEX
  8
B-448.PLT
 62
7
 10
21.91395117
 20
9.26788086
  0
VERTEX
  8
B-448.PLT
 62
7
 10
21.88287500
 20
9.27562500
  0
VERTEX
  8
B-448.PLT
 62
7
 10
21.85118945
 20
9.28172852
  0
VERTEX
  8
B-448.PLT
 62
7
 10
21.81904688
 20
9.28667187
  0
VERTEX
  8
B-448.PLT
 62
7
 10
21.78659961
 20
9.29093555
  0
VERTEX
  8
B-448.PLT
 62
7
 10
21.75400000
 20
9.29500000
  0
VERTEX
  8
B-448.PLT
 62
7
 10
21.70960937
 20
9.29675000
  0
VERTEX
  8
B-448.PLT
 62
7
 10
21.66962500
 20
9.29175000
  0
VERTEX
  8
B-448.PLT
 62
7
 10
21.62982813
 20
9.28262500
  0
VERTEX
  8
B-448.PLT
 62
7
 10
21.58600000
 20
9.27200000
  0
VERTEX
  8
B-448.PLT
 62
7
 10
21.60900000
 20
9.18000000
  0
VERTEX
  8
B-448.PLT
 62
7
 10
21.54200000
 20
9.13800000
  0
VERTEX
  8
B-448.PLT
 62
7
 10
21.51342969
 20
9.12530078
  0
VERTEX
  8
B-448.PLT
 62
7
 10
21.48406250
 20
9.11496875
  0
VERTEX
  8
B-448.PLT
 62
7
 10
21.45403906
 20
9.10702734
  0
VERTEX
  8
B-448.PLT
 62
7
 10
21.42350000
 20
9.10150000
  0
VERTEX
  8
B-448.PLT
 62
7
 10
21.39258594
 20
9.09841016
  0
VERTEX
  8
B-448.PLT
 62
7
 10
21.36143750
 20
9.09778125
  0
VERTEX
  8
B-448.PLT
 62
7
 10
21.33019531
 20
9.09963672
  0
VERTEX
  8
B-448.PLT
 62
7
 10
21.29900000
 20
9.10400000
  0
VERTEX
  8
B-448.PLT
 62
7
 10
21.30622070
 20
9.07771680
  0
VERTEX
  8
B-448.PLT
 62
7
 10
21.31570312
 20
9.05348438
  0
VERTEX
  8
B-448.PLT
 62
7
 10
21.32717773
 20
9.03110352
  0
VERTEX
  8
B-448.PLT
 62
7
 10
21.34037500
 20
9.01037500
  0
VERTEX
  8
B-448.PLT
 62
7
 10
21.35502539
 20
8.99109961
  0
VERTEX
  8
B-448.PLT
 62
7
 10
21.37085937
 20
8.97307813
  0
VERTEX
  8
B-448.PLT
 62
7
 10
21.38760742
 20
8.95611133
  0
VERTEX
  8
B-448.PLT
 62
7
 10
21.40500000
 20
8.94000000
  0
VERTEX
  8
B-448.PLT
 62
7
 10
21.43290625
 20
8.91632617
  0
VERTEX
  8
B-448.PLT
 62
7
 10
21.46250000
 20
8.89367188
  0
VERTEX
  8
B-448.PLT
 62
7
 10
21.49359375
 20
8.87258789
  0
VERTEX
  8
B-448.PLT
 62
7
 10
21.52600000
 20
8.85362500
  0
VERTEX
  8
B-448.PLT
 62
7
 10
21.55953125
 20
8.83733398
  0
VERTEX
  8
B-448.PLT
 62
7
 10
21.59400000
 20
8.82426563
  0
VERTEX
  8
B-448.PLT
 62
7
 10
21.62921875
 20
8.81497070
  0
VERTEX
  8
B-448.PLT
 62
7
 10
21.66500000
 20
8.81000000
  0
VERTEX
  8
B-448.PLT
 62
7
 10
21.65900000
 20
8.71100000
  0
VERTEX
  8
B-448.PLT
 62
7
 10
21.70281250
 20
8.70425000
  0
VERTEX
  8
B-448.PLT
 62
7
 10
21.74700000
 20
8.70200000
  0
VERTEX
  8
B-448.PLT
 62
7
 10
21.79118750
 20
8.70425000
  0
VERTEX
  8
B-448.PLT
 62
7
 10
21.83500000
 20
8.71100000
  0
VERTEX
  8
B-448.PLT
 62
7
 10
21.86387305
 20
8.71818555
  0
VERTEX
  8
B-448.PLT
 62
7
 10
21.89198438
 20
8.72760938
  0
VERTEX
  8
B-448.PLT
 62
7
 10
21.91932227
 20
8.73907227
  0
VERTEX
  8
B-448.PLT
 62
7
 10
21.94587500
 20
8.75237500
  0
VERTEX
  8
B-448.PLT
 62
7
 10
21.97163086
 20
8.76731836
  0
VERTEX
  8
B-448.PLT
 62
7
 10
21.99657812
 20
8.78370313
  0
VERTEX
  8
B-448.PLT
 62
7
 10
22.02070508
 20
8.80133008
  0
VERTEX
  8
B-448.PLT
 62
7
 10
22.04400000
 20
8.82000000
  0
VERTEX
  8
B-448.PLT
 62
7
 10
22.05860742
 20
8.83464063
  0
VERTEX
  8
B-448.PLT
 62
7
 10
22.07142187
 20
8.85106250
  0
VERTEX
  8
B-448.PLT
 62
7
 10
22.08318164
 20
8.86851563
  0
VERTEX
  8
B-448.PLT
 62
7
 10
22.09462500
 20
8.88625000
  0
VERTEX
  8
B-448.PLT
 62
7
 10
22.10649023
 20
8.90351563
  0
VERTEX
  8
B-448.PLT
 62
7
 10
22.11951562
 20
8.91956250
  0
VERTEX
  8
B-448.PLT
 62
7
 10
22.13443945
 20
8.93364063
  0
VERTEX
  8
B-448.PLT
 62
7
 10
22.15200000
 20
8.94500000
  0
VERTEX
  8
B-448.PLT
 62
7
 10
22.17410938
 20
8.95495312
  0
VERTEX
  8
B-448.PLT
 62
7
 10
22.19687500
 20
8.96237500
  0
VERTEX
  8
B-448.PLT
 62
7
 10
22.22020313
 20
8.96735937
  0
VERTEX
  8
B-448.PLT
 62
7
 10
22.24400000
 20
8.97000000
  0
VERTEX
  8
B-448.PLT
 62
7
 10
22.25945898
 20
8.96919458
  0
VERTEX
  8
B-448.PLT
 62
7
 10
22.27504688
 20
8.96510352
  0
VERTEX
  8
B-448.PLT
 62
7
 10
22.29070508
 20
8.95802710
  0
VERTEX
  8
B-448.PLT
 62
7
 10
22.30637500
 20
8.94826562
  0
VERTEX
  8
B-448.PLT
 62
7
 10
22.32199805
 20
8.93611938
  0
VERTEX
  8
B-448.PLT
 62
7
 10
22.33751563
 20
8.92188867
  0
VERTEX
  8
B-448.PLT
 62
7
 10
22.35286914
 20
8.90587378
  0
VERTEX
  8
B-448.PLT
 62
7
 10
22.36800000
 20
8.88837500
  0
VERTEX
  8
B-448.PLT
 62
7
 10
22.38284961
 20
8.86969263
  0
VERTEX
  8
B-448.PLT
 62
7
 10
22.39735938
 20
8.85012695
  0
VERTEX
  8
B-448.PLT
 62
7
 10
22.41147070
 20
8.82997827
  0
VERTEX
  8
B-448.PLT
 62
7
 10
22.42512500
 20
8.80954688
  0
VERTEX
  8
B-448.PLT
 62
7
 10
22.43826367
 20
8.78913306
  0
VERTEX
  8
B-448.PLT
 62
7
 10
22.45082813
 20
8.76903711
  0
VERTEX
  8
B-448.PLT
 62
7
 10
22.46275977
 20
8.74955933
  0
VERTEX
  8
B-448.PLT
 62
7
 10
22.47400000
 20
8.73100000
  0
VERTEX
  8
B-448.PLT
 62
7
 10
22.51778125
 20
8.65560937
  0
VERTEX
  8
B-448.PLT
 62
7
 10
22.55350000
 20
8.58387500
  0
VERTEX
  8
B-448.PLT
 62
7
 10
22.58396875
 20
8.50445312
  0
VERTEX
  8
B-448.PLT
 62
7
 10
22.61200000
 20
8.40600000
  0
VERTEX
  8
B-448.PLT
 62
7
 10
22.64209375
 20
8.42354687
  0
VERTEX
  8
B-448.PLT
 62
7
 10
22.67275000
 20
8.44212500
  0
VERTEX
  8
B-448.PLT
 62
7
 10
22.70228125
 20
8.46239062
  0
VERTEX
  8
B-448.PLT
 62
7
 10
22.72900000
 20
8.48500000
  0
VERTEX
  8
B-448.PLT
 62
7
 10
22.74749805
 20
8.50494141
  0
VERTEX
  8
B-448.PLT
 62
7
 10
22.76392188
 20
8.52640625
  0
VERTEX
  8
B-448.PLT
 62
7
 10
22.77816602
 20
8.54923047
  0
VERTEX
  8
B-448.PLT
 62
7
 10
22.79012500
 20
8.57325000
  0
VERTEX
  8
B-448.PLT
 62
7
 10
22.79969336
 20
8.59830078
  0
VERTEX
  8
B-448.PLT
 62
7
 10
22.80676563
 20
8.62421875
  0
VERTEX
  8
B-448.PLT
 62
7
 10
22.81123633
 20
8.65083984
  0
VERTEX
  8
B-448.PLT
 62
7
 10
22.81300000
 20
8.67800000
  0
SEQEND
  0
POLYLINE
  8
B-448.PLT
 62
7
 66
1
 70
1
  0
VERTEX
  8
B-448.PLT
 62
7
 10
20.68000000
 20
10.48400000
  0
VERTEX
  8
B-448.PLT
 62
7
 10
20.60331250
 20
10.49564063
  0
VERTEX
  8
B-448.PLT
 62
7
 10
20.52625000
 20
10.50362500
  0
VERTEX
  8
B-448.PLT
 62
7
 10
20.44881250
 20
10.50804688
  0
VERTEX
  8
B-448.PLT
 62
7
 10
20.37100000
 20
10.50900000
  0
VERTEX
  8
B-448.PLT
 62
7
 10
20.28233789
 20
10.50595898
  0
VERTEX
  8
B-448.PLT
 62
7
 10
20.19420313
 20
10.49835938
  0
VERTEX
  8
B-448.PLT
 62
7
 10
20.10674805
 20
10.48623633
  0
VERTEX
  8
B-448.PLT
 62
7
 10
20.02012500
 20
10.46962500
  0
VERTEX
  8
B-448.PLT
 62
7
 10
19.93448633
 20
10.44856055
  0
VERTEX
  8
B-448.PLT
 62
7
 10
19.84998437
 20
10.42307813
  0
VERTEX
  8
B-448.PLT
 62
7
 10
19.76677148
 20
10.39321289
  0
VERTEX
  8
B-448.PLT
 62
7
 10
19.68500000
 20
10.35900000
  0
VERTEX
  8
B-448.PLT
 62
7
 10
19.81900000
 20
10.24200000
  0
VERTEX
  8
B-448.PLT
 62
7
 10
19.87078125
 20
10.26873437
  0
VERTEX
  8
B-448.PLT
 62
7
 10
19.92200000
 20
10.29612500
  0
VERTEX
  8
B-448.PLT
 62
7
 10
19.97396875
 20
10.32145313
  0
VERTEX
  8
B-448.PLT
 62
7
 10
20.02800000
 20
10.34200000
  0
VERTEX
  8
B-448.PLT
 62
7
 10
20.08943750
 20
10.35812500
  0
VERTEX
  8
B-448.PLT
 62
7
 10
20.15200000
 20
10.36900000
  0
VERTEX
  8
B-448.PLT
 62
7
 10
20.21531250
 20
10.37462500
  0
VERTEX
  8
B-448.PLT
 62
7
 10
20.27900000
 20
10.37500000
  0
VERTEX
  8
B-448.PLT
 62
7
 10
20.22790625
 20
10.35178125
  0
VERTEX
  8
B-448.PLT
 62
7
 10
20.17625000
 20
10.32950000
  0
VERTEX
  8
B-448.PLT
 62
7
 10
20.12571875
 20
10.30496875
  0
VERTEX
  8
B-448.PLT
 62
7
 10
20.07800000
 20
10.27500000
  0
VERTEX
  8
B-448.PLT
 62
7
 10
20.06331592
 20
10.26353052
  0
VERTEX
  8
B-448.PLT
 62
7
 10
20.04818359
 20
10.25074414
  0
VERTEX
  8
B-448.PLT
 62
7
 10
20.03267041
 20
10.23701147
  0
VERTEX
  8
B-448.PLT
 62
7
 10
20.01684375
 20
10.22270313
  0
VERTEX
  8
B-448.PLT
 62
7
 10
20.00077100
 20
10.20818970
  0
VERTEX
  8
B-448.PLT
 62
7
 10
19.98451953
 20
10.19384180
  0
VERTEX
  8
B-448.PLT
 62
7
 10
19.96815674
 20
10.18003003
  0
VERTEX
  8
B-448.PLT
 62
7
 10
19.95175000
 20
10.16712500
  0
VERTEX
  8
B-448.PLT
 62
7
 10
19.93536670
 20
10.15549731
  0
VERTEX
  8
B-448.PLT
 62
7
 10
19.91907422
 20
10.14551758
  0
VERTEX
  8
B-448.PLT
 62
7
 10
19.90293994
 20
10.13755640
  0
VERTEX
  8
B-448.PLT
 62
7
 10
19.88703125
 20
10.13198438
  0
VERTEX
  8
B-448.PLT
 62
7
 10
19.87141553
 20
10.12917212
  0
VERTEX
  8
B-448.PLT
 62
7
 10
19.85616016
 20
10.12949023
  0
VERTEX
  8
B-448.PLT
 62
7
 10
19.84133252
 20
10.13330933
  0
VERTEX
  8
B-448.PLT
 62
7
 10
19.82700000
 20
10.14100000
  0
VERTEX
  8
B-448.PLT
 62
7
 10
19.80664258
 20
10.14904688
  0
VERTEX
  8
B-448.PLT
 62
7
 10
19.78864062
 20
10.16056250
  0
VERTEX
  8
B-448.PLT
 62
7
 10
19.77234961
 20
10.17460937
  0
VERTEX
  8
B-448.PLT
 62
7
 10
19.75712500
 20
10.19025000
  0
VERTEX
  8
B-448.PLT
 62
7
 10
19.74232227
 20
10.20654688
  0
VERTEX
  8
B-448.PLT
 62
7
 10
19.72729688
 20
10.22256250
  0
VERTEX
  8
B-448.PLT
 62
7
 10
19.71140430
 20
10.23735938
  0
VERTEX
  8
B-448.PLT
 62
7
 10
19.69400000
 20
10.25000000
  0
VERTEX
  8
B-448.PLT
 62
7
 10
19.65048438
 20
10.27493750
  0
VERTEX
  8
B-448.PLT
 62
7
 10
19.60537500
 20
10.29650000
  0
VERTEX
  8
B-448.PLT
 62
7
 10
19.55857813
 20
10.31356250
  0
VERTEX
  8
B-448.PLT
 62
7
 10
19.51000000
 20
10.32500000
  0
VERTEX
  8
B-448.PLT
 62
7
 10
19.46395313
 20
10.33007813
  0
VERTEX
  8
B-448.PLT
 62
7
 10
19.41762500
 20
10.33037500
  0
VERTEX
  8
B-448.PLT
 62
7
 10
19.37148438
 20
10.32598438
  0
VERTEX
  8
B-448.PLT
 62
7
 10
19.32600000
 20
10.31700000
  0
VERTEX
  8
B-448.PLT
 62
7
 10
19.34200000
 20
10.24200000
  0
VERTEX
  8
B-448.PLT
 62
7
 10
19.30995313
 20
10.23935937
  0
VERTEX
  8
B-448.PLT
 62
7
 10
19.27837500
 20
10.23437500
  0
VERTEX
  8
B-448.PLT
 62
7
 10
19.24735937
 20
10.22695313
  0
VERTEX
  8
B-448.PLT
 62
7
 10
19.21700000
 20
10.21700000
  0
VERTEX
  8
B-448.PLT
 62
7
 10
19.20034766
 20
10.20938672
  0
VERTEX
  8
B-448.PLT
 62
7
 10
19.18465625
 20
10.19978125
  0
VERTEX
  8
B-448.PLT
 62
7
 10
19.16957422
 20
10.18891016
  0
VERTEX
  8
B-448.PLT
 62
7
 10
19.15475000
 20
10.17750000
  0
VERTEX
  8
B-448.PLT
 62
7
 10
19.13983203
 20
10.16627734
  0
VERTEX
  8
B-448.PLT
 62
7
 10
19.12446875
 20
10.15596875
  0
VERTEX
  8
B-448.PLT
 62
7
 10
19.10830859
 20
10.14730078
  0
VERTEX
  8
B-448.PLT
 62
7
 10
19.09100000
 20
10.14100000
  0
VERTEX
  8
B-448.PLT
 62
7
 10
19.04915625
 20
10.13312500
  0
VERTEX
  8
B-448.PLT
 62
7
 10
19.00675000
 20
10.13200000
  0
VERTEX
  8
B-448.PLT
 62
7
 10
18.96471875
 20
10.13762500
  0
VERTEX
  8
B-448.PLT
 62
7
 10
18.92400000
 20
10.15000000
  0
VERTEX
  8
B-448.PLT
 62
7
 10
18.93372070
 20
10.12667188
  0
VERTEX
  8
B-448.PLT
 62
7
 10
18.94232813
 20
10.10268750
  0
VERTEX
  8
B-448.PLT
 62
7
 10
18.95049023
 20
10.07842188
  0
VERTEX
  8
B-448.PLT
 62
7
 10
18.95887500
 20
10.05425000
  0
VERTEX
  8
B-448.PLT
 62
7
 10
18.96815039
 20
10.03054688
  0
VERTEX
  8
B-448.PLT
 62
7
 10
18.97898438
 20
10.00768750
  0
VERTEX
  8
B-448.PLT
 62
7
 10
18.99204492
 20
9.98604687
  0
VERTEX
  8
B-448.PLT
 62
7
 10
19.00800000
 20
9.96600000
  0
VERTEX
  8
B-448.PLT
 62
7
 10
19.03740625
 20
9.93766602
  0
VERTEX
  8
B-448.PLT
 62
7
 10
19.06981250
 20
9.91351563
  0
VERTEX
  8
B-448.PLT
 62
7
 10
19.10475000
 20
9.89370117
  0
VERTEX
  8
B-448.PLT
 62
7
 10
19.14175000
 20
9.87837500
  0
VERTEX
  8
B-448.PLT
 62
7
 10
19.18034375
 20
9.86768945
  0
VERTEX
  8
B-448.PLT
 62
7
 10
19.22006250
 20
9.86179687
  0
VERTEX
  8
B-448.PLT
 62
7
 10
19.26043750
 20
9.86084961
  0
VERTEX
  8
B-448.PLT
 62
7
 10
19.30100000
 20
9.86500000
  0
VERTEX
  8
B-448.PLT
 62
7
 10
19.29200000
 20
9.77300000
  0
VERTEX
  8
B-448.PLT
 62
7
 10
19.34757812
 20
9.76846875
  0
VERTEX
  8
B-448.PLT
 62
7
 10
19.40287500
 20
9.77125000
  0
VERTEX
  8
B-448.PLT
 62
7
 10
19.45723437
 20
9.78115625
  0
VERTEX
  8
B-448.PLT
 62
7
 10
19.51000000
 20
9.79800000
  0
VERTEX
  8
B-448.PLT
 62
7
 10
19.53429492
 20
9.81001758
  0
VERTEX
  8
B-448.PLT
 62
7
 10
19.55660938
 20
9.82514062
  0
VERTEX
  8
B-448.PLT
 62
7
 10
19.57758789
 20
9.84234961
  0
VERTEX
  8
B-448.PLT
 62
7
 10
19.59787500
 20
9.86062500
  0
VERTEX
  8
B-448.PLT
 62
7
 10
19.61811523
 20
9.87894727
  0
VERTEX
  8
B-448.PLT
 62
7
 10
19.63895313
 20
9.89629688
  0
VERTEX
  8
B-448.PLT
 62
7
 10
19.66103320
 20
9.91165430
  0
VERTEX
  8
B-448.PLT
 62
7
 10
19.68500000
 20
9.92400000
  0
VERTEX
  8
B-448.PLT
 62
7
 10
19.72175000
 20
9.93875000
  0
VERTEX
  8
B-448.PLT
 62
7
 10
19.76000000
 20
9.94900000
  0
VERTEX
  8
B-448.PLT
 62
7
 10
19.80200000
 20
9.95275000
  0
VERTEX
  8
B-448.PLT
 62
7
 10
19.84400000
 20
9.94900000
  0
VERTEX
  8
B-448.PLT
 62
7
 10
19.82735938
 20
9.91846875
  0
VERTEX
  8
B-448.PLT
 62
7
 10
19.80762500
 20
9.89000000
  0
VERTEX
  8
B-448.PLT
 62
7
 10
19.78507812
 20
9.86378125
  0
VERTEX
  8
B-448.PLT
 62
7
 10
19.76000000
 20
9.84000000
  0
VERTEX
  8
B-448.PLT
 62
7
 10
19.73815820
 20
9.82351367
  0
VERTEX
  8
B-448.PLT
 62
7
 10
19.71482813
 20
9.80973437
  0
VERTEX
  8
B-448.PLT
 62
7
 10
19.69030273
 20
9.79818164
  0
VERTEX
  8
B-448.PLT
 62
7
 10
19.66487500
 20
9.78837500
  0
VERTEX
  8
B-448.PLT
 62
7
 10
19.63883789
 20
9.77983398
  0
VERTEX
  8
B-448.PLT
 62
7
 10
19.61248438
 20
9.77207813
  0
VERTEX
  8
B-448.PLT
 62
7
 10
19.58610742
 20
9.76462695
  0
VERTEX
  8
B-448.PLT
 62
7
 10
19.56000000
 20
9.75700000
  0
VERTEX
  8
B-448.PLT
 62
7
 10
19.50821875
 20
9.74467187
  0
VERTEX
  8
B-448.PLT
 62
7
 10
19.45550000
 20
9.73637500
  0
VERTEX
  8
B-448.PLT
 62
7
 10
19.40278125
 20
9.72789063
  0
VERTEX
  8
B-448.PLT
 62
7
 10
19.35100000
 20
9.71500000
  0
VERTEX
  8
B-448.PLT
 62
7
 10
19.30340625
 20
9.69793750
  0
VERTEX
  8
B-448.PLT
 62
7
 10
19.25675000
 20
9.67825000
  0
VERTEX
  8
B-448.PLT
 62
7
 10
19.21121875
 20
9.65593750
  0
VERTEX
  8
B-448.PLT
 62
7
 10
19.16700000
 20
9.63100000
  0
VERTEX
  8
B-448.PLT
 62
7
 10
19.23400000
 20
9.58100000
  0
VERTEX
  8
B-448.PLT
 62
7
 10
19.21593750
 20
9.55762500
  0
VERTEX
  8
B-448.PLT
 62
7
 10
19.19825000
 20
9.53350000
  0
VERTEX
  8
B-448.PLT
 62
7
 10
19.17943750
 20
9.51012500
  0
VERTEX
  8
B-448.PLT
 62
7
 10
19.15800000
 20
9.48900000
  0
VERTEX
  8
B-448.PLT
 62
7
 10
19.13193359
 20
9.46937109
  0
VERTEX
  8
B-448.PLT
 62
7
 10
19.10415625
 20
9.45253125
  0
VERTEX
  8
B-448.PLT
 62
7
 10
19.07492578
 20
9.43855078
  0
VERTEX
  8
B-448.PLT
 62
7
 10
19.04450000
 20
9.42750000
  0
VERTEX
  8
B-448.PLT
 62
7
 10
19.01313672
 20
9.41944922
  0
VERTEX
  8
B-448.PLT
 62
7
 10
18.98109375
 20
9.41446875
  0
VERTEX
  8
B-448.PLT
 62
7
 10
18.94862891
 20
9.41262891
  0
VERTEX
  8
B-448.PLT
 62
7
 10
18.91600000
 20
9.41400000
  0
VERTEX
  8
B-448.PLT
 62
7
 10
18.93922070
 20
9.38721875
  0
VERTEX
  8
B-448.PLT
 62
7
 10
18.96132813
 20
9.35912500
  0
VERTEX
  8
B-448.PLT
 62
7
 10
18.98299023
 20
9.33046875
  0
VERTEX
  8
B-448.PLT
 62
7
 10
19.00487500
 20
9.30200000
  0
VERTEX
  8
B-448.PLT
 62
7
 10
19.02765039
 20
9.27446875
  0
VERTEX
  8
B-448.PLT
 62
7
 10
19.05198438
 20
9.24862500
  0
VERTEX
  8
B-448.PLT
 62
7
 10
19.07854492
 20
9.22521875
  0
VERTEX
  8
B-448.PLT
 62
7
 10
19.10800000
 20
9.20500000
  0
VERTEX
  8
B-448.PLT
 62
7
 10
19.14167188
 20
9.18682227
  0
VERTEX
  8
B-448.PLT
 62
7
 10
19.17656250
 20
9.17132813
  0
VERTEX
  8
B-448.PLT
 62
7
 10
19.21248437
 20
9.15857617
  0
VERTEX
  8
B-448.PLT
 62
7
 10
19.24925000
 20
9.14862500
  0
VERTEX
  8
B-448.PLT
 62
7
 10
19.28667188
 20
9.14153320
  0
VERTEX
  8
B-448.PLT
 62
7
 10
19.32456250
 20
9.13735938
  0
VERTEX
  8
B-448.PLT
 62
7
 10
19.36273437
 20
9.13616211
  0
VERTEX
  8
B-448.PLT
 62
7
 10
19.40100000
 20
9.13800000
  0
VERTEX
  8
B-448.PLT
 62
7
 10
19.40100000
 20
9.04600000
  0
VERTEX
  8
B-448.PLT
 62
7
 10
19.43557422
 20
9.05279102
  0
VERTEX
  8
B-448.PLT
 62
7
 10
19.46946875
 20
9.06189063
  0
VERTEX
  8
B-448.PLT
 62
7
 10
19.50256641
 20
9.07326367
  0
VERTEX
  8
B-448.PLT
 62
7
 10
19.53475000
 20
9.08687500
  0
VERTEX
  8
B-448.PLT
 62
7
 10
19.56590234
 20
9.10268945
  0
VERTEX
  8
B-448.PLT
 62
7
 10
19.59590625
 20
9.12067187
  0
VERTEX
  8
B-448.PLT
 62
7
 10
19.62464453
 20
9.14078711
  0
VERTEX
  8
B-448.PLT
 62
7
 10
19.65200000
 20
9.16300000
  0
VERTEX
  8
B-448.PLT
 62
7
 10
19.68065234
 20
9.19038672
  0
VERTEX
  8
B-448.PLT
 62
7
 10
19.70665625
 20
9.21990625
  0
VERTEX
  8
B-448.PLT
 62
7
 10
19.73008203
 20
9.25134766
  0
VERTEX
  8
B-448.PLT
 62
7
 10
19.75100000
 20
9.28450000
  0
VERTEX
  8
B-448.PLT
 62
7
 10
19.76948047
 20
9.31915234
  0
VERTEX
  8
B-448.PLT
 62
7
 10
19.78559375
 20
9.35509375
  0
VERTEX
  8
B-448.PLT
 62
7
 10
19.79941016
 20
9.39211328
  0
VERTEX
  8
B-448.PLT
 62
7
 10
19.81100000
 20
9.43000000
  0
VERTEX
  8
B-448.PLT
 62
7
 10
19.81689648
 20
9.45992383
  0
VERTEX
  8
B-448.PLT
 62
7
 10
19.81898437
 20
9.49032812
  0
VERTEX
  8
B-448.PLT
 62
7
 10
19.81861133
 20
9.52103711
  0
VERTEX
  8
B-448.PLT
 62
7
 10
19.81712500
 20
9.55187500
  0
VERTEX
  8
B-448.PLT
 62
7
 10
19.81587305
 20
9.58266602
  0
VERTEX
  8
B-448.PLT
 62
7
 10
19.81620313
 20
9.61323437
  0
VERTEX
  8
B-448.PLT
 62
7
 10
19.81946289
 20
9.64340430
  0
VERTEX
  8
B-448.PLT
 62
7
 10
19.82700000
 20
9.67300000
  0
VERTEX
  8
B-448.PLT
 62
7
 10
19.84531250
 20
9.71850000
  0
VERTEX
  8
B-448.PLT
 62
7
 10
19.86850000
 20
9.76175000
  0
VERTEX
  8
B-448.PLT
 62
7
 10
19.89618750
 20
9.80237500
  0
VERTEX
  8
B-448.PLT
 62
7
 10
19.92800000
 20
9.84000000
  0
VERTEX
  8
B-448.PLT
 62
7
 10
19.94462500
 20
9.81250000
  0
VERTEX
  8
B-448.PLT
 62
7
 10
19.95300000
 20
9.78200000
  0
VERTEX
  8
B-448.PLT
 62
7
 10
19.95245313
 20
9.76225000
  0
VERTEX
  8
B-448.PLT
 62
7
 10
19.94787500
 20
9.74325000
  0
VERTEX
  8
B-448.PLT
 62
7
 10
19.94160937
 20
9.72462500
  0
VERTEX
  8
B-448.PLT
 62
7
 10
19.93600000
 20
9.70600000
  0
VERTEX
  8
B-448.PLT
 62
7
 10
19.93009375
 20
9.68320508
  0
VERTEX
  8
B-448.PLT
 62
7
 10
19.92325000
 20
9.66051563
  0
VERTEX
  8
B-448.PLT
 62
7
 10
19.91603125
 20
9.63784961
  0
VERTEX
  8
B-448.PLT
 62
7
 10
19.90900000
 20
9.61512500
  0
VERTEX
  8
B-448.PLT
 62
7
 10
19.90271875
 20
9.59225977
  0
VERTEX
  8
B-448.PLT
 62
7
 10
19.89775000
 20
9.56917188
  0
VERTEX
  8
B-448.PLT
 62
7
 10
19.89465625
 20
9.54577930
  0
VERTEX
  8
B-448.PLT
 62
7
 10
19.89400000
 20
9.52200000
  0
VERTEX
  8
B-448.PLT
 62
7
 10
19.89679688
 20
9.48697656
  0
VERTEX
  8
B-448.PLT
 62
7
 10
19.90287500
 20
9.45256250
  0
VERTEX
  8
B-448.PLT
 62
7
 10
19.91214062
 20
9.41899219
  0
VERTEX
  8
B-448.PLT
 62
7
 10
19.92450000
 20
9.38650000
  0
VERTEX
  8
B-448.PLT
 62
7
 10
19.93985938
 20
9.35532031
  0
VERTEX
  8
B-448.PLT
 62
7
 10
19.95812500
 20
9.32568750
  0
VERTEX
  8
B-448.PLT
 62
7
 10
19.97920313
 20
9.29783594
  0
VERTEX
  8
B-448.PLT
 62
7
 10
20.00300000
 20
9.27200000
  0
VERTEX
  8
B-448.PLT
 62
7
 10
20.10300000
 20
9.30500000
  0
VERTEX
  8
B-448.PLT
 62
7
 10
20.13329297
 20
9.29829883
  0
VERTEX
  8
B-448.PLT
 62
7
 10
20.16346875
 20
9.29057812
  0
VERTEX
  8
B-448.PLT
 62
7
 10
20.19359766
 20
9.28241211
  0
VERTEX
  8
B-448.PLT
 62
7
 10
20.22375000
 20
9.27437500
  0
VERTEX
  8
B-448.PLT
 62
7
 10
20.25399609
 20
9.26704102
  0
VERTEX
  8
B-448.PLT
 62
7
 10
20.28440625
 20
9.26098437
  0
VERTEX
  8
B-448.PLT
 62
7
 10
20.31505078
 20
9.25677930
  0
VERTEX
  8
B-448.PLT
 62
7
 10
20.34600000
 20
9.25500000
  0
VERTEX
  8
B-448.PLT
 62
7
 10
20.39495313
 20
9.25644336
  0
VERTEX
  8
B-448.PLT
 62
7
 10
20.44343750
 20
9.26148438
  0
VERTEX
  8
B-448.PLT
 62
7
 10
20.49126563
 20
9.27006445
  0
VERTEX
  8
B-448.PLT
 62
7
 10
20.53825000
 20
9.28212500
  0
VERTEX
  8
B-448.PLT
 62
7
 10
20.58420312
 20
9.29760742
  0
VERTEX
  8
B-448.PLT
 62
7
 10
20.62893750
 20
9.31645313
  0
VERTEX
  8
B-448.PLT
 62
7
 10
20.67226563
 20
9.33860352
  0
VERTEX
  8
B-448.PLT
 62
7
 10
20.71400000
 20
9.36400000
  0
VERTEX
  8
B-448.PLT
 62
7
 10
20.67746875
 20
9.38610938
  0
VERTEX
  8
B-448.PLT
 62
7
 10
20.64075000
 20
9.40737500
  0
VERTEX
  8
B-448.PLT
 62
7
 10
20.60515625
 20
9.42995313
  0
VERTEX
  8
B-448.PLT
 62
7
 10
20.57200000
 20
9.45600000
  0
VERTEX
  8
B-448.PLT
 62
7
 10
20.53768750
 20
9.48956250
  0
VERTEX
  8
B-448.PLT
 62
7
 10
20.50675000
 20
9.52575000
  0
VERTEX
  8
B-448.PLT
 62
7
 10
20.47918750
 20
9.56456250
  0
VERTEX
  8
B-448.PLT
 62
7
 10
20.45500000
 20
9.60600000
  0
VERTEX
  8
B-448.PLT
 62
7
 10
20.53800000
 20
9.68100000
  0
VERTEX
  8
B-448.PLT
 62
7
 10
20.52082813
 20
9.72539062
  0
VERTEX
  8
B-448.PLT
 62
7
 10
20.49812500
 20
9.76687500
  0
VERTEX
  8
B-448.PLT
 62
7
 10
20.47035938
 20
9.80517187
  0
VERTEX
  8
B-448.PLT
 62
7
 10
20.43800000
 20
9.84000000
  0
VERTEX
  8
B-448.PLT
 62
7
 10
20.41138281
 20
9.86209961
  0
VERTEX
  8
B-448.PLT
 62
7
 10
20.38275000
 20
9.88067188
  0
VERTEX
  8
B-448.PLT
 62
7
 10
20.35242969
 20
9.89612695
  0
VERTEX
  8
B-448.PLT
 62
7
 10
20.32075000
 20
9.90887500
  0
VERTEX
  8
B-448.PLT
 62
7
 10
20.28803906
 20
9.91932617
  0
VERTEX
  8
B-448.PLT
 62
7
 10
20.25462500
 20
9.92789062
  0
VERTEX
  8
B-448.PLT
 62
7
 10
20.22083594
 20
9.93497852
  0
VERTEX
  8
B-448.PLT
 62
7
 10
20.18700000
 20
9.94100000
  0
VERTEX
  8
B-448.PLT
 62
7
 10
20.17518799
 20
9.94215186
  0
VERTEX
  8
B-448.PLT
 62
7
 10
20.16112891
 20
9.94243359
  0
VERTEX
  8
B-448.PLT
 62
7
 10
20.14538818
 20
9.94214697
  0
VERTEX
  8
B-448.PLT
 62
7
 10
20.12853125
 20
9.94159375
  0
VERTEX
  8
B-448.PLT
 62
7
 10
20.11112354
 20
9.94107568
  0
VERTEX
  8
B-448.PLT
 62
7
 10
20.09373047
 20
9.94089453
  0
VERTEX
  8
B-448.PLT
 62
7
 10
20.07691748
 20
9.94135205
  0
VERTEX
  8
B-448.PLT
 62
7
 10
20.06125000
 20
9.94275000
  0
VERTEX
  8
B-448.PLT
 62
7
 10
20.04729346
 20
9.94539014
  0
VERTEX
  8
B-448.PLT
 62
7
 10
20.03561328
 20
9.94957422
  0
VERTEX
  8
B-448.PLT
 62
7
 10
20.02677490
 20
9.95560400
  0
VERTEX
  8
B-448.PLT
 62
7
 10
20.02134375
 20
9.96378125
  0
VERTEX
  8
B-448.PLT
 62
7
 10
20.01988525
 20
9.97440771
  0
VERTEX
  8
B-448.PLT
 62
7
 10
20.02296484
 20
9.98778516
  0
VERTEX
  8
B-448.PLT
 62
7
 10
20.03114795
 20
10.00421533
  0
VERTEX
  8
B-448.PLT
 62
7
 10
20.04500000
 20
10.02400000
  0
VERTEX
  8
B-448.PLT
 62
7
 10
20.27900000
 20
10.22500000
  0
VERTEX
  8
B-448.PLT
 62
7
 10
20.29734180
 20
10.24136328
  0
VERTEX
  8
B-448.PLT
 62
7
 10
20.31510937
 20
10.25859375
  0
VERTEX
  8
B-448.PLT
 62
7
 10
20.33266602
 20
10.27615234
  0
VERTEX
  8
B-448.PLT
 62
7
 10
20.35037500
 20
10.29350000
  0
VERTEX
  8
B-448.PLT
 62
7
 10
20.36859961
 20
10.31009766
  0
VERTEX
  8
B-448.PLT
 62
7
 10
20.38770313
 20
10.32540625
  0
VERTEX
  8
B-448.PLT
 62
7
 10
20.40804883
 20
10.33888672
  0
VERTEX
  8
B-448.PLT
 62
7
 10
20.43000000
 20
10.35000000
  0
VERTEX
  8
B-448.PLT
 62
7
 10
20.49450000
 20
10.35731250
  0
VERTEX
  8
B-448.PLT
 62
7
 10
20.56200000
 20
10.36050000
  0
VERTEX
  8
B-448.PLT
 62
7
 10
20.63025000
 20
10.35843750
  0
VERTEX
  8
B-448.PLT
 62
7
 10
20.69700000
 20
10.35000000
  0
SEQEND
  0
POLYLINE
  8
B-448.PLT
 62
7
 66
1
 70
1
  0
VERTEX
  8
B-448.PLT
 62
7
 10
3.32000000
 20
10.48400000
  0
VERTEX
  8
B-448.PLT
 62
7
 10
3.30300000
 20
10.35000000
  0
VERTEX
  8
B-448.PLT
 62
7
 10
3.36975000
 20
10.35843750
  0
VERTEX
  8
B-448.PLT
 62
7
 10
3.43800000
 20
10.36050000
  0
VERTEX
  8
B-448.PLT
 62
7
 10
3.50550000
 20
10.35731250
  0
VERTEX
  8
B-448.PLT
 62
7
 10
3.57000000
 20
10.35000000
  0
VERTEX
  8
B-448.PLT
 62
7
 10
3.59195117
 20
10.33888672
  0
VERTEX
  8
B-448.PLT
 62
7
 10
3.61229688
 20
10.32540625
  0
VERTEX
  8
B-448.PLT
 62
7
 10
3.63140039
 20
10.31009766
  0
VERTEX
  8
B-448.PLT
 62
7
 10
3.64962500
 20
10.29350000
  0
VERTEX
  8
B-448.PLT
 62
7
 10
3.66733398
 20
10.27615234
  0
VERTEX
  8
B-448.PLT
 62
7
 10
3.68489063
 20
10.25859375
  0
VERTEX
  8
B-448.PLT
 62
7
 10
3.70265820
 20
10.24136328
  0
VERTEX
  8
B-448.PLT
 62
7
 10
3.72100000
 20
10.22500000
  0
VERTEX
  8
B-448.PLT
 62
7
 10
3.95500000
 20
10.02400000
  0
VERTEX
  8
B-448.PLT
 62
7
 10
3.96885205
 20
10.00421533
  0
VERTEX
  8
B-448.PLT
 62
7
 10
3.97703516
 20
9.98778516
  0
VERTEX
  8
B-448.PLT
 62
7
 10
3.98011475
 20
9.97440771
  0
VERTEX
  8
B-448.PLT
 62
7
 10
3.97865625
 20
9.96378125
  0
VERTEX
  8
B-448.PLT
 62
7
 10
3.97322510
 20
9.95560400
  0
VERTEX
  8
B-448.PLT
 62
7
 10
3.96438672
 20
9.94957422
  0
VERTEX
  8
B-448.PLT
 62
7
 10
3.95270654
 20
9.94539014
  0
VERTEX
  8
B-448.PLT
 62
7
 10
3.93875000
 20
9.94275000
  0
VERTEX
  8
B-448.PLT
 62
7
 10
3.92308252
 20
9.94135205
  0
VERTEX
  8
B-448.PLT
 62
7
 10
3.90626953
 20
9.94089453
  0
VERTEX
  8
B-448.PLT
 62
7
 10
3.88887646
 20
9.94107568
  0
VERTEX
  8
B-448.PLT
 62
7
 10
3.87146875
 20
9.94159375
  0
VERTEX
  8
B-448.PLT
 62
7
 10
3.85461182
 20
9.94214697
  0
VERTEX
  8
B-448.PLT
 62
7
 10
3.83887109
 20
9.94243359
  0
VERTEX
  8
B-448.PLT
 62
7
 10
3.82481201
 20
9.94215186
  0
VERTEX
  8
B-448.PLT
 62
7
 10
3.81300000
 20
9.94100000
  0
VERTEX
  8
B-448.PLT
 62
7
 10
3.77916406
 20
9.93497852
  0
VERTEX
  8
B-448.PLT
 62
7
 10
3.74537500
 20
9.92789062
  0
VERTEX
  8
B-448.PLT
 62
7
 10
3.71196094
 20
9.91932617
  0
VERTEX
  8
B-448.PLT
 62
7
 10
3.67925000
 20
9.90887500
  0
VERTEX
  8
B-448.PLT
 62
7
 10
3.64757031
 20
9.89612695
  0
VERTEX
  8
B-448.PLT
 62
7
 10
3.61725000
 20
9.88067188
  0
VERTEX
  8
B-448.PLT
 62
7
 10
3.58861719
 20
9.86209961
  0
VERTEX
  8
B-448.PLT
 62
7
 10
3.56200000
 20
9.84000000
  0
VERTEX
  8
B-448.PLT
 62
7
 10
3.52964062
 20
9.80517187
  0
VERTEX
  8
B-448.PLT
 62
7
 10
3.50187500
 20
9.76687500
  0
VERTEX
  8
B-448.PLT
 62
7
 10
3.47917188
 20
9.72539062
  0
VERTEX
  8
B-448.PLT
 62
7
 10
3.46200000
 20
9.68100000
  0
VERTEX
  8
B-448.PLT
 62
7
 10
3.54500000
 20
9.60600000
  0
VERTEX
  8
B-448.PLT
 62
7
 10
3.52081250
 20
9.56456250
  0
VERTEX
  8
B-448.PLT
 62
7
 10
3.49325000
 20
9.52575000
  0
VERTEX
  8
B-448.PLT
 62
7
 10
3.46231250
 20
9.48956250
  0
VERTEX
  8
B-448.PLT
 62
7
 10
3.42800000
 20
9.45600000
  0
VERTEX
  8
B-448.PLT
 62
7
 10
3.39484375
 20
9.42995313
  0
VERTEX
  8
B-448.PLT
 62
7
 10
3.35925000
 20
9.40737500
  0
VERTEX
  8
B-448.PLT
 62
7
 10
3.32253125
 20
9.38610938
  0
VERTEX
  8
B-448.PLT
 62
7
 10
3.28600000
 20
9.36400000
  0
VERTEX
  8
B-448.PLT
 62
7
 10
3.32773437
 20
9.33860352
  0
VERTEX
  8
B-448.PLT
 62
7
 10
3.37106250
 20
9.31645313
  0
VERTEX
  8
B-448.PLT
 62
7
 10
3.41579687
 20
9.29760742
  0
VERTEX
  8
B-448.PLT
 62
7
 10
3.46175000
 20
9.28212500
  0
VERTEX
  8
B-448.PLT
 62
7
 10
3.50873438
 20
9.27006445
  0
VERTEX
  8
B-448.PLT
 62
7
 10
3.55656250
 20
9.26148438
  0
VERTEX
  8
B-448.PLT
 62
7
 10
3.60504688
 20
9.25644336
  0
VERTEX
  8
B-448.PLT
 62
7
 10
3.65400000
 20
9.25500000
  0
VERTEX
  8
B-448.PLT
 62
7
 10
3.68494922
 20
9.25677930
  0
VERTEX
  8
B-448.PLT
 62
7
 10
3.71559375
 20
9.26098437
  0
VERTEX
  8
B-448.PLT
 62
7
 10
3.74600391
 20
9.26704102
  0
VERTEX
  8
B-448.PLT
 62
7
 10
3.77625000
 20
9.27437500
  0
VERTEX
  8
B-448.PLT
 62
7
 10
3.80640234
 20
9.28241211
  0
VERTEX
  8
B-448.PLT
 62
7
 10
3.83653125
 20
9.29057812
  0
VERTEX
  8
B-448.PLT
 62
7
 10
3.86670703
 20
9.29829883
  0
VERTEX
  8
B-448.PLT
 62
7
 10
3.89700000
 20
9.30500000
  0
VERTEX
  8
B-448.PLT
 62
7
 10
3.99700000
 20
9.27200000
  0
VERTEX
  8
B-448.PLT
 62
7
 10
4.02079688
 20
9.29783594
  0
VERTEX
  8
B-448.PLT
 62
7
 10
4.04187500
 20
9.32568750
  0
VERTEX
  8
B-448.PLT
 62
7
 10
4.06014062
 20
9.35532031
  0
VERTEX
  8
B-448.PLT
 62
7
 10
4.07550000
 20
9.38650000
  0
VERTEX
  8
B-448.PLT
 62
7
 10
4.08785937
 20
9.41899219
  0
VERTEX
  8
B-448.PLT
 62
7
 10
4.09712500
 20
9.45256250
  0
VERTEX
  8
B-448.PLT
 62
7
 10
4.10320313
 20
9.48697656
  0
VERTEX
  8
B-448.PLT
 62
7
 10
4.10600000
 20
9.52200000
  0
VERTEX
  8
B-448.PLT
 62
7
 10
4.10534375
 20
9.54577930
  0
VERTEX
  8
B-448.PLT
 62
7
 10
4.10225000
 20
9.56917188
  0
VERTEX
  8
B-448.PLT
 62
7
 10
4.09728125
 20
9.59225977
  0
VERTEX
  8
B-448.PLT
 62
7
 10
4.09100000
 20
9.61512500
  0
VERTEX
  8
B-448.PLT
 62
7
 10
4.08396875
 20
9.63784961
  0
VERTEX
  8
B-448.PLT
 62
7
 10
4.07675000
 20
9.66051563
  0
VERTEX
  8
B-448.PLT
 62
7
 10
4.06990625
 20
9.68320508
  0
VERTEX
  8
B-448.PLT
 62
7
 10
4.06400000
 20
9.70600000
  0
VERTEX
  8
B-448.PLT
 62
7
 10
4.05839063
 20
9.72462500
  0
VERTEX
  8
B-448.PLT
 62
7
 10
4.05212500
 20
9.74325000
  0
VERTEX
  8
B-448.PLT
 62
7
 10
4.04754688
 20
9.76225000
  0
VERTEX
  8
B-448.PLT
 62
7
 10
4.04700000
 20
9.78200000
  0
VERTEX
  8
B-448.PLT
 62
7
 10
4.05537500
 20
9.81250000
  0
VERTEX
  8
B-448.PLT
 62
7
 10
4.07200000
 20
9.84000000
  0
VERTEX
  8
B-448.PLT
 62
7
 10
4.10381250
 20
9.80237500
  0
VERTEX
  8
B-448.PLT
 62
7
 10
4.13150000
 20
9.76175000
  0
VERTEX
  8
B-448.PLT
 62
7
 10
4.15468750
 20
9.71850000
  0
VERTEX
  8
B-448.PLT
 62
7
 10
4.17300000
 20
9.67300000
  0
VERTEX
  8
B-448.PLT
 62
7
 10
4.18053711
 20
9.64340430
  0
VERTEX
  8
B-448.PLT
 62
7
 10
4.18379687
 20
9.61323437
  0
VERTEX
  8
B-448.PLT
 62
7
 10
4.18412695
 20
9.58266602
  0
VERTEX
  8
B-448.PLT
 62
7
 10
4.18287500
 20
9.55187500
  0
VERTEX
  8
B-448.PLT
 62
7
 10
4.18138867
 20
9.52103711
  0
VERTEX
  8
B-448.PLT
 62
7
 10
4.18101562
 20
9.49032812
  0
VERTEX
  8
B-448.PLT
 62
7
 10
4.18310352
 20
9.45992383
  0
VERTEX
  8
B-448.PLT
 62
7
 10
4.18900000
 20
9.43000000
  0
VERTEX
  8
B-448.PLT
 62
7
 10
4.20058984
 20
9.39211328
  0
VERTEX
  8
B-448.PLT
 62
7
 10
4.21440625
 20
9.35509375
  0
VERTEX
  8
B-448.PLT
 62
7
 10
4.23051953
 20
9.31915234
  0
VERTEX
  8
B-448.PLT
 62
7
 10
4.24900000
 20
9.28450000
  0
VERTEX
  8
B-448.PLT
 62
7
 10
4.26991797
 20
9.25134766
  0
VERTEX
  8
B-448.PLT
 62
7
 10
4.29334375
 20
9.21990625
  0
VERTEX
  8
B-448.PLT
 62
7
 10
4.31934766
 20
9.19038672
  0
VERTEX
  8
B-448.PLT
 62
7
 10
4.34800000
 20
9.16300000
  0
VERTEX
  8
B-448.PLT
 62
7
 10
4.37535547
 20
9.14078711
  0
VERTEX
  8
B-448.PLT
 62
7
 10
4.40409375
 20
9.12067187
  0
VERTEX
  8
B-448.PLT
 62
7
 10
4.43409766
 20
9.10268945
  0
VERTEX
  8
B-448.PLT
 62
7
 10
4.46525000
 20
9.08687500
  0
VERTEX
  8
B-448.PLT
 62
7
 10
4.49743359
 20
9.07326367
  0
VERTEX
  8
B-448.PLT
 62
7
 10
4.53053125
 20
9.06189063
  0
VERTEX
  8
B-448.PLT
 62
7
 10
4.56442578
 20
9.05279102
  0
VERTEX
  8
B-448.PLT
 62
7
 10
4.59900000
 20
9.04600000
  0
VERTEX
  8
B-448.PLT
 62
7
 10
4.59900000
 20
9.13800000
  0
VERTEX
  8
B-448.PLT
 62
7
 10
4.63726563
 20
9.13616211
  0
VERTEX
  8
B-448.PLT
 62
7
 10
4.67543750
 20
9.13735938
  0
VERTEX
  8
B-448.PLT
 62
7
 10
4.71332813
 20
9.14153320
  0
VERTEX
  8
B-448.PLT
 62
7
 10
4.75075000
 20
9.14862500
  0
VERTEX
  8
B-448.PLT
 62
7
 10
4.78751563
 20
9.15857617
  0
VERTEX
  8
B-448.PLT
 62
7
 10
4.82343750
 20
9.17132813
  0
VERTEX
  8
B-448.PLT
 62
7
 10
4.85832812
 20
9.18682227
  0
VERTEX
  8
B-448.PLT
 62
7
 10
4.89200000
 20
9.20500000
  0
VERTEX
  8
B-448.PLT
 62
7
 10
4.92145508
 20
9.22521875
  0
VERTEX
  8
B-448.PLT
 62
7
 10
4.94801563
 20
9.24862500
  0
VERTEX
  8
B-448.PLT
 62
7
 10
4.97234961
 20
9.27446875
  0
VERTEX
  8
B-448.PLT
 62
7
 10
4.99512500
 20
9.30200000
  0
VERTEX
  8
B-448.PLT
 62
7
 10
5.01700977
 20
9.33046875
  0
VERTEX
  8
B-448.PLT
 62
7
 10
5.03867188
 20
9.35912500
  0
VERTEX
  8
B-448.PLT
 62
7
 10
5.06077930
 20
9.38721875
  0
VERTEX
  8
B-448.PLT
 62
7
 10
5.08400000
 20
9.41400000
  0
VERTEX
  8
B-448.PLT
 62
7
 10
5.05137109
 20
9.41262891
  0
VERTEX
  8
B-448.PLT
 62
7
 10
5.01890625
 20
9.41446875
  0
VERTEX
  8
B-448.PLT
 62
7
 10
4.98686328
 20
9.41944922
  0
VERTEX
  8
B-448.PLT
 62
7
 10
4.95550000
 20
9.42750000
  0
VERTEX
  8
B-448.PLT
 62
7
 10
4.92507422
 20
9.43855078
  0
VERTEX
  8
B-448.PLT
 62
7
 10
4.89584375
 20
9.45253125
  0
VERTEX
  8
B-448.PLT
 62
7
 10
4.86806641
 20
9.46937109
  0
VERTEX
  8
B-448.PLT
 62
7
 10
4.84200000
 20
9.48900000
  0
VERTEX
  8
B-448.PLT
 62
7
 10
4.82056250
 20
9.51012500
  0
VERTEX
  8
B-448.PLT
 62
7
 10
4.80175000
 20
9.53350000
  0
VERTEX
  8
B-448.PLT
 62
7
 10
4.78406250
 20
9.55762500
  0
VERTEX
  8
B-448.PLT
 62
7
 10
4.76600000
 20
9.58100000
  0
VERTEX
  8
B-448.PLT
 62
7
 10
4.83300000
 20
9.63100000
  0
VERTEX
  8
B-448.PLT
 62
7
 10
4.78878125
 20
9.65593750
  0
VERTEX
  8
B-448.PLT
 62
7
 10
4.74325000
 20
9.67825000
  0
VERTEX
  8
B-448.PLT
 62
7
 10
4.69659375
 20
9.69793750
  0
VERTEX
  8
B-448.PLT
 62
7
 10
4.64900000
 20
9.71500000
  0
VERTEX
  8
B-448.PLT
 62
7
 10
4.59721875
 20
9.72789063
  0
VERTEX
  8
B-448.PLT
 62
7
 10
4.54450000
 20
9.73637500
  0
VERTEX
  8
B-448.PLT
 62
7
 10
4.49178125
 20
9.74467187
  0
VERTEX
  8
B-448.PLT
 62
7
 10
4.44000000
 20
9.75700000
  0
VERTEX
  8
B-448.PLT
 62
7
 10
4.41389258
 20
9.76462695
  0
VERTEX
  8
B-448.PLT
 62
7
 10
4.38751562
 20
9.77207813
  0
VERTEX
  8
B-448.PLT
 62
7
 10
4.36116211
 20
9.77983398
  0
VERTEX
  8
B-448.PLT
 62
7
 10
4.33512500
 20
9.78837500
  0
VERTEX
  8
B-448.PLT
 62
7
 10
4.30969727
 20
9.79818164
  0
VERTEX
  8
B-448.PLT
 62
7
 10
4.28517187
 20
9.80973437
  0
VERTEX
  8
B-448.PLT
 62
7
 10
4.26184180
 20
9.82351367
  0
VERTEX
  8
B-448.PLT
 62
7
 10
4.24000000
 20
9.84000000
  0
VERTEX
  8
B-448.PLT
 62
7
 10
4.21492187
 20
9.86378125
  0
VERTEX
  8
B-448.PLT
 62
7
 10
4.19237500
 20
9.89000000
  0
VERTEX
  8
B-448.PLT
 62
7
 10
4.17264062
 20
9.91846875
  0
VERTEX
  8
B-448.PLT
 62
7
 10
4.15600000
 20
9.94900000
  0
VERTEX
  8
B-448.PLT
 62
7
 10
4.19800000
 20
9.95275000
  0
VERTEX
  8
B-448.PLT
 62
7
 10
4.24000000
 20
9.94900000
  0
VERTEX
  8
B-448.PLT
 62
7
 10
4.27825000
 20
9.93875000
  0
VERTEX
  8
B-448.PLT
 62
7
 10
4.31500000
 20
9.92400000
  0
VERTEX
  8
B-448.PLT
 62
7
 10
4.33896680
 20
9.91165430
  0
VERTEX
  8
B-448.PLT
 62
7
 10
4.36104688
 20
9.89629688
  0
VERTEX
  8
B-448.PLT
 62
7
 10
4.38188477
 20
9.87894727
  0
VERTEX
  8
B-448.PLT
 62
7
 10
4.40212500
 20
9.86062500
  0
VERTEX
  8
B-448.PLT
 62
7
 10
4.42241211
 20
9.84234961
  0
VERTEX
  8
B-448.PLT
 62
7
 10
4.44339063
 20
9.82514062
  0
VERTEX
  8
B-448.PLT
 62
7
 10
4.46570508
 20
9.81001758
  0
VERTEX
  8
B-448.PLT
 62
7
 10
4.49000000
 20
9.79800000
  0
VERTEX
  8
B-448.PLT
 62
7
 10
4.54276563
 20
9.78115625
  0
VERTEX
  8
B-448.PLT
 62
7
 10
4.59712500
 20
9.77125000
  0
VERTEX
  8
B-448.PLT
 62
7
 10
4.65242187
 20
9.76846875
  0
VERTEX
  8
B-448.PLT
 62
7
 10
4.70800000
 20
9.77300000
  0
VERTEX
  8
B-448.PLT
 62
7
 10
4.69900000
 20
9.86500000
  0
VERTEX
  8
B-448.PLT
 62
7
 10
4.73956250
 20
9.86084961
  0
VERTEX
  8
B-448.PLT
 62
7
 10
4.77993750
 20
9.86179687
  0
VERTEX
  8
B-448.PLT
 62
7
 10
4.81965625
 20
9.86768945
  0
VERTEX
  8
B-448.PLT
 62
7
 10
4.85825000
 20
9.87837500
  0
VERTEX
  8
B-448.PLT
 62
7
 10
4.89525000
 20
9.89370117
  0
VERTEX
  8
B-448.PLT
 62
7
 10
4.93018750
 20
9.91351563
  0
VERTEX
  8
B-448.PLT
 62
7
 10
4.96259375
 20
9.93766602
  0
VERTEX
  8
B-448.PLT
 62
7
 10
4.99200000
 20
9.96600000
  0
VERTEX
  8
B-448.PLT
 62
7
 10
5.00795508
 20
9.98604687
  0
VERTEX
  8
B-448.PLT
 62
7
 10
5.02101563
 20
10.00768750
  0
VERTEX
  8
B-448.PLT
 62
7
 10
5.03184961
 20
10.03054688
  0
VERTEX
  8
B-448.PLT
 62
7
 10
5.04112500
 20
10.05425000
  0
VERTEX
  8
B-448.PLT
 62
7
 10
5.04950977
 20
10.07842188
  0
VERTEX
  8
B-448.PLT
 62
7
 10
5.05767187
 20
10.10268750
  0
VERTEX
  8
B-448.PLT
 62
7
 10
5.06627930
 20
10.12667188
  0
VERTEX
  8
B-448.PLT
 62
7
 10
5.07600000
 20
10.15000000
  0
VERTEX
  8
B-448.PLT
 62
7
 10
5.03528125
 20
10.13762500
  0
VERTEX
  8
B-448.PLT
 62
7
 10
4.99325000
 20
10.13200000
  0
VERTEX
  8
B-448.PLT
 62
7
 10
4.95084375
 20
10.13312500
  0
VERTEX
  8
B-448.PLT
 62
7
 10
4.90900000
 20
10.14100000
  0
VERTEX
  8
B-448.PLT
 62
7
 10
4.89169141
 20
10.14730078
  0
VERTEX
  8
B-448.PLT
 62
7
 10
4.87553125
 20
10.15596875
  0
VERTEX
  8
B-448.PLT
 62
7
 10
4.86016797
 20
10.16627734
  0
VERTEX
  8
B-448.PLT
 62
7
 10
4.84525000
 20
10.17750000
  0
VERTEX
  8
B-448.PLT
 62
7
 10
4.83042578
 20
10.18891016
  0
VERTEX
  8
B-448.PLT
 62
7
 10
4.81534375
 20
10.19978125
  0
VERTEX
  8
B-448.PLT
 62
7
 10
4.79965234
 20
10.20938672
  0
VERTEX
  8
B-448.PLT
 62
7
 10
4.78300000
 20
10.21700000
  0
VERTEX
  8
B-448.PLT
 62
7
 10
4.75264062
 20
10.22695313
  0
VERTEX
  8
B-448.PLT
 62
7
 10
4.72162500
 20
10.23437500
  0
VERTEX
  8
B-448.PLT
 62
7
 10
4.69004688
 20
10.23935937
  0
VERTEX
  8
B-448.PLT
 62
7
 10
4.65800000
 20
10.24200000
  0
VERTEX
  8
B-448.PLT
 62
7
 10
4.67400000
 20
10.31700000
  0
VERTEX
  8
B-448.PLT
 62
7
 10
4.62851563
 20
10.32598438
  0
VERTEX
  8
B-448.PLT
 62
7
 10
4.58237500
 20
10.33037500
  0
VERTEX
  8
B-448.PLT
 62
7
 10
4.53604688
 20
10.33007813
  0
VERTEX
  8
B-448.PLT
 62
7
 10
4.49000000
 20
10.32500000
  0
VERTEX
  8
B-448.PLT
 62
7
 10
4.44142187
 20
10.31356250
  0
VERTEX
  8
B-448.PLT
 62
7
 10
4.39462500
 20
10.29650000
  0
VERTEX
  8
B-448.PLT
 62
7
 10
4.34951563
 20
10.27493750
  0
VERTEX
  8
B-448.PLT
 62
7
 10
4.30600000
 20
10.25000000
  0
VERTEX
  8
B-448.PLT
 62
7
 10
4.28859570
 20
10.23735938
  0
VERTEX
  8
B-448.PLT
 62
7
 10
4.27270312
 20
10.22256250
  0
VERTEX
  8
B-448.PLT
 62
7
 10
4.25767773
 20
10.20654688
  0
VERTEX
  8
B-448.PLT
 62
7
 10
4.24287500
 20
10.19025000
  0
VERTEX
  8
B-448.PLT
 62
7
 10
4.22765039
 20
10.17460937
  0
VERTEX
  8
B-448.PLT
 62
7
 10
4.21135937
 20
10.16056250
  0
VERTEX
  8
B-448.PLT
 62
7
 10
4.19335742
 20
10.14904688
  0
VERTEX
  8
B-448.PLT
 62
7
 10
4.17300000
 20
10.14100000
  0
VERTEX
  8
B-448.PLT
 62
7
 10
4.15866748
 20
10.13330933
  0
VERTEX
  8
B-448.PLT
 62
7
 10
4.14383984
 20
10.12949023
  0
VERTEX
  8
B-448.PLT
 62
7
 10
4.12858447
 20
10.12917212
  0
VERTEX
  8
B-448.PLT
 62
7
 10
4.11296875
 20
10.13198438
  0
VERTEX
  8
B-448.PLT
 62
7
 10
4.09706006
 20
10.13755640
  0
VERTEX
  8
B-448.PLT
 62
7
 10
4.08092578
 20
10.14551758
  0
VERTEX
  8
B-448.PLT
 62
7
 10
4.06463330
 20
10.15549731
  0
VERTEX
  8
B-448.PLT
 62
7
 10
4.04825000
 20
10.16712500
  0
VERTEX
  8
B-448.PLT
 62
7
 10
4.03184326
 20
10.18003003
  0
VERTEX
  8
B-448.PLT
 62
7
 10
4.01548047
 20
10.19384180
  0
VERTEX
  8
B-448.PLT
 62
7
 10
3.99922900
 20
10.20818970
  0
VERTEX
  8
B-448.PLT
 62
7
 10
3.98315625
 20
10.22270313
  0
VERTEX
  8
B-448.PLT
 62
7
 10
3.96732959
 20
10.23701147
  0
VERTEX
  8
B-448.PLT
 62
7
 10
3.95181641
 20
10.25074414
  0
VERTEX
  8
B-448.PLT
 62
7
 10
3.93668408
 20
10.26353052
  0
VERTEX
  8
B-448.PLT
 62
7
 10
3.92200000
 20
10.27500000
  0
VERTEX
  8
B-448.PLT
 62
7
 10
3.87428125
 20
10.30496875
  0
VERTEX
  8
B-448.PLT
 62
7
 10
3.82375000
 20
10.32950000
  0
VERTEX
  8
B-448.PLT
 62
7
 10
3.77209375
 20
10.35178125
  0
VERTEX
  8
B-448.PLT
 62
7
 10
3.72100000
 20
10.37500000
  0
VERTEX
  8
B-448.PLT
 62
7
 10
3.78468750
 20
10.37462500
  0
VERTEX
  8
B-448.PLT
 62
7
 10
3.84800000
 20
10.36900000
  0
VERTEX
  8
B-448.PLT
 62
7
 10
3.91056250
 20
10.35812500
  0
VERTEX
  8
B-448.PLT
 62
7
 10
3.97200000
 20
10.34200000
  0
VERTEX
  8
B-448.PLT
 62
7
 10
4.02603125
 20
10.32145313
  0
VERTEX
  8
B-448.PLT
 62
7
 10
4.07800000
 20
10.29612500
  0
VERTEX
  8
B-448.PLT
 62
7
 10
4.12921875
 20
10.26873437
  0
VERTEX
  8
B-448.PLT
 62
7
 10
4.18100000
 20
10.24200000
  0
VERTEX
  8
B-448.PLT
 62
7
 10
4.31500000
 20
10.35900000
  0
VERTEX
  8
B-448.PLT
 62
7
 10
4.23322852
 20
10.39321289
  0
VERTEX
  8
B-448.PLT
 62
7
 10
4.15001563
 20
10.42307813
  0
VERTEX
  8
B-448.PLT
 62
7
 10
4.06551367
 20
10.44856055
  0
VERTEX
  8
B-448.PLT
 62
7
 10
3.97987500
 20
10.46962500
  0
VERTEX
  8
B-448.PLT
 62
7
 10
3.89325195
 20
10.48623633
  0
VERTEX
  8
B-448.PLT
 62
7
 10
3.80579688
 20
10.49835938
  0
VERTEX
  8
B-448.PLT
 62
7
 10
3.71766211
 20
10.50595898
  0
VERTEX
  8
B-448.PLT
 62
7
 10
3.62900000
 20
10.50900000
  0
VERTEX
  8
B-448.PLT
 62
7
 10
3.55118750
 20
10.50804688
  0
VERTEX
  8
B-448.PLT
 62
7
 10
3.47375000
 20
10.50362500
  0
VERTEX
  8
B-448.PLT
 62
7
 10
3.39668750
 20
10.49564063
  0
SEQEND
  0
POLYLINE
  8
B-448.PLT
 62
7
 66
1
 70
1
  0
VERTEX
  8
B-448.PLT
 62
7
 10
4.96700000
 20
9.67300000
  0
VERTEX
  8
B-448.PLT
 62
7
 10
4.95900000
 20
9.55600000
  0
VERTEX
  8
B-448.PLT
 62
7
 10
4.98840625
 20
9.54166016
  0
VERTEX
  8
B-448.PLT
 62
7
 10
5.01875000
 20
9.53015625
  0
VERTEX
  8
B-448.PLT
 62
7
 10
5.04984375
 20
9.52151172
  0
VERTEX
  8
B-448.PLT
 62
7
 10
5.08150000
 20
9.51575000
  0
VERTEX
  8
B-448.PLT
 62
7
 10
5.11353125
 20
9.51289453
  0
VERTEX
  8
B-448.PLT
 62
7
 10
5.14575000
 20
9.51296875
  0
VERTEX
  8
B-448.PLT
 62
7
 10
5.17796875
 20
9.51599609
  0
VERTEX
  8
B-448.PLT
 62
7
 10
5.21000000
 20
9.52200000
  0
VERTEX
  8
B-448.PLT
 62
7
 10
5.23724023
 20
9.53018555
  0
VERTEX
  8
B-448.PLT
 62
7
 10
5.26292188
 20
9.54154687
  0
VERTEX
  8
B-448.PLT
 62
7
 10
5.28736133
 20
9.55541602
  0
VERTEX
  8
B-448.PLT
 62
7
 10
5.31087500
 20
9.57112500
  0
VERTEX
  8
B-448.PLT
 62
7
 10
5.33377930
 20
9.58800586
  0
VERTEX
  8
B-448.PLT
 62
7
 10
5.35639063
 20
9.60539063
  0
VERTEX
  8
B-448.PLT
 62
7
 10
5.37902539
 20
9.62261133
  0
VERTEX
  8
B-448.PLT
 62
7
 10
5.40200000
 20
9.63900000
  0
VERTEX
  8
B-448.PLT
 62
7
 10
5.46806250
 20
9.68770313
  0
VERTEX
  8
B-448.PLT
 62
7
 10
5.53150000
 20
9.73987500
  0
VERTEX
  8
B-448.PLT
 62
7
 10
5.59493750
 20
9.79185937
  0
VERTEX
  8
B-448.PLT
 62
7
 10
5.66100000
 20
9.84000000
  0
VERTEX
  8
B-448.PLT
 62
7
 10
5.69945312
 20
9.86622461
  0
VERTEX
  8
B-448.PLT
 62
7
 10
5.73781250
 20
9.89323438
  0
VERTEX
  8
B-448.PLT
 62
7
 10
5.77645312
 20
9.92003320
  0
VERTEX
  8
B-448.PLT
 62
7
 10
5.81575000
 20
9.94562500
  0
VERTEX
  8
B-448.PLT
 62
7
 10
5.85607812
 20
9.96901367
  0
VERTEX
  8
B-448.PLT
 62
7
 10
5.89781250
 20
9.98920312
  0
VERTEX
  8
B-448.PLT
 62
7
 10
5.94132813
 20
10.00519727
  0
VERTEX
  8
B-448.PLT
 62
7
 10
5.98700000
 20
10.01600000
  0
VERTEX
  8
B-448.PLT
 62
7
 10
6.02644727
 20
10.02225000
  0
VERTEX
  8
B-448.PLT
 62
7
 10
6.06651563
 20
10.02700000
  0
VERTEX
  8
B-448.PLT
 62
7
 10
6.10679492
 20
10.02950000
  0
VERTEX
  8
B-448.PLT
 62
7
 10
6.14687500
 20
10.02900000
  0
VERTEX
  8
B-448.PLT
 62
7
 10
6.18634570
 20
10.02475000
  0
VERTEX
  8
B-448.PLT
 62
7
 10
6.22479688
 20
10.01600000
  0
VERTEX
  8
B-448.PLT
 62
7
 10
6.26181836
 20
10.00200000
  0
VERTEX
  8
B-448.PLT
 62
7
 10
6.29700000
 20
9.98200000
  0
VERTEX
  8
B-448.PLT
 62
7
 10
6.32117383
 20
9.96374219
  0
VERTEX
  8
B-448.PLT
 62
7
 10
6.34339062
 20
9.94356250
  0
VERTEX
  8
B-448.PLT
 62
7
 10
6.36356836
 20
9.92160156
  0
VERTEX
  8
B-448.PLT
 62
7
 10
6.38162500
 20
9.89800000
  0
VERTEX
  8
B-448.PLT
 62
7
 10
6.39747852
 20
9.87289844
  0
VERTEX
  8
B-448.PLT
 62
7
 10
6.41104688
 20
9.84643750
  0
VERTEX
  8
B-448.PLT
 62
7
 10
6.42224805
 20
9.81875781
  0
VERTEX
  8
B-448.PLT
 62
7
 10
6.43100000
 20
9.79000000
  0
VERTEX
  8
B-448.PLT
 62
7
 10
6.44490625
 20
9.83520312
  0
VERTEX
  8
B-448.PLT
 62
7
 10
6.45075000
 20
9.88162500
  0
VERTEX
  8
B-448.PLT
 62
7
 10
6.44871875
 20
9.92823438
  0
VERTEX
  8
B-448.PLT
 62
7
 10
6.43900000
 20
9.97400000
  0
VERTEX
  8
B-448.PLT
 62
7
 10
6.43028931
 20
9.99764551
  0
VERTEX
  8
B-448.PLT
 62
7
 10
6.41928320
 20
10.01916406
  0
VERTEX
  8
B-448.PLT
 62
7
 10
6.40617065
 20
10.03867871
  0
VERTEX
  8
B-448.PLT
 62
7
 10
6.39114063
 20
10.05631250
  0
VERTEX
  8
B-448.PLT
 62
7
 10
6.37438208
 20
10.07218848
  0
VERTEX
  8
B-448.PLT
 62
7
 10
6.35608398
 20
10.08642969
  0
VERTEX
  8
B-448.PLT
 62
7
 10
6.33643530
 20
10.09915918
  0
VERTEX
  8
B-448.PLT
 62
7
 10
6.31562500
 20
10.11050000
  0
VERTEX
  8
B-448.PLT
 62
7
 10
6.29384204
 20
10.12057520
  0
VERTEX
  8
B-448.PLT
 62
7
 10
6.27127539
 20
10.12950781
  0
VERTEX
  8
B-448.PLT
 62
7
 10
6.24811401
 20
10.13742090
  0
VERTEX
  8
B-448.PLT
 62
7
 10
6.22454687
 20
10.14443750
  0
VERTEX
  8
B-448.PLT
 62
7
 10
6.20076294
 20
10.15068066
  0
VERTEX
  8
B-448.PLT
 62
7
 10
6.17695117
 20
10.15627344
  0
VERTEX
  8
B-448.PLT
 62
7
 10
6.15330054
 20
10.16133887
  0
VERTEX
  8
B-448.PLT
 62
7
 10
6.13000000
 20
10.16600000
  0
VERTEX
  8
B-448.PLT
 62
7
 10
6.08951172
 20
10.17170313
  0
VERTEX
  8
B-448.PLT
 62
7
 10
6.04909375
 20
10.17337500
  0
VERTEX
  8
B-448.PLT
 62
7
 10
6.00881641
 20
10.17148438
  0
VERTEX
  8
B-448.PLT
 62
7
 10
5.96875000
 20
10.16650000
  0
VERTEX
  8
B-448.PLT
 62
7
 10
5.92896484
 20
10.15889063
  0
VERTEX
  8
B-448.PLT
 62
7
 10
5.88953125
 20
10.14912500
  0
VERTEX
  8
B-448.PLT
 62
7
 10
5.85051953
 20
10.13767188
  0
VERTEX
  8
B-448.PLT
 62
7
 10
5.81200000
 20
10.12500000
  0
VERTEX
  8
B-448.PLT
 62
7
 10
5.74717188
 20
10.09956250
  0
VERTEX
  8
B-448.PLT
 62
7
 10
5.68487500
 20
10.06850000
  0
VERTEX
  8
B-448.PLT
 62
7
 10
5.62539062
 20
10.03218750
  0
VERTEX
  8
B-448.PLT
 62
7
 10
5.56900000
 20
9.99100000
  0
VERTEX
  8
B-448.PLT
 62
7
 10
5.54229687
 20
10.02728125
  0
VERTEX
  8
B-448.PLT
 62
7
 10
5.51062500
 20
10.05925000
  0
VERTEX
  8
B-448.PLT
 62
7
 10
5.47464063
 20
10.08634375
  0
VERTEX
  8
B-448.PLT
 62
7
 10
5.43500000
 20
10.10800000
  0
VERTEX
  8
B-448.PLT
 62
7
 10
5.40585742
 20
10.12027930
  0
VERTEX
  8
B-448.PLT
 62
7
 10
5.37567188
 20
10.13048438
  0
VERTEX
  8
B-448.PLT
 62
7
 10
5.34480664
 20
10.13804102
  0
VERTEX
  8
B-448.PLT
 62
7
 10
5.31362500
 20
10.14237500
  0
VERTEX
  8
B-448.PLT
 62
7
 10
5.28249023
 20
10.14291211
  0
VERTEX
  8
B-448.PLT
 62
7
 10
5.25176563
 20
10.13907812
  0
VERTEX
  8
B-448.PLT
 62
7
 10
5.22181445
 20
10.13029883
  0
VERTEX
  8
B-448.PLT
 62
7
 10
5.19300000
 20
10.11600000
  0
VERTEX
  8
B-448.PLT
 62
7
 10
5.16557031
 20
10.09648633
  0
VERTEX
  8
B-448.PLT
 62
7
 10
5.14137500
 20
10.07351563
  0
VERTEX
  8
B-448.PLT
 62
7
 10
5.12092969
 20
10.04756836
  0
VERTEX
  8
B-448.PLT
 62
7
 10
5.10475000
 20
10.01912500
  0
VERTEX
  8
B-448.PLT
 62
7
 10
5.09335156
 20
9.98866602
  0
VERTEX
  8
B-448.PLT
 62
7
 10
5.08725000
 20
9.95667187
  0
VERTEX
  8
B-448.PLT
 62
7
 10
5.08696094
 20
9.92362305
  0
VERTEX
  8
B-448.PLT
 62
7
 10
5.09300000
 20
9.89000000
  0
VERTEX
  8
B-448.PLT
 62
7
 10
5.10010937
 20
9.86956250
  0
VERTEX
  8
B-448.PLT
 62
7
 10
5.10937500
 20
9.85025000
  0
VERTEX
  8
B-448.PLT
 62
7
 10
5.12070313
 20
9.83206250
  0
VERTEX
  8
B-448.PLT
 62
7
 10
5.13400000
 20
9.81500000
  0
VERTEX
  8
B-448.PLT
 62
7
 10
5.13269531
 20
9.84850781
  0
VERTEX
  8
B-448.PLT
 62
7
 10
5.13875000
 20
9.88018750
  0
VERTEX
  8
B-448.PLT
 62
7
 10
5.15136719
 20
9.90914844
  0
VERTEX
  8
B-448.PLT
 62
7
 10
5.16975000
 20
9.93450000
  0
VERTEX
  8
B-448.PLT
 62
7
 10
5.19310156
 20
9.95535156
  0
VERTEX
  8
B-448.PLT
 62
7
 10
5.22062500
 20
9.97081250
  0
VERTEX
  8
B-448.PLT
 62
7
 10
5.25152344
 20
9.97999219
  0
VERTEX
  8
B-448.PLT
 62
7
 10
5.28500000
 20
9.98200000
  0
VERTEX
  8
B-448.PLT
 62
7
 10
5.30116797
 20
9.98057422
  0
VERTEX
  8
B-448.PLT
 62
7
 10
5.31721875
 20
9.97771875
  0
VERTEX
  8
B-448.PLT
 62
7
 10
5.33284766
 20
9.97331641
  0
VERTEX
  8
B-448.PLT
 62
7
 10
5.34775000
 20
9.96725000
  0
VERTEX
  8
B-448.PLT
 62
7
 10
5.36162109
 20
9.95940234
  0
VERTEX
  8
B-448.PLT
 62
7
 10
5.37415625
 20
9.94965625
  0
VERTEX
  8
B-448.PLT
 62
7
 10
5.38505078
 20
9.93789453
  0
VERTEX
  8
B-448.PLT
 62
7
 10
5.39400000
 20
9.92400000
  0
VERTEX
  8
B-448.PLT
 62
7
 10
5.40157031
 20
9.90319727
  0
VERTEX
  8
B-448.PLT
 62
7
 10
5.40318750
 20
9.88282812
  0
VERTEX
  8
B-448.PLT
 62
7
 10
5.39983594
 20
9.86295117
  0
VERTEX
  8
B-448.PLT
 62
7
 10
5.39250000
 20
9.84362500
  0
VERTEX
  8
B-448.PLT
 62
7
 10
5.38216406
 20
9.82490820
  0
VERTEX
  8
B-448.PLT
 62
7
 10
5.36981250
 20
9.80685938
  0
VERTEX
  8
B-448.PLT
 62
7
 10
5.35642969
 20
9.78953711
  0
VERTEX
  8
B-448.PLT
 62
7
 10
5.34300000
 20
9.77300000
  0
VERTEX
  8
B-448.PLT
 62
7
 10
5.32353711
 20
9.75290430
  0
VERTEX
  8
B-448.PLT
 62
7
 10
5.30148438
 20
9.73710937
  0
VERTEX
  8
B-448.PLT
 62
7
 10
5.27734570
 20
9.72485352
  0
VERTEX
  8
B-448.PLT
 62
7
 10
5.25162500
 20
9.71537500
  0
VERTEX
  8
B-448.PLT
 62
7
 10
5.22482617
 20
9.70791211
  0
VERTEX
  8
B-448.PLT
 62
7
 10
5.19745313
 20
9.70170312
  0
VERTEX
  8
B-448.PLT
 62
7
 10
5.17000977
 20
9.69598633
  0
VERTEX
  8
B-448.PLT
 62
7
 10
5.14300000
 20
9.69000000
  0
VERTEX
  8
B-448.PLT
 62
7
 10
5.09932813
 20
9.68157812
  0
VERTEX
  8
B-448.PLT
 62
7
 10
5.05537500
 20
9.67587500
  0
VERTEX
  8
B-448.PLT
 62
7
 10
5.01123437
 20
9.67298438
  0
SEQEND
  0
POLYLINE
  8
B-448.PLT
 62
7
 66
1
 70
1
  0
VERTEX
  8
B-448.PLT
 62
7
 10
19.03300000
 20
9.67300000
  0
VERTEX
  8
B-448.PLT
 62
7
 10
18.98876562
 20
9.67298438
  0
VERTEX
  8
B-448.PLT
 62
7
 10
18.94462500
 20
9.67587500
  0
VERTEX
  8
B-448.PLT
 62
7
 10
18.90067188
 20
9.68157812
  0
VERTEX
  8
B-448.PLT
 62
7
 10
18.85700000
 20
9.69000000
  0
VERTEX
  8
B-448.PLT
 62
7
 10
18.82999023
 20
9.69598633
  0
VERTEX
  8
B-448.PLT
 62
7
 10
18.80254688
 20
9.70170312
  0
VERTEX
  8
B-448.PLT
 62
7
 10
18.77517383
 20
9.70791211
  0
VERTEX
  8
B-448.PLT
 62
7
 10
18.74837500
 20
9.71537500
  0
VERTEX
  8
B-448.PLT
 62
7
 10
18.72265430
 20
9.72485352
  0
VERTEX
  8
B-448.PLT
 62
7
 10
18.69851562
 20
9.73710937
  0
VERTEX
  8
B-448.PLT
 62
7
 10
18.67646289
 20
9.75290430
  0
VERTEX
  8
B-448.PLT
 62
7
 10
18.65700000
 20
9.77300000
  0
VERTEX
  8
B-448.PLT
 62
7
 10
18.64357031
 20
9.78953711
  0
VERTEX
  8
B-448.PLT
 62
7
 10
18.63018750
 20
9.80685938
  0
VERTEX
  8
B-448.PLT
 62
7
 10
18.61783594
 20
9.82490820
  0
VERTEX
  8
B-448.PLT
 62
7
 10
18.60750000
 20
9.84362500
  0
VERTEX
  8
B-448.PLT
 62
7
 10
18.60016406
 20
9.86295117
  0
VERTEX
  8
B-448.PLT
 62
7
 10
18.59681250
 20
9.88282812
  0
VERTEX
  8
B-448.PLT
 62
7
 10
18.59842969
 20
9.90319727
  0
VERTEX
  8
B-448.PLT
 62
7
 10
18.60600000
 20
9.92400000
  0
VERTEX
  8
B-448.PLT
 62
7
 10
18.61494922
 20
9.93789453
  0
VERTEX
  8
B-448.PLT
 62
7
 10
18.62584375
 20
9.94965625
  0
VERTEX
  8
B-448.PLT
 62
7
 10
18.63837891
 20
9.95940234
  0
VERTEX
  8
B-448.PLT
 62
7
 10
18.65225000
 20
9.96725000
  0
VERTEX
  8
B-448.PLT
 62
7
 10
18.66715234
 20
9.97331641
  0
VERTEX
  8
B-448.PLT
 62
7
 10
18.68278125
 20
9.97771875
  0
VERTEX
  8
B-448.PLT
 62
7
 10
18.69883203
 20
9.98057422
  0
VERTEX
  8
B-448.PLT
 62
7
 10
18.71500000
 20
9.98200000
  0
VERTEX
  8
B-448.PLT
 62
7
 10
18.74847656
 20
9.97999219
  0
VERTEX
  8
B-448.PLT
 62
7
 10
18.77937500
 20
9.97081250
  0
VERTEX
  8
B-448.PLT
 62
7
 10
18.80689844
 20
9.95535156
  0
VERTEX
  8
B-448.PLT
 62
7
 10
18.83025000
 20
9.93450000
  0
VERTEX
  8
B-448.PLT
 62
7
 10
18.84863281
 20
9.90914844
  0
VERTEX
  8
B-448.PLT
 62
7
 10
18.86125000
 20
9.88018750
  0
VERTEX
  8
B-448.PLT
 62
7
 10
18.86730469
 20
9.84850781
  0
VERTEX
  8
B-448.PLT
 62
7
 10
18.86600000
 20
9.81500000
  0
VERTEX
  8
B-448.PLT
 62
7
 10
18.87929688
 20
9.83206250
  0
VERTEX
  8
B-448.PLT
 62
7
 10
18.89062500
 20
9.85025000
  0
VERTEX
  8
B-448.PLT
 62
7
 10
18.89989063
 20
9.86956250
  0
VERTEX
  8
B-448.PLT
 62
7
 10
18.90700000
 20
9.89000000
  0
VERTEX
  8
B-448.PLT
 62
7
 10
18.91303906
 20
9.92362305
  0
VERTEX
  8
B-448.PLT
 62
7
 10
18.91275000
 20
9.95667187
  0
VERTEX
  8
B-448.PLT
 62
7
 10
18.90664844
 20
9.98866602
  0
VERTEX
  8
B-448.PLT
 62
7
 10
18.89525000
 20
10.01912500
  0
VERTEX
  8
B-448.PLT
 62
7
 10
18.87907031
 20
10.04756836
  0
VERTEX
  8
B-448.PLT
 62
7
 10
18.85862500
 20
10.07351563
  0
VERTEX
  8
B-448.PLT
 62
7
 10
18.83442969
 20
10.09648633
  0
VERTEX
  8
B-448.PLT
 62
7
 10
18.80700000
 20
10.11600000
  0
VERTEX
  8
B-448.PLT
 62
7
 10
18.77818555
 20
10.13029883
  0
VERTEX
  8
B-448.PLT
 62
7
 10
18.74823437
 20
10.13907812
  0
VERTEX
  8
B-448.PLT
 62
7
 10
18.71750977
 20
10.14291211
  0
VERTEX
  8
B-448.PLT
 62
7
 10
18.68637500
 20
10.14237500
  0
VERTEX
  8
B-448.PLT
 62
7
 10
18.65519336
 20
10.13804102
  0
VERTEX
  8
B-448.PLT
 62
7
 10
18.62432813
 20
10.13048438
  0
VERTEX
  8
B-448.PLT
 62
7
 10
18.59414258
 20
10.12027930
  0
VERTEX
  8
B-448.PLT
 62
7
 10
18.56500000
 20
10.10800000
  0
VERTEX
  8
B-448.PLT
 62
7
 10
18.52535938
 20
10.08634375
  0
VERTEX
  8
B-448.PLT
 62
7
 10
18.48937500
 20
10.05925000
  0
VERTEX
  8
B-448.PLT
 62
7
 10
18.45770312
 20
10.02728125
  0
VERTEX
  8
B-448.PLT
 62
7
 10
18.43100000
 20
9.99100000
  0
VERTEX
  8
B-448.PLT
 62
7
 10
18.37460937
 20
10.03218750
  0
VERTEX
  8
B-448.PLT
 62
7
 10
18.31512500
 20
10.06850000
  0
VERTEX
  8
B-448.PLT
 62
7
 10
18.25282813
 20
10.09956250
  0
VERTEX
  8
B-448.PLT
 62
7
 10
18.18800000
 20
10.12500000
  0
VERTEX
  8
B-448.PLT
 62
7
 10
18.14948047
 20
10.13767188
  0
VERTEX
  8
B-448.PLT
 62
7
 10
18.11046875
 20
10.14912500
  0
VERTEX
  8
B-448.PLT
 62
7
 10
18.07103516
 20
10.15889063
  0
VERTEX
  8
B-448.PLT
 62
7
 10
18.03125000
 20
10.16650000
  0
VERTEX
  8
B-448.PLT
 62
7
 10
17.99118359
 20
10.17148438
  0
VERTEX
  8
B-448.PLT
 62
7
 10
17.95090625
 20
10.17337500
  0
VERTEX
  8
B-448.PLT
 62
7
 10
17.91048828
 20
10.17170313
  0
VERTEX
  8
B-448.PLT
 62
7
 10
17.87000000
 20
10.16600000
  0
VERTEX
  8
B-448.PLT
 62
7
 10
17.84669946
 20
10.16133887
  0
VERTEX
  8
B-448.PLT
 62
7
 10
17.82304883
 20
10.15627344
  0
VERTEX
  8
B-448.PLT
 62
7
 10
17.79923706
 20
10.15068066
  0
VERTEX
  8
B-448.PLT
 62
7
 10
17.77545312
 20
10.14443750
  0
VERTEX
  8
B-448.PLT
 62
7
 10
17.75188599
 20
10.13742090
  0
VERTEX
  8
B-448.PLT
 62
7
 10
17.72872461
 20
10.12950781
  0
VERTEX
  8
B-448.PLT
 62
7
 10
17.70615796
 20
10.12057520
  0
VERTEX
  8
B-448.PLT
 62
7
 10
17.68437500
 20
10.11050000
  0
VERTEX
  8
B-448.PLT
 62
7
 10
17.66356470
 20
10.09915918
  0
VERTEX
  8
B-448.PLT
 62
7
 10
17.64391602
 20
10.08642969
  0
VERTEX
  8
B-448.PLT
 62
7
 10
17.62561792
 20
10.07218848
  0
VERTEX
  8
B-448.PLT
 62
7
 10
17.60885938
 20
10.05631250
  0
VERTEX
  8
B-448.PLT
 62
7
 10
17.59382935
 20
10.03867871
  0
VERTEX
  8
B-448.PLT
 62
7
 10
17.58071680
 20
10.01916406
  0
VERTEX
  8
B-448.PLT
 62
7
 10
17.56971069
 20
9.99764551
  0
VERTEX
  8
B-448.PLT
 62
7
 10
17.56100000
 20
9.97400000
  0
VERTEX
  8
B-448.PLT
 62
7
 10
17.55128125
 20
9.92823438
  0
VERTEX
  8
B-448.PLT
 62
7
 10
17.54925000
 20
9.88162500
  0
VERTEX
  8
B-448.PLT
 62
7
 10
17.55509375
 20
9.83520312
  0
VERTEX
  8
B-448.PLT
 62
7
 10
17.56900000
 20
9.79000000
  0
VERTEX
  8
B-448.PLT
 62
7
 10
17.57775195
 20
9.81875781
  0
VERTEX
  8
B-448.PLT
 62
7
 10
17.58895313
 20
9.84643750
  0
VERTEX
  8
B-448.PLT
 62
7
 10
17.60252148
 20
9.87289844
  0
VERTEX
  8
B-448.PLT
 62
7
 10
17.61837500
 20
9.89800000
  0
VERTEX
  8
B-448.PLT
 62
7
 10
17.63643164
 20
9.92160156
  0
VERTEX
  8
B-448.PLT
 62
7
 10
17.65660937
 20
9.94356250
  0
VERTEX
  8
B-448.PLT
 62
7
 10
17.67882617
 20
9.96374219
  0
VERTEX
  8
B-448.PLT
 62
7
 10
17.70300000
 20
9.98200000
  0
VERTEX
  8
B-448.PLT
 62
7
 10
17.73818164
 20
10.00200000
  0
VERTEX
  8
B-448.PLT
 62
7
 10
17.77520313
 20
10.01600000
  0
VERTEX
  8
B-448.PLT
 62
7
 10
17.81365430
 20
10.02475000
  0
VERTEX
  8
B-448.PLT
 62
7
 10
17.85312500
 20
10.02900000
  0
VERTEX
  8
B-448.PLT
 62
7
 10
17.89320508
 20
10.02950000
  0
VERTEX
  8
B-448.PLT
 62
7
 10
17.93348437
 20
10.02700000
  0
VERTEX
  8
B-448.PLT
 62
7
 10
17.97355273
 20
10.02225000
  0
VERTEX
  8
B-448.PLT
 62
7
 10
18.01300000
 20
10.01600000
  0
VERTEX
  8
B-448.PLT
 62
7
 10
18.05867188
 20
10.00519727
  0
VERTEX
  8
B-448.PLT
 62
7
 10
18.10218750
 20
9.98920312
  0
VERTEX
  8
B-448.PLT
 62
7
 10
18.14392188
 20
9.96901367
  0
VERTEX
  8
B-448.PLT
 62
7
 10
18.18425000
 20
9.94562500
  0
VERTEX
  8
B-448.PLT
 62
7
 10
18.22354688
 20
9.92003320
  0
VERTEX
  8
B-448.PLT
 62
7
 10
18.26218750
 20
9.89323438
  0
VERTEX
  8
B-448.PLT
 62
7
 10
18.30054687
 20
9.86622461
  0
VERTEX
  8
B-448.PLT
 62
7
 10
18.33900000
 20
9.84000000
  0
VERTEX
  8
B-448.PLT
 62
7
 10
18.40506250
 20
9.79185937
  0
VERTEX
  8
B-448.PLT
 62
7
 10
18.46850000
 20
9.73987500
  0
VERTEX
  8
B-448.PLT
 62
7
 10
18.53193750
 20
9.68770313
  0
VERTEX
  8
B-448.PLT
 62
7
 10
18.59800000
 20
9.63900000
  0
VERTEX
  8
B-448.PLT
 62
7
 10
18.62097461
 20
9.62261133
  0
VERTEX
  8
B-448.PLT
 62
7
 10
18.64360938
 20
9.60539063
  0
VERTEX
  8
B-448.PLT
 62
7
 10
18.66622070
 20
9.58800586
  0
VERTEX
  8
B-448.PLT
 62
7
 10
18.68912500
 20
9.57112500
  0
VERTEX
  8
B-448.PLT
 62
7
 10
18.71263867
 20
9.55541602
  0
VERTEX
  8
B-448.PLT
 62
7
 10
18.73707813
 20
9.54154687
  0
VERTEX
  8
B-448.PLT
 62
7
 10
18.76275977
 20
9.53018555
  0
VERTEX
  8
B-448.PLT
 62
7
 10
18.79000000
 20
9.52200000
  0
VERTEX
  8
B-448.PLT
 62
7
 10
18.82203125
 20
9.51599609
  0
VERTEX
  8
B-448.PLT
 62
7
 10
18.85425000
 20
9.51296875
  0
VERTEX
  8
B-448.PLT
 62
7
 10
18.88646875
 20
9.51289453
  0
VERTEX
  8
B-448.PLT
 62
7
 10
18.91850000
 20
9.51575000
  0
VERTEX
  8
B-448.PLT
 62
7
 10
18.95015625
 20
9.52151172
  0
VERTEX
  8
B-448.PLT
 62
7
 10
18.98125000
 20
9.53015625
  0
VERTEX
  8
B-448.PLT
 62
7
 10
19.01159375
 20
9.54166016
  0
VERTEX
  8
B-448.PLT
 62
7
 10
19.04100000
 20
9.55600000
  0
SEQEND
  0
POLYLINE
  8
B-448.PLT
 62
7
 66
1
 70
1
  0
VERTEX
  8
B-448.PLT
 62
7
 10
1.09600000
 20
8.82200000
  0
VERTEX
  8
B-448.PLT
 62
7
 10
1.04600000
 20
8.83400000
  0
VERTEX
  8
B-448.PLT
 62
7
 10
0.98200000
 20
8.83800000
  0
VERTEX
  8
B-448.PLT
 62
7
 10
0.92287500
 20
8.83500000
  0
VERTEX
  8
B-448.PLT
 62
7
 10
0.86600000
 20
8.82600000
  0
VERTEX
  8
B-448.PLT
 62
7
 10
0.81600000
 20
8.81700000
  0
VERTEX
  8
B-448.PLT
 62
7
 10
0.81850000
 20
8.75112500
  0
VERTEX
  8
B-448.PLT
 62
7
 10
0.82700000
 20
8.68600000
  0
VERTEX
  8
B-448.PLT
 62
7
 10
0.84496289
 20
8.60695898
  0
VERTEX
  8
B-448.PLT
 62
7
 10
0.86964062
 20
8.53010938
  0
VERTEX
  8
B-448.PLT
 62
7
 10
0.90109180
 20
8.45623633
  0
VERTEX
  8
B-448.PLT
 62
7
 10
0.93937500
 20
8.38612500
  0
VERTEX
  8
B-448.PLT
 62
7
 10
0.98454883
 20
8.32056055
  0
VERTEX
  8
B-448.PLT
 62
7
 10
1.03667187
 20
8.26032812
  0
VERTEX
  8
B-448.PLT
 62
7
 10
1.09580273
 20
8.20621289
  0
VERTEX
  8
B-448.PLT
 62
7
 10
1.16200000
 20
8.15900000
  0
VERTEX
  8
B-448.PLT
 62
7
 10
1.20506250
 20
8.13364453
  0
VERTEX
  8
B-448.PLT
 62
7
 10
1.24943750
 20
8.11046875
  0
VERTEX
  8
B-448.PLT
 62
7
 10
1.29503125
 20
8.09005859
  0
VERTEX
  8
B-448.PLT
 62
7
 10
1.34175000
 20
8.07300000
  0
VERTEX
  8
B-448.PLT
 62
7
 10
1.38950000
 20
8.05987891
  0
VERTEX
  8
B-448.PLT
 62
7
 10
1.43818750
 20
8.05128125
  0
VERTEX
  8
B-448.PLT
 62
7
 10
1.48771875
 20
8.04779297
  0
VERTEX
  8
B-448.PLT
 62
7
 10
1.53800000
 20
8.05000000
  0
VERTEX
  8
B-448.PLT
 62
7
 10
1.57349219
 20
8.05413477
  0
VERTEX
  8
B-448.PLT
 62
7
 10
1.60912500
 20
8.05945312
  0
VERTEX
  8
B-448.PLT
 62
7
 10
1.64438281
 20
8.06657617
  0
VERTEX
  8
B-448.PLT
 62
7
 10
1.67875000
 20
8.07612500
  0
VERTEX
  8
B-448.PLT
 62
7
 10
1.71171094
 20
8.08872070
  0
VERTEX
  8
B-448.PLT
 62
7
 10
1.74275000
 20
8.10498438
  0
VERTEX
  8
B-448.PLT
 62
7
 10
1.77135156
 20
8.12553711
  0
VERTEX
  8
B-448.PLT
 62
7
 10
1.79700000
 20
8.15100000
  0
VERTEX
  8
B-448.PLT
 62
7
 10
1.82109375
 20
8.18282617
  0
VERTEX
  8
B-448.PLT
 62
7
 10
1.84125000
 20
8.21717188
  0
VERTEX
  8
B-448.PLT
 62
7
 10
1.85690625
 20
8.25346289
  0
VERTEX
  8
B-448.PLT
 62
7
 10
1.86750000
 20
8.29112500
  0
VERTEX
  8
B-448.PLT
 62
7
 10
1.87246875
 20
8.32958398
  0
VERTEX
  8
B-448.PLT
 62
7
 10
1.87125000
 20
8.36826562
  0
VERTEX
  8
B-448.PLT
 62
7
 10
1.86328125
 20
8.40659570
  0
VERTEX
  8
B-448.PLT
 62
7
 10
1.84800000
 20
8.44400000
  0
VERTEX
  8
B-448.PLT
 62
7
 10
1.83038867
 20
8.47346289
  0
VERTEX
  8
B-448.PLT
 62
7
 10
1.80929688
 20
8.50007812
  0
VERTEX
  8
B-448.PLT
 62
7
 10
1.78508789
 20
8.52343555
  0
VERTEX
  8
B-448.PLT
 62
7
 10
1.75812500
 20
8.54312500
  0
VERTEX
  8
B-448.PLT
 62
7
 10
1.72877148
 20
8.55873633
  0
VERTEX
  8
B-448.PLT
 62
7
 10
1.69739062
 20
8.56985938
  0
VERTEX
  8
B-448.PLT
 62
7
 10
1.66434570
 20
8.57608398
  0
VERTEX
  8
B-448.PLT
 62
7
 10
1.63000000
 20
8.57700000
  0
VERTEX
  8
B-448.PLT
 62
7
 10
1.59841211
 20
8.57345898
  0
VERTEX
  8
B-448.PLT
 62
7
 10
1.56723438
 20
8.56648437
  0
VERTEX
  8
B-448.PLT
 62
7
 10
1.53734570
 20
8.55592383
  0
VERTEX
  8
B-448.PLT
 62
7
 10
1.50962500
 20
8.54162500
  0
VERTEX
  8
B-448.PLT
 62
7
 10
1.48495117
 20
8.52343555
  0
VERTEX
  8
B-448.PLT
 62
7
 10
1.46420313
 20
8.50120313
  0
VERTEX
  8
B-448.PLT
 62
7
 10
1.44825977
 20
8.47477539
  0
VERTEX
  8
B-448.PLT
 62
7
 10
1.43800000
 20
8.44400000
  0
VERTEX
  8
B-448.PLT
 62
7
 10
1.43404687
 20
8.41375000
  0
VERTEX
  8
B-448.PLT
 62
7
 10
1.43562500
 20
8.38350000
  0
VERTEX
  8
B-448.PLT
 62
7
 10
1.44264062
 20
8.35400000
  0
VERTEX
  8
B-448.PLT
 62
7
 10
1.45500000
 20
8.32600000
  0
VERTEX
  8
B-448.PLT
 62
7
 10
1.41328125
 20
8.33157813
  0
VERTEX
  8
B-448.PLT
 62
7
 10
1.37250000
 20
8.34212500
  0
VERTEX
  8
B-448.PLT
 62
7
 10
1.33321875
 20
8.35735937
  0
VERTEX
  8
B-448.PLT
 62
7
 10
1.29600000
 20
8.37700000
  0
VERTEX
  8
B-448.PLT
 62
7
 10
1.25634180
 20
8.40410156
  0
VERTEX
  8
B-448.PLT
 62
7
 10
1.22248438
 20
8.43443750
  0
VERTEX
  8
B-448.PLT
 62
7
 10
1.19385352
 20
8.46805469
  0
VERTEX
  8
B-448.PLT
 62
7
 10
1.16987500
 20
8.50500000
  0
VERTEX
  8
B-448.PLT
 62
7
 10
1.14997461
 20
8.54532031
  0
VERTEX
  8
B-448.PLT
 62
7
 10
1.13357813
 20
8.58906250
  0
VERTEX
  8
B-448.PLT
 62
7
 10
1.12011133
 20
8.63627344
  0
VERTEX
  8
B-448.PLT
 62
7
 10
1.10900000
 20
8.68700000
  0
VERTEX
  8
B-448.PLT
 62
7
 10
1.10260937
 20
8.71934375
  0
VERTEX
  8
B-448.PLT
 62
7
 10
1.09987500
 20
8.75450000
  0
VERTEX
  8
B-448.PLT
 62
7
 10
1.09845313
 20
8.78965625
  0
SEQEND
  0
POLYLINE
  8
B-448.PLT
 62
7
 66
1
 70
1
  0
VERTEX
  8
B-448.PLT
 62
7
 10
22.90400000
 20
8.82200000
  0
VERTEX
  8
B-448.PLT
 62
7
 10
22.90154688
 20
8.78965625
  0
VERTEX
  8
B-448.PLT
 62
7
 10
22.90012500
 20
8.75450000
  0
VERTEX
  8
B-448.PLT
 62
7
 10
22.89739063
 20
8.71934375
  0
VERTEX
  8
B-448.PLT
 62
7
 10
22.89100000
 20
8.68700000
  0
VERTEX
  8
B-448.PLT
 62
7
 10
22.87988867
 20
8.63627344
  0
VERTEX
  8
B-448.PLT
 62
7
 10
22.86642188
 20
8.58906250
  0
VERTEX
  8
B-448.PLT
 62
7
 10
22.85002539
 20
8.54532031
  0
VERTEX
  8
B-448.PLT
 62
7
 10
22.83012500
 20
8.50500000
  0
VERTEX
  8
B-448.PLT
 62
7
 10
22.80614648
 20
8.46805469
  0
VERTEX
  8
B-448.PLT
 62
7
 10
22.77751562
 20
8.43443750
  0
VERTEX
  8
B-448.PLT
 62
7
 10
22.74365820
 20
8.40410156
  0
VERTEX
  8
B-448.PLT
 62
7
 10
22.70400000
 20
8.37700000
  0
VERTEX
  8
B-448.PLT
 62
7
 10
22.66678125
 20
8.35735937
  0
VERTEX
  8
B-448.PLT
 62
7
 10
22.62750000
 20
8.34212500
  0
VERTEX
  8
B-448.PLT
 62
7
 10
22.58671875
 20
8.33157813
  0
VERTEX
  8
B-448.PLT
 62
7
 10
22.54500000
 20
8.32600000
  0
VERTEX
  8
B-448.PLT
 62
7
 10
22.55735938
 20
8.35400000
  0
VERTEX
  8
B-448.PLT
 62
7
 10
22.56437500
 20
8.38350000
  0
VERTEX
  8
B-448.PLT
 62
7
 10
22.56595313
 20
8.41375000
  0
VERTEX
  8
B-448.PLT
 62
7
 10
22.56200000
 20
8.44400000
  0
VERTEX
  8
B-448.PLT
 62
7
 10
22.55174023
 20
8.47477539
  0
VERTEX
  8
B-448.PLT
 62
7
 10
22.53579687
 20
8.50120313
  0
VERTEX
  8
B-448.PLT
 62
7
 10
22.51504883
 20
8.52343555
  0
VERTEX
  8
B-448.PLT
 62
7
 10
22.49037500
 20
8.54162500
  0
VERTEX
  8
B-448.PLT
 62
7
 10
22.46265430
 20
8.55592383
  0
VERTEX
  8
B-448.PLT
 62
7
 10
22.43276562
 20
8.56648437
  0
VERTEX
  8
B-448.PLT
 62
7
 10
22.40158789
 20
8.57345898
  0
VERTEX
  8
B-448.PLT
 62
7
 10
22.37000000
 20
8.57700000
  0
VERTEX
  8
B-448.PLT
 62
7
 10
22.33565430
 20
8.57608398
  0
VERTEX
  8
B-448.PLT
 62
7
 10
22.30260937
 20
8.56985938
  0
VERTEX
  8
B-448.PLT
 62
7
 10
22.27122852
 20
8.55873633
  0
VERTEX
  8
B-448.PLT
 62
7
 10
22.24187500
 20
8.54312500
  0
VERTEX
  8
B-448.PLT
 62
7
 10
22.21491211
 20
8.52343555
  0
VERTEX
  8
B-448.PLT
 62
7
 10
22.19070312
 20
8.50007812
  0
VERTEX
  8
B-448.PLT
 62
7
 10
22.16961133
 20
8.47346289
  0
VERTEX
  8
B-448.PLT
 62
7
 10
22.15200000
 20
8.44400000
  0
VERTEX
  8
B-448.PLT
 62
7
 10
22.13671875
 20
8.40659570
  0
VERTEX
  8
B-448.PLT
 62
7
 10
22.12875000
 20
8.36826562
  0
VERTEX
  8
B-448.PLT
 62
7
 10
22.12753125
 20
8.32958398
  0
VERTEX
  8
B-448.PLT
 62
7
 10
22.13250000
 20
8.29112500
  0
VERTEX
  8
B-448.PLT
 62
7
 10
22.14309375
 20
8.25346289
  0
VERTEX
  8
B-448.PLT
 62
7
 10
22.15875000
 20
8.21717188
  0
VERTEX
  8
B-448.PLT
 62
7
 10
22.17890625
 20
8.18282617
  0
VERTEX
  8
B-448.PLT
 62
7
 10
22.20300000
 20
8.15100000
  0
VERTEX
  8
B-448.PLT
 62
7
 10
22.22864844
 20
8.12553711
  0
VERTEX
  8
B-448.PLT
 62
7
 10
22.25725000
 20
8.10498438
  0
VERTEX
  8
B-448.PLT
 62
7
 10
22.28828906
 20
8.08872070
  0
VERTEX
  8
B-448.PLT
 62
7
 10
22.32125000
 20
8.07612500
  0
VERTEX
  8
B-448.PLT
 62
7
 10
22.35561719
 20
8.06657617
  0
VERTEX
  8
B-448.PLT
 62
7
 10
22.39087500
 20
8.05945312
  0
VERTEX
  8
B-448.PLT
 62
7
 10
22.42650781
 20
8.05413477
  0
VERTEX
  8
B-448.PLT
 62
7
 10
22.46200000
 20
8.05000000
  0
VERTEX
  8
B-448.PLT
 62
7
 10
22.51228125
 20
8.04779297
  0
VERTEX
  8
B-448.PLT
 62
7
 10
22.56181250
 20
8.05128125
  0
VERTEX
  8
B-448.PLT
 62
7
 10
22.61050000
 20
8.05987891
  0
VERTEX
  8
B-448.PLT
 62
7
 10
22.65825000
 20
8.07300000
  0
VERTEX
  8
B-448.PLT
 62
7
 10
22.70496875
 20
8.09005859
  0
VERTEX
  8
B-448.PLT
 62
7
 10
22.75056250
 20
8.11046875
  0
VERTEX
  8
B-448.PLT
 62
7
 10
22.79493750
 20
8.13364453
  0
VERTEX
  8
B-448.PLT
 62
7
 10
22.83800000
 20
8.15900000
  0
VERTEX
  8
B-448.PLT
 62
7
 10
22.90419727
 20
8.20621289
  0
VERTEX
  8
B-448.PLT
 62
7
 10
22.96332813
 20
8.26032812
  0
VERTEX
  8
B-448.PLT
 62
7
 10
23.01545117
 20
8.32056055
  0
VERTEX
  8
B-448.PLT
 62
7
 10
23.06062500
 20
8.38612500
  0
VERTEX
  8
B-448.PLT
 62
7
 10
23.09890820
 20
8.45623633
  0
VERTEX
  8
B-448.PLT
 62
7
 10
23.13035938
 20
8.53010938
  0
VERTEX
  8
B-448.PLT
 62
7
 10
23.15503711
 20
8.60695898
  0
VERTEX
  8
B-448.PLT
 62
7
 10
23.17300000
 20
8.68600000
  0
VERTEX
  8
B-448.PLT
 62
7
 10
23.18150000
 20
8.75112500
  0
VERTEX
  8
B-448.PLT
 62
7
 10
23.18400000
 20
8.81700000
  0
VERTEX
  8
B-448.PLT
 62
7
 10
23.13400000
 20
8.82600000
  0
VERTEX
  8
B-448.PLT
 62
7
 10
23.07712500
 20
8.83500000
  0
VERTEX
  8
B-448.PLT
 62
7
 10
23.01800000
 20
8.83800000
  0
VERTEX
  8
B-448.PLT
 62
7
 10
22.95400000
 20
8.83400000
  0
SEQEND
  0
POLYLINE
  8
B-448.PLT
 62
7
 66
1
 70
1
  0
VERTEX
  8
B-448.PLT
 62
7
 10
4.87200000
 20
10.05900000
  0
VERTEX
  8
B-448.PLT
 62
7
 10
4.85873633
 20
10.03789062
  0
VERTEX
  8
B-448.PLT
 62
7
 10
4.83957813
 20
10.02081250
  0
VERTEX
  8
B-448.PLT
 62
7
 10
4.81622461
 20
10.00739062
  0
VERTEX
  8
B-448.PLT
 62
7
 10
4.79037500
 20
9.99725000
  0
VERTEX
  8
B-448.PLT
 62
7
 10
4.76372852
 20
9.99001562
  0
VERTEX
  8
B-448.PLT
 62
7
 10
4.73798437
 20
9.98531250
  0
VERTEX
  8
B-448.PLT
 62
7
 10
4.71484180
 20
9.98276563
  0
VERTEX
  8
B-448.PLT
 62
7
 10
4.69600000
 20
9.98200000
  0
VERTEX
  8
B-448.PLT
 62
7
 10
4.65762500
 20
9.98287500
  0
VERTEX
  8
B-448.PLT
 62
7
 10
4.62000000
 20
9.98600000
  0
VERTEX
  8
B-448.PLT
 62
7
 10
4.59862500
 20
9.98993750
  0
VERTEX
  8
B-448.PLT
 62
7
 10
4.57350000
 20
9.99725000
  0
VERTEX
  8
B-448.PLT
 62
7
 10
4.54462500
 20
10.00793750
  0
VERTEX
  8
B-448.PLT
 62
7
 10
4.51200000
 20
10.02200000
  0
VERTEX
  8
B-448.PLT
 62
7
 10
4.48106250
 20
10.03471875
  0
VERTEX
  8
B-448.PLT
 62
7
 10
4.45425000
 20
10.04425000
  0
VERTEX
  8
B-448.PLT
 62
7
 10
4.43156250
 20
10.05040625
  0
VERTEX
  8
B-448.PLT
 62
7
 10
4.41300000
 20
10.05300000
  0
VERTEX
  8
B-448.PLT
 62
7
 10
4.38300000
 20
10.05400000
  0
VERTEX
  8
B-448.PLT
 62
7
 10
4.34567187
 20
10.05289063
  0
VERTEX
  8
B-448.PLT
 62
7
 10
4.29962500
 20
10.04962500
  0
VERTEX
  8
B-448.PLT
 62
7
 10
4.25376562
 20
10.04429688
  0
VERTEX
  8
B-448.PLT
 62
7
 10
4.21700000
 20
10.03700000
  0
VERTEX
  8
B-448.PLT
 62
7
 10
4.23229492
 20
10.05782227
  0
VERTEX
  8
B-448.PLT
 62
7
 10
4.25123438
 20
10.07476563
  0
VERTEX
  8
B-448.PLT
 62
7
 10
4.27277539
 20
10.08816992
  0
VERTEX
  8
B-448.PLT
 62
7
 10
4.29587500
 20
10.09837500
  0
VERTEX
  8
B-448.PLT
 62
7
 10
4.31949023
 20
10.10572070
  0
VERTEX
  8
B-448.PLT
 62
7
 10
4.34257813
 20
10.11054688
  0
VERTEX
  8
B-448.PLT
 62
7
 10
4.36409570
 20
10.11319336
  0
VERTEX
  8
B-448.PLT
 62
7
 10
4.38300000
 20
10.11400000
  0
VERTEX
  8
B-448.PLT
 62
7
 10
4.41700000
 20
10.11300000
  0
VERTEX
  8
B-448.PLT
 62
7
 10
4.44079688
 20
10.10960938
  0
VERTEX
  8
B-448.PLT
 62
7
 10
4.46862500
 20
10.10237500
  0
VERTEX
  8
B-448.PLT
 62
7
 10
4.50039062
 20
10.09120313
  0
VERTEX
  8
B-448.PLT
 62
7
 10
4.53600000
 20
10.07600000
  0
VERTEX
  8
B-448.PLT
 62
7
 10
4.56471875
 20
10.06442188
  0
VERTEX
  8
B-448.PLT
 62
7
 10
4.58950000
 20
10.05537500
  0
VERTEX
  8
B-448.PLT
 62
7
 10
4.61053125
 20
10.04914063
  0
VERTEX
  8
B-448.PLT
 62
7
 10
4.62800000
 20
10.04600000
  0
VERTEX
  8
B-448.PLT
 62
7
 10
4.66162500
 20
10.04287500
  0
VERTEX
  8
B-448.PLT
 62
7
 10
4.69600000
 20
10.04200000
  0
VERTEX
  8
B-448.PLT
 62
7
 10
4.73418750
 20
10.04353125
  0
VERTEX
  8
B-448.PLT
 62
7
 10
4.78400000
 20
10.04750000
  0
VERTEX
  8
B-448.PLT
 62
7
 10
4.83381250
 20
10.05296875
  0
SEQEND
  0
POLYLINE
  8
B-448.PLT
 62
7
 66
1
 70
1
  0
VERTEX
  8
B-448.PLT
 62
7
 10
19.12800000
 20
10.05900000
  0
VERTEX
  8
B-448.PLT
 62
7
 10
19.16618750
 20
10.05296875
  0
VERTEX
  8
B-448.PLT
 62
7
 10
19.21600000
 20
10.04750000
  0
VERTEX
  8
B-448.PLT
 62
7
 10
19.26581250
 20
10.04353125
  0
VERTEX
  8
B-448.PLT
 62
7
 10
19.30400000
 20
10.04200000
  0
VERTEX
  8
B-448.PLT
 62
7
 10
19.33837500
 20
10.04287500
  0
VERTEX
  8
B-448.PLT
 62
7
 10
19.37200000
 20
10.04600000
  0
VERTEX
  8
B-448.PLT
 62
7
 10
19.38946875
 20
10.04914063
  0
VERTEX
  8
B-448.PLT
 62
7
 10
19.41050000
 20
10.05537500
  0
VERTEX
  8
B-448.PLT
 62
7
 10
19.43528125
 20
10.06442188
  0
VERTEX
  8
B-448.PLT
 62
7
 10
19.46400000
 20
10.07600000
  0
VERTEX
  8
B-448.PLT
 62
7
 10
19.49960937
 20
10.09120313
  0
VERTEX
  8
B-448.PLT
 62
7
 10
19.53137500
 20
10.10237500
  0
VERTEX
  8
B-448.PLT
 62
7
 10
19.55920313
 20
10.10960938
  0
VERTEX
  8
B-448.PLT
 62
7
 10
19.58300000
 20
10.11300000
  0
VERTEX
  8
B-448.PLT
 62
7
 10
19.61700000
 20
10.11400000
  0
VERTEX
  8
B-448.PLT
 62
7
 10
19.63590430
 20
10.11319336
  0
VERTEX
  8
B-448.PLT
 62
7
 10
19.65742188
 20
10.11054688
  0
VERTEX
  8
B-448.PLT
 62
7
 10
19.68050977
 20
10.10572070
  0
VERTEX
  8
B-448.PLT
 62
7
 10
19.70412500
 20
10.09837500
  0
VERTEX
  8
B-448.PLT
 62
7
 10
19.72722461
 20
10.08816992
  0
VERTEX
  8
B-448.PLT
 62
7
 10
19.74876563
 20
10.07476563
  0
VERTEX
  8
B-448.PLT
 62
7
 10
19.76770508
 20
10.05782227
  0
VERTEX
  8
B-448.PLT
 62
7
 10
19.78300000
 20
10.03700000
  0
VERTEX
  8
B-448.PLT
 62
7
 10
19.74623438
 20
10.04429688
  0
VERTEX
  8
B-448.PLT
 62
7
 10
19.70037500
 20
10.04962500
  0
VERTEX
  8
B-448.PLT
 62
7
 10
19.65432812
 20
10.05289063
  0
VERTEX
  8
B-448.PLT
 62
7
 10
19.61700000
 20
10.05400000
  0
VERTEX
  8
B-448.PLT
 62
7
 10
19.58700000
 20
10.05300000
  0
VERTEX
  8
B-448.PLT
 62
7
 10
19.56843750
 20
10.05040625
  0
VERTEX
  8
B-448.PLT
 62
7
 10
19.54575000
 20
10.04425000
  0
VERTEX
  8
B-448.PLT
 62
7
 10
19.51893750
 20
10.03471875
  0
VERTEX
  8
B-448.PLT
 62
7
 10
19.48800000
 20
10.02200000
  0
VERTEX
  8
B-448.PLT
 62
7
 10
19.45537500
 20
10.00793750
  0
VERTEX
  8
B-448.PLT
 62
7
 10
19.42650000
 20
9.99725000
  0
VERTEX
  8
B-448.PLT
 62
7
 10
19.40137500
 20
9.98993750
  0
VERTEX
  8
B-448.PLT
 62
7
 10
19.38000000
 20
9.98600000
  0
VERTEX
  8
B-448.PLT
 62
7
 10
19.34237500
 20
9.98287500
  0
VERTEX
  8
B-448.PLT
 62
7
 10
19.30400000
 20
9.98200000
  0
VERTEX
  8
B-448.PLT
 62
7
 10
19.28515820
 20
9.98276563
  0
VERTEX
  8
B-448.PLT
 62
7
 10
19.26201563
 20
9.98531250
  0
VERTEX
  8
B-448.PLT
 62
7
 10
19.23627148
 20
9.99001562
  0
VERTEX
  8
B-448.PLT
 62
7
 10
19.20962500
 20
9.99725000
  0
VERTEX
  8
B-448.PLT
 62
7
 10
19.18377539
 20
10.00739062
  0
VERTEX
  8
B-448.PLT
 62
7
 10
19.16042188
 20
10.02081250
  0
VERTEX
  8
B-448.PLT
 62
7
 10
19.14126367
 20
10.03789062
  0
SEQEND
  0
POLYLINE
  8
B-448.PLT
 62
7
 66
1
 70
1
  0
VERTEX
  8
B-448.PLT
 62
7
 10
21.08500000
 20
10.27700000
  0
VERTEX
  8
B-448.PLT
 62
7
 10
21.10418750
 20
10.23109375
  0
VERTEX
  8
B-448.PLT
 62
7
 10
21.12450000
 20
10.18050000
  0
VERTEX
  8
B-448.PLT
 62
7
 10
21.14406250
 20
10.12765625
  0
VERTEX
  8
B-448.PLT
 62
7
 10
21.16100000
 20
10.07500000
  0
VERTEX
  8
B-448.PLT
 62
7
 10
21.17932813
 20
10.07762500
  0
VERTEX
  8
B-448.PLT
 62
7
 10
21.20187500
 20
10.07725000
  0
VERTEX
  8
B-448.PLT
 62
7
 10
21.22498437
 20
10.07500000
  0
VERTEX
  8
B-448.PLT
 62
7
 10
21.24500000
 20
10.07200000
  0
VERTEX
  8
B-448.PLT
 62
7
 10
21.26517969
 20
10.09928906
  0
VERTEX
  8
B-448.PLT
 62
7
 10
21.28531250
 20
10.12831250
  0
VERTEX
  8
B-448.PLT
 62
7
 10
21.30441406
 20
10.15855469
  0
VERTEX
  8
B-448.PLT
 62
7
 10
21.32150000
 20
10.18950000
  0
VERTEX
  8
B-448.PLT
 62
7
 10
21.33558594
 20
10.22063281
  0
VERTEX
  8
B-448.PLT
 62
7
 10
21.34568750
 20
10.25143750
  0
VERTEX
  8
B-448.PLT
 62
7
 10
21.35082031
 20
10.28139844
  0
VERTEX
  8
B-448.PLT
 62
7
 10
21.35000000
 20
10.31000000
  0
VERTEX
  8
B-448.PLT
 62
7
 10
21.34551416
 20
10.33227295
  0
VERTEX
  8
B-448.PLT
 62
7
 10
21.33895703
 20
10.35098047
  0
VERTEX
  8
B-448.PLT
 62
7
 10
21.33055420
 20
10.36651807
  0
VERTEX
  8
B-448.PLT
 62
7
 10
21.32053125
 20
10.37928125
  0
VERTEX
  8
B-448.PLT
 62
7
 10
21.30911377
 20
10.38966553
  0
VERTEX
  8
B-448.PLT
 62
7
 10
21.29652734
 20
10.39806641
  0
VERTEX
  8
B-448.PLT
 62
7
 10
21.28299756
 20
10.40487939
  0
VERTEX
  8
B-448.PLT
 62
7
 10
21.26875000
 20
10.41050000
  0
VERTEX
  8
B-448.PLT
 62
7
 10
21.25401025
 20
10.41532373
  0
VERTEX
  8
B-448.PLT
 62
7
 10
21.23900391
 20
10.41974609
  0
VERTEX
  8
B-448.PLT
 62
7
 10
21.22395654
 20
10.42416260
  0
VERTEX
  8
B-448.PLT
 62
7
 10
21.20909375
 20
10.42896875
  0
VERTEX
  8
B-448.PLT
 62
7
 10
21.19464111
 20
10.43456006
  0
VERTEX
  8
B-448.PLT
 62
7
 10
21.18082422
 20
10.44133203
  0
VERTEX
  8
B-448.PLT
 62
7
 10
21.16786865
 20
10.44968018
  0
VERTEX
  8
B-448.PLT
 62
7
 10
21.15600000
 20
10.46000000
  0
VERTEX
  8
B-448.PLT
 62
7
 10
21.14164063
 20
10.43828125
  0
VERTEX
  8
B-448.PLT
 62
7
 10
21.11912500
 20
10.41900000
  0
VERTEX
  8
B-448.PLT
 62
7
 10
21.09004687
 20
10.40346875
  0
VERTEX
  8
B-448.PLT
 62
7
 10
21.05600000
 20
10.39300000
  0
VERTEX
  8
B-448.PLT
 62
7
 10
21.02065625
 20
10.38896875
  0
VERTEX
  8
B-448.PLT
 62
7
 10
20.98775000
 20
10.39150000
  0
VERTEX
  8
B-448.PLT
 62
7
 10
20.95896875
 20
10.40003125
  0
VERTEX
  8
B-448.PLT
 62
7
 10
20.93600000
 20
10.41400000
  0
VERTEX
  8
B-448.PLT
 62
7
 10
20.92987646
 20
10.40014966
  0
VERTEX
  8
B-448.PLT
 62
7
 10
20.92188672
 20
10.38766602
  0
VERTEX
  8
B-448.PLT
 62
7
 10
20.91241455
 20
10.37627515
  0
VERTEX
  8
B-448.PLT
 62
7
 10
20.90184375
 20
10.36570313
  0
VERTEX
  8
B-448.PLT
 62
7
 10
20.89055811
 20
10.35567603
  0
VERTEX
  8
B-448.PLT
 62
7
 10
20.87894141
 20
10.34591992
  0
VERTEX
  8
B-448.PLT
 62
7
 10
20.86737744
 20
10.33616089
  0
VERTEX
  8
B-448.PLT
 62
7
 10
20.85625000
 20
10.32612500
  0
VERTEX
  8
B-448.PLT
 62
7
 10
20.84594287
 20
10.31553833
  0
VERTEX
  8
B-448.PLT
 62
7
 10
20.83683984
 20
10.30412695
  0
VERTEX
  8
B-448.PLT
 62
7
 10
20.82932471
 20
10.29161694
  0
VERTEX
  8
B-448.PLT
 62
7
 10
20.82378125
 20
10.27773438
  0
VERTEX
  8
B-448.PLT
 62
7
 10
20.82059326
 20
10.26220532
  0
VERTEX
  8
B-448.PLT
 62
7
 10
20.82014453
 20
10.24475586
  0
VERTEX
  8
B-448.PLT
 62
7
 10
20.82281885
 20
10.22511206
  0
VERTEX
  8
B-448.PLT
 62
7
 10
20.82900000
 20
10.20300000
  0
VERTEX
  8
B-448.PLT
 62
7
 10
20.84137695
 20
10.17718750
  0
VERTEX
  8
B-448.PLT
 62
7
 10
20.85976563
 20
10.15231250
  0
VERTEX
  8
B-448.PLT
 62
7
 10
20.88305273
 20
10.12846875
  0
VERTEX
  8
B-448.PLT
 62
7
 10
20.91012500
 20
10.10575000
  0
VERTEX
  8
B-448.PLT
 62
7
 10
20.93986914
 20
10.08425000
  0
VERTEX
  8
B-448.PLT
 62
7
 10
20.97117188
 20
10.06406250
  0
VERTEX
  8
B-448.PLT
 62
7
 10
21.00291992
 20
10.04528125
  0
VERTEX
  8
B-448.PLT
 62
7
 10
21.03400000
 20
10.02800000
  0
VERTEX
  8
B-448.PLT
 62
7
 10
21.07012500
 20
10.04900000
  0
VERTEX
  8
B-448.PLT
 62
7
 10
21.11000000
 20
10.06400000
  0
VERTEX
  8
B-448.PLT
 62
7
 10
21.10075000
 20
10.11823438
  0
VERTEX
  8
B-448.PLT
 62
7
 10
21.09375000
 20
10.17387500
  0
VERTEX
  8
B-448.PLT
 62
7
 10
21.08862500
 20
10.22782813
  0
SEQEND
  0
POLYLINE
  8
B-448.PLT
 62
7
 66
1
 70
1
  0
VERTEX
  8
B-448.PLT
 62
7
 10
2.91500000
 20
10.27700000
  0
VERTEX
  8
B-448.PLT
 62
7
 10
2.91137500
 20
10.22782813
  0
VERTEX
  8
B-448.PLT
 62
7
 10
2.90625000
 20
10.17387500
  0
VERTEX
  8
B-448.PLT
 62
7
 10
2.89925000
 20
10.11823438
  0
VERTEX
  8
B-448.PLT
 62
7
 10
2.89000000
 20
10.06400000
  0
VERTEX
  8
B-448.PLT
 62
7
 10
2.92987500
 20
10.04900000
  0
VERTEX
  8
B-448.PLT
 62
7
 10
2.96600000
 20
10.02800000
  0
VERTEX
  8
B-448.PLT
 62
7
 10
2.99708008
 20
10.04528125
  0
VERTEX
  8
B-448.PLT
 62
7
 10
3.02882813
 20
10.06406250
  0
VERTEX
  8
B-448.PLT
 62
7
 10
3.06013086
 20
10.08425000
  0
VERTEX
  8
B-448.PLT
 62
7
 10
3.08987500
 20
10.10575000
  0
VERTEX
  8
B-448.PLT
 62
7
 10
3.11694727
 20
10.12846875
  0
VERTEX
  8
B-448.PLT
 62
7
 10
3.14023437
 20
10.15231250
  0
VERTEX
  8
B-448.PLT
 62
7
 10
3.15862305
 20
10.17718750
  0
VERTEX
  8
B-448.PLT
 62
7
 10
3.17100000
 20
10.20300000
  0
VERTEX
  8
B-448.PLT
 62
7
 10
3.17718115
 20
10.22511206
  0
VERTEX
  8
B-448.PLT
 62
7
 10
3.17985547
 20
10.24475586
  0
VERTEX
  8
B-448.PLT
 62
7
 10
3.17940674
 20
10.26220532
  0
VERTEX
  8
B-448.PLT
 62
7
 10
3.17621875
 20
10.27773438
  0
VERTEX
  8
B-448.PLT
 62
7
 10
3.17067529
 20
10.29161694
  0
VERTEX
  8
B-448.PLT
 62
7
 10
3.16316016
 20
10.30412695
  0
VERTEX
  8
B-448.PLT
 62
7
 10
3.15405713
 20
10.31553833
  0
VERTEX
  8
B-448.PLT
 62
7
 10
3.14375000
 20
10.32612500
  0
VERTEX
  8
B-448.PLT
 62
7
 10
3.13262256
 20
10.33616089
  0
VERTEX
  8
B-448.PLT
 62
7
 10
3.12105859
 20
10.34591992
  0
VERTEX
  8
B-448.PLT
 62
7
 10
3.10944189
 20
10.35567603
  0
VERTEX
  8
B-448.PLT
 62
7
 10
3.09815625
 20
10.36570313
  0
VERTEX
  8
B-448.PLT
 62
7
 10
3.08758545
 20
10.37627515
  0
VERTEX
  8
B-448.PLT
 62
7
 10
3.07811328
 20
10.38766602
  0
VERTEX
  8
B-448.PLT
 62
7
 10
3.07012354
 20
10.40014966
  0
VERTEX
  8
B-448.PLT
 62
7
 10
3.06400000
 20
10.41400000
  0
VERTEX
  8
B-448.PLT
 62
7
 10
3.04103125
 20
10.40003125
  0
VERTEX
  8
B-448.PLT
 62
7
 10
3.01225000
 20
10.39150000
  0
VERTEX
  8
B-448.PLT
 62
7
 10
2.97934375
 20
10.38896875
  0
VERTEX
  8
B-448.PLT
 62
7
 10
2.94400000
 20
10.39300000
  0
VERTEX
  8
B-448.PLT
 62
7
 10
2.90995312
 20
10.40346875
  0
VERTEX
  8
B-448.PLT
 62
7
 10
2.88087500
 20
10.41900000
  0
VERTEX
  8
B-448.PLT
 62
7
 10
2.85835938
 20
10.43828125
  0
VERTEX
  8
B-448.PLT
 62
7
 10
2.84400000
 20
10.46000000
  0
VERTEX
  8
B-448.PLT
 62
7
 10
2.83213135
 20
10.44968018
  0
VERTEX
  8
B-448.PLT
 62
7
 10
2.81917578
 20
10.44133203
  0
VERTEX
  8
B-448.PLT
 62
7
 10
2.80535889
 20
10.43456006
  0
VERTEX
  8
B-448.PLT
 62
7
 10
2.79090625
 20
10.42896875
  0
VERTEX
  8
B-448.PLT
 62
7
 10
2.77604346
 20
10.42416260
  0
VERTEX
  8
B-448.PLT
 62
7
 10
2.76099609
 20
10.41974609
  0
VERTEX
  8
B-448.PLT
 62
7
 10
2.74598975
 20
10.41532373
  0
VERTEX
  8
B-448.PLT
 62
7
 10
2.73125000
 20
10.41050000
  0
VERTEX
  8
B-448.PLT
 62
7
 10
2.71700244
 20
10.40487939
  0
VERTEX
  8
B-448.PLT
 62
7
 10
2.70347266
 20
10.39806641
  0
VERTEX
  8
B-448.PLT
 62
7
 10
2.69088623
 20
10.38966553
  0
VERTEX
  8
B-448.PLT
 62
7
 10
2.67946875
 20
10.37928125
  0
VERTEX
  8
B-448.PLT
 62
7
 10
2.66944580
 20
10.36651807
  0
VERTEX
  8
B-448.PLT
 62
7
 10
2.66104297
 20
10.35098047
  0
VERTEX
  8
B-448.PLT
 62
7
 10
2.65448584
 20
10.33227295
  0
VERTEX
  8
B-448.PLT
 62
7
 10
2.65000000
 20
10.31000000
  0
VERTEX
  8
B-448.PLT
 62
7
 10
2.64917969
 20
10.28139844
  0
VERTEX
  8
B-448.PLT
 62
7
 10
2.65431250
 20
10.25143750
  0
VERTEX
  8
B-448.PLT
 62
7
 10
2.66441406
 20
10.22063281
  0
VERTEX
  8
B-448.PLT
 62
7
 10
2.67850000
 20
10.18950000
  0
VERTEX
  8
B-448.PLT
 62
7
 10
2.69558594
 20
10.15855469
  0
VERTEX
  8
B-448.PLT
 62
7
 10
2.71468750
 20
10.12831250
  0
VERTEX
  8
B-448.PLT
 62
7
 10
2.73482031
 20
10.09928906
  0
VERTEX
  8
B-448.PLT
 62
7
 10
2.75500000
 20
10.07200000
  0
VERTEX
  8
B-448.PLT
 62
7
 10
2.77501563
 20
10.07500000
  0
VERTEX
  8
B-448.PLT
 62
7
 10
2.79812500
 20
10.07725000
  0
VERTEX
  8
B-448.PLT
 62
7
 10
2.82067187
 20
10.07762500
  0
VERTEX
  8
B-448.PLT
 62
7
 10
2.83900000
 20
10.07500000
  0
VERTEX
  8
B-448.PLT
 62
7
 10
2.85593750
 20
10.12765625
  0
VERTEX
  8
B-448.PLT
 62
7
 10
2.87550000
 20
10.18050000
  0
VERTEX
  8
B-448.PLT
 62
7
 10
2.89581250
 20
10.23109375
  0
SEQEND
  0
POLYLINE
  8
B-448.PLT
 62
7
 66
1
 70
1
  0
VERTEX
  8
B-448.PLT
 62
7
 10
21.52000000
 20
9.03400000
  0
VERTEX
  8
B-448.PLT
 62
7
 10
21.54506836
 20
9.02691016
  0
VERTEX
  8
B-448.PLT
 62
7
 10
21.57354688
 20
9.02190625
  0
VERTEX
  8
B-448.PLT
 62
7
 10
21.60397070
 20
9.01863672
  0
VERTEX
  8
B-448.PLT
 62
7
 10
21.63487500
 20
9.01675000
  0
VERTEX
  8
B-448.PLT
 62
7
 10
21.66479492
 20
9.01589453
  0
VERTEX
  8
B-448.PLT
 62
7
 10
21.69226563
 20
9.01571875
  0
VERTEX
  8
B-448.PLT
 62
7
 10
21.71582227
 20
9.01587109
  0
VERTEX
  8
B-448.PLT
 62
7
 10
21.73400000
 20
9.01600000
  0
VERTEX
  8
B-448.PLT
 62
7
 10
21.79487500
 20
9.01837500
  0
VERTEX
  8
B-448.PLT
 62
7
 10
21.85500000
 20
9.02600000
  0
VERTEX
  8
B-448.PLT
 62
7
 10
21.89759375
 20
9.03167188
  0
VERTEX
  8
B-448.PLT
 62
7
 10
21.95050000
 20
9.03837500
  0
VERTEX
  8
B-448.PLT
 62
7
 10
22.00265625
 20
9.04639063
  0
VERTEX
  8
B-448.PLT
 62
7
 10
22.04300000
 20
9.05600000
  0
VERTEX
  8
B-448.PLT
 62
7
 10
22.01951953
 20
9.03351172
  0
VERTEX
  8
B-448.PLT
 62
7
 10
21.99578125
 20
9.01521875
  0
VERTEX
  8
B-448.PLT
 62
7
 10
21.97208984
 20
9.00062891
  0
VERTEX
  8
B-448.PLT
 62
7
 10
21.94875000
 20
8.98925000
  0
VERTEX
  8
B-448.PLT
 62
7
 10
21.92606641
 20
8.98058984
  0
VERTEX
  8
B-448.PLT
 62
7
 10
21.90434375
 20
8.97415625
  0
VERTEX
  8
B-448.PLT
 62
7
 10
21.88388672
 20
8.96945703
  0
VERTEX
  8
B-448.PLT
 62
7
 10
21.86500000
 20
8.96600000
  0
VERTEX
  8
B-448.PLT
 62
7
 10
21.79987500
 20
8.95875000
  0
VERTEX
  8
B-448.PLT
 62
7
 10
21.73400000
 20
8.95600000
  0
VERTEX
  8
B-448.PLT
 62
7
 10
21.72479614
 20
8.95610693
  0
VERTEX
  8
B-448.PLT
 62
7
 10
21.71352539
 20
8.95648047
  0
VERTEX
  8
B-448.PLT
 62
7
 10
21.70051147
 20
8.95719971
  0
VERTEX
  8
B-448.PLT
 62
7
 10
21.68607813
 20
8.95834375
  0
VERTEX
  8
B-448.PLT
 62
7
 10
21.67054907
 20
8.95999170
  0
VERTEX
  8
B-448.PLT
 62
7
 10
21.65424805
 20
8.96222266
  0
VERTEX
  8
B-448.PLT
 62
7
 10
21.63749878
 20
8.96511572
  0
VERTEX
  8
B-448.PLT
 62
7
 10
21.62062500
 20
8.96875000
  0
VERTEX
  8
B-448.PLT
 62
7
 10
21.60395044
 20
8.97320459
  0
VERTEX
  8
B-448.PLT
 62
7
 10
21.58779883
 20
8.97855859
  0
VERTEX
  8
B-448.PLT
 62
7
 10
21.57249390
 20
8.98489111
  0
VERTEX
  8
B-448.PLT
 62
7
 10
21.55835937
 20
8.99228125
  0
VERTEX
  8
B-448.PLT
 62
7
 10
21.54571899
 20
9.00080811
  0
VERTEX
  8
B-448.PLT
 62
7
 10
21.53489648
 20
9.01055078
  0
VERTEX
  8
B-448.PLT
 62
7
 10
21.52621558
 20
9.02158838
  0
SEQEND
  0
POLYLINE
  8
B-448.PLT
 62
7
 66
1
 70
1
  0
VERTEX
  8
B-448.PLT
 62
7
 10
2.48000000
 20
9.03400000
  0
VERTEX
  8
B-448.PLT
 62
7
 10
2.47378442
 20
9.02158838
  0
VERTEX
  8
B-448.PLT
 62
7
 10
2.46510352
 20
9.01055078
  0
VERTEX
  8
B-448.PLT
 62
7
 10
2.45428101
 20
9.00080811
  0
VERTEX
  8
B-448.PLT
 62
7
 10
2.44164062
 20
8.99228125
  0
VERTEX
  8
B-448.PLT
 62
7
 10
2.42750610
 20
8.98489111
  0
VERTEX
  8
B-448.PLT
 62
7
 10
2.41220117
 20
8.97855859
  0
VERTEX
  8
B-448.PLT
 62
7
 10
2.39604956
 20
8.97320459
  0
VERTEX
  8
B-448.PLT
 62
7
 10
2.37937500
 20
8.96875000
  0
VERTEX
  8
B-448.PLT
 62
7
 10
2.36250122
 20
8.96511572
  0
VERTEX
  8
B-448.PLT
 62
7
 10
2.34575195
 20
8.96222266
  0
VERTEX
  8
B-448.PLT
 62
7
 10
2.32945093
 20
8.95999170
  0
VERTEX
  8
B-448.PLT
 62
7
 10
2.31392188
 20
8.95834375
  0
VERTEX
  8
B-448.PLT
 62
7
 10
2.29948853
 20
8.95719971
  0
VERTEX
  8
B-448.PLT
 62
7
 10
2.28647461
 20
8.95648047
  0
VERTEX
  8
B-448.PLT
 62
7
 10
2.27520386
 20
8.95610693
  0
VERTEX
  8
B-448.PLT
 62
7
 10
2.26600000
 20
8.95600000
  0
VERTEX
  8
B-448.PLT
 62
7
 10
2.20012500
 20
8.95875000
  0
VERTEX
  8
B-448.PLT
 62
7
 10
2.13500000
 20
8.96600000
  0
VERTEX
  8
B-448.PLT
 62
7
 10
2.11611328
 20
8.96945703
  0
VERTEX
  8
B-448.PLT
 62
7
 10
2.09565625
 20
8.97415625
  0
VERTEX
  8
B-448.PLT
 62
7
 10
2.07393359
 20
8.98058984
  0
VERTEX
  8
B-448.PLT
 62
7
 10
2.05125000
 20
8.98925000
  0
VERTEX
  8
B-448.PLT
 62
7
 10
2.02791016
 20
9.00062891
  0
VERTEX
  8
B-448.PLT
 62
7
 10
2.00421875
 20
9.01521875
  0
VERTEX
  8
B-448.PLT
 62
7
 10
1.98048047
 20
9.03351172
  0
VERTEX
  8
B-448.PLT
 62
7
 10
1.95700000
 20
9.05600000
  0
VERTEX
  8
B-448.PLT
 62
7
 10
1.99734375
 20
9.04639063
  0
VERTEX
  8
B-448.PLT
 62
7
 10
2.04950000
 20
9.03837500
  0
VERTEX
  8
B-448.PLT
 62
7
 10
2.10240625
 20
9.03167188
  0
VERTEX
  8
B-448.PLT
 62
7
 10
2.14500000
 20
9.02600000
  0
VERTEX
  8
B-448.PLT
 62
7
 10
2.20512500
 20
9.01837500
  0
VERTEX
  8
B-448.PLT
 62
7
 10
2.26600000
 20
9.01600000
  0
VERTEX
  8
B-448.PLT
 62
7
 10
2.28417773
 20
9.01587109
  0
VERTEX
  8
B-448.PLT
 62
7
 10
2.30773437
 20
9.01571875
  0
VERTEX
  8
B-448.PLT
 62
7
 10
2.33520508
 20
9.01589453
  0
VERTEX
  8
B-448.PLT
 62
7
 10
2.36512500
 20
9.01675000
  0
VERTEX
  8
B-448.PLT
 62
7
 10
2.39602930
 20
9.01863672
  0
VERTEX
  8
B-448.PLT
 62
7
 10
2.42645313
 20
9.02190625
  0
VERTEX
  8
B-448.PLT
 62
7
 10
2.45493164
 20
9.02691016
  0
SEQEND
  0
POLYLINE
  8
B-448.PLT
 62
7
 66
1
 70
1
  0
VERTEX
  8
B-448.PLT
 62
7
 10
3.00100000
 20
9.44400000
  0
VERTEX
  8
B-448.PLT
 62
7
 10
2.97260938
 20
9.48628125
  0
VERTEX
  8
B-448.PLT
 62
7
 10
2.94187500
 20
9.53325000
  0
VERTEX
  8
B-448.PLT
 62
7
 10
2.91170312
 20
9.58209375
  0
VERTEX
  8
B-448.PLT
 62
7
 10
2.88500000
 20
9.63000000
  0
VERTEX
  8
B-448.PLT
 62
7
 10
2.84387500
 20
9.62162500
  0
VERTEX
  8
B-448.PLT
 62
7
 10
2.80200000
 20
9.61700000
  0
VERTEX
  8
B-448.PLT
 62
7
 10
2.78766406
 20
9.58644531
  0
VERTEX
  8
B-448.PLT
 62
7
 10
2.77375000
 20
9.55443750
  0
VERTEX
  8
B-448.PLT
 62
7
 10
2.76114844
 20
9.52158594
  0
VERTEX
  8
B-448.PLT
 62
7
 10
2.75075000
 20
9.48850000
  0
VERTEX
  8
B-448.PLT
 62
7
 10
2.74344531
 20
9.45578906
  0
VERTEX
  8
B-448.PLT
 62
7
 10
2.74012500
 20
9.42406250
  0
VERTEX
  8
B-448.PLT
 62
7
 10
2.74167969
 20
9.39392969
  0
VERTEX
  8
B-448.PLT
 62
7
 10
2.74900000
 20
9.36600000
  0
VERTEX
  8
B-448.PLT
 62
7
 10
2.75793115
 20
9.34483472
  0
VERTEX
  8
B-448.PLT
 62
7
 10
2.76813672
 20
9.32755273
  0
VERTEX
  8
B-448.PLT
 62
7
 10
2.77948486
 20
9.31372485
  0
VERTEX
  8
B-448.PLT
 62
7
 10
2.79184375
 20
9.30292187
  0
VERTEX
  8
B-448.PLT
 62
7
 10
2.80508154
 20
9.29471460
  0
VERTEX
  8
B-448.PLT
 62
7
 10
2.81906641
 20
9.28867383
  0
VERTEX
  8
B-448.PLT
 62
7
 10
2.83366650
 20
9.28437036
  0
VERTEX
  8
B-448.PLT
 62
7
 10
2.84875000
 20
9.28137500
  0
VERTEX
  8
B-448.PLT
 62
7
 10
2.86418506
 20
9.27925854
  0
VERTEX
  8
B-448.PLT
 62
7
 10
2.87983984
 20
9.27759180
  0
VERTEX
  8
B-448.PLT
 62
7
 10
2.89558252
 20
9.27594556
  0
VERTEX
  8
B-448.PLT
 62
7
 10
2.91128125
 20
9.27389062
  0
VERTEX
  8
B-448.PLT
 62
7
 10
2.92680420
 20
9.27099780
  0
VERTEX
  8
B-448.PLT
 62
7
 10
2.94201953
 20
9.26683789
  0
VERTEX
  8
B-448.PLT
 62
7
 10
2.95679541
 20
9.26098169
  0
VERTEX
  8
B-448.PLT
 62
7
 10
2.97100000
 20
9.25300000
  0
VERTEX
  8
B-448.PLT
 62
7
 10
2.97386914
 20
9.26501758
  0
VERTEX
  8
B-448.PLT
 62
7
 10
2.97932812
 20
9.27695313
  0
VERTEX
  8
B-448.PLT
 62
7
 10
2.98715430
 20
9.28863086
  0
VERTEX
  8
B-448.PLT
 62
7
 10
2.99712500
 20
9.29987500
  0
VERTEX
  8
B-448.PLT
 62
7
 10
3.00901758
 20
9.31050977
  0
VERTEX
  8
B-448.PLT
 62
7
 10
3.02260938
 20
9.32035938
  0
VERTEX
  8
B-448.PLT
 62
7
 10
3.03767773
 20
9.32924805
  0
VERTEX
  8
B-448.PLT
 62
7
 10
3.05400000
 20
9.33700000
  0
VERTEX
  8
B-448.PLT
 62
7
 10
3.07039648
 20
9.34290625
  0
VERTEX
  8
B-448.PLT
 62
7
 10
3.08710937
 20
9.34712500
  0
VERTEX
  8
B-448.PLT
 62
7
 10
3.10379883
 20
9.34965625
  0
VERTEX
  8
B-448.PLT
 62
7
 10
3.12012500
 20
9.35050000
  0
VERTEX
  8
B-448.PLT
 62
7
 10
3.13574805
 20
9.34965625
  0
VERTEX
  8
B-448.PLT
 62
7
 10
3.15032813
 20
9.34712500
  0
VERTEX
  8
B-448.PLT
 62
7
 10
3.16352539
 20
9.34290625
  0
VERTEX
  8
B-448.PLT
 62
7
 10
3.17500000
 20
9.33700000
  0
VERTEX
  8
B-448.PLT
 62
7
 10
3.17809106
 20
9.35162305
  0
VERTEX
  8
B-448.PLT
 62
7
 10
3.18332227
 20
9.36525000
  0
VERTEX
  8
B-448.PLT
 62
7
 10
3.19025562
 20
9.37808008
  0
VERTEX
  8
B-448.PLT
 62
7
 10
3.19845312
 20
9.39031250
  0
VERTEX
  8
B-448.PLT
 62
7
 10
3.20747681
 20
9.40214648
  0
VERTEX
  8
B-448.PLT
 62
7
 10
3.21688867
 20
9.41378125
  0
VERTEX
  8
B-448.PLT
 62
7
 10
3.22625073
 20
9.42541602
  0
VERTEX
  8
B-448.PLT
 62
7
 10
3.23512500
 20
9.43725000
  0
VERTEX
  8
B-448.PLT
 62
7
 10
3.24307349
 20
9.44948242
  0
VERTEX
  8
B-448.PLT
 62
7
 10
3.24965820
 20
9.46231250
  0
VERTEX
  8
B-448.PLT
 62
7
 10
3.25444116
 20
9.47593945
  0
VERTEX
  8
B-448.PLT
 62
7
 10
3.25698438
 20
9.49056250
  0
VERTEX
  8
B-448.PLT
 62
7
 10
3.25684985
 20
9.50638086
  0
VERTEX
  8
B-448.PLT
 62
7
 10
3.25359961
 20
9.52359375
  0
VERTEX
  8
B-448.PLT
 62
7
 10
3.24679565
 20
9.54240039
  0
VERTEX
  8
B-448.PLT
 62
7
 10
3.23600000
 20
9.56300000
  0
VERTEX
  8
B-448.PLT
 62
7
 10
3.21876172
 20
9.58660156
  0
VERTEX
  8
B-448.PLT
 62
7
 10
3.19559375
 20
9.60800000
  0
VERTEX
  8
B-448.PLT
 62
7
 10
3.16769141
 20
9.62733594
  0
VERTEX
  8
B-448.PLT
 62
7
 10
3.13625000
 20
9.64475000
  0
VERTEX
  8
B-448.PLT
 62
7
 10
3.10246484
 20
9.66038281
  0
VERTEX
  8
B-448.PLT
 62
7
 10
3.06753125
 20
9.67437500
  0
VERTEX
  8
B-448.PLT
 62
7
 10
3.03264453
 20
9.68686719
  0
VERTEX
  8
B-448.PLT
 62
7
 10
2.99900000
 20
9.69800000
  0
VERTEX
  8
B-448.PLT
 62
7
 10
2.98489062
 20
9.68431250
  0
VERTEX
  8
B-448.PLT
 62
7
 10
2.96787500
 20
9.67025000
  0
VERTEX
  8
B-448.PLT
 62
7
 10
2.94992187
 20
9.65806250
  0
VERTEX
  8
B-448.PLT
 62
7
 10
2.93300000
 20
9.65000000
  0
VERTEX
  8
B-448.PLT
 62
7
 10
2.95360938
 20
9.59812500
  0
VERTEX
  8
B-448.PLT
 62
7
 10
2.97187500
 20
9.54475000
  0
VERTEX
  8
B-448.PLT
 62
7
 10
2.98770312
 20
9.49250000
  0
SEQEND
  0
POLYLINE
  8
B-448.PLT
 62
7
 66
1
 70
1
  0
VERTEX
  8
B-448.PLT
 62
7
 10
20.99900000
 20
9.44400000
  0
VERTEX
  8
B-448.PLT
 62
7
 10
21.01229688
 20
9.49250000
  0
VERTEX
  8
B-448.PLT
 62
7
 10
21.02812500
 20
9.54475000
  0
VERTEX
  8
B-448.PLT
 62
7
 10
21.04639063
 20
9.59812500
  0
VERTEX
  8
B-448.PLT
 62
7
 10
21.06700000
 20
9.65000000
  0
VERTEX
  8
B-448.PLT
 62
7
 10
21.05007812
 20
9.65806250
  0
VERTEX
  8
B-448.PLT
 62
7
 10
21.03212500
 20
9.67025000
  0
VERTEX
  8
B-448.PLT
 62
7
 10
21.01510938
 20
9.68431250
  0
VERTEX
  8
B-448.PLT
 62
7
 10
21.00100000
 20
9.69800000
  0
VERTEX
  8
B-448.PLT
 62
7
 10
20.96735547
 20
9.68686719
  0
VERTEX
  8
B-448.PLT
 62
7
 10
20.93246875
 20
9.67437500
  0
VERTEX
  8
B-448.PLT
 62
7
 10
20.89753516
 20
9.66038281
  0
VERTEX
  8
B-448.PLT
 62
7
 10
20.86375000
 20
9.64475000
  0
VERTEX
  8
B-448.PLT
 62
7
 10
20.83230859
 20
9.62733594
  0
VERTEX
  8
B-448.PLT
 62
7
 10
20.80440625
 20
9.60800000
  0
VERTEX
  8
B-448.PLT
 62
7
 10
20.78123828
 20
9.58660156
  0
VERTEX
  8
B-448.PLT
 62
7
 10
20.76400000
 20
9.56300000
  0
VERTEX
  8
B-448.PLT
 62
7
 10
20.75320435
 20
9.54240039
  0
VERTEX
  8
B-448.PLT
 62
7
 10
20.74640039
 20
9.52359375
  0
VERTEX
  8
B-448.PLT
 62
7
 10
20.74315015
 20
9.50638086
  0
VERTEX
  8
B-448.PLT
 62
7
 10
20.74301563
 20
9.49056250
  0
VERTEX
  8
B-448.PLT
 62
7
 10
20.74555884
 20
9.47593945
  0
VERTEX
  8
B-448.PLT
 62
7
 10
20.75034180
 20
9.46231250
  0
VERTEX
  8
B-448.PLT
 62
7
 10
20.75692651
 20
9.44948242
  0
VERTEX
  8
B-448.PLT
 62
7
 10
20.76487500
 20
9.43725000
  0
VERTEX
  8
B-448.PLT
 62
7
 10
20.77374927
 20
9.42541602
  0
VERTEX
  8
B-448.PLT
 62
7
 10
20.78311133
 20
9.41378125
  0
VERTEX
  8
B-448.PLT
 62
7
 10
20.79252319
 20
9.40214648
  0
VERTEX
  8
B-448.PLT
 62
7
 10
20.80154688
 20
9.39031250
  0
VERTEX
  8
B-448.PLT
 62
7
 10
20.80974438
 20
9.37808008
  0
VERTEX
  8
B-448.PLT
 62
7
 10
20.81667773
 20
9.36525000
  0
VERTEX
  8
B-448.PLT
 62
7
 10
20.82190894
 20
9.35162305
  0
VERTEX
  8
B-448.PLT
 62
7
 10
20.82500000
 20
9.33700000
  0
VERTEX
  8
B-448.PLT
 62
7
 10
20.83647461
 20
9.34290625
  0
VERTEX
  8
B-448.PLT
 62
7
 10
20.84967187
 20
9.34712500
  0
VERTEX
  8
B-448.PLT
 62
7
 10
20.86425195
 20
9.34965625
  0
VERTEX
  8
B-448.PLT
 62
7
 10
20.87987500
 20
9.35050000
  0
VERTEX
  8
B-448.PLT
 62
7
 10
20.89620117
 20
9.34965625
  0
VERTEX
  8
B-448.PLT
 62
7
 10
20.91289062
 20
9.34712500
  0
VERTEX
  8
B-448.PLT
 62
7
 10
20.92960352
 20
9.34290625
  0
VERTEX
  8
B-448.PLT
 62
7
 10
20.94600000
 20
9.33700000
  0
VERTEX
  8
B-448.PLT
 62
7
 10
20.96232227
 20
9.32924805
  0
VERTEX
  8
B-448.PLT
 62
7
 10
20.97739063
 20
9.32035938
  0
VERTEX
  8
B-448.PLT
 62
7
 10
20.99098242
 20
9.31050977
  0
VERTEX
  8
B-448.PLT
 62
7
 10
21.00287500
 20
9.29987500
  0
VERTEX
  8
B-448.PLT
 62
7
 10
21.01284570
 20
9.28863086
  0
VERTEX
  8
B-448.PLT
 62
7
 10
21.02067188
 20
9.27695313
  0
VERTEX
  8
B-448.PLT
 62
7
 10
21.02613086
 20
9.26501758
  0
VERTEX
  8
B-448.PLT
 62
7
 10
21.02900000
 20
9.25300000
  0
VERTEX
  8
B-448.PLT
 62
7
 10
21.04320459
 20
9.26098169
  0
VERTEX
  8
B-448.PLT
 62
7
 10
21.05798047
 20
9.26683789
  0
VERTEX
  8
B-448.PLT
 62
7
 10
21.07319580
 20
9.27099780
  0
VERTEX
  8
B-448.PLT
 62
7
 10
21.08871875
 20
9.27389062
  0
VERTEX
  8
B-448.PLT
 62
7
 10
21.10441748
 20
9.27594556
  0
VERTEX
  8
B-448.PLT
 62
7
 10
21.12016016
 20
9.27759180
  0
VERTEX
  8
B-448.PLT
 62
7
 10
21.13581494
 20
9.27925854
  0
VERTEX
  8
B-448.PLT
 62
7
 10
21.15125000
 20
9.28137500
  0
VERTEX
  8
B-448.PLT
 62
7
 10
21.16633350
 20
9.28437036
  0
VERTEX
  8
B-448.PLT
 62
7
 10
21.18093359
 20
9.28867383
  0
VERTEX
  8
B-448.PLT
 62
7
 10
21.19491846
 20
9.29471460
  0
VERTEX
  8
B-448.PLT
 62
7
 10
21.20815625
 20
9.30292187
  0
VERTEX
  8
B-448.PLT
 62
7
 10
21.22051514
 20
9.31372485
  0
VERTEX
  8
B-448.PLT
 62
7
 10
21.23186328
 20
9.32755273
  0
VERTEX
  8
B-448.PLT
 62
7
 10
21.24206885
 20
9.34483472
  0
VERTEX
  8
B-448.PLT
 62
7
 10
21.25100000
 20
9.36600000
  0
VERTEX
  8
B-448.PLT
 62
7
 10
21.25832031
 20
9.39392969
  0
VERTEX
  8
B-448.PLT
 62
7
 10
21.25987500
 20
9.42406250
  0
VERTEX
  8
B-448.PLT
 62
7
 10
21.25655469
 20
9.45578906
  0
VERTEX
  8
B-448.PLT
 62
7
 10
21.24925000
 20
9.48850000
  0
VERTEX
  8
B-448.PLT
 62
7
 10
21.23885156
 20
9.52158594
  0
VERTEX
  8
B-448.PLT
 62
7
 10
21.22625000
 20
9.55443750
  0
VERTEX
  8
B-448.PLT
 62
7
 10
21.21233594
 20
9.58644531
  0
VERTEX
  8
B-448.PLT
 62
7
 10
21.19800000
 20
9.61700000
  0
VERTEX
  8
B-448.PLT
 62
7
 10
21.15612500
 20
9.62162500
  0
VERTEX
  8
B-448.PLT
 62
7
 10
21.11500000
 20
9.63000000
  0
VERTEX
  8
B-448.PLT
 62
7
 10
21.08829688
 20
9.58209375
  0
VERTEX
  8
B-448.PLT
 62
7
 10
21.05812500
 20
9.53325000
  0
VERTEX
  8
B-448.PLT
 62
7
 10
21.02739062
 20
9.48628125
  0
SEQEND
  0
POLYLINE
  8
B-448.PLT
 62
7
 66
1
 70
1
  0
VERTEX
  8
B-448.PLT
 62
7
 10
19.70400000
 20
9.68500000
  0
VERTEX
  8
B-448.PLT
 62
7
 10
19.69602344
 20
9.63830859
  0
VERTEX
  8
B-448.PLT
 62
7
 10
19.68237500
 20
9.59440625
  0
VERTEX
  8
B-448.PLT
 62
7
 10
19.66385156
 20
9.55355078
  0
VERTEX
  8
B-448.PLT
 62
7
 10
19.64125000
 20
9.51600000
  0
VERTEX
  8
B-448.PLT
 62
7
 10
19.61536719
 20
9.48201172
  0
VERTEX
  8
B-448.PLT
 62
7
 10
19.58700000
 20
9.45184375
  0
VERTEX
  8
B-448.PLT
 62
7
 10
19.55694531
 20
9.42575391
  0
VERTEX
  8
B-448.PLT
 62
7
 10
19.52600000
 20
9.40400000
  0
VERTEX
  8
B-448.PLT
 62
7
 10
19.50880322
 20
9.39423535
  0
VERTEX
  8
B-448.PLT
 62
7
 10
19.49000391
 20
9.38489844
  0
VERTEX
  8
B-448.PLT
 62
7
 10
19.46985107
 20
9.37611230
  0
VERTEX
  8
B-448.PLT
 62
7
 10
19.44859375
 20
9.36800000
  0
VERTEX
  8
B-448.PLT
 62
7
 10
19.42648096
 20
9.36068457
  0
VERTEX
  8
B-448.PLT
 62
7
 10
19.40376172
 20
9.35428906
  0
VERTEX
  8
B-448.PLT
 62
7
 10
19.38068506
 20
9.34893652
  0
VERTEX
  8
B-448.PLT
 62
7
 10
19.35750000
 20
9.34475000
  0
VERTEX
  8
B-448.PLT
 62
7
 10
19.33445557
 20
9.34185254
  0
VERTEX
  8
B-448.PLT
 62
7
 10
19.31180078
 20
9.34036719
  0
VERTEX
  8
B-448.PLT
 62
7
 10
19.28978467
 20
9.34041699
  0
VERTEX
  8
B-448.PLT
 62
7
 10
19.26865625
 20
9.34212500
  0
VERTEX
  8
B-448.PLT
 62
7
 10
19.24866455
 20
9.34561426
  0
VERTEX
  8
B-448.PLT
 62
7
 10
19.23005859
 20
9.35100781
  0
VERTEX
  8
B-448.PLT
 62
7
 10
19.21308740
 20
9.35842871
  0
VERTEX
  8
B-448.PLT
 62
7
 10
19.19800000
 20
9.36800000
  0
VERTEX
  8
B-448.PLT
 62
7
 10
19.23368750
 20
9.37009961
  0
VERTEX
  8
B-448.PLT
 62
7
 10
19.27181250
 20
9.37542188
  0
VERTEX
  8
B-448.PLT
 62
7
 10
19.31134375
 20
9.38362695
  0
VERTEX
  8
B-448.PLT
 62
7
 10
19.35125000
 20
9.39437500
  0
VERTEX
  8
B-448.PLT
 62
7
 10
19.39050000
 20
9.40732617
  0
VERTEX
  8
B-448.PLT
 62
7
 10
19.42806250
 20
9.42214063
  0
VERTEX
  8
B-448.PLT
 62
7
 10
19.46290625
 20
9.43847852
  0
VERTEX
  8
B-448.PLT
 62
7
 10
19.49400000
 20
9.45600000
  0
VERTEX
  8
B-448.PLT
 62
7
 10
19.52287500
 20
9.47564258
  0
VERTEX
  8
B-448.PLT
 62
7
 10
19.55268750
 20
9.50007812
  0
VERTEX
  8
B-448.PLT
 62
7
 10
19.58259375
 20
9.52819336
  0
VERTEX
  8
B-448.PLT
 62
7
 10
19.61175000
 20
9.55887500
  0
VERTEX
  8
B-448.PLT
 62
7
 10
19.63931250
 20
9.59100977
  0
VERTEX
  8
B-448.PLT
 62
7
 10
19.66443750
 20
9.62348438
  0
VERTEX
  8
B-448.PLT
 62
7
 10
19.68628125
 20
9.65518555
  0
SEQEND
  0
POLYLINE
  8
B-448.PLT
 62
7
 66
1
 70
1
  0
VERTEX
  8
B-448.PLT
 62
7
 10
4.29600000
 20
9.68500000
  0
VERTEX
  8
B-448.PLT
 62
7
 10
4.31371875
 20
9.65518555
  0
VERTEX
  8
B-448.PLT
 62
7
 10
4.33556250
 20
9.62348438
  0
VERTEX
  8
B-448.PLT
 62
7
 10
4.36068750
 20
9.59100977
  0
VERTEX
  8
B-448.PLT
 62
7
 10
4.38825000
 20
9.55887500
  0
VERTEX
  8
B-448.PLT
 62
7
 10
4.41740625
 20
9.52819336
  0
VERTEX
  8
B-448.PLT
 62
7
 10
4.44731250
 20
9.50007812
  0
VERTEX
  8
B-448.PLT
 62
7
 10
4.47712500
 20
9.47564258
  0
VERTEX
  8
B-448.PLT
 62
7
 10
4.50600000
 20
9.45600000
  0
VERTEX
  8
B-448.PLT
 62
7
 10
4.53709375
 20
9.43847852
  0
VERTEX
  8
B-448.PLT
 62
7
 10
4.57193750
 20
9.42214063
  0
VERTEX
  8
B-448.PLT
 62
7
 10
4.60950000
 20
9.40732617
  0
VERTEX
  8
B-448.PLT
 62
7
 10
4.64875000
 20
9.39437500
  0
VERTEX
  8
B-448.PLT
 62
7
 10
4.68865625
 20
9.38362695
  0
VERTEX
  8
B-448.PLT
 62
7
 10
4.72818750
 20
9.37542188
  0
VERTEX
  8
B-448.PLT
 62
7
 10
4.76631250
 20
9.37009961
  0
VERTEX
  8
B-448.PLT
 62
7
 10
4.80200000
 20
9.36800000
  0
VERTEX
  8
B-448.PLT
 62
7
 10
4.78691260
 20
9.35842871
  0
VERTEX
  8
B-448.PLT
 62
7
 10
4.76994141
 20
9.35100781
  0
VERTEX
  8
B-448.PLT
 62
7
 10
4.75133545
 20
9.34561426
  0
VERTEX
  8
B-448.PLT
 62
7
 10
4.73134375
 20
9.34212500
  0
VERTEX
  8
B-448.PLT
 62
7
 10
4.71021533
 20
9.34041699
  0
VERTEX
  8
B-448.PLT
 62
7
 10
4.68819922
 20
9.34036719
  0
VERTEX
  8
B-448.PLT
 62
7
 10
4.66554443
 20
9.34185254
  0
VERTEX
  8
B-448.PLT
 62
7
 10
4.64250000
 20
9.34475000
  0
VERTEX
  8
B-448.PLT
 62
7
 10
4.61931494
 20
9.34893652
  0
VERTEX
  8
B-448.PLT
 62
7
 10
4.59623828
 20
9.35428906
  0
VERTEX
  8
B-448.PLT
 62
7
 10
4.57351904
 20
9.36068457
  0
VERTEX
  8
B-448.PLT
 62
7
 10
4.55140625
 20
9.36800000
  0
VERTEX
  8
B-448.PLT
 62
7
 10
4.53014893
 20
9.37611230
  0
VERTEX
  8
B-448.PLT
 62
7
 10
4.50999609
 20
9.38489844
  0
VERTEX
  8
B-448.PLT
 62
7
 10
4.49119678
 20
9.39423535
  0
VERTEX
  8
B-448.PLT
 62
7
 10
4.47400000
 20
9.40400000
  0
VERTEX
  8
B-448.PLT
 62
7
 10
4.44305469
 20
9.42575391
  0
VERTEX
  8
B-448.PLT
 62
7
 10
4.41300000
 20
9.45184375
  0
VERTEX
  8
B-448.PLT
 62
7
 10
4.38463281
 20
9.48201172
  0
VERTEX
  8
B-448.PLT
 62
7
 10
4.35875000
 20
9.51600000
  0
VERTEX
  8
B-448.PLT
 62
7
 10
4.33614844
 20
9.55355078
  0
VERTEX
  8
B-448.PLT
 62
7
 10
4.31762500
 20
9.59440625
  0
VERTEX
  8
B-448.PLT
 62
7
 10
4.30397656
 20
9.63830859
  0
SEQEND
  0
POLYLINE
  8
B-448.PLT
 62
7
 66
1
 70
1
  0
VERTEX
  8
B-448.PLT
 62
7
 10
1.02500000
 20
8.97300000
  0
VERTEX
  8
B-448.PLT
 62
7
 10
1.04384180
 20
9.00795508
  0
VERTEX
  8
B-448.PLT
 62
7
 10
1.06660938
 20
9.03739063
  0
VERTEX
  8
B-448.PLT
 62
7
 10
1.09216602
 20
9.06178711
  0
VERTEX
  8
B-448.PLT
 62
7
 10
1.11937500
 20
9.08162500
  0
VERTEX
  8
B-448.PLT
 62
7
 10
1.14709961
 20
9.09738477
  0
VERTEX
  8
B-448.PLT
 62
7
 10
1.17420313
 20
9.10954687
  0
VERTEX
  8
B-448.PLT
 62
7
 10
1.19954883
 20
9.11859180
  0
VERTEX
  8
B-448.PLT
 62
7
 10
1.22200000
 20
9.12500000
  0
VERTEX
  8
B-448.PLT
 62
7
 10
1.25501563
 20
9.13229687
  0
VERTEX
  8
B-448.PLT
 62
7
 10
1.28812500
 20
9.13762500
  0
VERTEX
  8
B-448.PLT
 62
7
 10
1.32142188
 20
9.14089063
  0
VERTEX
  8
B-448.PLT
 62
7
 10
1.35500000
 20
9.14200000
  0
VERTEX
  8
B-448.PLT
 62
7
 10
1.37278320
 20
9.14192383
  0
VERTEX
  8
B-448.PLT
 62
7
 10
1.39226563
 20
9.14101562
  0
VERTEX
  8
B-448.PLT
 62
7
 10
1.41327148
 20
9.13825586
  0
VERTEX
  8
B-448.PLT
 62
7
 10
1.43562500
 20
9.13262500
  0
VERTEX
  8
B-448.PLT
 62
7
 10
1.45915039
 20
9.12310352
  0
VERTEX
  8
B-448.PLT
 62
7
 10
1.48367188
 20
9.10867188
  0
VERTEX
  8
B-448.PLT
 62
7
 10
1.50901367
 20
9.08831055
  0
VERTEX
  8
B-448.PLT
 62
7
 10
1.53500000
 20
9.06100000
  0
VERTEX
  8
B-448.PLT
 62
7
 10
1.49646875
 20
9.06807812
  0
VERTEX
  8
B-448.PLT
 62
7
 10
1.44575000
 20
9.07487500
  0
VERTEX
  8
B-448.PLT
 62
7
 10
1.39465625
 20
9.07998438
  0
VERTEX
  8
B-448.PLT
 62
7
 10
1.35500000
 20
9.08200000
  0
VERTEX
  8
B-448.PLT
 62
7
 10
1.29512500
 20
9.07825000
  0
VERTEX
  8
B-448.PLT
 62
7
 10
1.23600000
 20
9.06700000
  0
VERTEX
  8
B-448.PLT
 62
7
 10
1.21713086
 20
9.06238672
  0
VERTEX
  8
B-448.PLT
 62
7
 10
1.19642188
 20
9.05709375
  0
VERTEX
  8
B-448.PLT
 62
7
 10
1.17372070
 20
9.05044141
  0
VERTEX
  8
B-448.PLT
 62
7
 10
1.14887500
 20
9.04175000
  0
VERTEX
  8
B-448.PLT
 62
7
 10
1.12173242
 20
9.03033984
  0
VERTEX
  8
B-448.PLT
 62
7
 10
1.09214063
 20
9.01553125
  0
VERTEX
  8
B-448.PLT
 62
7
 10
1.05994727
 20
8.99664453
  0
SEQEND
  0
POLYLINE
  8
B-448.PLT
 62
7
 66
1
 70
1
  0
VERTEX
  8
B-448.PLT
 62
7
 10
22.97500000
 20
8.97300000
  0
VERTEX
  8
B-448.PLT
 62
7
 10
22.94005273
 20
8.99664453
  0
VERTEX
  8
B-448.PLT
 62
7
 10
22.90785938
 20
9.01553125
  0
VERTEX
  8
B-448.PLT
 62
7
 10
22.87826758
 20
9.03033984
  0
VERTEX
  8
B-448.PLT
 62
7
 10
22.85112500
 20
9.04175000
  0
VERTEX
  8
B-448.PLT
 62
7
 10
22.82627930
 20
9.05044141
  0
VERTEX
  8
B-448.PLT
 62
7
 10
22.80357813
 20
9.05709375
  0
VERTEX
  8
B-448.PLT
 62
7
 10
22.78286914
 20
9.06238672
  0
VERTEX
  8
B-448.PLT
 62
7
 10
22.76400000
 20
9.06700000
  0
VERTEX
  8
B-448.PLT
 62
7
 10
22.70487500
 20
9.07825000
  0
VERTEX
  8
B-448.PLT
 62
7
 10
22.64500000
 20
9.08200000
  0
VERTEX
  8
B-448.PLT
 62
7
 10
22.60534375
 20
9.07998438
  0
VERTEX
  8
B-448.PLT
 62
7
 10
22.55425000
 20
9.07487500
  0
VERTEX
  8
B-448.PLT
 62
7
 10
22.50353125
 20
9.06807812
  0
VERTEX
  8
B-448.PLT
 62
7
 10
22.46500000
 20
9.06100000
  0
VERTEX
  8
B-448.PLT
 62
7
 10
22.49098633
 20
9.08831055
  0
VERTEX
  8
B-448.PLT
 62
7
 10
22.51632813
 20
9.10867188
  0
VERTEX
  8
B-448.PLT
 62
7
 10
22.54084961
 20
9.12310352
  0
VERTEX
  8
B-448.PLT
 62
7
 10
22.56437500
 20
9.13262500
  0
VERTEX
  8
B-448.PLT
 62
7
 10
22.58672852
 20
9.13825586
  0
VERTEX
  8
B-448.PLT
 62
7
 10
22.60773438
 20
9.14101562
  0
VERTEX
  8
B-448.PLT
 62
7
 10
22.62721680
 20
9.14192383
  0
VERTEX
  8
B-448.PLT
 62
7
 10
22.64500000
 20
9.14200000
  0
VERTEX
  8
B-448.PLT
 62
7
 10
22.67857813
 20
9.14089063
  0
VERTEX
  8
B-448.PLT
 62
7
 10
22.71187500
 20
9.13762500
  0
VERTEX
  8
B-448.PLT
 62
7
 10
22.74498438
 20
9.13229687
  0
VERTEX
  8
B-448.PLT
 62
7
 10
22.77800000
 20
9.12500000
  0
VERTEX
  8
B-448.PLT
 62
7
 10
22.80045117
 20
9.11859180
  0
VERTEX
  8
B-448.PLT
 62
7
 10
22.82579688
 20
9.10954687
  0
VERTEX
  8
B-448.PLT
 62
7
 10
22.85290039
 20
9.09738477
  0
VERTEX
  8
B-448.PLT
 62
7
 10
22.88062500
 20
9.08162500
  0
VERTEX
  8
B-448.PLT
 62
7
 10
22.90783398
 20
9.06178711
  0
VERTEX
  8
B-448.PLT
 62
7
 10
22.93339063
 20
9.03739063
  0
VERTEX
  8
B-448.PLT
 62
7
 10
22.95615820
 20
9.00795508
  0
SEQEND
  0
POLYLINE
  8
B-448.PLT
 62
7
 66
1
 70
1
  0
VERTEX
  8
B-448.PLT
 62
7
 10
2.40000000
 20
10.07600000
  0
VERTEX
  8
B-448.PLT
 62
7
 10
2.45026563
 20
10.05659375
  0
VERTEX
  8
B-448.PLT
 62
7
 10
2.50437500
 20
10.03475000
  0
VERTEX
  8
B-448.PLT
 62
7
 10
2.55904687
 20
10.01103125
  0
VERTEX
  8
B-448.PLT
 62
7
 10
2.61100000
 20
9.98600000
  0
VERTEX
  8
B-448.PLT
 62
7
 10
2.64012500
 20
10.01537500
  0
VERTEX
  8
B-448.PLT
 62
7
 10
2.67300000
 20
10.04100000
  0
VERTEX
  8
B-448.PLT
 62
7
 10
2.66498242
 20
10.07307813
  0
VERTEX
  8
B-448.PLT
 62
7
 10
2.65573438
 20
10.10637500
  0
VERTEX
  8
B-448.PLT
 62
7
 10
2.64496289
 20
10.13985938
  0
VERTEX
  8
B-448.PLT
 62
7
 10
2.63237500
 20
10.17250000
  0
VERTEX
  8
B-448.PLT
 62
7
 10
2.61767773
 20
10.20326563
  0
VERTEX
  8
B-448.PLT
 62
7
 10
2.60057813
 20
10.23112500
  0
VERTEX
  8
B-448.PLT
 62
7
 10
2.58078320
 20
10.25504688
  0
VERTEX
  8
B-448.PLT
 62
7
 10
2.55800000
 20
10.27400000
  0
VERTEX
  8
B-448.PLT
 62
7
 10
2.53703149
 20
10.28654028
  0
VERTEX
  8
B-448.PLT
 62
7
 10
2.51751758
 20
10.29519727
  0
VERTEX
  8
B-448.PLT
 62
7
 10
2.49929565
 20
10.30040015
  0
VERTEX
  8
B-448.PLT
 62
7
 10
2.48220312
 20
10.30257813
  0
VERTEX
  8
B-448.PLT
 62
7
 10
2.46607739
 20
10.30216040
  0
VERTEX
  8
B-448.PLT
 62
7
 10
2.45075586
 20
10.29957617
  0
VERTEX
  8
B-448.PLT
 62
7
 10
2.43607593
 20
10.29525464
  0
VERTEX
  8
B-448.PLT
 62
7
 10
2.42187500
 20
10.28962500
  0
VERTEX
  8
B-448.PLT
 62
7
 10
2.40799048
 20
10.28311646
  0
VERTEX
  8
B-448.PLT
 62
7
 10
2.39425977
 20
10.27615820
  0
VERTEX
  8
B-448.PLT
 62
7
 10
2.38052026
 20
10.26917944
  0
VERTEX
  8
B-448.PLT
 62
7
 10
2.36660937
 20
10.26260938
  0
VERTEX
  8
B-448.PLT
 62
7
 10
2.35236450
 20
10.25687720
  0
VERTEX
  8
B-448.PLT
 62
7
 10
2.33762305
 20
10.25241211
  0
VERTEX
  8
B-448.PLT
 62
7
 10
2.32222241
 20
10.24964331
  0
VERTEX
  8
B-448.PLT
 62
7
 10
2.30600000
 20
10.24900000
  0
VERTEX
  8
B-448.PLT
 62
7
 10
2.31064258
 20
10.23746094
  0
VERTEX
  8
B-448.PLT
 62
7
 10
2.31332813
 20
10.22475000
  0
VERTEX
  8
B-448.PLT
 62
7
 10
2.31406836
 20
10.21110156
  0
VERTEX
  8
B-448.PLT
 62
7
 10
2.31287500
 20
10.19675000
  0
VERTEX
  8
B-448.PLT
 62
7
 10
2.30975977
 20
10.18192969
  0
VERTEX
  8
B-448.PLT
 62
7
 10
2.30473437
 20
10.16687500
  0
VERTEX
  8
B-448.PLT
 62
7
 10
2.29781055
 20
10.15182031
  0
VERTEX
  8
B-448.PLT
 62
7
 10
2.28900000
 20
10.13700000
  0
VERTEX
  8
B-448.PLT
 62
7
 10
2.27924805
 20
10.12305078
  0
VERTEX
  8
B-448.PLT
 62
7
 10
2.26817188
 20
10.11053125
  0
VERTEX
  8
B-448.PLT
 62
7
 10
2.25604102
 20
10.09955859
  0
VERTEX
  8
B-448.PLT
 62
7
 10
2.24312500
 20
10.09025000
  0
VERTEX
  8
B-448.PLT
 62
7
 10
2.22969336
 20
10.08272266
  0
VERTEX
  8
B-448.PLT
 62
7
 10
2.21601562
 20
10.07709375
  0
VERTEX
  8
B-448.PLT
 62
7
 10
2.20236133
 20
10.07348047
  0
VERTEX
  8
B-448.PLT
 62
7
 10
2.18900000
 20
10.07200000
  0
VERTEX
  8
B-448.PLT
 62
7
 10
2.19587817
 20
10.05832373
  0
VERTEX
  8
B-448.PLT
 62
7
 10
2.20033789
 20
10.04433984
  0
VERTEX
  8
B-448.PLT
 62
7
 10
2.20286694
 20
10.03011572
  0
VERTEX
  8
B-448.PLT
 62
7
 10
2.20395313
 20
10.01571875
  0
VERTEX
  8
B-448.PLT
 62
7
 10
2.20408423
 20
10.00121631
  0
VERTEX
  8
B-448.PLT
 62
7
 10
2.20374805
 20
9.98667578
  0
VERTEX
  8
B-448.PLT
 62
7
 10
2.20343237
 20
9.97216455
  0
VERTEX
  8
B-448.PLT
 62
7
 10
2.20362500
 20
9.95775000
  0
VERTEX
  8
B-448.PLT
 62
7
 10
2.20481372
 20
9.94349951
  0
VERTEX
  8
B-448.PLT
 62
7
 10
2.20748633
 20
9.92948047
  0
VERTEX
  8
B-448.PLT
 62
7
 10
2.21213062
 20
9.91576025
  0
VERTEX
  8
B-448.PLT
 62
7
 10
2.21923438
 20
9.90240625
  0
VERTEX
  8
B-448.PLT
 62
7
 10
2.22928540
 20
9.88948584
  0
VERTEX
  8
B-448.PLT
 62
7
 10
2.24277148
 20
9.87706641
  0
VERTEX
  8
B-448.PLT
 62
7
 10
2.26018042
 20
9.86521533
  0
VERTEX
  8
B-448.PLT
 62
7
 10
2.28200000
 20
9.85400000
  0
VERTEX
  8
B-448.PLT
 62
7
 10
2.31096875
 20
9.84455469
  0
VERTEX
  8
B-448.PLT
 62
7
 10
2.34331250
 20
9.83975000
  0
VERTEX
  8
B-448.PLT
 62
7
 10
2.37818750
 20
9.83888281
  0
VERTEX
  8
B-448.PLT
 62
7
 10
2.41475000
 20
9.84125000
  0
VERTEX
  8
B-448.PLT
 62
7
 10
2.45215625
 20
9.84614844
  0
VERTEX
  8
B-448.PLT
 62
7
 10
2.48956250
 20
9.85287500
  0
VERTEX
  8
B-448.PLT
 62
7
 10
2.52612500
 20
9.86072656
  0
VERTEX
  8
B-448.PLT
 62
7
 10
2.56100000
 20
9.86900000
  0
VERTEX
  8
B-448.PLT
 62
7
 10
2.56389063
 20
9.88817187
  0
VERTEX
  8
B-448.PLT
 62
7
 10
2.56912500
 20
9.90912500
  0
VERTEX
  8
B-448.PLT
 62
7
 10
2.57604687
 20
9.92876563
  0
VERTEX
  8
B-448.PLT
 62
7
 10
2.58400000
 20
9.94400000
  0
VERTEX
  8
B-448.PLT
 62
7
 10
2.53514062
 20
9.97531250
  0
VERTEX
  8
B-448.PLT
 62
7
 10
2.48712500
 20
10.00925000
  0
VERTEX
  8
B-448.PLT
 62
7
 10
2.44154687
 20
10.04356250
  0
SEQEND
  0
POLYLINE
  8
B-448.PLT
 62
7
 66
1
 70
1
  0
VERTEX
  8
B-448.PLT
 62
7
 10
21.60000000
 20
10.07600000
  0
VERTEX
  8
B-448.PLT
 62
7
 10
21.55845313
 20
10.04356250
  0
VERTEX
  8
B-448.PLT
 62
7
 10
21.51287500
 20
10.00925000
  0
VERTEX
  8
B-448.PLT
 62
7
 10
21.46485938
 20
9.97531250
  0
VERTEX
  8
B-448.PLT
 62
7
 10
21.41600000
 20
9.94400000
  0
VERTEX
  8
B-448.PLT
 62
7
 10
21.42395313
 20
9.92876563
  0
VERTEX
  8
B-448.PLT
 62
7
 10
21.43087500
 20
9.90912500
  0
VERTEX
  8
B-448.PLT
 62
7
 10
21.43610938
 20
9.88817187
  0
VERTEX
  8
B-448.PLT
 62
7
 10
21.43900000
 20
9.86900000
  0
VERTEX
  8
B-448.PLT
 62
7
 10
21.47387500
 20
9.86072656
  0
VERTEX
  8
B-448.PLT
 62
7
 10
21.51043750
 20
9.85287500
  0
VERTEX
  8
B-448.PLT
 62
7
 10
21.54784375
 20
9.84614844
  0
VERTEX
  8
B-448.PLT
 62
7
 10
21.58525000
 20
9.84125000
  0
VERTEX
  8
B-448.PLT
 62
7
 10
21.62181250
 20
9.83888281
  0
VERTEX
  8
B-448.PLT
 62
7
 10
21.65668750
 20
9.83975000
  0
VERTEX
  8
B-448.PLT
 62
7
 10
21.68903125
 20
9.84455469
  0
VERTEX
  8
B-448.PLT
 62
7
 10
21.71800000
 20
9.85400000
  0
VERTEX
  8
B-448.PLT
 62
7
 10
21.73981958
 20
9.86521533
  0
VERTEX
  8
B-448.PLT
 62
7
 10
21.75722852
 20
9.87706641
  0
VERTEX
  8
B-448.PLT
 62
7
 10
21.77071460
 20
9.88948584
  0
VERTEX
  8
B-448.PLT
 62
7
 10
21.78076563
 20
9.90240625
  0
VERTEX
  8
B-448.PLT
 62
7
 10
21.78786938
 20
9.91576025
  0
VERTEX
  8
B-448.PLT
 62
7
 10
21.79251367
 20
9.92948047
  0
VERTEX
  8
B-448.PLT
 62
7
 10
21.79518628
 20
9.94349951
  0
VERTEX
  8
B-448.PLT
 62
7
 10
21.79637500
 20
9.95775000
  0
VERTEX
  8
B-448.PLT
 62
7
 10
21.79656763
 20
9.97216455
  0
VERTEX
  8
B-448.PLT
 62
7
 10
21.79625195
 20
9.98667578
  0
VERTEX
  8
B-448.PLT
 62
7
 10
21.79591577
 20
10.00121631
  0
VERTEX
  8
B-448.PLT
 62
7
 10
21.79604687
 20
10.01571875
  0
VERTEX
  8
B-448.PLT
 62
7
 10
21.79713306
 20
10.03011572
  0
VERTEX
  8
B-448.PLT
 62
7
 10
21.79966211
 20
10.04433984
  0
VERTEX
  8
B-448.PLT
 62
7
 10
21.80412183
 20
10.05832373
  0
VERTEX
  8
B-448.PLT
 62
7
 10
21.81100000
 20
10.07200000
  0
VERTEX
  8
B-448.PLT
 62
7
 10
21.79763867
 20
10.07348047
  0
VERTEX
  8
B-448.PLT
 62
7
 10
21.78398437
 20
10.07709375
  0
VERTEX
  8
B-448.PLT
 62
7
 10
21.77030664
 20
10.08272266
  0
VERTEX
  8
B-448.PLT
 62
7
 10
21.75687500
 20
10.09025000
  0
VERTEX
  8
B-448.PLT
 62
7
 10
21.74395898
 20
10.09955859
  0
VERTEX
  8
B-448.PLT
 62
7
 10
21.73182813
 20
10.11053125
  0
VERTEX
  8
B-448.PLT
 62
7
 10
21.72075195
 20
10.12305078
  0
VERTEX
  8
B-448.PLT
 62
7
 10
21.71100000
 20
10.13700000
  0
VERTEX
  8
B-448.PLT
 62
7
 10
21.70218945
 20
10.15182031
  0
VERTEX
  8
B-448.PLT
 62
7
 10
21.69526563
 20
10.16687500
  0
VERTEX
  8
B-448.PLT
 62
7
 10
21.69024023
 20
10.18192969
  0
VERTEX
  8
B-448.PLT
 62
7
 10
21.68712500
 20
10.19675000
  0
VERTEX
  8
B-448.PLT
 62
7
 10
21.68593164
 20
10.21110156
  0
VERTEX
  8
B-448.PLT
 62
7
 10
21.68667187
 20
10.22475000
  0
VERTEX
  8
B-448.PLT
 62
7
 10
21.68935742
 20
10.23746094
  0
VERTEX
  8
B-448.PLT
 62
7
 10
21.69400000
 20
10.24900000
  0
VERTEX
  8
B-448.PLT
 62
7
 10
21.67777759
 20
10.24964331
  0
VERTEX
  8
B-448.PLT
 62
7
 10
21.66237695
 20
10.25241211
  0
VERTEX
  8
B-448.PLT
 62
7
 10
21.64763550
 20
10.25687720
  0
VERTEX
  8
B-448.PLT
 62
7
 10
21.63339063
 20
10.26260938
  0
VERTEX
  8
B-448.PLT
 62
7
 10
21.61947974
 20
10.26917944
  0
VERTEX
  8
B-448.PLT
 62
7
 10
21.60574023
 20
10.27615820
  0
VERTEX
  8
B-448.PLT
 62
7
 10
21.59200952
 20
10.28311646
  0
VERTEX
  8
B-448.PLT
 62
7
 10
21.57812500
 20
10.28962500
  0
VERTEX
  8
B-448.PLT
 62
7
 10
21.56392407
 20
10.29525464
  0
VERTEX
  8
B-448.PLT
 62
7
 10
21.54924414
 20
10.29957617
  0
VERTEX
  8
B-448.PLT
 62
7
 10
21.53392261
 20
10.30216040
  0
VERTEX
  8
B-448.PLT
 62
7
 10
21.51779687
 20
10.30257813
  0
VERTEX
  8
B-448.PLT
 62
7
 10
21.50070435
 20
10.30040015
  0
VERTEX
  8
B-448.PLT
 62
7
 10
21.48248242
 20
10.29519727
  0
VERTEX
  8
B-448.PLT
 62
7
 10
21.46296851
 20
10.28654028
  0
VERTEX
  8
B-448.PLT
 62
7
 10
21.44200000
 20
10.27400000
  0
VERTEX
  8
B-448.PLT
 62
7
 10
21.41921680
 20
10.25504688
  0
VERTEX
  8
B-448.PLT
 62
7
 10
21.39942188
 20
10.23112500
  0
VERTEX
  8
B-448.PLT
 62
7
 10
21.38232227
 20
10.20326563
  0
VERTEX
  8
B-448.PLT
 62
7
 10
21.36762500
 20
10.17250000
  0
VERTEX
  8
B-448.PLT
 62
7
 10
21.35503711
 20
10.13985938
  0
VERTEX
  8
B-448.PLT
 62
7
 10
21.34426562
 20
10.10637500
  0
VERTEX
  8
B-448.PLT
 62
7
 10
21.33501758
 20
10.07307813
  0
VERTEX
  8
B-448.PLT
 62
7
 10
21.32700000
 20
10.04100000
  0
VERTEX
  8
B-448.PLT
 62
7
 10
21.35987500
 20
10.01537500
  0
VERTEX
  8
B-448.PLT
 62
7
 10
21.38900000
 20
9.98600000
  0
VERTEX
  8
B-448.PLT
 62
7
 10
21.44095313
 20
10.01103125
  0
VERTEX
  8
B-448.PLT
 62
7
 10
21.49562500
 20
10.03475000
  0
VERTEX
  8
B-448.PLT
 62
7
 10
21.54973438
 20
10.05659375
  0
SEQEND
  0
POLYLINE
  8
B-448.PLT
 62
7
 66
1
 70
1
  0
VERTEX
  8
B-448.PLT
 62
7
 10
21.54900000
 20
9.55800000
  0
VERTEX
  8
B-448.PLT
 62
7
 10
21.45537500
 20
9.61400000
  0
VERTEX
  8
B-448.PLT
 62
7
 10
21.35800000
 20
9.67900000
  0
VERTEX
  8
B-448.PLT
 62
7
 10
21.34454687
 20
9.66735938
  0
VERTEX
  8
B-448.PLT
 62
7
 10
21.32612500
 20
9.65562500
  0
VERTEX
  8
B-448.PLT
 62
7
 10
21.30639062
 20
9.64482813
  0
VERTEX
  8
B-448.PLT
 62
7
 10
21.28900000
 20
9.63600000
  0
VERTEX
  8
B-448.PLT
 62
7
 10
21.29048633
 20
9.60311133
  0
VERTEX
  8
B-448.PLT
 62
7
 10
21.29301562
 20
9.56882812
  0
VERTEX
  8
B-448.PLT
 62
7
 10
21.29706836
 20
9.53409961
  0
VERTEX
  8
B-448.PLT
 62
7
 10
21.30312500
 20
9.49987500
  0
VERTEX
  8
B-448.PLT
 62
7
 10
21.31166602
 20
9.46710352
  0
VERTEX
  8
B-448.PLT
 62
7
 10
21.32317188
 20
9.43673438
  0
VERTEX
  8
B-448.PLT
 62
7
 10
21.33812305
 20
9.40971680
  0
VERTEX
  8
B-448.PLT
 62
7
 10
21.35700000
 20
9.38700000
  0
VERTEX
  8
B-448.PLT
 62
7
 10
21.37502466
 20
9.37135181
  0
VERTEX
  8
B-448.PLT
 62
7
 10
21.39240039
 20
9.35973633
  0
VERTEX
  8
B-448.PLT
 62
7
 10
21.40920483
 20
9.35170972
  0
VERTEX
  8
B-448.PLT
 62
7
 10
21.42551562
 20
9.34682813
  0
VERTEX
  8
B-448.PLT
 62
7
 10
21.44141040
 20
9.34464771
  0
VERTEX
  8
B-448.PLT
 62
7
 10
21.45696680
 20
9.34472461
  0
VERTEX
  8
B-448.PLT
 62
7
 10
21.47226245
 20
9.34661499
  0
VERTEX
  8
B-448.PLT
 62
7
 10
21.48737500
 20
9.34987500
  0
VERTEX
  8
B-448.PLT
 62
7
 10
21.50238208
 20
9.35406079
  0
VERTEX
  8
B-448.PLT
 62
7
 10
21.51736133
 20
9.35872852
  0
VERTEX
  8
B-448.PLT
 62
7
 10
21.53239038
 20
9.36343433
  0
VERTEX
  8
B-448.PLT
 62
7
 10
21.54754687
 20
9.36773437
  0
VERTEX
  8
B-448.PLT
 62
7
 10
21.56290845
 20
9.37118481
  0
VERTEX
  8
B-448.PLT
 62
7
 10
21.57855273
 20
9.37334180
  0
VERTEX
  8
B-448.PLT
 62
7
 10
21.59455737
 20
9.37376147
  0
VERTEX
  8
B-448.PLT
 62
7
 10
21.61100000
 20
9.37200000
  0
VERTEX
  8
B-448.PLT
 62
7
 10
21.60811719
 20
9.38414648
  0
VERTEX
  8
B-448.PLT
 62
7
 10
21.60762500
 20
9.39717187
  0
VERTEX
  8
B-448.PLT
 62
7
 10
21.60938281
 20
9.41083008
  0
VERTEX
  8
B-448.PLT
 62
7
 10
21.61325000
 20
9.42487500
  0
VERTEX
  8
B-448.PLT
 62
7
 10
21.61908594
 20
9.43906055
  0
VERTEX
  8
B-448.PLT
 62
7
 10
21.62675000
 20
9.45314062
  0
VERTEX
  8
B-448.PLT
 62
7
 10
21.63610156
 20
9.46686914
  0
VERTEX
  8
B-448.PLT
 62
7
 10
21.64700000
 20
9.48000000
  0
VERTEX
  8
B-448.PLT
 62
7
 10
21.66009570
 20
9.49169922
  0
VERTEX
  8
B-448.PLT
 62
7
 10
21.67376563
 20
9.50196875
  0
VERTEX
  8
B-448.PLT
 62
7
 10
21.68783398
 20
9.51069141
  0
VERTEX
  8
B-448.PLT
 62
7
 10
21.70212500
 20
9.51775000
  0
VERTEX
  8
B-448.PLT
 62
7
 10
21.71646289
 20
9.52302734
  0
VERTEX
  8
B-448.PLT
 62
7
 10
21.73067187
 20
9.52640625
  0
VERTEX
  8
B-448.PLT
 62
7
 10
21.74457617
 20
9.52776953
  0
VERTEX
  8
B-448.PLT
 62
7
 10
21.75800000
 20
9.52700000
  0
VERTEX
  8
B-448.PLT
 62
7
 10
21.75391187
 20
9.54157983
  0
VERTEX
  8
B-448.PLT
 62
7
 10
21.75220117
 20
9.55607617
  0
VERTEX
  8
B-448.PLT
 62
7
 10
21.75238599
 20
9.57049927
  0
VERTEX
  8
B-448.PLT
 62
7
 10
21.75398438
 20
9.58485938
  0
VERTEX
  8
B-448.PLT
 62
7
 10
21.75651440
 20
9.59916675
  0
VERTEX
  8
B-448.PLT
 62
7
 10
21.75949414
 20
9.61343164
  0
VERTEX
  8
B-448.PLT
 62
7
 10
21.76244165
 20
9.62766431
  0
VERTEX
  8
B-448.PLT
 62
7
 10
21.76487500
 20
9.64187500
  0
VERTEX
  8
B-448.PLT
 62
7
 10
21.76631226
 20
9.65607397
  0
VERTEX
  8
B-448.PLT
 62
7
 10
21.76627148
 20
9.67027148
  0
VERTEX
  8
B-448.PLT
 62
7
 10
21.76427075
 20
9.68447778
  0
VERTEX
  8
B-448.PLT
 62
7
 10
21.75982812
 20
9.69870312
  0
VERTEX
  8
B-448.PLT
 62
7
 10
21.75246167
 20
9.71295776
  0
VERTEX
  8
B-448.PLT
 62
7
 10
21.74168945
 20
9.72725195
  0
VERTEX
  8
B-448.PLT
 62
7
 10
21.72702954
 20
9.74159595
  0
VERTEX
  8
B-448.PLT
 62
7
 10
21.70800000
 20
9.75600000
  0
VERTEX
  8
B-448.PLT
 62
7
 10
21.68125000
 20
9.77025000
  0
VERTEX
  8
B-448.PLT
 62
7
 10
21.65037500
 20
9.78037500
  0
VERTEX
  8
B-448.PLT
 62
7
 10
21.61631250
 20
9.78693750
  0
VERTEX
  8
B-448.PLT
 62
7
 10
21.58000000
 20
9.79050000
  0
VERTEX
  8
B-448.PLT
 62
7
 10
21.54237500
 20
9.79162500
  0
VERTEX
  8
B-448.PLT
 62
7
 10
21.50437500
 20
9.79087500
  0
VERTEX
  8
B-448.PLT
 62
7
 10
21.46693750
 20
9.78881250
  0
VERTEX
  8
B-448.PLT
 62
7
 10
21.43100000
 20
9.78600000
  0
VERTEX
  8
B-448.PLT
 62
7
 10
21.41450000
 20
9.74950000
  0
VERTEX
  8
B-448.PLT
 62
7
 10
21.39200000
 20
9.71600000
  0
VERTEX
  8
B-448.PLT
 62
7
 10
21.47575000
 20
9.63662500
  0
SEQEND
  0
POLYLINE
  8
B-448.PLT
 62
7
 66
1
 70
1
  0
VERTEX
  8
B-448.PLT
 62
7
 10
2.45100000
 20
9.55800000
  0
VERTEX
  8
B-448.PLT
 62
7
 10
2.52425000
 20
9.63662500
  0
VERTEX
  8
B-448.PLT
 62
7
 10
2.60800000
 20
9.71600000
  0
VERTEX
  8
B-448.PLT
 62
7
 10
2.58550000
 20
9.74950000
  0
VERTEX
  8
B-448.PLT
 62
7
 10
2.56900000
 20
9.78600000
  0
VERTEX
  8
B-448.PLT
 62
7
 10
2.53306250
 20
9.78881250
  0
VERTEX
  8
B-448.PLT
 62
7
 10
2.49562500
 20
9.79087500
  0
VERTEX
  8
B-448.PLT
 62
7
 10
2.45762500
 20
9.79162500
  0
VERTEX
  8
B-448.PLT
 62
7
 10
2.42000000
 20
9.79050000
  0
VERTEX
  8
B-448.PLT
 62
7
 10
2.38368750
 20
9.78693750
  0
VERTEX
  8
B-448.PLT
 62
7
 10
2.34962500
 20
9.78037500
  0
VERTEX
  8
B-448.PLT
 62
7
 10
2.31875000
 20
9.77025000
  0
VERTEX
  8
B-448.PLT
 62
7
 10
2.29200000
 20
9.75600000
  0
VERTEX
  8
B-448.PLT
 62
7
 10
2.27297046
 20
9.74159595
  0
VERTEX
  8
B-448.PLT
 62
7
 10
2.25831055
 20
9.72725195
  0
VERTEX
  8
B-448.PLT
 62
7
 10
2.24753833
 20
9.71295776
  0
VERTEX
  8
B-448.PLT
 62
7
 10
2.24017188
 20
9.69870312
  0
VERTEX
  8
B-448.PLT
 62
7
 10
2.23572925
 20
9.68447778
  0
VERTEX
  8
B-448.PLT
 62
7
 10
2.23372852
 20
9.67027148
  0
VERTEX
  8
B-448.PLT
 62
7
 10
2.23368774
 20
9.65607397
  0
VERTEX
  8
B-448.PLT
 62
7
 10
2.23512500
 20
9.64187500
  0
VERTEX
  8
B-448.PLT
 62
7
 10
2.23755835
 20
9.62766431
  0
VERTEX
  8
B-448.PLT
 62
7
 10
2.24050586
 20
9.61343164
  0
VERTEX
  8
B-448.PLT
 62
7
 10
2.24348560
 20
9.59916675
  0
VERTEX
  8
B-448.PLT
 62
7
 10
2.24601563
 20
9.58485938
  0
VERTEX
  8
B-448.PLT
 62
7
 10
2.24761401
 20
9.57049927
  0
VERTEX
  8
B-448.PLT
 62
7
 10
2.24779883
 20
9.55607617
  0
VERTEX
  8
B-448.PLT
 62
7
 10
2.24608813
 20
9.54157983
  0
VERTEX
  8
B-448.PLT
 62
7
 10
2.24200000
 20
9.52700000
  0
VERTEX
  8
B-448.PLT
 62
7
 10
2.25542383
 20
9.52776953
  0
VERTEX
  8
B-448.PLT
 62
7
 10
2.26932812
 20
9.52640625
  0
VERTEX
  8
B-448.PLT
 62
7
 10
2.28353711
 20
9.52302734
  0
VERTEX
  8
B-448.PLT
 62
7
 10
2.29787500
 20
9.51775000
  0
VERTEX
  8
B-448.PLT
 62
7
 10
2.31216602
 20
9.51069141
  0
VERTEX
  8
B-448.PLT
 62
7
 10
2.32623437
 20
9.50196875
  0
VERTEX
  8
B-448.PLT
 62
7
 10
2.33990430
 20
9.49169922
  0
VERTEX
  8
B-448.PLT
 62
7
 10
2.35300000
 20
9.48000000
  0
VERTEX
  8
B-448.PLT
 62
7
 10
2.36389844
 20
9.46686914
  0
VERTEX
  8
B-448.PLT
 62
7
 10
2.37325000
 20
9.45314062
  0
VERTEX
  8
B-448.PLT
 62
7
 10
2.38091406
 20
9.43906055
  0
VERTEX
  8
B-448.PLT
 62
7
 10
2.38675000
 20
9.42487500
  0
VERTEX
  8
B-448.PLT
 62
7
 10
2.39061719
 20
9.41083008
  0
VERTEX
  8
B-448.PLT
 62
7
 10
2.39237500
 20
9.39717187
  0
VERTEX
  8
B-448.PLT
 62
7
 10
2.39188281
 20
9.38414648
  0
VERTEX
  8
B-448.PLT
 62
7
 10
2.38900000
 20
9.37200000
  0
VERTEX
  8
B-448.PLT
 62
7
 10
2.40544263
 20
9.37376147
  0
VERTEX
  8
B-448.PLT
 62
7
 10
2.42144727
 20
9.37334180
  0
VERTEX
  8
B-448.PLT
 62
7
 10
2.43709155
 20
9.37118481
  0
VERTEX
  8
B-448.PLT
 62
7
 10
2.45245312
 20
9.36773437
  0
VERTEX
  8
B-448.PLT
 62
7
 10
2.46760962
 20
9.36343433
  0
VERTEX
  8
B-448.PLT
 62
7
 10
2.48263867
 20
9.35872852
  0
VERTEX
  8
B-448.PLT
 62
7
 10
2.49761792
 20
9.35406079
  0
VERTEX
  8
B-448.PLT
 62
7
 10
2.51262500
 20
9.34987500
  0
VERTEX
  8
B-448.PLT
 62
7
 10
2.52773755
 20
9.34661499
  0
VERTEX
  8
B-448.PLT
 62
7
 10
2.54303320
 20
9.34472461
  0
VERTEX
  8
B-448.PLT
 62
7
 10
2.55858960
 20
9.34464771
  0
VERTEX
  8
B-448.PLT
 62
7
 10
2.57448437
 20
9.34682813
  0
VERTEX
  8
B-448.PLT
 62
7
 10
2.59079517
 20
9.35170972
  0
VERTEX
  8
B-448.PLT
 62
7
 10
2.60759961
 20
9.35973633
  0
VERTEX
  8
B-448.PLT
 62
7
 10
2.62497534
 20
9.37135181
  0
VERTEX
  8
B-448.PLT
 62
7
 10
2.64300000
 20
9.38700000
  0
VERTEX
  8
B-448.PLT
 62
7
 10
2.66187695
 20
9.40971680
  0
VERTEX
  8
B-448.PLT
 62
7
 10
2.67682813
 20
9.43673438
  0
VERTEX
  8
B-448.PLT
 62
7
 10
2.68833398
 20
9.46710352
  0
VERTEX
  8
B-448.PLT
 62
7
 10
2.69687500
 20
9.49987500
  0
VERTEX
  8
B-448.PLT
 62
7
 10
2.70293164
 20
9.53409961
  0
VERTEX
  8
B-448.PLT
 62
7
 10
2.70698438
 20
9.56882812
  0
VERTEX
  8
B-448.PLT
 62
7
 10
2.70951367
 20
9.60311133
  0
VERTEX
  8
B-448.PLT
 62
7
 10
2.71100000
 20
9.63600000
  0
VERTEX
  8
B-448.PLT
 62
7
 10
2.69360937
 20
9.64482813
  0
VERTEX
  8
B-448.PLT
 62
7
 10
2.67387500
 20
9.65562500
  0
VERTEX
  8
B-448.PLT
 62
7
 10
2.65545313
 20
9.66735938
  0
VERTEX
  8
B-448.PLT
 62
7
 10
2.64200000
 20
9.67900000
  0
VERTEX
  8
B-448.PLT
 62
7
 10
2.54462500
 20
9.61400000
  0
SEQEND
  0
POLYLINE
  8
B-448.PLT
 62
7
 66
1
 70
1
  0
VERTEX
  8
B-448.PLT
 62
7
 10
3.28400000
 20
9.89200000
  0
VERTEX
  8
B-448.PLT
 62
7
 10
3.23234375
 20
9.87962500
  0
VERTEX
  8
B-448.PLT
 62
7
 10
3.17525000
 20
9.86725000
  0
VERTEX
  8
B-448.PLT
 62
7
 10
3.11553125
 20
9.85600000
  0
VERTEX
  8
B-448.PLT
 62
7
 10
3.05600000
 20
9.84700000
  0
VERTEX
  8
B-448.PLT
 62
7
 10
3.05593750
 20
9.82865625
  0
VERTEX
  8
B-448.PLT
 62
7
 10
3.05400000
 20
9.80825000
  0
VERTEX
  8
B-448.PLT
 62
7
 10
3.04981250
 20
9.78821875
  0
VERTEX
  8
B-448.PLT
 62
7
 10
3.04300000
 20
9.77100000
  0
VERTEX
  8
B-448.PLT
 62
7
 10
3.07092383
 20
9.74930664
  0
VERTEX
  8
B-448.PLT
 62
7
 10
3.10045313
 20
9.72757813
  0
VERTEX
  8
B-448.PLT
 62
7
 10
3.13122461
 20
9.70671680
  0
VERTEX
  8
B-448.PLT
 62
7
 10
3.16287500
 20
9.68762500
  0
VERTEX
  8
B-448.PLT
 62
7
 10
3.19504102
 20
9.67120508
  0
VERTEX
  8
B-448.PLT
 62
7
 10
3.22735937
 20
9.65835937
  0
VERTEX
  8
B-448.PLT
 62
7
 10
3.25946680
 20
9.64999023
  0
VERTEX
  8
B-448.PLT
 62
7
 10
3.29100000
 20
9.64700000
  0
VERTEX
  8
B-448.PLT
 62
7
 10
3.31548901
 20
9.64861035
  0
VERTEX
  8
B-448.PLT
 62
7
 10
3.33634961
 20
9.65252344
  0
VERTEX
  8
B-448.PLT
 62
7
 10
3.35398462
 20
9.65848730
  0
VERTEX
  8
B-448.PLT
 62
7
 10
3.36879688
 20
9.66625000
  0
VERTEX
  8
B-448.PLT
 62
7
 10
3.38118921
 20
9.67555957
  0
VERTEX
  8
B-448.PLT
 62
7
 10
3.39156445
 20
9.68616406
  0
VERTEX
  8
B-448.PLT
 62
7
 10
3.40032544
 20
9.69781152
  0
VERTEX
  8
B-448.PLT
 62
7
 10
3.40787500
 20
9.71025000
  0
VERTEX
  8
B-448.PLT
 62
7
 10
3.41461597
 20
9.72322754
  0
VERTEX
  8
B-448.PLT
 62
7
 10
3.42095117
 20
9.73649219
  0
VERTEX
  8
B-448.PLT
 62
7
 10
3.42728345
 20
9.74979199
  0
VERTEX
  8
B-448.PLT
 62
7
 10
3.43401562
 20
9.76287500
  0
VERTEX
  8
B-448.PLT
 62
7
 10
3.44155054
 20
9.77548926
  0
VERTEX
  8
B-448.PLT
 62
7
 10
3.45029102
 20
9.78738281
  0
VERTEX
  8
B-448.PLT
 62
7
 10
3.46063989
 20
9.79830371
  0
VERTEX
  8
B-448.PLT
 62
7
 10
3.47300000
 20
9.80800000
  0
VERTEX
  8
B-448.PLT
 62
7
 10
3.45126563
 20
9.82289062
  0
VERTEX
  8
B-448.PLT
 62
7
 10
3.43337500
 20
9.84537500
  0
VERTEX
  8
B-448.PLT
 62
7
 10
3.42054687
 20
9.87367187
  0
VERTEX
  8
B-448.PLT
 62
7
 10
3.41400000
 20
9.90600000
  0
VERTEX
  8
B-448.PLT
 62
7
 10
3.41328125
 20
9.93848437
  0
VERTEX
  8
B-448.PLT
 62
7
 10
3.41950000
 20
9.96862500
  0
VERTEX
  8
B-448.PLT
 62
7
 10
3.43171875
 20
9.99445312
  0
VERTEX
  8
B-448.PLT
 62
7
 10
3.44900000
 20
10.01400000
  0
VERTEX
  8
B-448.PLT
 62
7
 10
3.43493970
 20
10.02107202
  0
VERTEX
  8
B-448.PLT
 62
7
 10
3.42253320
 20
10.02970117
  0
VERTEX
  8
B-448.PLT
 62
7
 10
3.41144214
 20
10.03956958
  0
VERTEX
  8
B-448.PLT
 62
7
 10
3.40132813
 20
10.05035937
  0
VERTEX
  8
B-448.PLT
 62
7
 10
3.39185278
 20
10.06175269
  0
VERTEX
  8
B-448.PLT
 62
7
 10
3.38267773
 20
10.07343164
  0
VERTEX
  8
B-448.PLT
 62
7
 10
3.37346460
 20
10.08507837
  0
VERTEX
  8
B-448.PLT
 62
7
 10
3.36387500
 20
10.09637500
  0
VERTEX
  8
B-448.PLT
 62
7
 10
3.35357056
 20
10.10700366
  0
VERTEX
  8
B-448.PLT
 62
7
 10
3.34221289
 20
10.11664648
  0
VERTEX
  8
B-448.PLT
 62
7
 10
3.32946362
 20
10.12498560
  0
VERTEX
  8
B-448.PLT
 62
7
 10
3.31498437
 20
10.13170313
  0
VERTEX
  8
B-448.PLT
 62
7
 10
3.29843677
 20
10.13648120
  0
VERTEX
  8
B-448.PLT
 62
7
 10
3.27948242
 20
10.13900195
  0
VERTEX
  8
B-448.PLT
 62
7
 10
3.25778296
 20
10.13894751
  0
VERTEX
  8
B-448.PLT
 62
7
 10
3.23300000
 20
10.13600000
  0
VERTEX
  8
B-448.PLT
 62
7
 10
3.20388086
 20
10.12779688
  0
VERTEX
  8
B-448.PLT
 62
7
 10
3.17517188
 20
10.11368750
  0
VERTEX
  8
B-448.PLT
 62
7
 10
3.14709570
 20
10.09479688
  0
VERTEX
  8
B-448.PLT
 62
7
 10
3.11987500
 20
10.07225000
  0
VERTEX
  8
B-448.PLT
 62
7
 10
3.09373242
 20
10.04717188
  0
VERTEX
  8
B-448.PLT
 62
7
 10
3.06889062
 20
10.02068750
  0
VERTEX
  8
B-448.PLT
 62
7
 10
3.04557227
 20
9.99392187
  0
VERTEX
  8
B-448.PLT
 62
7
 10
3.02400000
 20
9.96800000
  0
VERTEX
  8
B-448.PLT
 62
7
 10
3.03148437
 20
9.95040625
  0
VERTEX
  8
B-448.PLT
 62
7
 10
3.04037500
 20
9.93075000
  0
VERTEX
  8
B-448.PLT
 62
7
 10
3.04832812
 20
9.91146875
  0
VERTEX
  8
B-448.PLT
 62
7
 10
3.05300000
 20
9.89500000
  0
VERTEX
  8
B-448.PLT
 62
7
 10
3.11131250
 20
9.89720313
  0
VERTEX
  8
B-448.PLT
 62
7
 10
3.17150000
 20
9.89687500
  0
VERTEX
  8
B-448.PLT
 62
7
 10
3.23018750
 20
9.89485937
  0
SEQEND
  0
POLYLINE
  8
B-448.PLT
 62
7
 66
1
 70
1
  0
VERTEX
  8
B-448.PLT
 62
7
 10
20.71600000
 20
9.89200000
  0
VERTEX
  8
B-448.PLT
 62
7
 10
20.76981250
 20
9.89485937
  0
VERTEX
  8
B-448.PLT
 62
7
 10
20.82850000
 20
9.89687500
  0
VERTEX
  8
B-448.PLT
 62
7
 10
20.88868750
 20
9.89720313
  0
VERTEX
  8
B-448.PLT
 62
7
 10
20.94700000
 20
9.89500000
  0
VERTEX
  8
B-448.PLT
 62
7
 10
20.95167187
 20
9.91146875
  0
VERTEX
  8
B-448.PLT
 62
7
 10
20.95962500
 20
9.93075000
  0
VERTEX
  8
B-448.PLT
 62
7
 10
20.96851562
 20
9.95040625
  0
VERTEX
  8
B-448.PLT
 62
7
 10
20.97600000
 20
9.96800000
  0
VERTEX
  8
B-448.PLT
 62
7
 10
20.95442773
 20
9.99392187
  0
VERTEX
  8
B-448.PLT
 62
7
 10
20.93110937
 20
10.02068750
  0
VERTEX
  8
B-448.PLT
 62
7
 10
20.90626758
 20
10.04717188
  0
VERTEX
  8
B-448.PLT
 62
7
 10
20.88012500
 20
10.07225000
  0
VERTEX
  8
B-448.PLT
 62
7
 10
20.85290430
 20
10.09479688
  0
VERTEX
  8
B-448.PLT
 62
7
 10
20.82482813
 20
10.11368750
  0
VERTEX
  8
B-448.PLT
 62
7
 10
20.79611914
 20
10.12779688
  0
VERTEX
  8
B-448.PLT
 62
7
 10
20.76700000
 20
10.13600000
  0
VERTEX
  8
B-448.PLT
 62
7
 10
20.74221704
 20
10.13894751
  0
VERTEX
  8
B-448.PLT
 62
7
 10
20.72051758
 20
10.13900195
  0
VERTEX
  8
B-448.PLT
 62
7
 10
20.70156323
 20
10.13648120
  0
VERTEX
  8
B-448.PLT
 62
7
 10
20.68501562
 20
10.13170313
  0
VERTEX
  8
B-448.PLT
 62
7
 10
20.67053638
 20
10.12498560
  0
VERTEX
  8
B-448.PLT
 62
7
 10
20.65778711
 20
10.11664648
  0
VERTEX
  8
B-448.PLT
 62
7
 10
20.64642944
 20
10.10700366
  0
VERTEX
  8
B-448.PLT
 62
7
 10
20.63612500
 20
10.09637500
  0
VERTEX
  8
B-448.PLT
 62
7
 10
20.62653540
 20
10.08507837
  0
VERTEX
  8
B-448.PLT
 62
7
 10
20.61732227
 20
10.07343164
  0
VERTEX
  8
B-448.PLT
 62
7
 10
20.60814722
 20
10.06175269
  0
VERTEX
  8
B-448.PLT
 62
7
 10
20.59867188
 20
10.05035937
  0
VERTEX
  8
B-448.PLT
 62
7
 10
20.58855786
 20
10.03956958
  0
VERTEX
  8
B-448.PLT
 62
7
 10
20.57746680
 20
10.02970117
  0
VERTEX
  8
B-448.PLT
 62
7
 10
20.56506030
 20
10.02107202
  0
VERTEX
  8
B-448.PLT
 62
7
 10
20.55100000
 20
10.01400000
  0
VERTEX
  8
B-448.PLT
 62
7
 10
20.56828125
 20
9.99445312
  0
VERTEX
  8
B-448.PLT
 62
7
 10
20.58050000
 20
9.96862500
  0
VERTEX
  8
B-448.PLT
 62
7
 10
20.58671875
 20
9.93848437
  0
VERTEX
  8
B-448.PLT
 62
7
 10
20.58600000
 20
9.90600000
  0
VERTEX
  8
B-448.PLT
 62
7
 10
20.57945313
 20
9.87367187
  0
VERTEX
  8
B-448.PLT
 62
7
 10
20.56662500
 20
9.84537500
  0
VERTEX
  8
B-448.PLT
 62
7
 10
20.54873437
 20
9.82289062
  0
VERTEX
  8
B-448.PLT
 62
7
 10
20.52700000
 20
9.80800000
  0
VERTEX
  8
B-448.PLT
 62
7
 10
20.53936011
 20
9.79830371
  0
VERTEX
  8
B-448.PLT
 62
7
 10
20.54970898
 20
9.78738281
  0
VERTEX
  8
B-448.PLT
 62
7
 10
20.55844946
 20
9.77548926
  0
VERTEX
  8
B-448.PLT
 62
7
 10
20.56598437
 20
9.76287500
  0
VERTEX
  8
B-448.PLT
 62
7
 10
20.57271655
 20
9.74979199
  0
VERTEX
  8
B-448.PLT
 62
7
 10
20.57904883
 20
9.73649219
  0
VERTEX
  8
B-448.PLT
 62
7
 10
20.58538403
 20
9.72322754
  0
VERTEX
  8
B-448.PLT
 62
7
 10
20.59212500
 20
9.71025000
  0
VERTEX
  8
B-448.PLT
 62
7
 10
20.59967456
 20
9.69781152
  0
VERTEX
  8
B-448.PLT
 62
7
 10
20.60843555
 20
9.68616406
  0
VERTEX
  8
B-448.PLT
 62
7
 10
20.61881079
 20
9.67555957
  0
VERTEX
  8
B-448.PLT
 62
7
 10
20.63120312
 20
9.66625000
  0
VERTEX
  8
B-448.PLT
 62
7
 10
20.64601538
 20
9.65848730
  0
VERTEX
  8
B-448.PLT
 62
7
 10
20.66365039
 20
9.65252344
  0
VERTEX
  8
B-448.PLT
 62
7
 10
20.68451099
 20
9.64861035
  0
VERTEX
  8
B-448.PLT
 62
7
 10
20.70900000
 20
9.64700000
  0
VERTEX
  8
B-448.PLT
 62
7
 10
20.74053320
 20
9.64999023
  0
VERTEX
  8
B-448.PLT
 62
7
 10
20.77264063
 20
9.65835937
  0
VERTEX
  8
B-448.PLT
 62
7
 10
20.80495898
 20
9.67120508
  0
VERTEX
  8
B-448.PLT
 62
7
 10
20.83712500
 20
9.68762500
  0
VERTEX
  8
B-448.PLT
 62
7
 10
20.86877539
 20
9.70671680
  0
VERTEX
  8
B-448.PLT
 62
7
 10
20.89954687
 20
9.72757813
  0
VERTEX
  8
B-448.PLT
 62
7
 10
20.92907617
 20
9.74930664
  0
VERTEX
  8
B-448.PLT
 62
7
 10
20.95700000
 20
9.77100000
  0
VERTEX
  8
B-448.PLT
 62
7
 10
20.95018750
 20
9.78821875
  0
VERTEX
  8
B-448.PLT
 62
7
 10
20.94600000
 20
9.80825000
  0
VERTEX
  8
B-448.PLT
 62
7
 10
20.94406250
 20
9.82865625
  0
VERTEX
  8
B-448.PLT
 62
7
 10
20.94400000
 20
9.84700000
  0
VERTEX
  8
B-448.PLT
 62
7
 10
20.88446875
 20
9.85600000
  0
VERTEX
  8
B-448.PLT
 62
7
 10
20.82475000
 20
9.86725000
  0
VERTEX
  8
B-448.PLT
 62
7
 10
20.76765625
 20
9.87962500
  0
SEQEND
  0
POLYLINE
  8
B-448.PLT
 62
7
 66
1
 70
1
  0
VERTEX
  8
B-448.PLT
 62
7
 10
21.15300000
 20
10.01000000
  0
VERTEX
  8
B-448.PLT
 62
7
 10
21.11803125
 20
9.99968555
  0
VERTEX
  8
B-448.PLT
 62
7
 10
21.08700000
 20
9.98354688
  0
VERTEX
  8
B-448.PLT
 62
7
 10
21.06046875
 20
9.96241602
  0
VERTEX
  8
B-448.PLT
 62
7
 10
21.03900000
 20
9.93712500
  0
VERTEX
  8
B-448.PLT
 62
7
 10
21.02315625
 20
9.90850586
  0
VERTEX
  8
B-448.PLT
 62
7
 10
21.01350000
 20
9.87739063
  0
VERTEX
  8
B-448.PLT
 62
7
 10
21.01059375
 20
9.84461133
  0
VERTEX
  8
B-448.PLT
 62
7
 10
21.01500000
 20
9.81100000
  0
VERTEX
  8
B-448.PLT
 62
7
 10
21.02657813
 20
9.77921289
  0
VERTEX
  8
B-448.PLT
 62
7
 10
21.04425000
 20
9.75095313
  0
VERTEX
  8
B-448.PLT
 62
7
 10
21.06717188
 20
9.72674805
  0
VERTEX
  8
B-448.PLT
 62
7
 10
21.09450000
 20
9.70712500
  0
VERTEX
  8
B-448.PLT
 62
7
 10
21.12539063
 20
9.69261133
  0
VERTEX
  8
B-448.PLT
 62
7
 10
21.15900000
 20
9.68373438
  0
VERTEX
  8
B-448.PLT
 62
7
 10
21.19448437
 20
9.68102148
  0
VERTEX
  8
B-448.PLT
 62
7
 10
21.23100000
 20
9.68500000
  0
VERTEX
  8
B-448.PLT
 62
7
 10
21.26563867
 20
9.69560156
  0
VERTEX
  8
B-448.PLT
 62
7
 10
21.29642188
 20
9.71187500
  0
VERTEX
  8
B-448.PLT
 62
7
 10
21.32277539
 20
9.73302344
  0
VERTEX
  8
B-448.PLT
 62
7
 10
21.34412500
 20
9.75825000
  0
VERTEX
  8
B-448.PLT
 62
7
 10
21.35989648
 20
9.78675781
  0
VERTEX
  8
B-448.PLT
 62
7
 10
21.36951562
 20
9.81775000
  0
VERTEX
  8
B-448.PLT
 62
7
 10
21.37240820
 20
9.85042969
  0
VERTEX
  8
B-448.PLT
 62
7
 10
21.36800000
 20
9.88400000
  0
VERTEX
  8
B-448.PLT
 62
7
 10
21.35671094
 20
9.91607422
  0
VERTEX
  8
B-448.PLT
 62
7
 10
21.33918750
 20
9.94446875
  0
VERTEX
  8
B-448.PLT
 62
7
 10
21.31632031
 20
9.96869141
  0
VERTEX
  8
B-448.PLT
 62
7
 10
21.28900000
 20
9.98825000
  0
VERTEX
  8
B-448.PLT
 62
7
 10
21.25811719
 20
10.00265234
  0
VERTEX
  8
B-448.PLT
 62
7
 10
21.22456250
 20
10.01140625
  0
VERTEX
  8
B-448.PLT
 62
7
 10
21.18922656
 20
10.01401953
  0
SEQEND
  0
POLYLINE
  8
B-448.PLT
 62
7
 66
1
 70
1
  0
VERTEX
  8
B-448.PLT
 62
7
 10
2.84700000
 20
10.01000000
  0
VERTEX
  8
B-448.PLT
 62
7
 10
2.81077344
 20
10.01401953
  0
VERTEX
  8
B-448.PLT
 62
7
 10
2.77543750
 20
10.01140625
  0
VERTEX
  8
B-448.PLT
 62
7
 10
2.74188281
 20
10.00265234
  0
VERTEX
  8
B-448.PLT
 62
7
 10
2.71100000
 20
9.98825000
  0
VERTEX
  8
B-448.PLT
 62
7
 10
2.68367969
 20
9.96869141
  0
VERTEX
  8
B-448.PLT
 62
7
 10
2.66081250
 20
9.94446875
  0
VERTEX
  8
B-448.PLT
 62
7
 10
2.64328906
 20
9.91607422
  0
VERTEX
  8
B-448.PLT
 62
7
 10
2.63200000
 20
9.88400000
  0
VERTEX
  8
B-448.PLT
 62
7
 10
2.62759180
 20
9.85042969
  0
VERTEX
  8
B-448.PLT
 62
7
 10
2.63048438
 20
9.81775000
  0
VERTEX
  8
B-448.PLT
 62
7
 10
2.64010352
 20
9.78675781
  0
VERTEX
  8
B-448.PLT
 62
7
 10
2.65587500
 20
9.75825000
  0
VERTEX
  8
B-448.PLT
 62
7
 10
2.67722461
 20
9.73302344
  0
VERTEX
  8
B-448.PLT
 62
7
 10
2.70357812
 20
9.71187500
  0
VERTEX
  8
B-448.PLT
 62
7
 10
2.73436133
 20
9.69560156
  0
VERTEX
  8
B-448.PLT
 62
7
 10
2.76900000
 20
9.68500000
  0
VERTEX
  8
B-448.PLT
 62
7
 10
2.80551563
 20
9.68102148
  0
VERTEX
  8
B-448.PLT
 62
7
 10
2.84100000
 20
9.68373438
  0
VERTEX
  8
B-448.PLT
 62
7
 10
2.87460937
 20
9.69261133
  0
VERTEX
  8
B-448.PLT
 62
7
 10
2.90550000
 20
9.70712500
  0
VERTEX
  8
B-448.PLT
 62
7
 10
2.93282812
 20
9.72674805
  0
VERTEX
  8
B-448.PLT
 62
7
 10
2.95575000
 20
9.75095313
  0
VERTEX
  8
B-448.PLT
 62
7
 10
2.97342188
 20
9.77921289
  0
VERTEX
  8
B-448.PLT
 62
7
 10
2.98500000
 20
9.81100000
  0
VERTEX
  8
B-448.PLT
 62
7
 10
2.98940625
 20
9.84461133
  0
VERTEX
  8
B-448.PLT
 62
7
 10
2.98650000
 20
9.87739063
  0
VERTEX
  8
B-448.PLT
 62
7
 10
2.97684375
 20
9.90850586
  0
VERTEX
  8
B-448.PLT
 62
7
 10
2.96100000
 20
9.93712500
  0
VERTEX
  8
B-448.PLT
 62
7
 10
2.93953125
 20
9.96241602
  0
VERTEX
  8
B-448.PLT
 62
7
 10
2.91300000
 20
9.98354688
  0
VERTEX
  8
B-448.PLT
 62
7
 10
2.88196875
 20
9.99968555
  0
SEQEND
  0
POLYLINE
  8
B-448.PLT
 62
7
 66
1
 70
1
  0
VERTEX
  8
B-448.PLT
 62
7
 10
3.59300000
 20
9.41200000
  0
VERTEX
  8
B-448.PLT
 62
7
 10
3.66295313
 20
9.46168750
  0
VERTEX
  8
B-448.PLT
 62
7
 10
3.72137500
 20
9.51175000
  0
VERTEX
  8
B-448.PLT
 62
7
 10
3.76835938
 20
9.56218750
  0
VERTEX
  8
B-448.PLT
 62
7
 10
3.80400000
 20
9.61300000
  0
VERTEX
  8
B-448.PLT
 62
7
 10
3.82801562
 20
9.65950000
  0
VERTEX
  8
B-448.PLT
 62
7
 10
3.85212500
 20
9.71650000
  0
VERTEX
  8
B-448.PLT
 62
7
 10
3.87192188
 20
9.77500000
  0
VERTEX
  8
B-448.PLT
 62
7
 10
3.88300000
 20
9.82600000
  0
VERTEX
  8
B-448.PLT
 62
7
 10
3.89701562
 20
9.79123633
  0
VERTEX
  8
B-448.PLT
 62
7
 10
3.90381250
 20
9.75695313
  0
VERTEX
  8
B-448.PLT
 62
7
 10
3.90451563
 20
9.72353711
  0
VERTEX
  8
B-448.PLT
 62
7
 10
3.90025000
 20
9.69137500
  0
VERTEX
  8
B-448.PLT
 62
7
 10
3.89214063
 20
9.66085352
  0
VERTEX
  8
B-448.PLT
 62
7
 10
3.88131250
 20
9.63235938
  0
VERTEX
  8
B-448.PLT
 62
7
 10
3.86889063
 20
9.60627930
  0
VERTEX
  8
B-448.PLT
 62
7
 10
3.85600000
 20
9.58300000
  0
VERTEX
  8
B-448.PLT
 62
7
 10
3.84667432
 20
9.56813770
  0
VERTEX
  8
B-448.PLT
 62
7
 10
3.83600391
 20
9.55292969
  0
VERTEX
  8
B-448.PLT
 62
7
 10
3.82407373
 20
9.53756934
  0
VERTEX
  8
B-448.PLT
 62
7
 10
3.81096875
 20
9.52225000
  0
VERTEX
  8
B-448.PLT
 62
7
 10
3.79677393
 20
9.50716504
  0
VERTEX
  8
B-448.PLT
 62
7
 10
3.78157422
 20
9.49250781
  0
VERTEX
  8
B-448.PLT
 62
7
 10
3.76545459
 20
9.47847168
  0
VERTEX
  8
B-448.PLT
 62
7
 10
3.74850000
 20
9.46525000
  0
VERTEX
  8
B-448.PLT
 62
7
 10
3.73079541
 20
9.45303613
  0
VERTEX
  8
B-448.PLT
 62
7
 10
3.71242578
 20
9.44202344
  0
VERTEX
  8
B-448.PLT
 62
7
 10
3.69347607
 20
9.43240527
  0
VERTEX
  8
B-448.PLT
 62
7
 10
3.67403125
 20
9.42437500
  0
VERTEX
  8
B-448.PLT
 62
7
 10
3.65417627
 20
9.41812598
  0
VERTEX
  8
B-448.PLT
 62
7
 10
3.63399609
 20
9.41385156
  0
VERTEX
  8
B-448.PLT
 62
7
 10
3.61357568
 20
9.41174512
  0
SEQEND
  0
POLYLINE
  8
B-448.PLT
 62
7
 66
1
 70
1
  0
VERTEX
  8
B-448.PLT
 62
7
 10
20.40700000
 20
9.41200000
  0
VERTEX
  8
B-448.PLT
 62
7
 10
20.38642432
 20
9.41174512
  0
VERTEX
  8
B-448.PLT
 62
7
 10
20.36600391
 20
9.41385156
  0
VERTEX
  8
B-448.PLT
 62
7
 10
20.34582373
 20
9.41812598
  0
VERTEX
  8
B-448.PLT
 62
7
 10
20.32596875
 20
9.42437500
  0
VERTEX
  8
B-448.PLT
 62
7
 10
20.30652393
 20
9.43240527
  0
VERTEX
  8
B-448.PLT
 62
7
 10
20.28757422
 20
9.44202344
  0
VERTEX
  8
B-448.PLT
 62
7
 10
20.26920459
 20
9.45303613
  0
VERTEX
  8
B-448.PLT
 62
7
 10
20.25150000
 20
9.46525000
  0
VERTEX
  8
B-448.PLT
 62
7
 10
20.23454541
 20
9.47847168
  0
VERTEX
  8
B-448.PLT
 62
7
 10
20.21842578
 20
9.49250781
  0
VERTEX
  8
B-448.PLT
 62
7
 10
20.20322607
 20
9.50716504
  0
VERTEX
  8
B-448.PLT
 62
7
 10
20.18903125
 20
9.52225000
  0
VERTEX
  8
B-448.PLT
 62
7
 10
20.17592627
 20
9.53756934
  0
VERTEX
  8
B-448.PLT
 62
7
 10
20.16399609
 20
9.55292969
  0
VERTEX
  8
B-448.PLT
 62
7
 10
20.15332568
 20
9.56813770
  0
VERTEX
  8
B-448.PLT
 62
7
 10
20.14400000
 20
9.58300000
  0
VERTEX
  8
B-448.PLT
 62
7
 10
20.13110938
 20
9.60627930
  0
VERTEX
  8
B-448.PLT
 62
7
 10
20.11868750
 20
9.63235938
  0
VERTEX
  8
B-448.PLT
 62
7
 10
20.10785938
 20
9.66085352
  0
VERTEX
  8
B-448.PLT
 62
7
 10
20.09975000
 20
9.69137500
  0
VERTEX
  8
B-448.PLT
 62
7
 10
20.09548438
 20
9.72353711
  0
VERTEX
  8
B-448.PLT
 62
7
 10
20.09618750
 20
9.75695313
  0
VERTEX
  8
B-448.PLT
 62
7
 10
20.10298437
 20
9.79123633
  0
VERTEX
  8
B-448.PLT
 62
7
 10
20.11700000
 20
9.82600000
  0
VERTEX
  8
B-448.PLT
 62
7
 10
20.12807812
 20
9.77500000
  0
VERTEX
  8
B-448.PLT
 62
7
 10
20.14787500
 20
9.71650000
  0
VERTEX
  8
B-448.PLT
 62
7
 10
20.17198438
 20
9.65950000
  0
VERTEX
  8
B-448.PLT
 62
7
 10
20.19600000
 20
9.61300000
  0
VERTEX
  8
B-448.PLT
 62
7
 10
20.23164063
 20
9.56218750
  0
VERTEX
  8
B-448.PLT
 62
7
 10
20.27862500
 20
9.51175000
  0
VERTEX
  8
B-448.PLT
 62
7
 10
20.33704687
 20
9.46168750
  0
SEQEND
  0
POLYLINE
  8
B-448.PLT
 62
7
 66
1
 70
1
  0
VERTEX
  8
B-448.PLT
 62
7
 10
1.73900000
 20
9.33800000
  0
VERTEX
  8
B-448.PLT
 62
7
 10
1.77917188
 20
9.40687500
  0
VERTEX
  8
B-448.PLT
 62
7
 10
1.80687500
 20
9.46675000
  0
VERTEX
  8
B-448.PLT
 62
7
 10
1.82689063
 20
9.52475000
  0
VERTEX
  8
B-448.PLT
 62
7
 10
1.84400000
 20
9.58800000
  0
VERTEX
  8
B-448.PLT
 62
7
 10
1.85515625
 20
9.63925000
  0
VERTEX
  8
B-448.PLT
 62
7
 10
1.86725000
 20
9.70550000
  0
VERTEX
  8
B-448.PLT
 62
7
 10
1.87746875
 20
9.77250000
  0
VERTEX
  8
B-448.PLT
 62
7
 10
1.88300000
 20
9.82600000
  0
VERTEX
  8
B-448.PLT
 62
7
 10
1.89864453
 20
9.79796289
  0
VERTEX
  8
B-448.PLT
 62
7
 10
1.90990625
 20
9.76464063
  0
VERTEX
  8
B-448.PLT
 62
7
 10
1.91727734
 20
9.72796680
  0
VERTEX
  8
B-448.PLT
 62
7
 10
1.92125000
 20
9.68987500
  0
VERTEX
  8
B-448.PLT
 62
7
 10
1.92231641
 20
9.65229883
  0
VERTEX
  8
B-448.PLT
 62
7
 10
1.92096875
 20
9.61717188
  0
VERTEX
  8
B-448.PLT
 62
7
 10
1.91769922
 20
9.58642773
  0
VERTEX
  8
B-448.PLT
 62
7
 10
1.91300000
 20
9.56200000
  0
VERTEX
  8
B-448.PLT
 62
7
 10
1.90326758
 20
9.52747852
  0
VERTEX
  8
B-448.PLT
 62
7
 10
1.89157813
 20
9.49676563
  0
VERTEX
  8
B-448.PLT
 62
7
 10
1.87719336
 20
9.46888867
  0
VERTEX
  8
B-448.PLT
 62
7
 10
1.85937500
 20
9.44287500
  0
VERTEX
  8
B-448.PLT
 62
7
 10
1.83738477
 20
9.41775195
  0
VERTEX
  8
B-448.PLT
 62
7
 10
1.81048437
 20
9.39254688
  0
VERTEX
  8
B-448.PLT
 62
7
 10
1.77793555
 20
9.36628711
  0
SEQEND
  0
POLYLINE
  8
B-448.PLT
 62
7
 66
1
 70
1
  0
VERTEX
  8
B-448.PLT
 62
7
 10
22.26100000
 20
9.33800000
  0
VERTEX
  8
B-448.PLT
 62
7
 10
22.22206445
 20
9.36628711
  0
VERTEX
  8
B-448.PLT
 62
7
 10
22.18951562
 20
9.39254688
  0
VERTEX
  8
B-448.PLT
 62
7
 10
22.16261523
 20
9.41775195
  0
VERTEX
  8
B-448.PLT
 62
7
 10
22.14062500
 20
9.44287500
  0
VERTEX
  8
B-448.PLT
 62
7
 10
22.12280664
 20
9.46888867
  0
VERTEX
  8
B-448.PLT
 62
7
 10
22.10842188
 20
9.49676563
  0
VERTEX
  8
B-448.PLT
 62
7
 10
22.09673242
 20
9.52747852
  0
VERTEX
  8
B-448.PLT
 62
7
 10
22.08700000
 20
9.56200000
  0
VERTEX
  8
B-448.PLT
 62
7
 10
22.08230078
 20
9.58642773
  0
VERTEX
  8
B-448.PLT
 62
7
 10
22.07903125
 20
9.61717188
  0
VERTEX
  8
B-448.PLT
 62
7
 10
22.07768359
 20
9.65229883
  0
VERTEX
  8
B-448.PLT
 62
7
 10
22.07875000
 20
9.68987500
  0
VERTEX
  8
B-448.PLT
 62
7
 10
22.08272266
 20
9.72796680
  0
VERTEX
  8
B-448.PLT
 62
7
 10
22.09009375
 20
9.76464063
  0
VERTEX
  8
B-448.PLT
 62
7
 10
22.10135547
 20
9.79796289
  0
VERTEX
  8
B-448.PLT
 62
7
 10
22.11700000
 20
9.82600000
  0
VERTEX
  8
B-448.PLT
 62
7
 10
22.12253125
 20
9.77250000
  0
VERTEX
  8
B-448.PLT
 62
7
 10
22.13275000
 20
9.70550000
  0
VERTEX
  8
B-448.PLT
 62
7
 10
22.14484375
 20
9.63925000
  0
VERTEX
  8
B-448.PLT
 62
7
 10
22.15600000
 20
9.58800000
  0
VERTEX
  8
B-448.PLT
 62
7
 10
22.17310937
 20
9.52475000
  0
VERTEX
  8
B-448.PLT
 62
7
 10
22.19312500
 20
9.46675000
  0
VERTEX
  8
B-448.PLT
 62
7
 10
22.22082813
 20
9.40687500
  0
SEQEND
  0
ENDSEC
  0
EOF
