  0
SECTION
  2
ENTITIES
  0
POLYLINE
  8
0
 62
7
 66
1
 70
1
  0
VERTEX
  8
0
 62
7
 10
7.94800000
 20
19.24800000
  0
VERTEX
  8
0
 62
7
 10
7.91690625
 20
19.23489063
  0
VERTEX
  8
0
 62
7
 10
7.88675000
 20
19.21962500
  0
VERTEX
  8
0
 62
7
 10
7.85771875
 20
19.20229688
  0
VERTEX
  8
0
 62
7
 10
7.83000000
 20
19.18300000
  0
VERTEX
  8
0
 62
7
 10
7.79900000
 20
19.19800000
  0
VERTEX
  8
0
 62
7
 10
7.78900000
 20
19.21500000
  0
VERTEX
  8
0
 62
7
 10
7.76859375
 20
19.23968750
  0
VERTEX
  8
0
 62
7
 10
7.74425000
 20
19.26025000
  0
VERTEX
  8
0
 62
7
 10
7.71728125
 20
19.27743750
  0
VERTEX
  8
0
 62
7
 10
7.68900000
 20
19.29200000
  0
VERTEX
  8
0
 62
7
 10
7.66469141
 20
19.30113086
  0
VERTEX
  8
0
 62
7
 10
7.63984375
 20
19.30710938
  0
VERTEX
  8
0
 62
7
 10
7.61457422
 20
19.31043945
  0
VERTEX
  8
0
 62
7
 10
7.58900000
 20
19.31162500
  0
VERTEX
  8
0
 62
7
 10
7.56323828
 20
19.31116992
  0
VERTEX
  8
0
 62
7
 10
7.53740625
 20
19.30957813
  0
VERTEX
  8
0
 62
7
 10
7.51162109
 20
19.30735352
  0
VERTEX
  8
0
 62
7
 10
7.48600000
 20
19.30500000
  0
VERTEX
  8
0
 62
7
 10
7.42750000
 20
19.29595313
  0
VERTEX
  8
0
 62
7
 10
7.37050000
 20
19.28137500
  0
VERTEX
  8
0
 62
7
 10
7.31500000
 20
19.26210938
  0
VERTEX
  8
0
 62
7
 10
7.26100000
 20
19.23900000
  0
VERTEX
  8
0
 62
7
 10
7.20367773
 20
19.22891797
  0
VERTEX
  8
0
 62
7
 10
7.14723438
 20
19.21609375
  0
VERTEX
  8
0
 62
7
 10
7.09170508
 20
19.20078516
  0
VERTEX
  8
0
 62
7
 10
7.03712500
 20
19.18325000
  0
VERTEX
  8
0
 62
7
 10
6.98352930
 20
19.16374609
  0
VERTEX
  8
0
 62
7
 10
6.93095313
 20
19.14253125
  0
VERTEX
  8
0
 62
7
 10
6.87943164
 20
19.11986328
  0
VERTEX
  8
0
 62
7
 10
6.82900000
 20
19.09600000
  0
VERTEX
  8
0
 62
7
 10
6.77421875
 20
19.06596875
  0
VERTEX
  8
0
 62
7
 10
6.71400000
 20
19.02750000
  0
VERTEX
  8
0
 62
7
 10
6.65153125
 20
18.98378125
  0
VERTEX
  8
0
 62
7
 10
6.59000000
 20
18.93800000
  0
VERTEX
  8
0
 62
7
 10
6.65787500
 20
19.01250000
  0
VERTEX
  8
0
 62
7
 10
6.73100000
 20
19.08400000
  0
VERTEX
  8
0
 62
7
 10
6.80665625
 20
19.15121875
  0
VERTEX
  8
0
 62
7
 10
6.88625000
 20
19.21450000
  0
VERTEX
  8
0
 62
7
 10
6.96921875
 20
19.27328125
  0
VERTEX
  8
0
 62
7
 10
7.05500000
 20
19.32700000
  0
VERTEX
  8
0
 62
7
 10
7.13175000
 20
19.36900000
  0
VERTEX
  8
0
 62
7
 10
7.21000000
 20
19.40500000
  0
VERTEX
  8
0
 62
7
 10
7.25800977
 20
19.42483789
  0
VERTEX
  8
0
 62
7
 10
7.30739063
 20
19.44332813
  0
VERTEX
  8
0
 62
7
 10
7.35791992
 20
19.45968555
  0
VERTEX
  8
0
 62
7
 10
7.40937500
 20
19.47312500
  0
VERTEX
  8
0
 62
7
 10
7.46153320
 20
19.48286133
  0
VERTEX
  8
0
 62
7
 10
7.51417188
 20
19.48810938
  0
VERTEX
  8
0
 62
7
 10
7.56706836
 20
19.48808398
  0
VERTEX
  8
0
 62
7
 10
7.62000000
 20
19.48200000
  0
VERTEX
  8
0
 62
7
 10
7.64860352
 20
19.47676367
  0
VERTEX
  8
0
 62
7
 10
7.67726563
 20
19.47067188
  0
VERTEX
  8
0
 62
7
 10
7.70576367
 20
19.46352539
  0
VERTEX
  8
0
 62
7
 10
7.73387500
 20
19.45512500
  0
VERTEX
  8
0
 62
7
 10
7.76137695
 20
19.44527148
  0
VERTEX
  8
0
 62
7
 10
7.78804688
 20
19.43376563
  0
VERTEX
  8
0
 62
7
 10
7.81366211
 20
19.42040820
  0
VERTEX
  8
0
 62
7
 10
7.83800000
 20
19.40500000
  0
VERTEX
  8
0
 62
7
 10
7.86312500
 20
19.38387500
  0
VERTEX
  8
0
 62
7
 10
7.88600000
 20
19.35900000
  0
VERTEX
  8
0
 62
7
 10
7.90567188
 20
19.33335938
  0
VERTEX
  8
0
 62
7
 10
7.92262500
 20
19.30612500
  0
VERTEX
  8
0
 62
7
 10
7.93676563
 20
19.27757813
  0
VERTEX
  8
0
 62
7
 10
7.94800000
 20
19.24800000
  0
SEQEND
  0
POLYLINE
  8
0
 62
7
 66
1
 70
1
  0
VERTEX
  8
0
 62
7
 10
8.03800000
 20
19.01000000
  0
VERTEX
  8
0
 62
7
 10
8.00989063
 20
19.04296875
  0
VERTEX
  8
0
 62
7
 10
7.97962500
 20
19.07425000
  0
VERTEX
  8
0
 62
7
 10
7.94729688
 20
19.10365625
  0
VERTEX
  8
0
 62
7
 10
7.91300000
 20
19.13100000
  0
VERTEX
  8
0
 62
7
 10
7.93862500
 20
19.14562500
  0
VERTEX
  8
0
 62
7
 10
7.96500000
 20
19.15800000
  0
VERTEX
  8
0
 62
7
 10
7.98300000
 20
19.16400000
  0
VERTEX
  8
0
 62
7
 10
8.01812500
 20
19.17500000
  0
VERTEX
  8
0
 62
7
 10
8.05400000
 20
19.18300000
  0
VERTEX
  8
0
 62
7
 10
8.08453320
 20
19.18628320
  0
VERTEX
  8
0
 62
7
 10
8.11526563
 20
19.18714063
  0
VERTEX
  8
0
 62
7
 10
8.14602148
 20
19.18558398
  0
VERTEX
  8
0
 62
7
 10
8.17662500
 20
19.18162500
  0
VERTEX
  8
0
 62
7
 10
8.20690039
 20
19.17527539
  0
VERTEX
  8
0
 62
7
 10
8.23667188
 20
19.16654688
  0
VERTEX
  8
0
 62
7
 10
8.26576367
 20
19.15545117
  0
VERTEX
  8
0
 62
7
 10
8.29400000
 20
19.14200000
  0
VERTEX
  8
0
 62
7
 10
8.34281250
 20
19.11275000
  0
VERTEX
  8
0
 62
7
 10
8.38675000
 20
19.07750000
  0
VERTEX
  8
0
 62
7
 10
8.42506250
 20
19.03625000
  0
VERTEX
  8
0
 62
7
 10
8.45700000
 20
18.98900000
  0
VERTEX
  8
0
 62
7
 10
8.46906641
 20
18.96538867
  0
VERTEX
  8
0
 62
7
 10
8.47965625
 20
18.94110938
  0
VERTEX
  8
0
 62
7
 10
8.48860547
 20
18.91624414
  0
VERTEX
  8
0
 62
7
 10
8.49575000
 20
18.89087500
  0
VERTEX
  8
0
 62
7
 10
8.50092578
 20
18.86508398
  0
VERTEX
  8
0
 62
7
 10
8.50396875
 20
18.83895313
  0
VERTEX
  8
0
 62
7
 10
8.50471484
 20
18.81256445
  0
VERTEX
  8
0
 62
7
 10
8.50300000
 20
18.78600000
  0
VERTEX
  8
0
 62
7
 10
8.49868555
 20
18.75636523
  0
VERTEX
  8
0
 62
7
 10
8.49285938
 20
18.72648438
  0
VERTEX
  8
0
 62
7
 10
8.48494727
 20
18.69714258
  0
VERTEX
  8
0
 62
7
 10
8.47437500
 20
18.66912500
  0
VERTEX
  8
0
 62
7
 10
8.46056836
 20
18.64321680
  0
VERTEX
  8
0
 62
7
 10
8.44295313
 20
18.62020313
  0
VERTEX
  8
0
 62
7
 10
8.42095508
 20
18.60086914
  0
VERTEX
  8
0
 62
7
 10
8.39400000
 20
18.58600000
  0
VERTEX
  8
0
 62
7
 10
8.37229492
 20
18.57873633
  0
VERTEX
  8
0
 62
7
 10
8.35010938
 20
18.57420313
  0
VERTEX
  8
0
 62
7
 10
8.32771289
 20
18.57241211
  0
VERTEX
  8
0
 62
7
 10
8.30537500
 20
18.57337500
  0
VERTEX
  8
0
 62
7
 10
8.28336523
 20
18.57710352
  0
VERTEX
  8
0
 62
7
 10
8.26195313
 20
18.58360938
  0
VERTEX
  8
0
 62
7
 10
8.24140820
 20
18.59290430
  0
VERTEX
  8
0
 62
7
 10
8.22200000
 20
18.60500000
  0
VERTEX
  8
0
 62
7
 10
8.24887500
 20
18.60739063
  0
VERTEX
  8
0
 62
7
 10
8.27500000
 20
18.61437500
  0
VERTEX
  8
0
 62
7
 10
8.29962500
 20
18.62567188
  0
VERTEX
  8
0
 62
7
 10
8.32200000
 20
18.64100000
  0
VERTEX
  8
0
 62
7
 10
8.34080469
 20
18.66078711
  0
VERTEX
  8
0
 62
7
 10
8.35412500
 20
18.68304688
  0
VERTEX
  8
0
 62
7
 10
8.36257031
 20
18.70725195
  0
VERTEX
  8
0
 62
7
 10
8.36675000
 20
18.73287500
  0
VERTEX
  8
0
 62
7
 10
8.36727344
 20
18.75938867
  0
VERTEX
  8
0
 62
7
 10
8.36475000
 20
18.78626563
  0
VERTEX
  8
0
 62
7
 10
8.35978906
 20
18.81297852
  0
VERTEX
  8
0
 62
7
 10
8.35300000
 20
18.83900000
  0
VERTEX
  8
0
 62
7
 10
8.34016602
 20
18.87292773
  0
VERTEX
  8
0
 62
7
 10
8.32232813
 20
18.90342188
  0
VERTEX
  8
0
 62
7
 10
8.30010742
 20
18.93042383
  0
VERTEX
  8
0
 62
7
 10
8.27412500
 20
18.95387500
  0
VERTEX
  8
0
 62
7
 10
8.24500195
 20
18.97371680
  0
VERTEX
  8
0
 62
7
 10
8.21335938
 20
18.98989063
  0
VERTEX
  8
0
 62
7
 10
8.17981836
 20
19.00233789
  0
VERTEX
  8
0
 62
7
 10
8.14500000
 20
19.01100000
  0
VERTEX
  8
0
 62
7
 10
8.11843750
 20
19.01450000
  0
VERTEX
  8
0
 62
7
 10
8.09150000
 20
19.01575000
  0
VERTEX
  8
0
 62
7
 10
8.06456250
 20
19.01437500
  0
VERTEX
  8
0
 62
7
 10
8.03800000
 20
19.01000000
  0
SEQEND
  0
POLYLINE
  8
0
 62
7
 66
1
 70
1
  0
VERTEX
  8
0
 62
7
 10
4.86900000
 20
17.25500000
  0
VERTEX
  8
0
 62
7
 10
4.83000000
 20
17.29450000
  0
VERTEX
  8
0
 62
7
 10
4.78800000
 20
17.33100000
  0
VERTEX
  8
0
 62
7
 10
4.73912500
 20
17.36903125
  0
VERTEX
  8
0
 62
7
 10
4.68725000
 20
17.40350000
  0
VERTEX
  8
0
 62
7
 10
4.63275000
 20
17.43421875
  0
VERTEX
  8
0
 62
7
 10
4.57600000
 20
17.46100000
  0
VERTEX
  8
0
 62
7
 10
4.55850000
 20
17.46637500
  0
VERTEX
  8
0
 62
7
 10
4.54100000
 20
17.46800000
  0
VERTEX
  8
0
 62
7
 10
4.52840625
 20
17.54354688
  0
VERTEX
  8
0
 62
7
 10
4.51300000
 20
17.61862500
  0
VERTEX
  8
0
 62
7
 10
4.49459375
 20
17.69314063
  0
VERTEX
  8
0
 62
7
 10
4.47300000
 20
17.76700000
  0
VERTEX
  8
0
 62
7
 10
4.45667188
 20
17.81424609
  0
VERTEX
  8
0
 62
7
 10
4.43856250
 20
17.86015625
  0
VERTEX
  8
0
 62
7
 10
4.41885938
 20
17.90498828
  0
VERTEX
  8
0
 62
7
 10
4.39775000
 20
17.94900000
  0
VERTEX
  8
0
 62
7
 10
4.37542188
 20
17.99244922
  0
VERTEX
  8
0
 62
7
 10
4.35206250
 20
18.03559375
  0
VERTEX
  8
0
 62
7
 10
4.32785938
 20
18.07869141
  0
VERTEX
  8
0
 62
7
 10
4.30300000
 20
18.12200000
  0
VERTEX
  8
0
 62
7
 10
4.26700000
 20
18.10000000
  0
VERTEX
  8
0
 62
7
 10
4.31284375
 20
18.01487500
  0
VERTEX
  8
0
 62
7
 10
4.35325000
 20
17.92750000
  0
VERTEX
  8
0
 62
7
 10
4.38878125
 20
17.83787500
  0
VERTEX
  8
0
 62
7
 10
4.42000000
 20
17.74600000
  0
VERTEX
  8
0
 62
7
 10
4.44125000
 20
17.67187500
  0
VERTEX
  8
0
 62
7
 10
4.45875000
 20
17.59775000
  0
VERTEX
  8
0
 62
7
 10
4.47287500
 20
17.52325000
  0
VERTEX
  8
0
 62
7
 10
4.48400000
 20
17.44800000
  0
VERTEX
  8
0
 62
7
 10
4.46803125
 20
17.43164063
  0
VERTEX
  8
0
 62
7
 10
4.45675000
 20
17.41162500
  0
VERTEX
  8
0
 62
7
 10
4.45109375
 20
17.38879688
  0
VERTEX
  8
0
 62
7
 10
4.45200000
 20
17.36400000
  0
VERTEX
  8
0
 62
7
 10
4.45650000
 20
17.32800000
  0
VERTEX
  8
0
 62
7
 10
4.45800000
 20
17.29200000
  0
VERTEX
  8
0
 62
7
 10
4.45690625
 20
17.26067188
  0
VERTEX
  8
0
 62
7
 10
4.45375000
 20
17.22962500
  0
VERTEX
  8
0
 62
7
 10
4.44871875
 20
17.19876563
  0
VERTEX
  8
0
 62
7
 10
4.44200000
 20
17.16800000
  0
VERTEX
  8
0
 62
7
 10
4.42190625
 20
17.10348438
  0
VERTEX
  8
0
 62
7
 10
4.39675000
 20
17.03962500
  0
VERTEX
  8
0
 62
7
 10
4.36746875
 20
16.97520313
  0
VERTEX
  8
0
 62
7
 10
4.33500000
 20
16.90900000
  0
VERTEX
  8
0
 62
7
 10
4.29500000
 20
16.82500000
  0
VERTEX
  8
0
 62
7
 10
4.26350000
 20
16.88946875
  0
VERTEX
  8
0
 62
7
 10
4.23500000
 20
16.95525000
  0
VERTEX
  8
0
 62
7
 10
4.20950000
 20
17.02215625
  0
VERTEX
  8
0
 62
7
 10
4.18700000
 20
17.09000000
  0
VERTEX
  8
0
 62
7
 10
4.16043359
 20
17.18189258
  0
VERTEX
  8
0
 62
7
 10
4.13778125
 20
17.27351563
  0
VERTEX
  8
0
 62
7
 10
4.11911328
 20
17.36553711
  0
VERTEX
  8
0
 62
7
 10
4.10450000
 20
17.45862500
  0
VERTEX
  8
0
 62
7
 10
4.09401172
 20
17.55344727
  0
VERTEX
  8
0
 62
7
 10
4.08771875
 20
17.65067188
  0
VERTEX
  8
0
 62
7
 10
4.08569141
 20
17.75096680
  0
VERTEX
  8
0
 62
7
 10
4.08800000
 20
17.85500000
  0
VERTEX
  8
0
 62
7
 10
4.08948828
 20
17.90052930
  0
VERTEX
  8
0
 62
7
 10
4.09053125
 20
17.94754688
  0
VERTEX
  8
0
 62
7
 10
4.09049609
 20
17.99557227
  0
VERTEX
  8
0
 62
7
 10
4.08875000
 20
18.04412500
  0
VERTEX
  8
0
 62
7
 10
4.08466016
 20
18.09272461
  0
VERTEX
  8
0
 62
7
 10
4.07759375
 20
18.14089063
  0
VERTEX
  8
0
 62
7
 10
4.06691797
 20
18.18814258
  0
VERTEX
  8
0
 62
7
 10
4.05200000
 20
18.23400000
  0
VERTEX
  8
0
 62
7
 10
4.02893750
 20
18.28834375
  0
VERTEX
  8
0
 62
7
 10
4.00175000
 20
18.34025000
  0
VERTEX
  8
0
 62
7
 10
3.97043750
 20
18.38953125
  0
VERTEX
  8
0
 62
7
 10
3.93500000
 20
18.43600000
  0
VERTEX
  8
0
 62
7
 10
4.00479688
 20
18.45081250
  0
VERTEX
  8
0
 62
7
 10
4.07562500
 20
18.45775000
  0
VERTEX
  8
0
 62
7
 10
4.14664063
 20
18.45681250
  0
VERTEX
  8
0
 62
7
 10
4.21700000
 20
18.44800000
  0
VERTEX
  8
0
 62
7
 10
4.26939648
 20
18.43624609
  0
VERTEX
  8
0
 62
7
 10
4.32004688
 20
18.41996875
  0
VERTEX
  8
0
 62
7
 10
4.36889258
 20
18.39951953
  0
VERTEX
  8
0
 62
7
 10
4.41587500
 20
18.37525000
  0
VERTEX
  8
0
 62
7
 10
4.46093555
 20
18.34751172
  0
VERTEX
  8
0
 62
7
 10
4.50401563
 20
18.31665625
  0
VERTEX
  8
0
 62
7
 10
4.54505664
 20
18.28303516
  0
VERTEX
  8
0
 62
7
 10
4.58400000
 20
18.24700000
  0
VERTEX
  8
0
 62
7
 10
4.62467773
 20
18.20234375
  0
VERTEX
  8
0
 62
7
 10
4.66079688
 20
18.15487500
  0
VERTEX
  8
0
 62
7
 10
4.69286133
 20
18.10496875
  0
VERTEX
  8
0
 62
7
 10
4.72137500
 20
18.05300000
  0
VERTEX
  8
0
 62
7
 10
4.74684180
 20
17.99934375
  0
VERTEX
  8
0
 62
7
 10
4.76976563
 20
17.94437500
  0
VERTEX
  8
0
 62
7
 10
4.79065039
 20
17.88846875
  0
VERTEX
  8
0
 62
7
 10
4.81000000
 20
17.83200000
  0
VERTEX
  8
0
 62
7
 10
4.83013086
 20
17.76233594
  0
VERTEX
  8
0
 62
7
 10
4.84635938
 20
17.69150000
  0
VERTEX
  8
0
 62
7
 10
4.85881445
 20
17.61972656
  0
VERTEX
  8
0
 62
7
 10
4.86762500
 20
17.54725000
  0
VERTEX
  8
0
 62
7
 10
4.87291992
 20
17.47430469
  0
VERTEX
  8
0
 62
7
 10
4.87482813
 20
17.40112500
  0
VERTEX
  8
0
 62
7
 10
4.87347852
 20
17.32794531
  0
VERTEX
  8
0
 62
7
 10
4.86900000
 20
17.25500000
  0
SEQEND
  0
POLYLINE
  8
0
 62
7
 66
1
 70
1
  0
VERTEX
  8
0
 62
7
 10
21.00400000
 20
19.90100000
  0
VERTEX
  8
0
 62
7
 10
20.34700391
 20
19.89798682
  0
VERTEX
  8
0
 62
7
 10
19.69096875
 20
19.88898828
  0
VERTEX
  8
0
 62
7
 10
19.03619922
 20
19.87406592
  0
VERTEX
  8
0
 62
7
 10
18.38300000
 20
19.85328125
  0
VERTEX
  8
0
 62
7
 10
17.73167578
 20
19.82669580
  0
VERTEX
  8
0
 62
7
 10
17.08253125
 20
19.79437109
  0
VERTEX
  8
0
 62
7
 10
16.43587109
 20
19.75636865
  0
VERTEX
  8
0
 62
7
 10
15.79200000
 20
19.71275000
  0
VERTEX
  8
0
 62
7
 10
15.15122266
 20
19.66357666
  0
VERTEX
  8
0
 62
7
 10
14.51384375
 20
19.60891016
  0
VERTEX
  8
0
 62
7
 10
13.88016797
 20
19.54881201
  0
VERTEX
  8
0
 62
7
 10
13.25050000
 20
19.48334375
  0
VERTEX
  8
0
 62
7
 10
12.62514453
 20
19.41256689
  0
VERTEX
  8
0
 62
7
 10
12.00440625
 20
19.33654297
  0
VERTEX
  8
0
 62
7
 10
11.38858984
 20
19.25533350
  0
VERTEX
  8
0
 62
7
 10
10.77800000
 20
19.16900000
  0
VERTEX
  8
0
 62
7
 10
10.23503125
 20
19.09156250
  0
VERTEX
  8
0
 62
7
 10
9.68925000
 20
19.01825000
  0
VERTEX
  8
0
 62
7
 10
9.14084375
 20
18.94906250
  0
VERTEX
  8
0
 62
7
 10
8.59000000
 20
18.88400000
  0
VERTEX
  8
0
 62
7
 10
8.58156250
 20
18.92371875
  0
VERTEX
  8
0
 62
7
 10
8.56900000
 20
18.96175000
  0
VERTEX
  8
0
 62
7
 10
8.55343750
 20
18.99790625
  0
VERTEX
  8
0
 62
7
 10
8.53600000
 20
19.03200000
  0
VERTEX
  8
0
 62
7
 10
8.50600000
 20
19.07600000
  0
VERTEX
  8
0
 62
7
 10
9.07118750
 20
19.14256250
  0
VERTEX
  8
0
 62
7
 10
9.63300000
 20
19.21325000
  0
VERTEX
  8
0
 62
7
 10
10.19181250
 20
19.28806250
  0
VERTEX
  8
0
 62
7
 10
10.74800000
 20
19.36700000
  0
VERTEX
  8
0
 62
7
 10
11.36050928
 20
19.45368555
  0
VERTEX
  8
0
 62
7
 10
11.97832422
 20
19.53520313
  0
VERTEX
  8
0
 62
7
 10
12.60112549
 20
19.61149414
  0
VERTEX
  8
0
 62
7
 10
13.22859375
 20
19.68250000
  0
VERTEX
  8
0
 62
7
 10
13.86040967
 20
19.74816211
  0
VERTEX
  8
0
 62
7
 10
14.49625391
 20
19.80842188
  0
VERTEX
  8
0
 62
7
 10
15.13580713
 20
19.86322070
  0
VERTEX
  8
0
 62
7
 10
15.77875000
 20
19.91250000
  0
VERTEX
  8
0
 62
7
 10
16.42476318
 20
19.95620117
  0
VERTEX
  8
0
 62
7
 10
17.07352734
 20
19.99426563
  0
VERTEX
  8
0
 62
7
 10
17.72472314
 20
20.02663477
  0
VERTEX
  8
0
 62
7
 10
18.37803125
 20
20.05325000
  0
VERTEX
  8
0
 62
7
 10
19.03313232
 20
20.07405273
  0
VERTEX
  8
0
 62
7
 10
19.68970703
 20
20.08898438
  0
VERTEX
  8
0
 62
7
 10
20.34743604
 20
20.09798633
  0
VERTEX
  8
0
 62
7
 10
21.00600000
 20
20.10100000
  0
VERTEX
  8
0
 62
7
 10
21.66442920
 20
20.09798633
  0
VERTEX
  8
0
 62
7
 10
22.32177734
 20
20.08898438
  0
VERTEX
  8
0
 62
7
 10
22.97776025
 20
20.07405273
  0
VERTEX
  8
0
 62
7
 10
23.63209375
 20
20.05325000
  0
VERTEX
  8
0
 62
7
 10
24.28449365
 20
20.02663477
  0
VERTEX
  8
0
 62
7
 10
24.93467578
 20
19.99426563
  0
VERTEX
  8
0
 62
7
 10
25.58235596
 20
19.95620117
  0
VERTEX
  8
0
 62
7
 10
26.22725000
 20
19.91250000
  0
VERTEX
  8
0
 62
7
 10
26.86907373
 20
19.86322070
  0
VERTEX
  8
0
 62
7
 10
27.50754297
 20
19.80842188
  0
VERTEX
  8
0
 62
7
 10
28.14237354
 20
19.74816211
  0
VERTEX
  8
0
 62
7
 10
28.77328125
 20
19.68250000
  0
VERTEX
  8
0
 62
7
 10
29.39998193
 20
19.61149414
  0
VERTEX
  8
0
 62
7
 10
30.02219141
 20
19.53520313
  0
VERTEX
  8
0
 62
7
 10
30.63962549
 20
19.45368555
  0
VERTEX
  8
0
 62
7
 10
31.25200000
 20
19.36700000
  0
VERTEX
  8
0
 62
7
 10
31.80818750
 20
19.28806250
  0
VERTEX
  8
0
 62
7
 10
32.36700000
 20
19.21325000
  0
VERTEX
  8
0
 62
7
 10
32.92881250
 20
19.14256250
  0
VERTEX
  8
0
 62
7
 10
33.49400000
 20
19.07600000
  0
VERTEX
  8
0
 62
7
 10
33.46400000
 20
19.03200000
  0
VERTEX
  8
0
 62
7
 10
33.44656250
 20
18.99790625
  0
VERTEX
  8
0
 62
7
 10
33.43100000
 20
18.96175000
  0
VERTEX
  8
0
 62
7
 10
33.41843750
 20
18.92371875
  0
VERTEX
  8
0
 62
7
 10
33.41000000
 20
18.88400000
  0
VERTEX
  8
0
 62
7
 10
32.85915625
 20
18.94906250
  0
VERTEX
  8
0
 62
7
 10
32.31075000
 20
19.01825000
  0
VERTEX
  8
0
 62
7
 10
31.76496875
 20
19.09156250
  0
VERTEX
  8
0
 62
7
 10
31.22200000
 20
19.16900000
  0
VERTEX
  8
0
 62
7
 10
30.61150000
 20
19.25533350
  0
VERTEX
  8
0
 62
7
 10
29.99593750
 20
19.33654297
  0
VERTEX
  8
0
 62
7
 10
29.37559375
 20
19.41256689
  0
VERTEX
  8
0
 62
7
 10
28.75075000
 20
19.48334375
  0
VERTEX
  8
0
 62
7
 10
28.12168750
 20
19.54881201
  0
VERTEX
  8
0
 62
7
 10
27.48868750
 20
19.60891016
  0
VERTEX
  8
0
 62
7
 10
26.85203125
 20
19.66357666
  0
VERTEX
  8
0
 62
7
 10
26.21200000
 20
19.71275000
  0
VERTEX
  8
0
 62
7
 10
25.56887500
 20
19.75636865
  0
VERTEX
  8
0
 62
7
 10
24.92293750
 20
19.79437109
  0
VERTEX
  8
0
 62
7
 10
24.27446875
 20
19.82669580
  0
VERTEX
  8
0
 62
7
 10
23.62375000
 20
19.85328125
  0
VERTEX
  8
0
 62
7
 10
22.97106250
 20
19.87406592
  0
VERTEX
  8
0
 62
7
 10
22.31668750
 20
19.88898828
  0
VERTEX
  8
0
 62
7
 10
21.66090625
 20
19.89798682
  0
VERTEX
  8
0
 62
7
 10
21.00400000
 20
19.90100000
  0
SEQEND
  0
POLYLINE
  8
0
 62
7
 66
1
 70
1
  0
VERTEX
  8
0
 62
7
 10
21.00500000
 20
20.20100000
  0
VERTEX
  8
0
 62
7
 10
20.34568652
 20
20.19797510
  0
VERTEX
  8
0
 62
7
 10
19.68721094
 20
20.18894141
  0
VERTEX
  8
0
 62
7
 10
19.02989551
 20
20.17396045
  0
VERTEX
  8
0
 62
7
 10
18.37406250
 20
20.15309375
  0
VERTEX
  8
0
 62
7
 10
17.72003418
 20
20.12640283
  0
VERTEX
  8
0
 62
7
 10
17.06813281
 20
20.09394922
  0
VERTEX
  8
0
 62
7
 10
16.41868066
 20
20.05579443
  0
VERTEX
  8
0
 62
7
 10
15.77200000
 20
20.01200000
  0
VERTEX
  8
0
 62
7
 10
15.12841309
 20
19.96262744
  0
VERTEX
  8
0
 62
7
 10
14.48824219
 20
19.90773828
  0
VERTEX
  8
0
 62
7
 10
13.85180957
 20
19.84739404
  0
VERTEX
  8
0
 62
7
 10
13.21943750
 20
19.78165625
  0
VERTEX
  8
0
 62
7
 10
12.59144824
 20
19.71058643
  0
VERTEX
  8
0
 62
7
 10
11.96816406
 20
19.63424609
  0
VERTEX
  8
0
 62
7
 10
11.34990723
 20
19.55269678
  0
VERTEX
  8
0
 62
7
 10
10.73700000
 20
19.46600000
  0
VERTEX
  8
0
 62
7
 10
10.16250000
 20
19.38440625
  0
VERTEX
  8
0
 62
7
 10
9.58500000
 20
19.30750000
  0
VERTEX
  8
0
 62
7
 10
9.00450000
 20
19.23509375
  0
VERTEX
  8
0
 62
7
 10
8.42100000
 20
19.16700000
  0
VERTEX
  8
0
 62
7
 10
8.38050000
 20
19.19637500
  0
VERTEX
  8
0
 62
7
 10
8.33700000
 20
19.22200000
  0
VERTEX
  8
0
 62
7
 10
8.28343750
 20
19.24578125
  0
VERTEX
  8
0
 62
7
 10
8.22800000
 20
19.26300000
  0
VERTEX
  8
0
 62
7
 10
8.17106250
 20
19.27346875
  0
VERTEX
  8
0
 62
7
 10
8.11300000
 20
19.27700000
  0
VERTEX
  8
0
 62
7
 10
8.07500000
 20
19.27550000
  0
VERTEX
  8
0
 62
7
 10
8.03700000
 20
19.27100000
  0
VERTEX
  8
0
 62
7
 10
8.01700000
 20
19.32400000
  0
VERTEX
  8
0
 62
7
 10
8.69462500
 20
19.40032813
  0
VERTEX
  8
0
 62
7
 10
9.36850000
 20
19.48237500
  0
VERTEX
  8
0
 62
7
 10
10.03862500
 20
19.57023438
  0
VERTEX
  8
0
 62
7
 10
10.70500000
 20
19.66400000
  0
VERTEX
  8
0
 62
7
 10
11.32008984
 20
19.75104883
  0
VERTEX
  8
0
 62
7
 10
11.94040625
 20
19.83290625
  0
VERTEX
  8
0
 62
7
 10
12.56564453
 20
19.90951367
  0
VERTEX
  8
0
 62
7
 10
13.19550000
 20
19.98081250
  0
VERTEX
  8
0
 62
7
 10
13.82966797
 20
20.04674414
  0
VERTEX
  8
0
 62
7
 10
14.46784375
 20
20.10725000
  0
VERTEX
  8
0
 62
7
 10
15.10972266
 20
20.16227148
  0
VERTEX
  8
0
 62
7
 10
15.75500000
 20
20.21175000
  0
VERTEX
  8
0
 62
7
 10
16.40337109
 20
20.25562695
  0
VERTEX
  8
0
 62
7
 10
17.05453125
 20
20.29384375
  0
VERTEX
  8
0
 62
7
 10
17.70817578
 20
20.32634180
  0
VERTEX
  8
0
 62
7
 10
18.36400000
 20
20.35306250
  0
VERTEX
  8
0
 62
7
 10
19.02169922
 20
20.37394727
  0
VERTEX
  8
0
 62
7
 10
19.68096875
 20
20.38893750
  0
VERTEX
  8
0
 62
7
 10
20.34150391
 20
20.39797461
  0
VERTEX
  8
0
 62
7
 10
21.00300000
 20
20.40100000
  0
VERTEX
  8
0
 62
7
 10
21.66442871
 20
20.39797461
  0
VERTEX
  8
0
 62
7
 10
22.32477344
 20
20.38893750
  0
VERTEX
  8
0
 62
7
 10
22.98374707
 20
20.37394727
  0
VERTEX
  8
0
 62
7
 10
23.64106250
 20
20.35306250
  0
VERTEX
  8
0
 62
7
 10
24.29643262
 20
20.32634180
  0
VERTEX
  8
0
 62
7
 10
24.94957031
 20
20.29384375
  0
VERTEX
  8
0
 62
7
 10
25.60018848
 20
20.25562695
  0
VERTEX
  8
0
 62
7
 10
26.24800000
 20
20.21175000
  0
VERTEX
  8
0
 62
7
 10
26.89271777
 20
20.16227148
  0
VERTEX
  8
0
 62
7
 10
27.53405469
 20
20.10725000
  0
VERTEX
  8
0
 62
7
 10
28.17172363
 20
20.04674414
  0
VERTEX
  8
0
 62
7
 10
28.80543750
 20
19.98081250
  0
VERTEX
  8
0
 62
7
 10
29.43490918
 20
19.90951367
  0
VERTEX
  8
0
 62
7
 10
30.05985156
 20
19.83290625
  0
VERTEX
  8
0
 62
7
 10
30.67997754
 20
19.75104883
  0
VERTEX
  8
0
 62
7
 10
31.29500000
 20
19.66400000
  0
VERTEX
  8
0
 62
7
 10
31.96137500
 20
19.57023438
  0
VERTEX
  8
0
 62
7
 10
32.63150000
 20
19.48237500
  0
VERTEX
  8
0
 62
7
 10
33.30537500
 20
19.40032813
  0
VERTEX
  8
0
 62
7
 10
33.98300000
 20
19.32400000
  0
VERTEX
  8
0
 62
7
 10
33.96300000
 20
19.27100000
  0
VERTEX
  8
0
 62
7
 10
33.92500000
 20
19.27550000
  0
VERTEX
  8
0
 62
7
 10
33.88700000
 20
19.27700000
  0
VERTEX
  8
0
 62
7
 10
33.82893750
 20
19.27346875
  0
VERTEX
  8
0
 62
7
 10
33.77200000
 20
19.26300000
  0
VERTEX
  8
0
 62
7
 10
33.71656250
 20
19.24578125
  0
VERTEX
  8
0
 62
7
 10
33.66300000
 20
19.22200000
  0
VERTEX
  8
0
 62
7
 10
33.61950000
 20
19.19637500
  0
VERTEX
  8
0
 62
7
 10
33.57900000
 20
19.16700000
  0
VERTEX
  8
0
 62
7
 10
32.99550000
 20
19.23509375
  0
VERTEX
  8
0
 62
7
 10
32.41500000
 20
19.30750000
  0
VERTEX
  8
0
 62
7
 10
31.83750000
 20
19.38440625
  0
VERTEX
  8
0
 62
7
 10
31.26300000
 20
19.46600000
  0
VERTEX
  8
0
 62
7
 10
30.65020508
 20
19.55269678
  0
VERTEX
  8
0
 62
7
 10
30.03226563
 20
19.63424609
  0
VERTEX
  8
0
 62
7
 10
29.40947461
 20
19.71058643
  0
VERTEX
  8
0
 62
7
 10
28.78212500
 20
19.78165625
  0
VERTEX
  8
0
 62
7
 10
28.15050977
 20
19.84739404
  0
VERTEX
  8
0
 62
7
 10
27.51492188
 20
19.90773828
  0
VERTEX
  8
0
 62
7
 10
26.87565430
 20
19.96262744
  0
VERTEX
  8
0
 62
7
 10
26.23300000
 20
20.01200000
  0
VERTEX
  8
0
 62
7
 10
25.58725195
 20
20.05579443
  0
VERTEX
  8
0
 62
7
 10
24.93870313
 20
20.09394922
  0
VERTEX
  8
0
 62
7
 10
24.28764648
 20
20.12640283
  0
VERTEX
  8
0
 62
7
 10
23.63437500
 20
20.15309375
  0
VERTEX
  8
0
 62
7
 10
22.97918164
 20
20.17396045
  0
VERTEX
  8
0
 62
7
 10
22.32235938
 20
20.18894141
  0
VERTEX
  8
0
 62
7
 10
21.66420117
 20
20.19797510
  0
VERTEX
  8
0
 62
7
 10
21.00500000
 20
20.20100000
  0
SEQEND
  0
POLYLINE
  8
0
 62
7
 66
1
 70
1
  0
VERTEX
  8
0
 62
7
 10
2.94600000
 20
14.45700000
  0
VERTEX
  8
0
 62
7
 10
3.05000000
 20
16.49800000
  0
VERTEX
  8
0
 62
7
 10
3.36200000
 20
16.49800000
  0
VERTEX
  8
0
 62
7
 10
3.33400000
 20
16.48300000
  0
VERTEX
  8
0
 62
7
 10
3.31173047
 20
16.46528711
  0
VERTEX
  8
0
 62
7
 10
3.29721875
 20
16.44329688
  0
VERTEX
  8
0
 62
7
 10
3.29016016
 20
16.41875195
  0
VERTEX
  8
0
 62
7
 10
3.29025000
 20
16.39337500
  0
VERTEX
  8
0
 62
7
 10
3.29718359
 20
16.36888867
  0
VERTEX
  8
0
 62
7
 10
3.31065625
 20
16.34701563
  0
VERTEX
  8
0
 62
7
 10
3.33036328
 20
16.32947852
  0
VERTEX
  8
0
 62
7
 10
3.35600000
 20
16.31800000
  0
VERTEX
  8
0
 62
7
 10
3.39200000
 20
16.30287500
  0
VERTEX
  8
0
 62
7
 10
3.42200000
 20
16.27800000
  0
VERTEX
  8
0
 62
7
 10
3.43112500
 20
16.26423438
  0
VERTEX
  8
0
 62
7
 10
3.43800000
 20
16.24512500
  0
VERTEX
  8
0
 62
7
 10
3.44337500
 20
16.21795313
  0
VERTEX
  8
0
 62
7
 10
3.44800000
 20
16.18000000
  0
VERTEX
  8
0
 62
7
 10
3.45600000
 20
16.12700000
  0
VERTEX
  8
0
 62
7
 10
3.46725000
 20
16.02825000
  0
VERTEX
  8
0
 62
7
 10
3.47400000
 20
15.92500000
  0
VERTEX
  8
0
 62
7
 10
3.47915625
 20
15.83757813
  0
VERTEX
  8
0
 62
7
 10
3.48825000
 20
15.74612500
  0
VERTEX
  8
0
 62
7
 10
3.50521875
 20
15.65260938
  0
VERTEX
  8
0
 62
7
 10
3.53400000
 20
15.55900000
  0
VERTEX
  8
0
 62
7
 10
3.55901953
 20
15.49903125
  0
VERTEX
  8
0
 62
7
 10
3.58753125
 20
15.44075000
  0
VERTEX
  8
0
 62
7
 10
3.61946484
 20
15.38434375
  0
VERTEX
  8
0
 62
7
 10
3.65475000
 20
15.33000000
  0
VERTEX
  8
0
 62
7
 10
3.69331641
 20
15.27790625
  0
VERTEX
  8
0
 62
7
 10
3.73509375
 20
15.22825000
  0
VERTEX
  8
0
 62
7
 10
3.78001172
 20
15.18121875
  0
VERTEX
  8
0
 62
7
 10
3.82800000
 20
15.13700000
  0
VERTEX
  8
0
 62
7
 10
3.87725000
 20
15.10125000
  0
VERTEX
  8
0
 62
7
 10
3.92200000
 20
15.07600000
  0
VERTEX
  8
0
 62
7
 10
3.96850000
 20
15.04925000
  0
VERTEX
  8
0
 62
7
 10
3.99400000
 20
15.02700000
  0
VERTEX
  8
0
 62
7
 10
4.00400000
 20
15.01500000
  0
VERTEX
  8
0
 62
7
 10
3.93587500
 20
14.91534375
  0
VERTEX
  8
0
 62
7
 10
3.85800000
 20
14.82375000
  0
VERTEX
  8
0
 62
7
 10
3.77112500
 20
14.74078125
  0
VERTEX
  8
0
 62
7
 10
3.67600000
 20
14.66700000
  0
VERTEX
  8
0
 62
7
 10
3.58762500
 20
14.61217188
  0
VERTEX
  8
0
 62
7
 10
3.49400000
 20
14.56587500
  0
VERTEX
  8
0
 62
7
 10
3.39587500
 20
14.52764063
  0
VERTEX
  8
0
 62
7
 10
3.29400000
 20
14.49700000
  0
VERTEX
  8
0
 62
7
 10
3.21531250
 20
14.47935938
  0
VERTEX
  8
0
 62
7
 10
3.13550000
 20
14.46687500
  0
VERTEX
  8
0
 62
7
 10
3.05493750
 20
14.45945313
  0
VERTEX
  8
0
 62
7
 10
2.97400000
 20
14.45700000
  0
VERTEX
  8
0
 62
7
 10
2.94600000
 20
14.45700000
  0
SEQEND
  0
POLYLINE
  8
0
 62
7
 66
1
 70
1
  0
VERTEX
  8
0
 62
7
 10
3.80200000
 20
18.49400000
  0
VERTEX
  8
0
 62
7
 10
3.05000000
 20
18.46100000
  0
VERTEX
  8
0
 62
7
 10
2.96800000
 20
16.90400000
  0
VERTEX
  8
0
 62
7
 10
2.76800000
 20
16.90400000
  0
VERTEX
  8
0
 62
7
 10
2.85600000
 20
18.65400000
  0
VERTEX
  8
0
 62
7
 10
3.52800000
 20
18.68187500
  0
VERTEX
  8
0
 62
7
 10
4.19400000
 20
18.71500000
  0
VERTEX
  8
0
 62
7
 10
4.19200000
 20
18.54300000
  0
VERTEX
  8
0
 62
7
 10
4.14900000
 20
18.54700000
  0
VERTEX
  8
0
 62
7
 10
4.10600000
 20
18.54800000
  0
VERTEX
  8
0
 62
7
 10
4.05684375
 20
18.54648438
  0
VERTEX
  8
0
 62
7
 10
4.00825000
 20
18.54187500
  0
VERTEX
  8
0
 62
7
 10
3.96003125
 20
18.53407813
  0
VERTEX
  8
0
 62
7
 10
3.91200000
 20
18.52300000
  0
VERTEX
  8
0
 62
7
 10
3.80200000
 20
18.49400000
  0
SEQEND
  0
POLYLINE
  8
0
 62
7
 66
1
 70
1
  0
VERTEX
  8
0
 62
7
 10
4.15800000
 20
16.90400000
  0
VERTEX
  8
0
 62
7
 10
3.06800000
 20
16.90400000
  0
VERTEX
  8
0
 62
7
 10
3.14600000
 20
18.36500000
  0
VERTEX
  8
0
 62
7
 10
3.85200000
 20
18.39700000
  0
VERTEX
  8
0
 62
7
 10
3.86600000
 20
18.37900000
  0
VERTEX
  8
0
 62
7
 10
3.89712500
 20
18.33856250
  0
VERTEX
  8
0
 62
7
 10
3.92450000
 20
18.29550000
  0
VERTEX
  8
0
 62
7
 10
3.94812500
 20
18.25018750
  0
VERTEX
  8
0
 62
7
 10
3.96800000
 20
18.20300000
  0
VERTEX
  8
0
 62
7
 10
3.98428125
 20
18.14929688
  0
VERTEX
  8
0
 62
7
 10
3.99475000
 20
18.09212500
  0
VERTEX
  8
0
 62
7
 10
4.00034375
 20
18.03214063
  0
VERTEX
  8
0
 62
7
 10
4.00200000
 20
17.97000000
  0
VERTEX
  8
0
 62
7
 10
3.99800000
 20
17.85800000
  0
VERTEX
  8
0
 62
7
 10
3.99600000
 20
17.74900000
  0
VERTEX
  8
0
 62
7
 10
4.00271875
 20
17.56896875
  0
VERTEX
  8
0
 62
7
 10
4.02275000
 20
17.39700000
  0
VERTEX
  8
0
 62
7
 10
4.05590625
 20
17.22953125
  0
VERTEX
  8
0
 62
7
 10
4.10200000
 20
17.06300000
  0
VERTEX
  8
0
 62
7
 10
4.12700000
 20
16.98462500
  0
VERTEX
  8
0
 62
7
 10
4.15800000
 20
16.90400000
  0
SEQEND
  0
POLYLINE
  8
0
 62
7
 66
1
  0
VERTEX
  8
0
 62
7
 10
4.49300000
 20
18.43500000
  0
VERTEX
  8
0
 62
7
 10
4.49500000
 20
18.53200000
  0
VERTEX
  8
0
 62
7
 10
4.49700000
 20
18.73200000
  0
VERTEX
  8
0
 62
7
 10
4.49900000
 20
18.83200000
  0
VERTEX
  8
0
 62
7
 10
4.99375000
 20
18.86262500
  0
VERTEX
  8
0
 62
7
 10
5.48700000
 20
18.89700000
  0
VERTEX
  8
0
 62
7
 10
5.48900000
 20
18.89700000
  0
VERTEX
  8
0
 62
7
 10
5.62900000
 20
18.90700000
  0
VERTEX
  8
0
 62
7
 10
5.62900000
 20
18.90700000
  0
VERTEX
  8
0
 62
7
 10
6.07475000
 20
18.94137500
  0
VERTEX
  8
0
 62
7
 10
6.51900000
 20
18.97800000
  0
VERTEX
  8
0
 62
7
 10
6.60250000
 20
19.07675000
  0
VERTEX
  8
0
 62
7
 10
6.67100000
 20
19.15000000
  0
VERTEX
  8
0
 62
7
 10
6.72300000
 20
19.19700000
  0
VERTEX
  8
0
 62
7
 10
6.12184375
 20
19.14559375
  0
VERTEX
  8
0
 62
7
 10
5.51825000
 20
19.09925000
  0
VERTEX
  8
0
 62
7
 10
4.91203125
 20
19.05778125
  0
VERTEX
  8
0
 62
7
 10
4.30300000
 20
19.02100000
  0
VERTEX
  8
0
 62
7
 10
4.29700000
 20
18.72100000
  0
VERTEX
  8
0
 62
7
 10
4.29500000
 20
18.52400000
  0
VERTEX
  8
0
 62
7
 10
4.34775000
 20
18.50687500
  0
VERTEX
  8
0
 62
7
 10
4.39900000
 20
18.48600000
  0
VERTEX
  8
0
 62
7
 10
4.49500000
 20
18.43500000
  0
SEQEND
  0
POLYLINE
  8
0
 62
7
 66
1
 70
1
  0
VERTEX
  8
0
 62
7
 10
5.12700000
 20
16.31100000
  0
VERTEX
  8
0
 62
7
 10
5.12200000
 20
16.48400000
  0
VERTEX
  8
0
 62
7
 10
5.12200000
 20
16.51500000
  0
VERTEX
  8
0
 62
7
 10
5.12100000
 20
16.59700000
  0
VERTEX
  8
0
 62
7
 10
5.14162500
 20
16.63725000
  0
VERTEX
  8
0
 62
7
 10
5.16000000
 20
16.67900000
  0
VERTEX
  8
0
 62
7
 10
5.18354688
 20
16.74035938
  0
VERTEX
  8
0
 62
7
 10
5.20812500
 20
16.81137500
  0
VERTEX
  8
0
 62
7
 10
5.22989063
 20
16.88445313
  0
VERTEX
  8
0
 62
7
 10
5.24500000
 20
16.95200000
  0
VERTEX
  8
0
 62
7
 10
5.28546875
 20
16.94954688
  0
VERTEX
  8
0
 62
7
 10
5.32575000
 20
16.94512500
  0
VERTEX
  8
0
 62
7
 10
5.36565625
 20
16.93864063
  0
VERTEX
  8
0
 62
7
 10
5.40500000
 20
16.93000000
  0
VERTEX
  8
0
 62
7
 10
5.37096875
 20
16.83689063
  0
VERTEX
  8
0
 62
7
 10
5.33225000
 20
16.73787500
  0
VERTEX
  8
0
 62
7
 10
5.29165625
 20
16.64017188
  0
VERTEX
  8
0
 62
7
 10
5.25200000
 20
16.55100000
  0
VERTEX
  8
0
 62
7
 10
5.19175000
 20
16.42987500
  0
VERTEX
  8
0
 62
7
 10
5.12700000
 20
16.31100000
  0
SEQEND
  0
POLYLINE
  8
0
 62
7
 66
1
 70
1
  0
VERTEX
  8
0
 62
7
 10
5.55695137
 20
16.90497791
  0
VERTEX
  8
0
 62
7
 10
5.51635547
 20
16.85312324
  0
VERTEX
  8
0
 62
7
 10
5.47246801
 20
16.80291476
  0
VERTEX
  8
0
 62
7
 10
5.39237339
 20
16.72280068
  0
VERTEX
  8
0
 62
7
 10
5.34848593
 20
16.60647064
  0
VERTEX
  8
0
 62
7
 10
5.40547106
 20
16.66062309
  0
VERTEX
  8
0
 62
7
 10
5.46122185
 20
16.70386961
  0
VERTEX
  8
0
 62
7
 10
5.50833229
 20
16.73518132
  0
VERTEX
  8
0
 62
7
 10
5.53939639
 20
16.75352936
  0
VERTEX
  8
0
 62
7
 10
5.61839382
 20
16.79715313
  0
VERTEX
  8
0
 62
7
 10
5.70068281
 20
16.83254600
  0
VERTEX
  8
0
 62
7
 10
5.74484456
 20
16.89180847
  0
VERTEX
  8
0
 62
7
 10
5.78406898
 20
16.95436330
  0
VERTEX
  8
0
 62
7
 10
5.82247051
 20
17.02899012
  0
VERTEX
  8
0
 62
7
 10
5.80381834
 20
17.05971881
  0
VERTEX
  8
0
 62
7
 10
5.78077742
 20
17.02569776
  0
VERTEX
  8
0
 62
7
 10
5.76500537
 20
17.00506907
  0
VERTEX
  8
0
 62
7
 10
5.74841042
 20
16.98495481
  0
VERTEX
  8
0
 62
7
 10
5.73016969
 20
16.96628096
  0
VERTEX
  8
0
 62
7
 10
5.70946030
 20
16.94997349
  0
VERTEX
  8
0
 62
7
 10
5.68909377
 20
16.93668402
  0
VERTEX
  8
0
 62
7
 10
5.66749291
 20
16.92514361
  0
VERTEX
  8
0
 62
7
 10
5.64465772
 20
16.91586670
  0
VERTEX
  8
0
 62
7
 10
5.62058819
 20
16.90936772
  0
VERTEX
  8
0
 62
7
 10
5.58918123
 20
16.90429200
  0
VERTEX
  8
0
 62
7
 10
5.55695137
 20
16.90497791
  0
SEQEND
  0
POLYLINE
  8
0
 62
7
 66
1
  0
VERTEX
  8
0
 62
7
 10
4.96200000
 20
15.81200000
  0
VERTEX
  8
0
 62
7
 10
4.98543750
 20
15.85937500
  0
VERTEX
  8
0
 62
7
 10
5.00925000
 20
15.90975000
  0
VERTEX
  8
0
 62
7
 10
5.03118750
 20
15.96050000
  0
VERTEX
  8
0
 62
7
 10
5.04900000
 20
16.00900000
  0
VERTEX
  8
0
 62
7
 10
5.06000000
 20
16.04300000
  0
VERTEX
  8
0
 62
7
 10
5.08100000
 20
16.06900000
  0
VERTEX
  8
0
 62
7
 10
5.12733203
 20
16.13277148
  0
VERTEX
  8
0
 62
7
 10
5.16928125
 20
16.19948438
  0
VERTEX
  8
0
 62
7
 10
5.20865234
 20
16.26786133
  0
VERTEX
  8
0
 62
7
 10
5.24725000
 20
16.33662500
  0
VERTEX
  8
0
 62
7
 10
5.28687891
 20
16.40449805
  0
VERTEX
  8
0
 62
7
 10
5.32934375
 20
16.47020313
  0
VERTEX
  8
0
 62
7
 10
5.37644922
 20
16.53246289
  0
VERTEX
  8
0
 62
7
 10
5.43000000
 20
16.59000000
  0
VERTEX
  8
0
 62
7
 10
5.46976172
 20
16.62555664
  0
VERTEX
  8
0
 62
7
 10
5.51165625
 20
16.65807813
  0
VERTEX
  8
0
 62
7
 10
5.55547266
 20
16.68771680
  0
VERTEX
  8
0
 62
7
 10
5.60100000
 20
16.71462500
  0
VERTEX
  8
0
 62
7
 10
5.64802734
 20
16.73895508
  0
VERTEX
  8
0
 62
7
 10
5.69634375
 20
16.76085938
  0
VERTEX
  8
0
 62
7
 10
5.74573828
 20
16.78049023
  0
VERTEX
  8
0
 62
7
 10
5.79600000
 20
16.79800000
  0
VERTEX
  8
0
 62
7
 10
5.85573438
 20
16.81604883
  0
VERTEX
  8
0
 62
7
 10
5.91631250
 20
16.83157813
  0
VERTEX
  8
0
 62
7
 10
5.97754688
 20
16.84403711
  0
VERTEX
  8
0
 62
7
 10
6.03925000
 20
16.85287500
  0
VERTEX
  8
0
 62
7
 10
6.10123438
 20
16.85754102
  0
VERTEX
  8
0
 62
7
 10
6.16331250
 20
16.85748438
  0
VERTEX
  8
0
 62
7
 10
6.22529688
 20
16.85215430
  0
VERTEX
  8
0
 62
7
 10
6.28700000
 20
16.84100000
  0
VERTEX
  8
0
 62
7
 10
6.33263867
 20
16.82935742
  0
VERTEX
  8
0
 62
7
 10
6.37779688
 20
16.81592188
  0
VERTEX
  8
0
 62
7
 10
6.42208789
 20
16.80030664
  0
VERTEX
  8
0
 62
7
 10
6.46512500
 20
16.78212500
  0
VERTEX
  8
0
 62
7
 10
6.50652148
 20
16.76099023
  0
VERTEX
  8
0
 62
7
 10
6.54589063
 20
16.73651563
  0
VERTEX
  8
0
 62
7
 10
6.58284570
 20
16.70831445
  0
VERTEX
  8
0
 62
7
 10
6.61700000
 20
16.67600000
  0
VERTEX
  8
0
 62
7
 10
6.65447852
 20
16.63174023
  0
VERTEX
  8
0
 62
7
 10
6.68657813
 20
16.58404688
  0
VERTEX
  8
0
 62
7
 10
6.71316992
 20
16.53342383
  0
VERTEX
  8
0
 62
7
 10
6.73412500
 20
16.48037500
  0
VERTEX
  8
0
 62
7
 10
6.74931445
 20
16.42540430
  0
VERTEX
  8
0
 62
7
 10
6.75860938
 20
16.36901563
  0
VERTEX
  8
0
 62
7
 10
6.76188086
 20
16.31171289
  0
VERTEX
  8
0
 62
7
 10
6.75900000
 20
16.25400000
  0
VERTEX
  8
0
 62
7
 10
6.71218750
 20
16.27664063
  0
VERTEX
  8
0
 62
7
 10
6.66350000
 20
16.29337500
  0
VERTEX
  8
0
 62
7
 10
6.61331250
 20
16.30392188
  0
VERTEX
  8
0
 62
7
 10
6.56200000
 20
16.30800000
  0
VERTEX
  8
0
 62
7
 10
6.51918433
 20
16.30638599
  0
VERTEX
  8
0
 62
7
 10
6.47799023
 20
16.30000977
  0
VERTEX
  8
0
 62
7
 10
6.43823462
 20
16.28938257
  0
VERTEX
  8
0
 62
7
 10
6.39973438
 20
16.27501563
  0
VERTEX
  8
0
 62
7
 10
6.36230640
 20
16.25742017
  0
VERTEX
  8
0
 62
7
 10
6.32576758
 20
16.23710742
  0
VERTEX
  8
0
 62
7
 10
6.28993481
 20
16.21458862
  0
VERTEX
  8
0
 62
7
 10
6.25462500
 20
16.19037500
  0
VERTEX
  8
0
 62
7
 10
6.21965503
 20
16.16497778
  0
VERTEX
  8
0
 62
7
 10
6.18484180
 20
16.13890820
  0
VERTEX
  8
0
 62
7
 10
6.15000220
 20
16.11267749
  0
VERTEX
  8
0
 62
7
 10
6.11495313
 20
16.08679688
  0
VERTEX
  8
0
 62
7
 10
6.07951147
 20
16.06177759
  0
VERTEX
  8
0
 62
7
 10
6.04349414
 20
16.03813086
  0
VERTEX
  8
0
 62
7
 10
6.00671802
 20
16.01636792
  0
VERTEX
  8
0
 62
7
 10
5.96900000
 20
15.99700000
  0
VERTEX
  8
0
 62
7
 10
5.91487695
 20
15.97280664
  0
VERTEX
  8
0
 62
7
 10
5.85982813
 20
15.95120313
  0
VERTEX
  8
0
 62
7
 10
5.80395898
 20
15.93215430
  0
VERTEX
  8
0
 62
7
 10
5.74737500
 20
15.91562500
  0
VERTEX
  8
0
 62
7
 10
5.69018164
 20
15.90158008
  0
VERTEX
  8
0
 62
7
 10
5.63248438
 20
15.88998438
  0
VERTEX
  8
0
 62
7
 10
5.57438867
 20
15.88080273
  0
VERTEX
  8
0
 62
7
 10
5.51600000
 20
15.87400000
  0
VERTEX
  8
0
 62
7
 10
5.45000000
 20
15.87118750
  0
VERTEX
  8
0
 62
7
 10
5.38400000
 20
15.87325000
  0
VERTEX
  8
0
 62
7
 10
5.31800000
 20
15.87568750
  0
VERTEX
  8
0
 62
7
 10
5.25200000
 20
15.87400000
  0
VERTEX
  8
0
 62
7
 10
5.20239063
 20
15.86915625
  0
VERTEX
  8
0
 62
7
 10
5.15287500
 20
15.86300000
  0
VERTEX
  8
0
 62
7
 10
5.10392188
 20
15.85459375
  0
VERTEX
  8
0
 62
7
 10
5.05600000
 20
15.84300000
  0
VERTEX
  8
0
 62
7
 10
5.00875000
 20
15.82862500
  0
VERTEX
  8
0
 62
7
 10
4.96300000
 20
15.81200000
  0
SEQEND
  0
POLYLINE
  8
0
 62
7
 66
1
 70
1
  0
VERTEX
  8
0
 62
7
 10
2.92800000
 20
14.09900000
  0
VERTEX
  8
0
 62
7
 10
3.02187500
 20
14.10575000
  0
VERTEX
  8
0
 62
7
 10
3.11500000
 20
14.11700000
  0
VERTEX
  8
0
 62
7
 10
3.17588672
 20
14.12715820
  0
VERTEX
  8
0
 62
7
 10
3.23628125
 20
14.13957813
  0
VERTEX
  8
0
 62
7
 10
3.29616016
 20
14.15417773
  0
VERTEX
  8
0
 62
7
 10
3.35550000
 20
14.17087500
  0
VERTEX
  8
0
 62
7
 10
3.41427734
 20
14.18958789
  0
VERTEX
  8
0
 62
7
 10
3.47246875
 20
14.21023438
  0
VERTEX
  8
0
 62
7
 10
3.53005078
 20
14.23273242
  0
VERTEX
  8
0
 62
7
 10
3.58700000
 20
14.25700000
  0
VERTEX
  8
0
 62
7
 10
3.64585742
 20
14.28410547
  0
VERTEX
  8
0
 62
7
 10
3.70385938
 20
14.31296875
  0
VERTEX
  8
0
 62
7
 10
3.76090039
 20
14.34366016
  0
VERTEX
  8
0
 62
7
 10
3.81687500
 20
14.37625000
  0
VERTEX
  8
0
 62
7
 10
3.87167773
 20
14.41080859
  0
VERTEX
  8
0
 62
7
 10
3.92520313
 20
14.44740625
  0
VERTEX
  8
0
 62
7
 10
3.97734570
 20
14.48611328
  0
VERTEX
  8
0
 62
7
 10
4.02800000
 20
14.52700000
  0
VERTEX
  8
0
 62
7
 10
4.10937500
 20
14.60068750
  0
VERTEX
  8
0
 62
7
 10
4.18550000
 20
14.67925000
  0
VERTEX
  8
0
 62
7
 10
4.25637500
 20
14.76268750
  0
VERTEX
  8
0
 62
7
 10
4.32200000
 20
14.85100000
  0
VERTEX
  8
0
 62
7
 10
4.20500000
 20
14.86300000
  0
VERTEX
  8
0
 62
7
 10
4.08800000
 20
14.72300000
  0
VERTEX
  8
0
 62
7
 10
4.00200000
 20
14.62500000
  0
VERTEX
  8
0
 62
7
 10
3.97800000
 20
14.65600000
  0
VERTEX
  8
0
 62
7
 10
4.13200000
 20
14.83900000
  0
VERTEX
  8
0
 62
7
 10
4.22300000
 20
14.94200000
  0
VERTEX
  8
0
 62
7
 10
4.26000000
 20
14.95400000
  0
VERTEX
  8
0
 62
7
 10
4.31750000
 20
14.96632813
  0
VERTEX
  8
0
 62
7
 10
4.37575000
 20
14.97237500
  0
VERTEX
  8
0
 62
7
 10
4.43437500
 20
14.97523438
  0
VERTEX
  8
0
 62
7
 10
4.49300000
 20
14.97800000
  0
VERTEX
  8
0
 62
7
 10
4.54487695
 20
14.98026953
  0
VERTEX
  8
0
 62
7
 10
4.59695313
 20
14.98021875
  0
VERTEX
  8
0
 62
7
 10
4.64914648
 20
14.97880859
  0
VERTEX
  8
0
 62
7
 10
4.70137500
 20
14.97700000
  0
VERTEX
  8
0
 62
7
 10
4.75355664
 20
14.97575391
  0
VERTEX
  8
0
 62
7
 10
4.80560938
 20
14.97603125
  0
VERTEX
  8
0
 62
7
 10
4.85745117
 20
14.97879297
  0
VERTEX
  8
0
 62
7
 10
4.90900000
 20
14.98500000
  0
VERTEX
  8
0
 62
7
 10
4.96067773
 20
14.99377148
  0
VERTEX
  8
0
 62
7
 10
5.01210938
 20
15.00379688
  0
VERTEX
  8
0
 62
7
 10
5.06314258
 20
15.01539258
  0
VERTEX
  8
0
 62
7
 10
5.11362500
 20
15.02887500
  0
VERTEX
  8
0
 62
7
 10
5.16340430
 20
15.04456055
  0
VERTEX
  8
0
 62
7
 10
5.21232813
 20
15.06276563
  0
VERTEX
  8
0
 62
7
 10
5.26024414
 20
15.08380664
  0
VERTEX
  8
0
 62
7
 10
5.30700000
 20
15.10800000
  0
VERTEX
  8
0
 62
7
 10
5.34925000
 20
15.13554688
  0
VERTEX
  8
0
 62
7
 10
5.38925000
 20
15.16637500
  0
VERTEX
  8
0
 62
7
 10
5.42962500
 20
15.19701563
  0
VERTEX
  8
0
 62
7
 10
5.47300000
 20
15.22400000
  0
VERTEX
  8
0
 62
7
 10
5.50015430
 20
15.23916602
  0
VERTEX
  8
0
 62
7
 10
5.52767188
 20
15.25476563
  0
VERTEX
  8
0
 62
7
 10
5.55563477
 20
15.26982617
  0
VERTEX
  8
0
 62
7
 10
5.58412500
 20
15.28337500
  0
VERTEX
  8
0
 62
7
 10
5.61322461
 20
15.29443945
  0
VERTEX
  8
0
 62
7
 10
5.64301563
 20
15.30204688
  0
VERTEX
  8
0
 62
7
 10
5.67358008
 20
15.30522461
  0
VERTEX
  8
0
 62
7
 10
5.70500000
 20
15.30300000
  0
VERTEX
  8
0
 62
7
 10
5.73978125
 20
15.29445313
  0
VERTEX
  8
0
 62
7
 10
5.77325000
 20
15.28112500
  0
VERTEX
  8
0
 62
7
 10
5.80484375
 20
15.26348438
  0
VERTEX
  8
0
 62
7
 10
5.83400000
 20
15.24200000
  0
VERTEX
  8
0
 62
7
 10
5.83588281
 20
15.28550586
  0
VERTEX
  8
0
 62
7
 10
5.83406250
 20
15.32885938
  0
VERTEX
  8
0
 62
7
 10
5.82858594
 20
15.37181445
  0
VERTEX
  8
0
 62
7
 10
5.81950000
 20
15.41412500
  0
VERTEX
  8
0
 62
7
 10
5.80685156
 20
15.45554492
  0
VERTEX
  8
0
 62
7
 10
5.79068750
 20
15.49582813
  0
VERTEX
  8
0
 62
7
 10
5.77105469
 20
15.53472852
  0
VERTEX
  8
0
 62
7
 10
5.74800000
 20
15.57200000
  0
VERTEX
  8
0
 62
7
 10
5.71330859
 20
15.61660547
  0
VERTEX
  8
0
 62
7
 10
5.67409375
 20
15.65603125
  0
VERTEX
  8
0
 62
7
 10
5.63089453
 20
15.69044141
  0
VERTEX
  8
0
 62
7
 10
5.58425000
 20
15.72000000
  0
VERTEX
  8
0
 62
7
 10
5.53469922
 20
15.74487109
  0
VERTEX
  8
0
 62
7
 10
5.48278125
 20
15.76521875
  0
VERTEX
  8
0
 62
7
 10
5.42903516
 20
15.78120703
  0
VERTEX
  8
0
 62
7
 10
5.37400000
 20
15.79300000
  0
VERTEX
  8
0
 62
7
 10
5.32003125
 20
15.79924414
  0
VERTEX
  8
0
 62
7
 10
5.26625000
 20
15.80020313
  0
VERTEX
  8
0
 62
7
 10
5.21284375
 20
15.79621680
  0
VERTEX
  8
0
 62
7
 10
5.16000000
 20
15.78762500
  0
VERTEX
  8
0
 62
7
 10
5.10790625
 20
15.77476758
  0
VERTEX
  8
0
 62
7
 10
5.05675000
 20
15.75798438
  0
VERTEX
  8
0
 62
7
 10
5.00671875
 20
15.73761523
  0
VERTEX
  8
0
 62
7
 10
4.95800000
 20
15.71400000
  0
VERTEX
  8
0
 62
7
 10
4.91113672
 20
15.68642383
  0
VERTEX
  8
0
 62
7
 10
4.86715625
 20
15.65501563
  0
VERTEX
  8
0
 62
7
 10
4.82584766
 20
15.62025586
  0
VERTEX
  8
0
 62
7
 10
4.78700000
 20
15.58262500
  0
VERTEX
  8
0
 62
7
 10
4.75040234
 20
15.54260352
  0
VERTEX
  8
0
 62
7
 10
4.71584375
 20
15.50067188
  0
VERTEX
  8
0
 62
7
 10
4.68311328
 20
15.45731055
  0
VERTEX
  8
0
 62
7
 10
4.65200000
 20
15.41300000
  0
VERTEX
  8
0
 62
7
 10
4.62942188
 20
15.37573438
  0
VERTEX
  8
0
 62
7
 10
4.60937500
 20
15.33687500
  0
VERTEX
  8
0
 62
7
 10
4.58914063
 20
15.29782813
  0
VERTEX
  8
0
 62
7
 10
4.56600000
 20
15.26000000
  0
VERTEX
  8
0
 62
7
 10
4.52521875
 20
15.20534375
  0
VERTEX
  8
0
 62
7
 10
4.48050000
 20
15.15350000
  0
VERTEX
  8
0
 62
7
 10
4.43128125
 20
15.10615625
  0
VERTEX
  8
0
 62
7
 10
4.37700000
 20
15.06500000
  0
VERTEX
  8
0
 62
7
 10
4.33725000
 20
15.04187500
  0
VERTEX
  8
0
 62
7
 10
4.29600000
 20
15.02100000
  0
VERTEX
  8
0
 62
7
 10
4.35100000
 20
15.12500000
  0
VERTEX
  8
0
 62
7
 10
4.38950000
 20
15.19400000
  0
VERTEX
  8
0
 62
7
 10
4.43100000
 20
15.26000000
  0
VERTEX
  8
0
 62
7
 10
4.47298438
 20
15.31355859
  0
VERTEX
  8
0
 62
7
 10
4.51731250
 20
15.36521875
  0
VERTEX
  8
0
 62
7
 10
4.56304688
 20
15.41570703
  0
VERTEX
  8
0
 62
7
 10
4.60925000
 20
15.46575000
  0
VERTEX
  8
0
 62
7
 10
4.65498438
 20
15.51607422
  0
VERTEX
  8
0
 62
7
 10
4.69931250
 20
15.56740625
  0
VERTEX
  8
0
 62
7
 10
4.74129688
 20
15.62047266
  0
VERTEX
  8
0
 62
7
 10
4.78000000
 20
15.67600000
  0
VERTEX
  8
0
 62
7
 10
4.83434375
 20
15.76207813
  0
VERTEX
  8
0
 62
7
 10
4.88400000
 20
15.85087500
  0
VERTEX
  8
0
 62
7
 10
4.92765625
 20
15.94248438
  0
VERTEX
  8
0
 62
7
 10
4.96400000
 20
16.03700000
  0
VERTEX
  8
0
 62
7
 10
4.98037500
 20
16.09168750
  0
VERTEX
  8
0
 62
7
 10
4.99431250
 20
16.14693750
  0
VERTEX
  8
0
 62
7
 10
5.00590625
 20
16.20265625
  0
VERTEX
  8
0
 62
7
 10
5.01525000
 20
16.25875000
  0
VERTEX
  8
0
 62
7
 10
5.02243750
 20
16.31512500
  0
VERTEX
  8
0
 62
7
 10
5.02756250
 20
16.37168750
  0
VERTEX
  8
0
 62
7
 10
5.03071875
 20
16.42834375
  0
VERTEX
  8
0
 62
7
 10
5.03200000
 20
16.48500000
  0
VERTEX
  8
0
 62
7
 10
5.03201563
 20
16.53869336
  0
VERTEX
  8
0
 62
7
 10
5.03100000
 20
16.59242188
  0
VERTEX
  8
0
 62
7
 10
5.02848438
 20
16.64603320
  0
VERTEX
  8
0
 62
7
 10
5.02400000
 20
16.69937500
  0
VERTEX
  8
0
 62
7
 10
5.01707813
 20
16.75229492
  0
VERTEX
  8
0
 62
7
 10
5.00725000
 20
16.80464063
  0
VERTEX
  8
0
 62
7
 10
4.99404688
 20
16.85625977
  0
VERTEX
  8
0
 62
7
 10
4.97700000
 20
16.90700000
  0
VERTEX
  8
0
 62
7
 10
4.95584766
 20
16.95748633
  0
VERTEX
  8
0
 62
7
 10
4.93209375
 20
17.00676563
  0
VERTEX
  8
0
 62
7
 10
4.90566797
 20
17.05456836
  0
VERTEX
  8
0
 62
7
 10
4.87650000
 20
17.10062500
  0
VERTEX
  8
0
 62
7
 10
4.84451953
 20
17.14466602
  0
VERTEX
  8
0
 62
7
 10
4.80965625
 20
17.18642188
  0
VERTEX
  8
0
 62
7
 10
4.77183984
 20
17.22562305
  0
VERTEX
  8
0
 62
7
 10
4.73100000
 20
17.26200000
  0
VERTEX
  8
0
 62
7
 10
4.68682813
 20
17.29587500
  0
VERTEX
  8
0
 62
7
 10
4.64012500
 20
17.32675000
  0
VERTEX
  8
0
 62
7
 10
4.59135938
 20
17.35425000
  0
VERTEX
  8
0
 62
7
 10
4.54100000
 20
17.37800000
  0
VERTEX
  8
0
 62
7
 10
4.54700000
 20
17.31939063
  0
VERTEX
  8
0
 62
7
 10
4.54700000
 20
17.26087500
  0
VERTEX
  8
0
 62
7
 10
4.54100000
 20
17.20292188
  0
VERTEX
  8
0
 62
7
 10
4.52900000
 20
17.14600000
  0
VERTEX
  8
0
 62
7
 10
4.50686133
 20
17.07292773
  0
VERTEX
  8
0
 62
7
 10
4.47920313
 20
17.00242188
  0
VERTEX
  8
0
 62
7
 10
4.44791211
 20
16.93367383
  0
VERTEX
  8
0
 62
7
 10
4.41487500
 20
16.86587500
  0
VERTEX
  8
0
 62
7
 10
4.38197852
 20
16.79821680
  0
VERTEX
  8
0
 62
7
 10
4.35110938
 20
16.72989063
  0
VERTEX
  8
0
 62
7
 10
4.32415430
 20
16.66008789
  0
VERTEX
  8
0
 62
7
 10
4.30300000
 20
16.58800000
  0
VERTEX
  8
0
 62
7
 10
4.28226563
 20
16.49131250
  0
VERTEX
  8
0
 62
7
 10
4.26687500
 20
16.39350000
  0
VERTEX
  8
0
 62
7
 10
4.25729688
 20
16.29493750
  0
VERTEX
  8
0
 62
7
 10
4.25400000
 20
16.19600000
  0
VERTEX
  8
0
 62
7
 10
4.25582813
 20
16.13467188
  0
VERTEX
  8
0
 62
7
 10
4.26037500
 20
16.07362500
  0
VERTEX
  8
0
 62
7
 10
4.26623438
 20
16.01276563
  0
VERTEX
  8
0
 62
7
 10
4.27200000
 20
15.95200000
  0
VERTEX
  8
0
 62
7
 10
4.28143750
 20
15.86814063
  0
VERTEX
  8
0
 62
7
 10
4.29275000
 20
15.78437500
  0
VERTEX
  8
0
 62
7
 10
4.30293750
 20
15.70042188
  0
VERTEX
  8
0
 62
7
 10
4.30900000
 20
15.61600000
  0
VERTEX
  8
0
 62
7
 10
4.31046875
 20
15.56975391
  0
VERTEX
  8
0
 62
7
 10
4.31212500
 20
15.52334375
  0
VERTEX
  8
0
 62
7
 10
4.31321875
 20
15.47688672
  0
VERTEX
  8
0
 62
7
 10
4.31300000
 20
15.43050000
  0
VERTEX
  8
0
 62
7
 10
4.31071875
 20
15.38430078
  0
VERTEX
  8
0
 62
7
 10
4.30562500
 20
15.33840625
  0
VERTEX
  8
0
 62
7
 10
4.29696875
 20
15.29293359
  0
VERTEX
  8
0
 62
7
 10
4.28400000
 20
15.24800000
  0
VERTEX
  8
0
 62
7
 10
4.26828125
 20
15.20656250
  0
VERTEX
  8
0
 62
7
 10
4.24975000
 20
15.16625000
  0
VERTEX
  8
0
 62
7
 10
4.22859375
 20
15.12706250
  0
VERTEX
  8
0
 62
7
 10
4.20500000
 20
15.08900000
  0
VERTEX
  8
0
 62
7
 10
4.19546875
 20
15.10453125
  0
VERTEX
  8
0
 62
7
 10
4.18800000
 20
15.12100000
  0
VERTEX
  8
0
 62
7
 10
4.18278125
 20
15.13821875
  0
VERTEX
  8
0
 62
7
 10
4.18000000
 20
15.15600000
  0
VERTEX
  8
0
 62
7
 10
4.18114063
 20
15.17707813
  0
VERTEX
  8
0
 62
7
 10
4.18612500
 20
15.19712500
  0
VERTEX
  8
0
 62
7
 10
4.19279688
 20
15.21660938
  0
VERTEX
  8
0
 62
7
 10
4.19900000
 20
15.23600000
  0
VERTEX
  8
0
 62
7
 10
4.21021875
 20
15.28476563
  0
VERTEX
  8
0
 62
7
 10
4.22200000
 20
15.33362500
  0
VERTEX
  8
0
 62
7
 10
4.23303125
 20
15.38267188
  0
VERTEX
  8
0
 62
7
 10
4.24200000
 20
15.43200000
  0
VERTEX
  8
0
 62
7
 10
4.25142188
 20
15.52515625
  0
VERTEX
  8
0
 62
7
 10
4.25437500
 20
15.61850000
  0
VERTEX
  8
0
 62
7
 10
4.25114063
 20
15.71184375
  0
VERTEX
  8
0
 62
7
 10
4.24200000
 20
15.80500000
  0
VERTEX
  8
0
 62
7
 10
4.23506836
 20
15.85347266
  0
VERTEX
  8
0
 62
7
 10
4.22742188
 20
15.90196875
  0
VERTEX
  8
0
 62
7
 10
4.21853320
 20
15.95023047
  0
VERTEX
  8
0
 62
7
 10
4.20787500
 20
15.99800000
  0
VERTEX
  8
0
 62
7
 10
4.19491992
 20
16.04501953
  0
VERTEX
  8
0
 62
7
 10
4.17914063
 20
16.09103125
  0
VERTEX
  8
0
 62
7
 10
4.16000977
 20
16.13577734
  0
VERTEX
  8
0
 62
7
 10
4.13700000
 20
16.17900000
  0
VERTEX
  8
0
 62
7
 10
4.11417969
 20
16.21656641
  0
VERTEX
  8
0
 62
7
 10
4.08981250
 20
16.25321875
  0
VERTEX
  8
0
 62
7
 10
4.06366406
 20
16.28851172
  0
VERTEX
  8
0
 62
7
 10
4.03550000
 20
16.32200000
  0
VERTEX
  8
0
 62
7
 10
4.00508594
 20
16.35323828
  0
VERTEX
  8
0
 62
7
 10
3.97218750
 20
16.38178125
  0
VERTEX
  8
0
 62
7
 10
3.93657031
 20
16.40718359
  0
VERTEX
  8
0
 62
7
 10
3.89800000
 20
16.42900000
  0
VERTEX
  8
0
 62
7
 10
3.86413477
 20
16.44410742
  0
VERTEX
  8
0
 62
7
 10
3.82939063
 20
16.45648438
  0
VERTEX
  8
0
 62
7
 10
3.79391992
 20
16.46621289
  0
VERTEX
  8
0
 62
7
 10
3.75787500
 20
16.47337500
  0
VERTEX
  8
0
 62
7
 10
3.72140820
 20
16.47805273
  0
VERTEX
  8
0
 62
7
 10
3.68467188
 20
16.48032813
  0
VERTEX
  8
0
 62
7
 10
3.64781836
 20
16.48028320
  0
VERTEX
  8
0
 62
7
 10
3.61100000
 20
16.47800000
  0
VERTEX
  8
0
 62
7
 10
3.54956250
 20
16.46940625
  0
VERTEX
  8
0
 62
7
 10
3.49000000
 20
16.45425000
  0
VERTEX
  8
0
 62
7
 10
3.43268750
 20
16.43271875
  0
VERTEX
  8
0
 62
7
 10
3.37800000
 20
16.40500000
  0
VERTEX
  8
0
 62
7
 10
3.40926563
 20
16.39453125
  0
VERTEX
  8
0
 62
7
 10
3.43837500
 20
16.37975000
  0
VERTEX
  8
0
 62
7
 10
3.46504688
 20
16.36084375
  0
VERTEX
  8
0
 62
7
 10
3.48900000
 20
16.33800000
  0
VERTEX
  8
0
 62
7
 10
3.50469336
 20
16.31710938
  0
VERTEX
  8
0
 62
7
 10
3.51629688
 20
16.29443750
  0
VERTEX
  8
0
 62
7
 10
3.52459570
 20
16.27035938
  0
VERTEX
  8
0
 62
7
 10
3.53037500
 20
16.24525000
  0
VERTEX
  8
0
 62
7
 10
3.53441992
 20
16.21948438
  0
VERTEX
  8
0
 62
7
 10
3.53751563
 20
16.19343750
  0
VERTEX
  8
0
 62
7
 10
3.54044727
 20
16.16748438
  0
VERTEX
  8
0
 62
7
 10
3.54400000
 20
16.14200000
  0
VERTEX
  8
0
 62
7
 10
3.55357617
 20
16.07238672
  0
VERTEX
  8
0
 62
7
 10
3.55948438
 20
16.00246875
  0
VERTEX
  8
0
 62
7
 10
3.56349414
 20
15.93250391
  0
VERTEX
  8
0
 62
7
 10
3.56737500
 20
15.86275000
  0
VERTEX
  8
0
 62
7
 10
3.57289648
 20
15.79346484
  0
VERTEX
  8
0
 62
7
 10
3.58182813
 20
15.72490625
  0
VERTEX
  8
0
 62
7
 10
3.59593945
 20
15.65733203
  0
VERTEX
  8
0
 62
7
 10
3.61700000
 20
15.59100000
  0
VERTEX
  8
0
 62
7
 10
3.64004297
 20
15.53622852
  0
VERTEX
  8
0
 62
7
 10
3.66634375
 20
15.48301563
  0
VERTEX
  8
0
 62
7
 10
3.69578516
 20
15.43151367
  0
VERTEX
  8
0
 62
7
 10
3.72825000
 20
15.38187500
  0
VERTEX
  8
0
 62
7
 10
3.76362109
 20
15.33425195
  0
VERTEX
  8
0
 62
7
 10
3.80178125
 20
15.28879688
  0
VERTEX
  8
0
 62
7
 10
3.84261328
 20
15.24566211
  0
VERTEX
  8
0
 62
7
 10
3.88600000
 20
15.20500000
  0
VERTEX
  8
0
 62
7
 10
3.90755273
 20
15.18860156
  0
VERTEX
  8
0
 62
7
 10
3.93054688
 20
15.17412500
  0
VERTEX
  8
0
 62
7
 10
3.95436133
 20
15.16077344
  0
VERTEX
  8
0
 62
7
 10
3.97837500
 20
15.14775000
  0
VERTEX
  8
0
 62
7
 10
4.00196680
 20
15.13425781
  0
VERTEX
  8
0
 62
7
 10
4.02451563
 20
15.11950000
  0
VERTEX
  8
0
 62
7
 10
4.04540039
 20
15.10267969
  0
VERTEX
  8
0
 62
7
 10
4.06400000
 20
15.08300000
  0
VERTEX
  8
0
 62
7
 10
4.08700000
 20
15.05062500
  0
VERTEX
  8
0
 62
7
 10
4.10700000
 20
15.01600000
  0
VERTEX
  8
0
 62
7
 10
4.07073828
 20
14.95377344
  0
VERTEX
  8
0
 62
7
 10
4.03103125
 20
14.89393750
  0
VERTEX
  8
0
 62
7
 10
3.98799609
 20
14.83663281
  0
VERTEX
  8
0
 62
7
 10
3.94175000
 20
14.78200000
  0
VERTEX
  8
0
 62
7
 10
3.89241016
 20
14.73017969
  0
VERTEX
  8
0
 62
7
 10
3.84009375
 20
14.68131250
  0
VERTEX
  8
0
 62
7
 10
3.78491797
 20
14.63553906
  0
VERTEX
  8
0
 62
7
 10
3.72700000
 20
14.59300000
  0
VERTEX
  8
0
 62
7
 10
3.67976953
 20
14.56200391
  0
VERTEX
  8
0
 62
7
 10
3.63115625
 20
14.53346875
  0
VERTEX
  8
0
 62
7
 10
3.58127734
 20
14.50732422
  0
VERTEX
  8
0
 62
7
 10
3.53025000
 20
14.48350000
  0
VERTEX
  8
0
 62
7
 10
3.47819141
 20
14.46192578
  0
VERTEX
  8
0
 62
7
 10
3.42521875
 20
14.44253125
  0
VERTEX
  8
0
 62
7
 10
3.37144922
 20
14.42524609
  0
VERTEX
  8
0
 62
7
 10
3.31700000
 20
14.41000000
  0
VERTEX
  8
0
 62
7
 10
3.22465625
 20
14.38935938
  0
VERTEX
  8
0
 62
7
 10
3.13100000
 20
14.37537500
  0
VERTEX
  8
0
 62
7
 10
3.03659375
 20
14.36795313
  0
VERTEX
  8
0
 62
7
 10
2.94200000
 20
14.36700000
  0
VERTEX
  8
0
 62
7
 10
2.92800000
 20
14.09900000
  0
SEQEND
  0
POLYLINE
  8
0
 62
7
 66
1
 70
1
  0
VERTEX
  8
0
 62
7
 10
4.08100000
 20
15.30600000
  0
VERTEX
  8
0
 62
7
 10
4.06223438
 20
15.37465625
  0
VERTEX
  8
0
 62
7
 10
4.04712500
 20
15.44425000
  0
VERTEX
  8
0
 62
7
 10
4.03445313
 20
15.51496875
  0
VERTEX
  8
0
 62
7
 10
4.02300000
 20
15.58700000
  0
VERTEX
  8
0
 62
7
 10
4.00993750
 20
15.66771875
  0
VERTEX
  8
0
 62
7
 10
3.99500000
 20
15.74900000
  0
VERTEX
  8
0
 62
7
 10
3.97631250
 20
15.83028125
  0
VERTEX
  8
0
 62
7
 10
3.95200000
 20
15.91100000
  0
VERTEX
  8
0
 62
7
 10
3.93866016
 20
15.94927344
  0
VERTEX
  8
0
 62
7
 10
3.92459375
 20
15.98806250
  0
VERTEX
  8
0
 62
7
 10
3.90935547
 20
16.02694531
  0
VERTEX
  8
0
 62
7
 10
3.89250000
 20
16.06550000
  0
VERTEX
  8
0
 62
7
 10
3.87358203
 20
16.10330469
  0
VERTEX
  8
0
 62
7
 10
3.85215625
 20
16.13993750
  0
VERTEX
  8
0
 62
7
 10
3.82777734
 20
16.17497656
  0
VERTEX
  8
0
 62
7
 10
3.80000000
 20
16.20800000
  0
VERTEX
  8
0
 62
7
 10
3.76754688
 20
16.23928125
  0
VERTEX
  8
0
 62
7
 10
3.73312500
 20
16.26850000
  0
VERTEX
  8
0
 62
7
 10
3.69664063
 20
16.29546875
  0
VERTEX
  8
0
 62
7
 10
3.65800000
 20
16.32000000
  0
VERTEX
  8
0
 62
7
 10
3.63900000
 20
16.29200000
  0
VERTEX
  8
0
 62
7
 10
3.67842139
 20
16.26662280
  0
VERTEX
  8
0
 62
7
 10
3.71432422
 20
16.23720117
  0
VERTEX
  8
0
 62
7
 10
3.74691650
 20
16.20405005
  0
VERTEX
  8
0
 62
7
 10
3.77640625
 20
16.16748438
  0
VERTEX
  8
0
 62
7
 10
3.80300146
 20
16.12781909
  0
VERTEX
  8
0
 62
7
 10
3.82691016
 20
16.08536914
  0
VERTEX
  8
0
 62
7
 10
3.84834033
 20
16.04044946
  0
VERTEX
  8
0
 62
7
 10
3.86750000
 20
15.99337500
  0
VERTEX
  8
0
 62
7
 10
3.88459717
 20
15.94446069
  0
VERTEX
  8
0
 62
7
 10
3.89983984
 20
15.89402148
  0
VERTEX
  8
0
 62
7
 10
3.91343604
 20
15.84237231
  0
VERTEX
  8
0
 62
7
 10
3.92559375
 20
15.78982813
  0
VERTEX
  8
0
 62
7
 10
3.93652100
 20
15.73670386
  0
VERTEX
  8
0
 62
7
 10
3.94642578
 20
15.68331445
  0
VERTEX
  8
0
 62
7
 10
3.95551611
 20
15.62997485
  0
VERTEX
  8
0
 62
7
 10
3.96400000
 20
15.57700000
  0
VERTEX
  8
0
 62
7
 10
3.97546875
 20
15.50526563
  0
VERTEX
  8
0
 62
7
 10
3.98825000
 20
15.43287500
  0
VERTEX
  8
0
 62
7
 10
4.00365625
 20
15.36029688
  0
VERTEX
  8
0
 62
7
 10
4.02300000
 20
15.28800000
  0
VERTEX
  8
0
 62
7
 10
4.02879688
 20
15.27742188
  0
VERTEX
  8
0
 62
7
 10
4.03787500
 20
15.27012500
  0
VERTEX
  8
0
 62
7
 10
4.04901563
 20
15.26676563
  0
VERTEX
  8
0
 62
7
 10
4.06100000
 20
15.26800000
  0
VERTEX
  8
0
 62
7
 10
4.07157813
 20
15.27379688
  0
VERTEX
  8
0
 62
7
 10
4.07887500
 20
15.28287500
  0
VERTEX
  8
0
 62
7
 10
4.08223438
 20
15.29401563
  0
VERTEX
  8
0
 62
7
 10
4.08100000
 20
15.30600000
  0
SEQEND
  0
POLYLINE
  8
0
 62
7
 66
1
 70
1
  0
VERTEX
  8
0
 62
7
 10
4.51200000
 20
15.60400000
  0
VERTEX
  8
0
 62
7
 10
4.53951367
 20
15.67927930
  0
VERTEX
  8
0
 62
7
 10
4.56504688
 20
15.75510938
  0
VERTEX
  8
0
 62
7
 10
4.58858789
 20
15.83147852
  0
VERTEX
  8
0
 62
7
 10
4.61012500
 20
15.90837500
  0
VERTEX
  8
0
 62
7
 10
4.62964648
 20
15.98578711
  0
VERTEX
  8
0
 62
7
 10
4.64714063
 20
16.06370313
  0
VERTEX
  8
0
 62
7
 10
4.66259570
 20
16.14211133
  0
VERTEX
  8
0
 62
7
 10
4.67600000
 20
16.22100000
  0
VERTEX
  8
0
 62
7
 10
4.68908594
 20
16.31375977
  0
VERTEX
  8
0
 62
7
 10
4.69912500
 20
16.40676563
  0
VERTEX
  8
0
 62
7
 10
4.70616406
 20
16.49998242
  0
VERTEX
  8
0
 62
7
 10
4.71025000
 20
16.59337500
  0
VERTEX
  8
0
 62
7
 10
4.71142969
 20
16.68690820
  0
VERTEX
  8
0
 62
7
 10
4.70975000
 20
16.78054688
  0
VERTEX
  8
0
 62
7
 10
4.70525781
 20
16.87425586
  0
VERTEX
  8
0
 62
7
 10
4.69800000
 20
16.96800000
  0
VERTEX
  8
0
 62
7
 10
4.65500000
 20
16.96200000
  0
VERTEX
  8
0
 62
7
 10
4.66161719
 20
16.87017383
  0
VERTEX
  8
0
 62
7
 10
4.66443750
 20
16.77845313
  0
VERTEX
  8
0
 62
7
 10
4.66378906
 20
16.68684961
  0
VERTEX
  8
0
 62
7
 10
4.66000000
 20
16.59537500
  0
VERTEX
  8
0
 62
7
 10
4.65339844
 20
16.50404102
  0
VERTEX
  8
0
 62
7
 10
4.64431250
 20
16.41285938
  0
VERTEX
  8
0
 62
7
 10
4.63307031
 20
16.32184180
  0
VERTEX
  8
0
 62
7
 10
4.62000000
 20
16.23100000
  0
VERTEX
  8
0
 62
7
 10
4.60655469
 20
16.15357031
  0
VERTEX
  8
0
 62
7
 10
4.59100000
 20
16.07656250
  0
VERTEX
  8
0
 62
7
 10
4.57338281
 20
16.00002344
  0
VERTEX
  8
0
 62
7
 10
4.55375000
 20
15.92400000
  0
VERTEX
  8
0
 62
7
 10
4.53214844
 20
15.84853906
  0
VERTEX
  8
0
 62
7
 10
4.50862500
 20
15.77368750
  0
VERTEX
  8
0
 62
7
 10
4.48322656
 20
15.69949219
  0
VERTEX
  8
0
 62
7
 10
4.45600000
 20
15.62600000
  0
VERTEX
  8
0
 62
7
 10
4.45401563
 20
15.61400000
  0
VERTEX
  8
0
 62
7
 10
4.45662500
 20
15.60275000
  0
VERTEX
  8
0
 62
7
 10
4.46317188
 20
15.59337500
  0
VERTEX
  8
0
 62
7
 10
4.47300000
 20
15.58700000
  0
VERTEX
  8
0
 62
7
 10
4.48500000
 20
15.58501563
  0
VERTEX
  8
0
 62
7
 10
4.49625000
 20
15.58762500
  0
VERTEX
  8
0
 62
7
 10
4.50562500
 20
15.59417188
  0
VERTEX
  8
0
 62
7
 10
4.51200000
 20
15.60400000
  0
SEQEND
  0
POLYLINE
  8
0
 62
7
 66
1
 70
1
  0
VERTEX
  8
0
 62
7
 10
5.23100000
 20
16.00600000
  0
VERTEX
  8
0
 62
7
 10
5.29703711
 20
16.02736719
  0
VERTEX
  8
0
 62
7
 10
5.36104688
 20
16.05281250
  0
VERTEX
  8
0
 62
7
 10
5.42325195
 20
16.08172656
  0
VERTEX
  8
0
 62
7
 10
5.48387500
 20
16.11350000
  0
VERTEX
  8
0
 62
7
 10
5.54313867
 20
16.14752344
  0
VERTEX
  8
0
 62
7
 10
5.60126563
 20
16.18318750
  0
VERTEX
  8
0
 62
7
 10
5.65847852
 20
16.21988281
  0
VERTEX
  8
0
 62
7
 10
5.71500000
 20
16.25700000
  0
VERTEX
  8
0
 62
7
 10
5.88900000
 20
16.36700000
  0
VERTEX
  8
0
 62
7
 10
5.94442188
 20
16.39898438
  0
VERTEX
  8
0
 62
7
 10
6.00012500
 20
16.42787500
  0
VERTEX
  8
0
 62
7
 10
6.05676563
 20
16.45207813
  0
VERTEX
  8
0
 62
7
 10
6.11500000
 20
16.47000000
  0
VERTEX
  8
0
 62
7
 10
6.16013477
 20
16.47976563
  0
VERTEX
  8
0
 62
7
 10
6.20607813
 20
16.48775000
  0
VERTEX
  8
0
 62
7
 10
6.25251367
 20
16.49348438
  0
VERTEX
  8
0
 62
7
 10
6.29912500
 20
16.49650000
  0
VERTEX
  8
0
 62
7
 10
6.34559570
 20
16.49632813
  0
VERTEX
  8
0
 62
7
 10
6.39160938
 20
16.49250000
  0
VERTEX
  8
0
 62
7
 10
6.43684961
 20
16.48454688
  0
VERTEX
  8
0
 62
7
 10
6.48100000
 20
16.47200000
  0
VERTEX
  8
0
 62
7
 10
6.49400000
 20
16.51100000
  0
VERTEX
  8
0
 62
7
 10
6.43857813
 20
16.52732813
  0
VERTEX
  8
0
 62
7
 10
6.38212500
 20
16.53887500
  0
VERTEX
  8
0
 62
7
 10
6.32510938
 20
16.54573438
  0
VERTEX
  8
0
 62
7
 10
6.26800000
 20
16.54800000
  0
VERTEX
  8
0
 62
7
 10
6.22603125
 20
16.54670313
  0
VERTEX
  8
0
 62
7
 10
6.18425000
 20
16.54287500
  0
VERTEX
  8
0
 62
7
 10
6.14284375
 20
16.53660938
  0
VERTEX
  8
0
 62
7
 10
6.10200000
 20
16.52800000
  0
VERTEX
  8
0
 62
7
 10
6.03645313
 20
16.50829688
  0
VERTEX
  8
0
 62
7
 10
5.97437500
 20
16.48212500
  0
VERTEX
  8
0
 62
7
 10
5.91510938
 20
16.45164063
  0
VERTEX
  8
0
 62
7
 10
5.85800000
 20
16.41900000
  0
VERTEX
  8
0
 62
7
 10
5.76937500
 20
16.36375000
  0
VERTEX
  8
0
 62
7
 10
5.68300000
 20
16.30700000
  0
VERTEX
  8
0
 62
7
 10
5.62589453
 20
16.26981641
  0
VERTEX
  8
0
 62
7
 10
5.56909375
 20
16.23359375
  0
VERTEX
  8
0
 62
7
 10
5.51224609
 20
16.19882422
  0
VERTEX
  8
0
 62
7
 10
5.45500000
 20
16.16600000
  0
VERTEX
  8
0
 62
7
 10
5.39700391
 20
16.13561328
  0
VERTEX
  8
0
 62
7
 10
5.33790625
 20
16.10815625
  0
VERTEX
  8
0
 62
7
 10
5.27735547
 20
16.08412109
  0
VERTEX
  8
0
 62
7
 10
5.21500000
 20
16.06400000
  0
VERTEX
  8
0
 62
7
 10
5.20440625
 20
16.05835938
  0
VERTEX
  8
0
 62
7
 10
5.19700000
 20
16.04962500
  0
VERTEX
  8
0
 62
7
 10
5.19334375
 20
16.03882813
  0
VERTEX
  8
0
 62
7
 10
5.19400000
 20
16.02700000
  0
VERTEX
  8
0
 62
7
 10
5.19964063
 20
16.01640625
  0
VERTEX
  8
0
 62
7
 10
5.20837500
 20
16.00900000
  0
VERTEX
  8
0
 62
7
 10
5.21917188
 20
16.00534375
  0
VERTEX
  8
0
 62
7
 10
5.23100000
 20
16.00600000
  0
SEQEND
  0
POLYLINE
  8
0
 62
7
 66
1
 70
1
  0
VERTEX
  8
0
 62
7
 10
4.66000000
 20
15.11100000
  0
VERTEX
  8
0
 62
7
 10
4.73381250
 20
15.16785938
  0
VERTEX
  8
0
 62
7
 10
4.81100000
 20
15.22087500
  0
VERTEX
  8
0
 62
7
 10
4.89118750
 20
15.26920313
  0
VERTEX
  8
0
 62
7
 10
4.97400000
 20
15.31200000
  0
VERTEX
  8
0
 62
7
 10
5.04176367
 20
15.34257617
  0
VERTEX
  8
0
 62
7
 10
5.11073438
 20
15.37098438
  0
VERTEX
  8
0
 62
7
 10
5.18080664
 20
15.39674414
  0
VERTEX
  8
0
 62
7
 10
5.25187500
 20
15.41937500
  0
VERTEX
  8
0
 62
7
 10
5.32383398
 20
15.43839648
  0
VERTEX
  8
0
 62
7
 10
5.39657813
 20
15.45332813
  0
VERTEX
  8
0
 62
7
 10
5.47000195
 20
15.46368945
  0
VERTEX
  8
0
 62
7
 10
5.54400000
 20
15.46900000
  0
VERTEX
  8
0
 62
7
 10
5.54200000
 20
15.50500000
  0
VERTEX
  8
0
 62
7
 10
5.46496094
 20
15.50016797
  0
VERTEX
  8
0
 62
7
 10
5.38843750
 20
15.49165625
  0
VERTEX
  8
0
 62
7
 10
5.31257031
 20
15.47944141
  0
VERTEX
  8
0
 62
7
 10
5.23750000
 20
15.46350000
  0
VERTEX
  8
0
 62
7
 10
5.16336719
 20
15.44380859
  0
VERTEX
  8
0
 62
7
 10
5.09031250
 20
15.42034375
  0
VERTEX
  8
0
 62
7
 10
5.01847656
 20
15.39308203
  0
VERTEX
  8
0
 62
7
 10
4.94800000
 20
15.36200000
  0
VERTEX
  8
0
 62
7
 10
4.86176563
 20
15.31829688
  0
VERTEX
  8
0
 62
7
 10
4.77862500
 20
15.26962500
  0
VERTEX
  8
0
 62
7
 10
4.69867188
 20
15.21589063
  0
VERTEX
  8
0
 62
7
 10
4.62200000
 20
15.15700000
  0
VERTEX
  8
0
 62
7
 10
4.61434375
 20
15.14804688
  0
VERTEX
  8
0
 62
7
 10
4.61100000
 20
15.13712500
  0
VERTEX
  8
0
 62
7
 10
4.61215625
 20
15.12564063
  0
VERTEX
  8
0
 62
7
 10
4.61800000
 20
15.11500000
  0
VERTEX
  8
0
 62
7
 10
4.62695313
 20
15.10734375
  0
VERTEX
  8
0
 62
7
 10
4.63787500
 20
15.10400000
  0
VERTEX
  8
0
 62
7
 10
4.64935938
 20
15.10515625
  0
VERTEX
  8
0
 62
7
 10
4.66000000
 20
15.11100000
  0
SEQEND
  0
POLYLINE
  8
0
 62
7
 66
1
 70
1
  0
VERTEX
  8
0
 62
7
 10
5.26407299
 20
18.47502038
  0
VERTEX
  8
0
 62
7
 10
5.36500521
 20
18.38317804
  0
VERTEX
  8
0
 62
7
 10
5.46400880
 20
18.28903388
  0
VERTEX
  8
0
 62
7
 10
5.55361025
 20
18.20248570
  0
VERTEX
  8
0
 62
7
 10
5.64080091
 20
18.11409608
  0
VERTEX
  8
0
 62
7
 10
5.65105686
 20
18.11931352
  0
VERTEX
  8
0
 62
7
 10
5.66161416
 20
18.12314988
  0
VERTEX
  8
0
 62
7
 10
5.67253308
 20
18.12583533
  0
VERTEX
  8
0
 62
7
 10
5.68387390
 20
18.12760005
  0
VERTEX
  8
0
 62
7
 10
5.69016584
 20
18.12800527
  0
VERTEX
  8
0
 62
7
 10
5.69756524
 20
18.12761923
  0
VERTEX
  8
0
 62
7
 10
5.70549201
 20
18.12680161
  0
VERTEX
  8
0
 62
7
 10
5.71336603
 20
18.12591205
  0
VERTEX
  8
0
 62
7
 10
5.72060723
 20
18.12531023
  0
VERTEX
  8
0
 62
7
 10
5.72663549
 20
18.12535578
  0
VERTEX
  8
0
 62
7
 10
5.73087071
 20
18.12640838
  0
VERTEX
  8
0
 62
7
 10
5.73273281
 20
18.12882768
  0
VERTEX
  8
0
 62
7
 10
5.74237601
 20
18.19304827
  0
VERTEX
  8
0
 62
7
 10
5.75009058
 20
18.25588777
  0
VERTEX
  8
0
 62
7
 10
5.75552493
 20
18.32692748
  0
VERTEX
  8
0
 62
7
 10
5.76029630
 20
18.40205290
  0
VERTEX
  8
0
 62
7
 10
5.76301850
 20
18.47729342
  0
VERTEX
  8
0
 62
7
 10
5.76230531
 20
18.54867840
  0
VERTEX
  8
0
 62
7
 10
5.76073326
 20
18.58045541
  0
VERTEX
  8
0
 62
7
 10
5.75889000
 20
18.61092327
  0
VERTEX
  8
0
 62
7
 10
5.75602215
 20
18.64015389
  0
VERTEX
  8
0
 62
7
 10
5.75137634
 20
18.66821923
  0
VERTEX
  8
0
 62
7
 10
5.74419918
 20
18.69519121
  0
VERTEX
  8
0
 62
7
 10
5.73373731
 20
18.72114175
  0
VERTEX
  8
0
 62
7
 10
5.71923734
 20
18.74614280
  0
VERTEX
  8
0
 62
7
 10
5.69994591
 20
18.77026628
  0
VERTEX
  8
0
 62
7
 10
5.68595070
 20
18.78418146
  0
VERTEX
  8
0
 62
7
 10
5.67091584
 20
18.79711118
  0
VERTEX
  8
0
 62
7
 10
5.65476598
 20
18.80864542
  0
VERTEX
  8
0
 62
7
 10
5.63742579
 20
18.81837418
  0
VERTEX
  8
0
 62
7
 10
5.61881992
 20
18.82588744
  0
VERTEX
  8
0
 62
7
 10
5.59887305
 20
18.83077519
  0
VERTEX
  8
0
 62
7
 10
5.57750983
 20
18.83262743
  0
VERTEX
  8
0
 62
7
 10
5.55465493
 20
18.83103415
  0
VERTEX
  8
0
 62
7
 10
5.52329442
 20
18.82400403
  0
VERTEX
  8
0
 62
7
 10
5.49325985
 20
18.81484473
  0
VERTEX
  8
0
 62
7
 10
5.46370745
 20
18.80487980
  0
VERTEX
  8
0
 62
7
 10
5.43379342
 20
18.79543277
  0
VERTEX
  8
0
 62
7
 10
5.41239755
 20
18.78810533
  0
VERTEX
  8
0
 62
7
 10
5.39136331
 20
18.77962699
  0
VERTEX
  8
0
 62
7
 10
5.37032907
 20
18.77229955
  0
VERTEX
  8
0
 62
7
 10
5.34893320
 20
18.76842483
  0
VERTEX
  8
0
 62
7
 10
5.32397136
 20
18.76768633
  0
VERTEX
  8
0
 62
7
 10
5.29629737
 20
18.76896192
  0
VERTEX
  8
0
 62
7
 10
5.26874392
 20
18.77058278
  0
VERTEX
  8
0
 62
7
 10
5.24414369
 20
18.77088010
  0
VERTEX
  8
0
 62
7
 10
5.22422319
 20
18.77029745
  0
VERTEX
  8
0
 62
7
 10
5.20531974
 20
18.76909619
  0
VERTEX
  8
0
 62
7
 10
5.18724501
 20
18.76671525
  0
VERTEX
  8
0
 62
7
 10
5.16981065
 20
18.76259357
  0
VERTEX
  8
0
 62
7
 10
5.15282831
 20
18.75617007
  0
VERTEX
  8
0
 62
7
 10
5.13610965
 20
18.74688370
  0
VERTEX
  8
0
 62
7
 10
5.11946633
 20
18.73417337
  0
VERTEX
  8
0
 62
7
 10
5.10271000
 20
18.71747803
  0
VERTEX
  8
0
 62
7
 10
5.10444026
 20
18.71608256
  0
VERTEX
  8
0
 62
7
 10
5.10895800
 20
18.71206877
  0
VERTEX
  8
0
 62
7
 10
5.11525371
 20
18.70569563
  0
VERTEX
  8
0
 62
7
 10
5.12231786
 20
18.69722208
  0
VERTEX
  8
0
 62
7
 10
5.12914093
 20
18.68690708
  0
VERTEX
  8
0
 62
7
 10
5.13471339
 20
18.67500958
  0
VERTEX
  8
0
 62
7
 10
5.13802574
 20
18.66178854
  0
VERTEX
  8
0
 62
7
 10
5.13806843
 20
18.64750291
  0
VERTEX
  8
0
 62
7
 10
5.13367876
 20
18.63031604
  0
VERTEX
  8
0
 62
7
 10
5.12657694
 20
18.61589135
  0
VERTEX
  8
0
 62
7
 10
5.11718486
 20
18.60330810
  0
VERTEX
  8
0
 62
7
 10
5.10592441
 20
18.59164558
  0
VERTEX
  8
0
 62
7
 10
5.09420188
 20
18.58044342
  0
VERTEX
  8
0
 62
7
 10
5.08157531
 20
18.57108272
  0
VERTEX
  8
0
 62
7
 10
5.06714064
 20
18.56402382
  0
VERTEX
  8
0
 62
7
 10
5.04999381
 20
18.55972710
  0
VERTEX
  8
0
 62
7
 10
5.03572362
 20
18.55964438
  0
VERTEX
  8
0
 62
7
 10
5.02250063
 20
18.56286333
  0
VERTEX
  8
0
 62
7
 10
5.01058851
 20
18.56836969
  0
VERTEX
  8
0
 62
7
 10
5.00025094
 20
18.57514925
  0
VERTEX
  8
0
 62
7
 10
4.99175161
 20
18.58218777
  0
VERTEX
  8
0
 62
7
 10
4.98535419
 20
18.58847100
  0
VERTEX
  8
0
 62
7
 10
4.98132238
 20
18.59298471
  0
VERTEX
  8
0
 62
7
 10
4.97991985
 20
18.59471466
  0
VERTEX
  8
0
 62
7
 10
4.96328155
 20
18.57802412
  0
VERTEX
  8
0
 62
7
 10
4.95059847
 20
18.56143428
  0
VERTEX
  8
0
 62
7
 10
4.94130559
 20
18.54475813
  0
VERTEX
  8
0
 62
7
 10
4.93483786
 20
18.52780863
  0
VERTEX
  8
0
 62
7
 10
4.93063026
 20
18.51039877
  0
VERTEX
  8
0
 62
7
 10
4.92811775
 20
18.49234153
  0
VERTEX
  8
0
 62
7
 10
4.92673530
 20
18.47344987
  0
VERTEX
  8
0
 62
7
 10
4.92591789
 20
18.45353679
  0
VERTEX
  8
0
 62
7
 10
4.92660095
 20
18.42902248
  0
VERTEX
  8
0
 62
7
 10
4.92848941
 20
18.40151581
  0
VERTEX
  8
0
 62
7
 10
4.92989571
 20
18.37377897
  0
VERTEX
  8
0
 62
7
 10
4.92913229
 20
18.34857411
  0
VERTEX
  8
0
 62
7
 10
4.92518461
 20
18.32731111
  0
VERTEX
  8
0
 62
7
 10
4.91780153
 20
18.30645093
  0
VERTEX
  8
0
 62
7
 10
4.90933359
 20
18.28547566
  0
VERTEX
  8
0
 62
7
 10
4.90213132
 20
18.26386739
  0
VERTEX
  8
0
 62
7
 10
4.89261870
 20
18.23419318
  0
VERTEX
  8
0
 62
7
 10
4.88244310
 20
18.20463406
  0
VERTEX
  8
0
 62
7
 10
4.87311129
 20
18.17461458
  0
VERTEX
  8
0
 62
7
 10
4.86613001
 20
18.14355929
  0
VERTEX
  8
0
 62
7
 10
4.86461447
 20
18.12064186
  0
VERTEX
  8
0
 62
7
 10
4.86654186
 20
18.09924938
  0
VERTEX
  8
0
 62
7
 10
4.87149781
 20
18.07929554
  0
VERTEX
  8
0
 62
7
 10
4.87906798
 20
18.06069401
  0
VERTEX
  8
0
 62
7
 10
4.88883801
 20
18.04335848
  0
VERTEX
  8
0
 62
7
 10
4.90039353
 20
18.02720263
  0
VERTEX
  8
0
 62
7
 10
4.91332020
 20
18.01214014
  0
VERTEX
  8
0
 62
7
 10
4.92720365
 20
17.99808470
  0
VERTEX
  8
0
 62
7
 10
4.95126144
 20
17.97885497
  0
VERTEX
  8
0
 62
7
 10
4.97622328
 20
17.96440150
  0
VERTEX
  8
0
 62
7
 10
5.00214945
 20
17.95397620
  0
VERTEX
  8
0
 62
7
 10
5.02910020
 20
17.94683099
  0
VERTEX
  8
0
 62
7
 10
5.05713581
 20
17.94221777
  0
VERTEX
  8
0
 62
7
 10
5.08631655
 20
17.93938846
  0
VERTEX
  8
0
 62
7
 10
5.11670270
 20
17.93759497
  0
VERTEX
  8
0
 62
7
 10
5.14835451
 20
17.93608920
  0
VERTEX
  8
0
 62
7
 10
5.22001559
 20
17.93541783
  0
VERTEX
  8
0
 62
7
 10
5.29541341
 20
17.93808410
  0
VERTEX
  8
0
 62
7
 10
5.37057015
 20
17.94282200
  0
VERTEX
  8
0
 62
7
 10
5.44150798
 20
17.94836553
  0
VERTEX
  8
0
 62
7
 10
5.50475134
 20
17.95580806
  0
VERTEX
  8
0
 62
7
 10
5.56944118
 20
17.96555240
  0
VERTEX
  8
0
 62
7
 10
5.57176283
 20
17.96720803
  0
VERTEX
  8
0
 62
7
 10
5.57270581
 20
17.97131653
  0
VERTEX
  8
0
 62
7
 10
5.57263926
 20
17.97728086
  0
VERTEX
  8
0
 62
7
 10
5.57193234
 20
17.98450400
  0
VERTEX
  8
0
 62
7
 10
5.57095421
 20
17.99238891
  0
VERTEX
  8
0
 62
7
 10
5.57007402
 20
18.00033856
  0
VERTEX
  8
0
 62
7
 10
5.56966092
 20
18.00775591
  0
VERTEX
  8
0
 62
7
 10
5.57008406
 20
18.01404393
  0
VERTEX
  8
0
 62
7
 10
5.57193234
 20
18.02568727
  0
VERTEX
  8
0
 62
7
 10
5.57474495
 20
18.03675516
  0
VERTEX
  8
0
 62
7
 10
5.57876295
 20
18.04736268
  0
VERTEX
  8
0
 62
7
 10
5.58422743
 20
18.05762493
  0
VERTEX
  8
0
 62
7
 10
5.49550994
 20
18.14455674
  0
VERTEX
  8
0
 62
7
 10
5.40872108
 20
18.23379036
  0
VERTEX
  8
0
 62
7
 10
5.31453910
 20
18.33238469
  0
VERTEX
  8
0
 62
7
 10
5.22228576
 20
18.43328084
  0
VERTEX
  8
0
 62
7
 10
5.21617086
 20
18.44363420
  0
VERTEX
  8
0
 62
7
 10
5.21507345
 20
18.45430406
  0
VERTEX
  8
0
 62
7
 10
5.21810453
 20
18.46439847
  0
VERTEX
  8
0
 62
7
 10
5.22437512
 20
18.47302548
  0
VERTEX
  8
0
 62
7
 10
5.23299625
 20
18.47929312
  0
VERTEX
  8
0
 62
7
 10
5.24307892
 20
18.48230946
  0
VERTEX
  8
0
 62
7
 10
5.25373416
 20
18.48118253
  0
VERTEX
  8
0
 62
7
 10
5.26407299
 20
18.47502038
  0
SEQEND
  0
POLYLINE
  8
0
 62
7
 66
1
 70
1
  0
VERTEX
  8
0
 62
7
 10
5.70389296
 20
17.87353641
  0
VERTEX
  8
0
 62
7
 10
5.69232111
 20
17.87417051
  0
VERTEX
  8
0
 62
7
 10
5.67729466
 20
17.87270043
  0
VERTEX
  8
0
 62
7
 10
5.66323781
 20
17.86847350
  0
VERTEX
  8
0
 62
7
 10
5.65046922
 20
17.86176465
  0
VERTEX
  8
0
 62
7
 10
5.63930759
 20
17.85284882
  0
VERTEX
  8
0
 62
7
 10
5.63007158
 20
17.84200097
  0
VERTEX
  8
0
 62
7
 10
5.62307988
 20
17.82949603
  0
VERTEX
  8
0
 62
7
 10
5.61865116
 20
17.81560894
  0
VERTEX
  8
0
 62
7
 10
5.61710411
 20
17.80061465
  0
VERTEX
  8
0
 62
7
 10
5.61860144
 20
17.78553862
  0
VERTEX
  8
0
 62
7
 10
5.62289907
 20
17.77143604
  0
VERTEX
  8
0
 62
7
 10
5.62970544
 20
17.75862643
  0
VERTEX
  8
0
 62
7
 10
5.63872900
 20
17.74742933
  0
VERTEX
  8
0
 62
7
 10
5.64967818
 20
17.73816425
  0
VERTEX
  8
0
 62
7
 10
5.66226143
 20
17.73115074
  0
VERTEX
  8
0
 62
7
 10
5.67618720
 20
17.72670830
  0
VERTEX
  8
0
 62
7
 10
5.69116393
 20
17.72515649
  0
VERTEX
  8
0
 62
7
 10
5.70619038
 20
17.72665381
  0
VERTEX
  8
0
 62
7
 10
5.72024724
 20
17.73095258
  0
VERTEX
  8
0
 62
7
 10
5.73301582
 20
17.73776298
  0
VERTEX
  8
0
 62
7
 10
5.74417746
 20
17.74679523
  0
VERTEX
  8
0
 62
7
 10
5.75341346
 20
17.75775950
  0
VERTEX
  8
0
 62
7
 10
5.76040516
 20
17.77036599
  0
VERTEX
  8
0
 62
7
 10
5.76483388
 20
17.78432491
  0
VERTEX
  8
0
 62
7
 10
5.76638094
 20
17.79934645
  0
VERTEX
  8
0
 62
7
 10
5.76580235
 20
17.80822388
  0
VERTEX
  8
0
 62
7
 10
5.77325172
 20
17.81308863
  0
VERTEX
  8
0
 62
7
 10
5.78156899
 20
17.81622942
  0
VERTEX
  8
0
 62
7
 10
5.79053717
 20
17.81758680
  0
VERTEX
  8
0
 62
7
 10
5.79993930
 20
17.81710131
  0
VERTEX
  8
0
 62
7
 10
5.81346389
 20
17.81234554
  0
VERTEX
  8
0
 62
7
 10
5.82481877
 20
17.80378516
  0
VERTEX
  8
0
 62
7
 10
5.82366158
 20
17.79237132
  0
VERTEX
  8
0
 62
7
 10
5.82515892
 20
17.77732254
  0
VERTEX
  8
0
 62
7
 10
5.82945655
 20
17.76329179
  0
VERTEX
  8
0
 62
7
 10
5.83626292
 20
17.75058374
  0
VERTEX
  8
0
 62
7
 10
5.84528647
 20
17.73950305
  0
VERTEX
  8
0
 62
7
 10
5.85623565
 20
17.73035439
  0
VERTEX
  8
0
 62
7
 10
5.86881891
 20
17.72344243
  0
VERTEX
  8
0
 62
7
 10
5.88274468
 20
17.71907183
  0
VERTEX
  8
0
 62
7
 10
5.89772141
 20
17.71754726
  0
VERTEX
  8
0
 62
7
 10
5.91274786
 20
17.71901734
  0
VERTEX
  8
0
 62
7
 10
5.92680471
 20
17.72324427
  0
VERTEX
  8
0
 62
7
 10
5.93957330
 20
17.72995312
  0
VERTEX
  8
0
 62
7
 10
5.95073493
 20
17.73886895
  0
VERTEX
  8
0
 62
7
 10
5.95997094
 20
17.74971680
  0
VERTEX
  8
0
 62
7
 10
5.96696264
 20
17.76222174
  0
VERTEX
  8
0
 62
7
 10
5.97139136
 20
17.77610883
  0
VERTEX
  8
0
 62
7
 10
5.97293841
 20
17.79110312
  0
VERTEX
  8
0
 62
7
 10
5.97144108
 20
17.80617915
  0
VERTEX
  8
0
 62
7
 10
5.96714345
 20
17.82028173
  0
VERTEX
  8
0
 62
7
 10
5.96033708
 20
17.83309134
  0
VERTEX
  8
0
 62
7
 10
5.95131352
 20
17.84428844
  0
VERTEX
  8
0
 62
7
 10
5.94036434
 20
17.85355352
  0
VERTEX
  8
0
 62
7
 10
5.92778109
 20
17.86056704
  0
VERTEX
  8
0
 62
7
 10
5.91385532
 20
17.86500947
  0
VERTEX
  8
0
 62
7
 10
5.89887859
 20
17.86656128
  0
VERTEX
  8
0
 62
7
 10
5.89193548
 20
17.86592718
  0
VERTEX
  8
0
 62
7
 10
5.88455843
 20
17.87742029
  0
VERTEX
  8
0
 62
7
 10
5.88152082
 20
17.89129127
  0
VERTEX
  8
0
 62
7
 10
5.88170163
 20
17.90063437
  0
VERTEX
  8
0
 62
7
 10
5.88383519
 20
17.90944245
  0
VERTEX
  8
0
 62
7
 10
5.88770453
 20
17.91741826
  0
VERTEX
  8
0
 62
7
 10
5.89309267
 20
17.92426459
  0
VERTEX
  8
0
 62
7
 10
5.90582170
 20
17.92363048
  0
VERTEX
  8
0
 62
7
 10
5.92084815
 20
17.92512781
  0
VERTEX
  8
0
 62
7
 10
5.93490501
 20
17.92942658
  0
VERTEX
  8
0
 62
7
 10
5.94767359
 20
17.93623698
  0
VERTEX
  8
0
 62
7
 10
5.95883522
 20
17.94526922
  0
VERTEX
  8
0
 62
7
 10
5.96807123
 20
17.95623349
  0
VERTEX
  8
0
 62
7
 10
5.97506293
 20
17.96883999
  0
VERTEX
  8
0
 62
7
 10
5.97949165
 20
17.98279891
  0
VERTEX
  8
0
 62
7
 10
5.98103871
 20
17.99782045
  0
VERTEX
  8
0
 62
7
 10
5.97954137
 20
18.01268717
  0
VERTEX
  8
0
 62
7
 10
5.97524374
 20
18.02663247
  0
VERTEX
  8
0
 62
7
 10
5.96843737
 20
18.03932937
  0
VERTEX
  8
0
 62
7
 10
5.95941382
 20
18.05045093
  0
VERTEX
  8
0
 62
7
 10
5.94846463
 20
18.05967018
  0
VERTEX
  8
0
 62
7
 10
5.93588138
 20
18.06666017
  0
VERTEX
  8
0
 62
7
 10
5.92195561
 20
18.07109393
  0
VERTEX
  8
0
 62
7
 10
5.90697888
 20
18.07264451
  0
VERTEX
  8
0
 62
7
 10
5.89195243
 20
18.07114719
  0
VERTEX
  8
0
 62
7
 10
5.87789558
 20
18.06684842
  0
VERTEX
  8
0
 62
7
 10
5.86512699
 20
18.06003801
  0
VERTEX
  8
0
 62
7
 10
5.85396536
 20
18.05100577
  0
VERTEX
  8
0
 62
7
 10
5.84472935
 20
18.04004150
  0
VERTEX
  8
0
 62
7
 10
5.83773765
 20
18.02743500
  0
VERTEX
  8
0
 62
7
 10
5.83330893
 20
18.01347608
  0
VERTEX
  8
0
 62
7
 10
5.83176188
 20
17.99845455
  0
VERTEX
  8
0
 62
7
 10
5.83234047
 20
17.99211353
  0
VERTEX
  8
0
 62
7
 10
5.82672631
 20
17.98774416
  0
VERTEX
  8
0
 62
7
 10
5.82040700
 20
17.98426651
  0
VERTEX
  8
0
 62
7
 10
5.81354526
 20
17.98185890
  0
VERTEX
  8
0
 62
7
 10
5.80630381
 20
17.98069969
  0
VERTEX
  8
0
 62
7
 10
5.79757972
 20
17.98113563
  0
VERTEX
  8
0
 62
7
 10
5.78901836
 20
17.98323609
  0
VERTEX
  8
0
 62
7
 10
5.78099944
 20
17.98676329
  0
VERTEX
  8
0
 62
7
 10
5.77390264
 20
17.99147942
  0
VERTEX
  8
0
 62
7
 10
5.77563842
 20
18.00542967
  0
VERTEX
  8
0
 62
7
 10
5.77414108
 20
18.02050570
  0
VERTEX
  8
0
 62
7
 10
5.76984345
 20
18.03460828
  0
VERTEX
  8
0
 62
7
 10
5.76303708
 20
18.04741789
  0
VERTEX
  8
0
 62
7
 10
5.75401353
 20
18.05861500
  0
VERTEX
  8
0
 62
7
 10
5.74306434
 20
18.06788007
  0
VERTEX
  8
0
 62
7
 10
5.73048109
 20
18.07489359
  0
VERTEX
  8
0
 62
7
 10
5.71655532
 20
18.07933602
  0
VERTEX
  8
0
 62
7
 10
5.70157859
 20
18.08088784
  0
VERTEX
  8
0
 62
7
 10
5.68655214
 20
18.07939051
  0
VERTEX
  8
0
 62
7
 10
5.67249529
 20
18.07509175
  0
VERTEX
  8
0
 62
7
 10
5.65972670
 20
18.06828134
  0
VERTEX
  8
0
 62
7
 10
5.64856507
 20
18.05924910
  0
VERTEX
  8
0
 62
7
 10
5.63932906
 20
18.04828483
  0
VERTEX
  8
0
 62
7
 10
5.63233736
 20
18.03567833
  0
VERTEX
  8
0
 62
7
 10
5.62790864
 20
18.02171941
  0
VERTEX
  8
0
 62
7
 10
5.62636158
 20
18.00669788
  0
VERTEX
  8
0
 62
7
 10
5.62785892
 20
17.99164910
  0
VERTEX
  8
0
 62
7
 10
5.63215655
 20
17.97761834
  0
VERTEX
  8
0
 62
7
 10
5.63896292
 20
17.96491029
  0
VERTEX
  8
0
 62
7
 10
5.64798647
 20
17.95382960
  0
VERTEX
  8
0
 62
7
 10
5.65893566
 20
17.94468094
  0
VERTEX
  8
0
 62
7
 10
5.67151891
 20
17.93776898
  0
VERTEX
  8
0
 62
7
 10
5.68544468
 20
17.93339838
  0
VERTEX
  8
0
 62
7
 10
5.70042141
 20
17.93187381
  0
VERTEX
  8
0
 62
7
 10
5.70852170
 20
17.93187381
  0
VERTEX
  8
0
 62
7
 10
5.71337645
 20
17.92457173
  0
VERTEX
  8
0
 62
7
 10
5.71654967
 20
17.91625905
  0
VERTEX
  8
0
 62
7
 10
5.71787862
 20
17.90735189
  0
VERTEX
  8
0
 62
7
 10
5.71720059
 20
17.89826640
  0
VERTEX
  8
0
 62
7
 10
5.71249952
 20
17.88447467
  0
VERTEX
  8
0
 62
7
 10
5.70389296
 20
17.87353641
  0
SEQEND
  0
POLYLINE
  8
0
 62
7
 66
1
 70
1
  0
VERTEX
  8
0
 62
7
 10
5.22371456
 20
17.36396718
  0
VERTEX
  8
0
 62
7
 10
5.31596790
 20
17.46494005
  0
VERTEX
  8
0
 62
7
 10
5.41014988
 20
17.56407147
  0
VERTEX
  8
0
 62
7
 10
5.49693874
 20
17.65330509
  0
VERTEX
  8
0
 62
7
 10
5.58565624
 20
17.74023690
  0
VERTEX
  8
0
 62
7
 10
5.58019175
 20
17.75048956
  0
VERTEX
  8
0
 62
7
 10
5.57617375
 20
17.76102995
  0
VERTEX
  8
0
 62
7
 10
5.57336115
 20
17.77191560
  0
VERTEX
  8
0
 62
7
 10
5.57151287
 20
17.78320408
  0
VERTEX
  8
0
 62
7
 10
5.57127430
 20
17.78949330
  0
VERTEX
  8
0
 62
7
 10
5.57177404
 20
17.79691905
  0
VERTEX
  8
0
 62
7
 10
5.57266553
 20
17.80489148
  0
VERTEX
  8
0
 62
7
 10
5.57360223
 20
17.81282074
  0
VERTEX
  8
0
 62
7
 10
5.57423758
 20
17.82011701
  0
VERTEX
  8
0
 62
7
 10
5.57422502
 20
17.82619044
  0
VERTEX
  8
0
 62
7
 10
5.57321801
 20
17.83045119
  0
VERTEX
  8
0
 62
7
 10
5.57086999
 20
17.83230943
  0
VERTEX
  8
0
 62
7
 10
5.50618015
 20
17.84174686
  0
VERTEX
  8
0
 62
7
 10
5.44293679
 20
17.84888248
  0
VERTEX
  8
0
 62
7
 10
5.37227016
 20
17.85478088
  0
VERTEX
  8
0
 62
7
 10
5.29708329
 20
17.85970100
  0
VERTEX
  8
0
 62
7
 10
5.22153480
 20
17.86243441
  0
VERTEX
  8
0
 62
7
 10
5.14978332
 20
17.86177264
  0
VERTEX
  8
0
 62
7
 10
5.11813025
 20
17.86026567
  0
VERTEX
  8
0
 62
7
 10
5.08773531
 20
17.85846378
  0
VERTEX
  8
0
 62
7
 10
5.05853071
 20
17.85561169
  0
VERTEX
  8
0
 62
7
 10
5.03044864
 20
17.85095411
  0
VERTEX
  8
0
 62
7
 10
5.00342130
 20
17.84373577
  0
VERTEX
  8
0
 62
7
 10
4.97738087
 20
17.83320138
  0
VERTEX
  8
0
 62
7
 10
4.95225957
 20
17.81859566
  0
VERTEX
  8
0
 62
7
 10
4.92798958
 20
17.79916332
  0
VERTEX
  8
0
 62
7
 10
4.91431832
 20
17.78528530
  0
VERTEX
  8
0
 62
7
 10
4.90155112
 20
17.77031393
  0
VERTEX
  8
0
 62
7
 10
4.89010986
 20
17.75419164
  0
VERTEX
  8
0
 62
7
 10
4.88041643
 20
17.73686091
  0
VERTEX
  8
0
 62
7
 10
4.87289272
 20
17.71826418
  0
VERTEX
  8
0
 62
7
 10
4.86796062
 20
17.69834390
  0
VERTEX
  8
0
 62
7
 10
4.86604202
 20
17.67704254
  0
VERTEX
  8
0
 62
7
 10
4.86755882
 20
17.65430254
  0
VERTEX
  8
0
 62
7
 10
4.87480127
 20
17.62297870
  0
VERTEX
  8
0
 62
7
 10
4.88403263
 20
17.59292086
  0
VERTEX
  8
0
 62
7
 10
4.89386669
 20
17.56332338
  0
VERTEX
  8
0
 62
7
 10
4.90291724
 20
17.53338063
  0
VERTEX
  8
0
 62
7
 10
4.91049117
 20
17.51212722
  0
VERTEX
  8
0
 62
7
 10
4.91914997
 20
17.49133417
  0
VERTEX
  8
0
 62
7
 10
4.92660337
 20
17.47054113
  0
VERTEX
  8
0
 62
7
 10
4.93056110
 20
17.44928772
  0
VERTEX
  8
0
 62
7
 10
4.93115375
 20
17.42383350
  0
VERTEX
  8
0
 62
7
 10
4.92999858
 20
17.39619256
  0
VERTEX
  8
0
 62
7
 10
4.92848178
 20
17.36901199
  0
VERTEX
  8
0
 62
7
 10
4.92798958
 20
17.34493886
  0
VERTEX
  8
0
 62
7
 10
4.92859479
 20
17.32482317
  0
VERTEX
  8
0
 62
7
 10
4.92981777
 20
17.30577926
  0
VERTEX
  8
0
 62
7
 10
4.93221601
 20
17.28761292
  0
VERTEX
  8
0
 62
7
 10
4.93634702
 20
17.27012993
  0
VERTEX
  8
0
 62
7
 10
4.94276829
 20
17.25313607
  0
VERTEX
  8
0
 62
7
 10
4.95203732
 20
17.23643714
  0
VERTEX
  8
0
 62
7
 10
4.96471161
 20
17.21983891
  0
VERTEX
  8
0
 62
7
 10
4.98134865
 20
17.20314717
  0
VERTEX
  8
0
 62
7
 10
4.98275118
 20
17.20485195
  0
VERTEX
  8
0
 62
7
 10
4.98678300
 20
17.20930452
  0
VERTEX
  8
0
 62
7
 10
4.99318041
 20
17.21551222
  0
VERTEX
  8
0
 62
7
 10
5.00167974
 20
17.22248240
  0
VERTEX
  8
0
 62
7
 10
5.01201731
 20
17.22922239
  0
VERTEX
  8
0
 62
7
 10
5.02392943
 20
17.23473955
  0
VERTEX
  8
0
 62
7
 10
5.03715243
 20
17.23804122
  0
VERTEX
  8
0
 62
7
 10
5.05142261
 20
17.23813473
  0
VERTEX
  8
0
 62
7
 10
5.06847904
 20
17.23409696
  0
VERTEX
  8
0
 62
7
 10
5.08276303
 20
17.22700930
  0
VERTEX
  8
0
 62
7
 10
5.09535947
 20
17.21750473
  0
VERTEX
  8
0
 62
7
 10
5.10735321
 20
17.20621625
  0
VERTEX
  8
0
 62
7
 10
5.11861366
 20
17.19429478
  0
VERTEX
  8
0
 62
7
 10
5.12800574
 20
17.18174030
  0
VERTEX
  8
0
 62
7
 10
5.13510756
 20
17.16745947
  0
VERTEX
  8
0
 62
7
 10
5.13949723
 20
17.15035892
  0
VERTEX
  8
0
 62
7
 10
5.13945454
 20
17.13607329
  0
VERTEX
  8
0
 62
7
 10
5.13614220
 20
17.12285225
  0
VERTEX
  8
0
 62
7
 10
5.13056973
 20
17.11095475
  0
VERTEX
  8
0
 62
7
 10
5.12374666
 20
17.10063975
  0
VERTEX
  8
0
 62
7
 10
5.11668251
 20
17.09216621
  0
VERTEX
  8
0
 62
7
 10
5.11038680
 20
17.08579306
  0
VERTEX
  8
0
 62
7
 10
5.10586906
 20
17.08177927
  0
VERTEX
  8
0
 62
7
 10
5.10413881
 20
17.08038380
  0
VERTEX
  8
0
 62
7
 10
5.12089639
 20
17.06368726
  0
VERTEX
  8
0
 62
7
 10
5.13754850
 20
17.05096855
  0
VERTEX
  8
0
 62
7
 10
5.15429101
 20
17.04165939
  0
VERTEX
  8
0
 62
7
 10
5.17131981
 20
17.03519153
  0
VERTEX
  8
0
 62
7
 10
5.18883077
 20
17.03099672
  0
VERTEX
  8
0
 62
7
 10
5.20701976
 20
17.02850669
  0
VERTEX
  8
0
 62
7
 10
5.22608268
 20
17.02715317
  0
VERTEX
  8
0
 62
7
 10
5.24621538
 20
17.02636792
  0
VERTEX
  8
0
 62
7
 10
5.27035353
 20
17.02693378
  0
VERTEX
  8
0
 62
7
 10
5.29756545
 20
17.02859300
  0
VERTEX
  8
0
 62
7
 10
5.32513899
 20
17.02990695
  0
VERTEX
  8
0
 62
7
 10
5.35036201
 20
17.02943700
  0
VERTEX
  8
0
 62
7
 10
5.37175787
 20
17.02556228
  0
VERTEX
  8
0
 62
7
 10
5.39279211
 20
17.01823484
  0
VERTEX
  8
0
 62
7
 10
5.41382636
 20
17.00975650
  0
VERTEX
  8
0
 62
7
 10
5.43522222
 20
17.00242906
  0
VERTEX
  8
0
 62
7
 10
5.46522665
 20
16.99298204
  0
VERTEX
  8
0
 62
7
 10
5.49492974
 20
16.98301710
  0
VERTEX
  8
0
 62
7
 10
5.52499444
 20
16.97385780
  0
VERTEX
  8
0
 62
7
 10
5.55608374
 20
16.96682768
  0
VERTEX
  8
0
 62
7
 10
5.57875406
 20
16.96523320
  0
VERTEX
  8
0
 62
7
 10
5.60003064
 20
16.96707705
  0
VERTEX
  8
0
 62
7
 10
5.61996621
 20
16.97194202
  0
VERTEX
  8
0
 62
7
 10
5.63861351
 20
16.97941093
  0
VERTEX
  8
0
 62
7
 10
5.65602527
 20
16.98906656
  0
VERTEX
  8
0
 62
7
 10
5.67225424
 20
17.00049170
  0
VERTEX
  8
0
 62
7
 10
5.68735314
 20
17.01326916
  0
VERTEX
  8
0
 62
7
 10
5.70137471
 20
17.02698173
  0
VERTEX
  8
0
 62
7
 10
5.72048157
 20
17.05113039
  0
VERTEX
  8
0
 62
7
 10
5.73489490
 20
17.07619258
  0
VERTEX
  8
0
 62
7
 10
5.74534547
 20
17.10221865
  0
VERTEX
  8
0
 62
7
 10
5.75256406
 20
17.12925896
  0
VERTEX
  8
0
 62
7
 10
5.75728145
 20
17.15736386
  0
VERTEX
  8
0
 62
7
 10
5.76022840
 20
17.18658370
  0
VERTEX
  8
0
 62
7
 10
5.76213570
 20
17.21696884
  0
VERTEX
  8
0
 62
7
 10
5.76373411
 20
17.24856961
  0
VERTEX
  8
0
 62
7
 10
5.76443726
 20
17.32004091
  0
VERTEX
  8
0
 62
7
 10
5.76164475
 20
17.39542529
  0
VERTEX
  8
0
 62
7
 10
5.75668252
 20
17.47057949
  0
VERTEX
  8
0
 62
7
 10
5.75087650
 20
17.54136025
  0
VERTEX
  8
0
 62
7
 10
5.74396554
 20
17.60466011
  0
VERTEX
  8
0
 62
7
 10
5.73416161
 20
17.66842033
  0
VERTEX
  8
0
 62
7
 10
5.73229952
 20
17.67104104
  0
VERTEX
  8
0
 62
7
 10
5.72806429
 20
17.67223750
  0
VERTEX
  8
0
 62
7
 10
5.72203603
 20
17.67236938
  0
VERTEX
  8
0
 62
7
 10
5.71479484
 20
17.67179632
  0
VERTEX
  8
0
 62
7
 10
5.70692081
 20
17.67087800
  0
VERTEX
  8
0
 62
7
 10
5.69899404
 20
17.66997405
  0
VERTEX
  8
0
 62
7
 10
5.69159464
 20
17.66944416
  0
VERTEX
  8
0
 62
7
 10
5.68530270
 20
17.66964796
  0
VERTEX
  8
0
 62
7
 10
5.66296261
 20
17.67440505
  0
VERTEX
  8
0
 62
7
 10
5.64158683
 20
17.68376575
  0
VERTEX
  8
0
 62
7
 10
5.55495870
 20
17.59537613
  0
VERTEX
  8
0
 62
7
 10
5.46543760
 20
17.50882795
  0
VERTEX
  8
0
 62
7
 10
5.36667510
 20
17.41445361
  0
VERTEX
  8
0
 62
7
 10
5.26550179
 20
17.32284145
  0
VERTEX
  8
0
 62
7
 10
5.25516297
 20
17.31667811
  0
VERTEX
  8
0
 62
7
 10
5.24450773
 20
17.31554278
  0
VERTEX
  8
0
 62
7
 10
5.23442505
 20
17.31853634
  0
VERTEX
  8
0
 62
7
 10
5.22580393
 20
17.32475963
  0
VERTEX
  8
0
 62
7
 10
5.21953333
 20
17.33331350
  0
VERTEX
  8
0
 62
7
 10
5.21650225
 20
17.34329881
  0
VERTEX
  8
0
 62
7
 10
5.21759967
 20
17.35381642
  0
VERTEX
  8
0
 62
7
 10
5.22371456
 20
17.36396718
  0
SEQEND
  0
POLYLINE
  8
0
 62
7
 66
1
 70
1
  0
VERTEX
  8
0
 62
7
 10
6.33492701
 20
17.32597962
  0
VERTEX
  8
0
 62
7
 10
6.23399479
 20
17.41782196
  0
VERTEX
  8
0
 62
7
 10
6.13499120
 20
17.51196612
  0
VERTEX
  8
0
 62
7
 10
6.04538975
 20
17.59851430
  0
VERTEX
  8
0
 62
7
 10
5.95819909
 20
17.68690392
  0
VERTEX
  8
0
 62
7
 10
5.94794314
 20
17.68168648
  0
VERTEX
  8
0
 62
7
 10
5.93738584
 20
17.67785012
  0
VERTEX
  8
0
 62
7
 10
5.92646692
 20
17.67516467
  0
VERTEX
  8
0
 62
7
 10
5.91512610
 20
17.67339995
  0
VERTEX
  8
0
 62
7
 10
5.90883416
 20
17.67299473
  0
VERTEX
  8
0
 62
7
 10
5.90143476
 20
17.67338077
  0
VERTEX
  8
0
 62
7
 10
5.89350799
 20
17.67419839
  0
VERTEX
  8
0
 62
7
 10
5.88563397
 20
17.67508795
  0
VERTEX
  8
0
 62
7
 10
5.87839277
 20
17.67568977
  0
VERTEX
  8
0
 62
7
 10
5.87236451
 20
17.67564422
  0
VERTEX
  8
0
 62
7
 10
5.86812929
 20
17.67459162
  0
VERTEX
  8
0
 62
7
 10
5.86626719
 20
17.67217232
  0
VERTEX
  8
0
 62
7
 10
5.85670435
 20
17.60787500
  0
VERTEX
  8
0
 62
7
 10
5.84955230
 20
17.54449841
  0
VERTEX
  8
0
 62
7
 10
5.84374629
 20
17.47381357
  0
VERTEX
  8
0
 62
7
 10
5.83878406
 20
17.39887037
  0
VERTEX
  8
0
 62
7
 10
5.83599154
 20
17.32369699
  0
VERTEX
  8
0
 62
7
 10
5.83669469
 20
17.25232160
  0
VERTEX
  8
0
 62
7
 10
5.83826674
 20
17.22054459
  0
VERTEX
  8
0
 62
7
 10
5.84011000
 20
17.19007673
  0
VERTEX
  8
0
 62
7
 10
5.84297785
 20
17.16084611
  0
VERTEX
  8
0
 62
7
 10
5.84762366
 20
17.13278077
  0
VERTEX
  8
0
 62
7
 10
5.85480082
 20
17.10580879
  0
VERTEX
  8
0
 62
7
 10
5.86526269
 20
17.07985825
  0
VERTEX
  8
0
 62
7
 10
5.87976266
 20
17.05485720
  0
VERTEX
  8
0
 62
7
 10
5.89905409
 20
17.03073372
  0
VERTEX
  8
0
 62
7
 10
5.91304930
 20
17.01681854
  0
VERTEX
  8
0
 62
7
 10
5.92808416
 20
17.00388882
  0
VERTEX
  8
0
 62
7
 10
5.94423402
 20
16.99235458
  0
VERTEX
  8
0
 62
7
 10
5.96157421
 20
16.98262582
  0
VERTEX
  8
0
 62
7
 10
5.98018008
 20
16.97511256
  0
VERTEX
  8
0
 62
7
 10
6.00012695
 20
16.97022481
  0
VERTEX
  8
0
 62
7
 10
6.02149017
 20
16.96837257
  0
VERTEX
  8
0
 62
7
 10
6.04434507
 20
16.96996585
  0
VERTEX
  8
0
 62
7
 10
6.07570558
 20
16.97699597
  0
VERTEX
  8
0
 62
7
 10
6.10574015
 20
16.98615527
  0
VERTEX
  8
0
 62
7
 10
6.13529255
 20
16.99612020
  0
VERTEX
  8
0
 62
7
 10
6.16520658
 20
17.00556723
  0
VERTEX
  8
0
 62
7
 10
6.18660245
 20
17.01289467
  0
VERTEX
  8
0
 62
7
 10
6.20763669
 20
17.02137301
  0
VERTEX
  8
0
 62
7
 10
6.22867093
 20
17.02870045
  0
VERTEX
  8
0
 62
7
 10
6.25006680
 20
17.03257517
  0
VERTEX
  8
0
 62
7
 10
6.27501859
 20
17.03331367
  0
VERTEX
  8
0
 62
7
 10
6.30262227
 20
17.03203808
  0
VERTEX
  8
0
 62
7
 10
6.32998487
 20
17.03041722
  0
VERTEX
  8
0
 62
7
 10
6.35421342
 20
17.03011990
  0
VERTEX
  8
0
 62
7
 10
6.37434613
 20
17.03070255
  0
VERTEX
  8
0
 62
7
 10
6.39340904
 20
17.03190381
  0
VERTEX
  8
0
 62
7
 10
6.41159804
 20
17.03428475
  0
VERTEX
  8
0
 62
7
 10
6.42910899
 20
17.03840643
  0
VERTEX
  8
0
 62
7
 10
6.44613779
 20
17.04482993
  0
VERTEX
  8
0
 62
7
 10
6.46288030
 20
17.05411630
  0
VERTEX
  8
0
 62
7
 10
6.47953241
 20
17.06682663
  0
VERTEX
  8
0
 62
7
 10
6.49629000
 20
17.08352197
  0
VERTEX
  8
0
 62
7
 10
6.49455974
 20
17.08491744
  0
VERTEX
  8
0
 62
7
 10
6.49004200
 20
17.08893123
  0
VERTEX
  8
0
 62
7
 10
6.48374629
 20
17.09530437
  0
VERTEX
  8
0
 62
7
 10
6.47668214
 20
17.10377792
  0
VERTEX
  8
0
 62
7
 10
6.46985907
 20
17.11409292
  0
VERTEX
  8
0
 62
7
 10
6.46428661
 20
17.12599042
  0
VERTEX
  8
0
 62
7
 10
6.46097426
 20
17.13921146
  0
VERTEX
  8
0
 62
7
 10
6.46093157
 20
17.15349709
  0
VERTEX
  8
0
 62
7
 10
6.46505003
 20
17.17094291
  0
VERTEX
  8
0
 62
7
 10
6.47218198
 20
17.18533884
  0
VERTEX
  8
0
 62
7
 10
6.48172474
 20
17.19777822
  0
VERTEX
  8
0
 62
7
 10
6.49307559
 20
17.20935442
  0
VERTEX
  8
0
 62
7
 10
6.50470771
 20
17.22064289
  0
VERTEX
  8
0
 62
7
 10
6.51718361
 20
17.23014746
  0
VERTEX
  8
0
 62
7
 10
6.53158815
 20
17.23723513
  0
VERTEX
  8
0
 62
7
 10
6.54900619
 20
17.24127290
  0
VERTEX
  8
0
 62
7
 10
6.56327638
 20
17.24135562
  0
VERTEX
  8
0
 62
7
 10
6.57649937
 20
17.23813667
  0
VERTEX
  8
0
 62
7
 10
6.58841149
 20
17.23263031
  0
VERTEX
  8
0
 62
7
 10
6.59874906
 20
17.22585075
  0
VERTEX
  8
0
 62
7
 10
6.60724839
 20
17.21881223
  0
VERTEX
  8
0
 62
7
 10
6.61364581
 20
17.21252900
  0
VERTEX
  8
0
 62
7
 10
6.61767762
 20
17.20801529
  0
VERTEX
  8
0
 62
7
 10
6.61908015
 20
17.20628534
  0
VERTEX
  8
0
 62
7
 10
6.63571720
 20
17.22297708
  0
VERTEX
  8
0
 62
7
 10
6.64839148
 20
17.23957531
  0
VERTEX
  8
0
 62
7
 10
6.65766051
 20
17.25627424
  0
VERTEX
  8
0
 62
7
 10
6.66408178
 20
17.27326810
  0
VERTEX
  8
0
 62
7
 10
6.66821279
 20
17.29075109
  0
VERTEX
  8
0
 62
7
 10
6.67061104
 20
17.30891743
  0
VERTEX
  8
0
 62
7
 10
6.67183402
 20
17.32796134
  0
VERTEX
  8
0
 62
7
 10
6.67243923
 20
17.34807703
  0
VERTEX
  8
0
 62
7
 10
6.67212783
 20
17.37223647
  0
VERTEX
  8
0
 62
7
 10
6.67043023
 20
17.39956091
  0
VERTEX
  8
0
 62
7
 10
6.66909424
 20
17.42723062
  0
VERTEX
  8
0
 62
7
 10
6.66986771
 20
17.45242589
  0
VERTEX
  8
0
 62
7
 10
6.67381539
 20
17.47368889
  0
VERTEX
  8
0
 62
7
 10
6.68119847
 20
17.49454907
  0
VERTEX
  8
0
 62
7
 10
6.68966641
 20
17.51552434
  0
VERTEX
  8
0
 62
7
 10
6.69686868
 20
17.53713261
  0
VERTEX
  8
0
 62
7
 10
6.70638130
 20
17.56680682
  0
VERTEX
  8
0
 62
7
 10
6.71655690
 20
17.59636594
  0
VERTEX
  8
0
 62
7
 10
6.72588871
 20
17.62638542
  0
VERTEX
  8
0
 62
7
 10
6.73286999
 20
17.65744071
  0
VERTEX
  8
0
 62
7
 10
6.73438553
 20
17.68035814
  0
VERTEX
  8
0
 62
7
 10
6.73245814
 20
17.70175062
  0
VERTEX
  8
0
 62
7
 10
6.72750219
 20
17.72170446
  0
VERTEX
  8
0
 62
7
 10
6.71993202
 20
17.74030599
  0
VERTEX
  8
0
 62
7
 10
6.71016199
 20
17.75764152
  0
VERTEX
  8
0
 62
7
 10
6.69860647
 20
17.77379737
  0
VERTEX
  8
0
 62
7
 10
6.68567980
 20
17.78885986
  0
VERTEX
  8
0
 62
7
 10
6.67179635
 20
17.80291530
  0
VERTEX
  8
0
 62
7
 10
6.64773856
 20
17.82214503
  0
VERTEX
  8
0
 62
7
 10
6.62277672
 20
17.83659850
  0
VERTEX
  8
0
 62
7
 10
6.59685055
 20
17.84702380
  0
VERTEX
  8
0
 62
7
 10
6.56989980
 20
17.85416901
  0
VERTEX
  8
0
 62
7
 10
6.54186419
 20
17.85878223
  0
VERTEX
  8
0
 62
7
 10
6.51268345
 20
17.86161154
  0
VERTEX
  8
0
 62
7
 10
6.48229730
 20
17.86340503
  0
VERTEX
  8
0
 62
7
 10
6.45064549
 20
17.86491080
  0
VERTEX
  8
0
 62
7
 10
6.37898441
 20
17.86557257
  0
VERTEX
  8
0
 62
7
 10
6.30358659
 20
17.86283917
  0
VERTEX
  8
0
 62
7
 10
6.22842985
 20
17.85791905
  0
VERTEX
  8
0
 62
7
 10
6.15749202
 20
17.85202065
  0
VERTEX
  8
0
 62
7
 10
6.09424866
 20
17.84511521
  0
VERTEX
  8
0
 62
7
 10
6.02955882
 20
17.83544760
  0
VERTEX
  8
0
 62
7
 10
6.02723717
 20
17.83379197
  0
VERTEX
  8
0
 62
7
 10
6.02629419
 20
17.82968347
  0
VERTEX
  8
0
 62
7
 10
6.02636074
 20
17.82371914
  0
VERTEX
  8
0
 62
7
 10
6.02706766
 20
17.81649600
  0
VERTEX
  8
0
 62
7
 10
6.02804579
 20
17.80861109
  0
VERTEX
  8
0
 62
7
 10
6.02892598
 20
17.80066144
  0
VERTEX
  8
0
 62
7
 10
6.02933908
 20
17.79324409
  0
VERTEX
  8
0
 62
7
 10
6.02891594
 20
17.78695607
  0
VERTEX
  8
0
 62
7
 10
6.02706766
 20
17.77531273
  0
VERTEX
  8
0
 62
7
 10
6.02425505
 20
17.76424484
  0
VERTEX
  8
0
 62
7
 10
6.02023705
 20
17.75363732
  0
VERTEX
  8
0
 62
7
 10
6.01477257
 20
17.74337507
  0
VERTEX
  8
0
 62
7
 10
6.10349006
 20
17.65644326
  0
VERTEX
  8
0
 62
7
 10
6.19027892
 20
17.56720964
  0
VERTEX
  8
0
 62
7
 10
6.28446090
 20
17.46861531
  0
VERTEX
  8
0
 62
7
 10
6.37671424
 20
17.36771916
  0
VERTEX
  8
0
 62
7
 10
6.38282914
 20
17.35736580
  0
VERTEX
  8
0
 62
7
 10
6.38392655
 20
17.34669594
  0
VERTEX
  8
0
 62
7
 10
6.38089547
 20
17.33660153
  0
VERTEX
  8
0
 62
7
 10
6.37462488
 20
17.32797452
  0
VERTEX
  8
0
 62
7
 10
6.36600375
 20
17.32170688
  0
VERTEX
  8
0
 62
7
 10
6.35592108
 20
17.31869054
  0
VERTEX
  8
0
 62
7
 10
6.34526584
 20
17.31981747
  0
VERTEX
  8
0
 62
7
 10
6.33492701
 20
17.32597962
  0
SEQEND
  0
POLYLINE
  8
0
 62
7
 66
1
 70
1
  0
VERTEX
  8
0
 62
7
 10
6.75100000
 20
18.47100000
  0
VERTEX
  8
0
 62
7
 10
6.86325000
 20
18.54950000
  0
VERTEX
  8
0
 62
7
 10
6.98000000
 20
18.62200000
  0
VERTEX
  8
0
 62
7
 10
7.05479688
 20
18.66564063
  0
VERTEX
  8
0
 62
7
 10
7.12987500
 20
18.70712500
  0
VERTEX
  8
0
 62
7
 10
7.20626563
 20
18.74504688
  0
VERTEX
  8
0
 62
7
 10
7.28500000
 20
18.77800000
  0
VERTEX
  8
0
 62
7
 10
7.33973633
 20
18.79708008
  0
VERTEX
  8
0
 62
7
 10
7.39514063
 20
18.81382813
  0
VERTEX
  8
0
 62
7
 10
7.45113086
 20
18.82825586
  0
VERTEX
  8
0
 62
7
 10
7.50762500
 20
18.84037500
  0
VERTEX
  8
0
 62
7
 10
7.56454102
 20
18.85019727
  0
VERTEX
  8
0
 62
7
 10
7.62179688
 20
18.85773438
  0
VERTEX
  8
0
 62
7
 10
7.67931055
 20
18.86299805
  0
VERTEX
  8
0
 62
7
 10
7.73700000
 20
18.86600000
  0
VERTEX
  8
0
 62
7
 10
7.73500000
 20
18.90100000
  0
VERTEX
  8
0
 62
7
 10
7.67497266
 20
18.89826563
  0
VERTEX
  8
0
 62
7
 10
7.61496875
 20
18.89431250
  0
VERTEX
  8
0
 62
7
 10
7.55510547
 20
18.88876563
  0
VERTEX
  8
0
 62
7
 10
7.49550000
 20
18.88125000
  0
VERTEX
  8
0
 62
7
 10
7.43626953
 20
18.87139063
  0
VERTEX
  8
0
 62
7
 10
7.37753125
 20
18.85881250
  0
VERTEX
  8
0
 62
7
 10
7.31940234
 20
18.84314063
  0
VERTEX
  8
0
 62
7
 10
7.26200000
 20
18.82400000
  0
VERTEX
  8
0
 62
7
 10
7.17990625
 20
18.79114063
  0
VERTEX
  8
0
 62
7
 10
7.10100000
 20
18.75537500
  0
VERTEX
  8
0
 62
7
 10
7.02434375
 20
18.71642188
  0
VERTEX
  8
0
 62
7
 10
6.94900000
 20
18.67400000
  0
VERTEX
  8
0
 62
7
 10
6.84500000
 20
18.60875000
  0
VERTEX
  8
0
 62
7
 10
6.74400000
 20
18.53900000
  0
VERTEX
  8
0
 62
7
 10
6.73498438
 20
18.56798438
  0
VERTEX
  8
0
 62
7
 10
6.72062500
 20
18.59762500
  0
VERTEX
  8
0
 62
7
 10
6.69970313
 20
18.62745313
  0
VERTEX
  8
0
 62
7
 10
6.67100000
 20
18.65700000
  0
VERTEX
  8
0
 62
7
 10
6.62937500
 20
18.69437500
  0
VERTEX
  8
0
 62
7
 10
6.59000000
 20
18.73400000
  0
VERTEX
  8
0
 62
7
 10
6.55500000
 20
18.77400000
  0
VERTEX
  8
0
 62
7
 10
6.54400000
 20
18.78600000
  0
VERTEX
  8
0
 62
7
 10
6.58035742
 20
18.81524023
  0
VERTEX
  8
0
 62
7
 10
6.62035938
 20
18.84667188
  0
VERTEX
  8
0
 62
7
 10
6.66277539
 20
18.87911133
  0
VERTEX
  8
0
 62
7
 10
6.70637500
 20
18.91137500
  0
VERTEX
  8
0
 62
7
 10
6.74992773
 20
18.94227930
  0
VERTEX
  8
0
 62
7
 10
6.79220313
 20
18.97064063
  0
VERTEX
  8
0
 62
7
 10
6.83197070
 20
18.99527539
  0
VERTEX
  8
0
 62
7
 10
6.86800000
 20
19.01500000
  0
VERTEX
  8
0
 62
7
 10
6.92846680
 20
19.04333789
  0
VERTEX
  8
0
 62
7
 10
6.98985938
 20
19.06957813
  0
VERTEX
  8
0
 62
7
 10
7.05216602
 20
19.09331055
  0
VERTEX
  8
0
 62
7
 10
7.11537500
 20
19.11412500
  0
VERTEX
  8
0
 62
7
 10
7.17947461
 20
19.13161133
  0
VERTEX
  8
0
 62
7
 10
7.24445313
 20
19.14535938
  0
VERTEX
  8
0
 62
7
 10
7.31029883
 20
19.15495898
  0
VERTEX
  8
0
 62
7
 10
7.37700000
 20
19.16000000
  0
VERTEX
  8
0
 62
7
 10
7.43276758
 20
19.16166992
  0
VERTEX
  8
0
 62
7
 10
7.48882813
 20
19.16229688
  0
VERTEX
  8
0
 62
7
 10
7.54481836
 20
19.16093164
  0
VERTEX
  8
0
 62
7
 10
7.60037500
 20
19.15662500
  0
VERTEX
  8
0
 62
7
 10
7.65513477
 20
19.14842773
  0
VERTEX
  8
0
 62
7
 10
7.70873438
 20
19.13539063
  0
VERTEX
  8
0
 62
7
 10
7.76081055
 20
19.11656445
  0
VERTEX
  8
0
 62
7
 10
7.81100000
 20
19.09100000
  0
VERTEX
  8
0
 62
7
 10
7.86660938
 20
19.05321875
  0
VERTEX
  8
0
 62
7
 10
7.91762500
 20
19.00925000
  0
VERTEX
  8
0
 62
7
 10
7.96357813
 20
18.95965625
  0
VERTEX
  8
0
 62
7
 10
8.00400000
 20
18.90500000
  0
VERTEX
  8
0
 62
7
 10
8.03620313
 20
18.84907813
  0
VERTEX
  8
0
 62
7
 10
8.06212500
 20
18.78987500
  0
VERTEX
  8
0
 62
7
 10
8.08148438
 20
18.72823438
  0
VERTEX
  8
0
 62
7
 10
8.09400000
 20
18.66500000
  0
VERTEX
  8
0
 62
7
 10
8.04256250
 20
18.68465625
  0
VERTEX
  8
0
 62
7
 10
7.98925000
 20
18.69700000
  0
VERTEX
  8
0
 62
7
 10
7.93481250
 20
18.70184375
  0
VERTEX
  8
0
 62
7
 10
7.88000000
 20
18.69900000
  0
VERTEX
  8
0
 62
7
 10
7.84669141
 20
18.69264844
  0
VERTEX
  8
0
 62
7
 10
7.81303125
 20
18.68175000
  0
VERTEX
  8
0
 62
7
 10
7.77941797
 20
18.66728906
  0
VERTEX
  8
0
 62
7
 10
7.74625000
 20
18.65025000
  0
VERTEX
  8
0
 62
7
 10
7.71392578
 20
18.63161719
  0
VERTEX
  8
0
 62
7
 10
7.68284375
 20
18.61237500
  0
VERTEX
  8
0
 62
7
 10
7.65340234
 20
18.59350781
  0
VERTEX
  8
0
 62
7
 10
7.62600000
 20
18.57600000
  0
VERTEX
  8
0
 62
7
 10
7.58248218
 20
18.54706250
  0
VERTEX
  8
0
 62
7
 10
7.54195117
 20
18.51770313
  0
VERTEX
  8
0
 62
7
 10
7.50387817
 20
18.48803906
  0
VERTEX
  8
0
 62
7
 10
7.46773438
 20
18.45818750
  0
VERTEX
  8
0
 62
7
 10
7.43299097
 20
18.42826563
  0
VERTEX
  8
0
 62
7
 10
7.39911914
 20
18.39839063
  0
VERTEX
  8
0
 62
7
 10
7.36559009
 20
18.36867969
  0
VERTEX
  8
0
 62
7
 10
7.33187500
 20
18.33925000
  0
VERTEX
  8
0
 62
7
 10
7.29744507
 20
18.31021875
  0
VERTEX
  8
0
 62
7
 10
7.26177148
 20
18.28170313
  0
VERTEX
  8
0
 62
7
 10
7.22432544
 20
18.25382031
  0
VERTEX
  8
0
 62
7
 10
7.18457813
 20
18.22668750
  0
VERTEX
  8
0
 62
7
 10
7.14200073
 20
18.20042188
  0
VERTEX
  8
0
 62
7
 10
7.09606445
 20
18.17514063
  0
VERTEX
  8
0
 62
7
 10
7.04624048
 20
18.15096094
  0
VERTEX
  8
0
 62
7
 10
6.99200000
 20
18.12800000
  0
VERTEX
  8
0
 62
7
 10
6.94509375
 20
18.11071875
  0
VERTEX
  8
0
 62
7
 10
6.89875000
 20
18.09625000
  0
VERTEX
  8
0
 62
7
 10
6.85278125
 20
18.08440625
  0
VERTEX
  8
0
 62
7
 10
6.80700000
 20
18.07500000
  0
VERTEX
  8
0
 62
7
 10
6.81086328
 20
18.09570313
  0
VERTEX
  8
0
 62
7
 10
6.81221875
 20
18.11706250
  0
VERTEX
  8
0
 62
7
 10
6.81146484
 20
18.13870313
  0
VERTEX
  8
0
 62
7
 10
6.80900000
 20
18.16025000
  0
VERTEX
  8
0
 62
7
 10
6.80522266
 20
18.18132813
  0
VERTEX
  8
0
 62
7
 10
6.80053125
 20
18.20156250
  0
VERTEX
  8
0
 62
7
 10
6.79532422
 20
18.22057813
  0
VERTEX
  8
0
 62
7
 10
6.79000000
 20
18.23800000
  0
VERTEX
  8
0
 62
7
 10
6.77462500
 20
18.28575000
  0
VERTEX
  8
0
 62
7
 10
6.75700000
 20
18.33200000
  0
VERTEX
  8
0
 62
7
 10
6.75100000
 20
18.47100000
  0
SEQEND
  0
POLYLINE
  8
0
 62
7
 66
1
 70
1
  0
VERTEX
  8
0
 62
7
 10
6.37528544
 20
18.43703282
  0
VERTEX
  8
0
 62
7
 10
6.28303210
 20
18.33605995
  0
VERTEX
  8
0
 62
7
 10
6.18885012
 20
18.23692853
  0
VERTEX
  8
0
 62
7
 10
6.10206126
 20
18.14769491
  0
VERTEX
  8
0
 62
7
 10
6.01334376
 20
18.06076310
  0
VERTEX
  8
0
 62
7
 10
6.01880825
 20
18.05051044
  0
VERTEX
  8
0
 62
7
 10
6.02282625
 20
18.03997005
  0
VERTEX
  8
0
 62
7
 10
6.02563885
 20
18.02908440
  0
VERTEX
  8
0
 62
7
 10
6.02748713
 20
18.01779592
  0
VERTEX
  8
0
 62
7
 10
6.02772570
 20
18.01150670
  0
VERTEX
  8
0
 62
7
 10
6.02722596
 20
18.00408095
  0
VERTEX
  8
0
 62
7
 10
6.02633447
 20
17.99610852
  0
VERTEX
  8
0
 62
7
 10
6.02539777
 20
17.98817926
  0
VERTEX
  8
0
 62
7
 10
6.02476242
 20
17.98088299
  0
VERTEX
  8
0
 62
7
 10
6.02477498
 20
17.97480956
  0
VERTEX
  8
0
 62
7
 10
6.02578199
 20
17.97054881
  0
VERTEX
  8
0
 62
7
 10
6.02813001
 20
17.96869057
  0
VERTEX
  8
0
 62
7
 10
6.09281985
 20
17.95925314
  0
VERTEX
  8
0
 62
7
 10
6.15606321
 20
17.95211752
  0
VERTEX
  8
0
 62
7
 10
6.22672984
 20
17.94621912
  0
VERTEX
  8
0
 62
7
 10
6.30191671
 20
17.94129900
  0
VERTEX
  8
0
 62
7
 10
6.37746520
 20
17.93856559
  0
VERTEX
  8
0
 62
7
 10
6.44921668
 20
17.93922736
  0
VERTEX
  8
0
 62
7
 10
6.48086975
 20
17.94073433
  0
VERTEX
  8
0
 62
7
 10
6.51126469
 20
17.94253622
  0
VERTEX
  8
0
 62
7
 10
6.54046929
 20
17.94538831
  0
VERTEX
  8
0
 62
7
 10
6.56855136
 20
17.95004589
  0
VERTEX
  8
0
 62
7
 10
6.59557870
 20
17.95726423
  0
VERTEX
  8
0
 62
7
 10
6.62161913
 20
17.96779862
  0
VERTEX
  8
0
 62
7
 10
6.64674043
 20
17.98240434
  0
VERTEX
  8
0
 62
7
 10
6.67101042
 20
18.00183668
  0
VERTEX
  8
0
 62
7
 10
6.68468168
 20
18.01571470
  0
VERTEX
  8
0
 62
7
 10
6.69744888
 20
18.03068607
  0
VERTEX
  8
0
 62
7
 10
6.70889014
 20
18.04680836
  0
VERTEX
  8
0
 62
7
 10
6.71858357
 20
18.06413909
  0
VERTEX
  8
0
 62
7
 10
6.72610728
 20
18.08273582
  0
VERTEX
  8
0
 62
7
 10
6.73103938
 20
18.10265610
  0
VERTEX
  8
0
 62
7
 10
6.73295798
 20
18.12395746
  0
VERTEX
  8
0
 62
7
 10
6.73144118
 20
18.14669746
  0
VERTEX
  8
0
 62
7
 10
6.72419873
 20
18.17802130
  0
VERTEX
  8
0
 62
7
 10
6.71496737
 20
18.20807914
  0
VERTEX
  8
0
 62
7
 10
6.70513331
 20
18.23767662
  0
VERTEX
  8
0
 62
7
 10
6.69608276
 20
18.26761937
  0
VERTEX
  8
0
 62
7
 10
6.68850883
 20
18.28887278
  0
VERTEX
  8
0
 62
7
 10
6.67985003
 20
18.30966583
  0
VERTEX
  8
0
 62
7
 10
6.67239663
 20
18.33045887
  0
VERTEX
  8
0
 62
7
 10
6.66843890
 20
18.35171228
  0
VERTEX
  8
0
 62
7
 10
6.66784625
 20
18.37716650
  0
VERTEX
  8
0
 62
7
 10
6.66900142
 20
18.40480744
  0
VERTEX
  8
0
 62
7
 10
6.67051822
 20
18.43198801
  0
VERTEX
  8
0
 62
7
 10
6.67101042
 20
18.45606114
  0
VERTEX
  8
0
 62
7
 10
6.67040521
 20
18.47617683
  0
VERTEX
  8
0
 62
7
 10
6.66918223
 20
18.49522074
  0
VERTEX
  8
0
 62
7
 10
6.66678399
 20
18.51338708
  0
VERTEX
  8
0
 62
7
 10
6.66265298
 20
18.53087007
  0
VERTEX
  8
0
 62
7
 10
6.65623171
 20
18.54786393
  0
VERTEX
  8
0
 62
7
 10
6.64696268
 20
18.56456286
  0
VERTEX
  8
0
 62
7
 10
6.63428839
 20
18.58116109
  0
VERTEX
  8
0
 62
7
 10
6.61765135
 20
18.59785283
  0
VERTEX
  8
0
 62
7
 10
6.61624882
 20
18.59614805
  0
VERTEX
  8
0
 62
7
 10
6.61221700
 20
18.59169548
  0
VERTEX
  8
0
 62
7
 10
6.60581959
 20
18.58548778
  0
VERTEX
  8
0
 62
7
 10
6.59732026
 20
18.57851760
  0
VERTEX
  8
0
 62
7
 10
6.58698269
 20
18.57177761
  0
VERTEX
  8
0
 62
7
 10
6.57507057
 20
18.56626045
  0
VERTEX
  8
0
 62
7
 10
6.56184757
 20
18.56295878
  0
VERTEX
  8
0
 62
7
 10
6.54757739
 20
18.56286527
  0
VERTEX
  8
0
 62
7
 10
6.53052096
 20
18.56690304
  0
VERTEX
  8
0
 62
7
 10
6.51623697
 20
18.57399070
  0
VERTEX
  8
0
 62
7
 10
6.50364053
 20
18.58349527
  0
VERTEX
  8
0
 62
7
 10
6.49164679
 20
18.59478375
  0
VERTEX
  8
0
 62
7
 10
6.48038634
 20
18.60670522
  0
VERTEX
  8
0
 62
7
 10
6.47099426
 20
18.61925970
  0
VERTEX
  8
0
 62
7
 10
6.46389244
 20
18.63354053
  0
VERTEX
  8
0
 62
7
 10
6.45950277
 20
18.65064108
  0
VERTEX
  8
0
 62
7
 10
6.45954546
 20
18.66492671
  0
VERTEX
  8
0
 62
7
 10
6.46285780
 20
18.67814775
  0
VERTEX
  8
0
 62
7
 10
6.46843027
 20
18.69004525
  0
VERTEX
  8
0
 62
7
 10
6.47525334
 20
18.70036025
  0
VERTEX
  8
0
 62
7
 10
6.48231749
 20
18.70883379
  0
VERTEX
  8
0
 62
7
 10
6.48861320
 20
18.71520694
  0
VERTEX
  8
0
 62
7
 10
6.49313094
 20
18.71922073
  0
VERTEX
  8
0
 62
7
 10
6.49486119
 20
18.72061620
  0
VERTEX
  8
0
 62
7
 10
6.47810361
 20
18.73731274
  0
VERTEX
  8
0
 62
7
 10
6.46145150
 20
18.75003145
  0
VERTEX
  8
0
 62
7
 10
6.44470899
 20
18.75934061
  0
VERTEX
  8
0
 62
7
 10
6.42768019
 20
18.76580847
  0
VERTEX
  8
0
 62
7
 10
6.41016923
 20
18.77000328
  0
VERTEX
  8
0
 62
7
 10
6.39198024
 20
18.77249331
  0
VERTEX
  8
0
 62
7
 10
6.37291732
 20
18.77384683
  0
VERTEX
  8
0
 62
7
 10
6.35278462
 20
18.77463208
  0
VERTEX
  8
0
 62
7
 10
6.32864647
 20
18.77406622
  0
VERTEX
  8
0
 62
7
 10
6.30143455
 20
18.77240700
  0
VERTEX
  8
0
 62
7
 10
6.27386101
 20
18.77109305
  0
VERTEX
  8
0
 62
7
 10
6.24863799
 20
18.77156300
  0
VERTEX
  8
0
 62
7
 10
6.22724213
 20
18.77543772
  0
VERTEX
  8
0
 62
7
 10
6.20620789
 20
18.78276516
  0
VERTEX
  8
0
 62
7
 10
6.18517364
 20
18.79124350
  0
VERTEX
  8
0
 62
7
 10
6.16377778
 20
18.79857094
  0
VERTEX
  8
0
 62
7
 10
6.13377335
 20
18.80801796
  0
VERTEX
  8
0
 62
7
 10
6.10407026
 20
18.81798290
  0
VERTEX
  8
0
 62
7
 10
6.07400556
 20
18.82714220
  0
VERTEX
  8
0
 62
7
 10
6.04291626
 20
18.83417232
  0
VERTEX
  8
0
 62
7
 10
6.02024594
 20
18.83576680
  0
VERTEX
  8
0
 62
7
 10
5.99896936
 20
18.83392295
  0
VERTEX
  8
0
 62
7
 10
5.97903379
 20
18.82905798
  0
VERTEX
  8
0
 62
7
 10
5.96038649
 20
18.82158907
  0
VERTEX
  8
0
 62
7
 10
5.94297473
 20
18.81193344
  0
VERTEX
  8
0
 62
7
 10
5.92674576
 20
18.80050830
  0
VERTEX
  8
0
 62
7
 10
5.91164686
 20
18.78773084
  0
VERTEX
  8
0
 62
7
 10
5.89762529
 20
18.77401827
  0
VERTEX
  8
0
 62
7
 10
5.87851843
 20
18.74986961
  0
VERTEX
  8
0
 62
7
 10
5.86410510
 20
18.72480742
  0
VERTEX
  8
0
 62
7
 10
5.85365453
 20
18.69878135
  0
VERTEX
  8
0
 62
7
 10
5.84643594
 20
18.67174104
  0
VERTEX
  8
0
 62
7
 10
5.84171855
 20
18.64363614
  0
VERTEX
  8
0
 62
7
 10
5.83877160
 20
18.61441630
  0
VERTEX
  8
0
 62
7
 10
5.83686430
 20
18.58403116
  0
VERTEX
  8
0
 62
7
 10
5.83526589
 20
18.55243039
  0
VERTEX
  8
0
 62
7
 10
5.83456274
 20
18.48095909
  0
VERTEX
  8
0
 62
7
 10
5.83735525
 20
18.40557471
  0
VERTEX
  8
0
 62
7
 10
5.84231748
 20
18.33042051
  0
VERTEX
  8
0
 62
7
 10
5.84812350
 20
18.25963975
  0
VERTEX
  8
0
 62
7
 10
5.85503446
 20
18.19633989
  0
VERTEX
  8
0
 62
7
 10
5.86483839
 20
18.13257967
  0
VERTEX
  8
0
 62
7
 10
5.86670048
 20
18.12995896
  0
VERTEX
  8
0
 62
7
 10
5.87093571
 20
18.12876250
  0
VERTEX
  8
0
 62
7
 10
5.87696397
 20
18.12863062
  0
VERTEX
  8
0
 62
7
 10
5.88420516
 20
18.12920368
  0
VERTEX
  8
0
 62
7
 10
5.89207919
 20
18.13012200
  0
VERTEX
  8
0
 62
7
 10
5.90000596
 20
18.13102595
  0
VERTEX
  8
0
 62
7
 10
5.90740536
 20
18.13155584
  0
VERTEX
  8
0
 62
7
 10
5.91369730
 20
18.13135204
  0
VERTEX
  8
0
 62
7
 10
5.93603739
 20
18.12659495
  0
VERTEX
  8
0
 62
7
 10
5.95741317
 20
18.11723425
  0
VERTEX
  8
0
 62
7
 10
6.04404130
 20
18.20562387
  0
VERTEX
  8
0
 62
7
 10
6.13356240
 20
18.29217205
  0
VERTEX
  8
0
 62
7
 10
6.23232490
 20
18.38654639
  0
VERTEX
  8
0
 62
7
 10
6.33349821
 20
18.47815855
  0
VERTEX
  8
0
 62
7
 10
6.34383703
 20
18.48432189
  0
VERTEX
  8
0
 62
7
 10
6.35449227
 20
18.48545722
  0
VERTEX
  8
0
 62
7
 10
6.36457495
 20
18.48246366
  0
VERTEX
  8
0
 62
7
 10
6.37319607
 20
18.47624037
  0
VERTEX
  8
0
 62
7
 10
6.37946667
 20
18.46768650
  0
VERTEX
  8
0
 62
7
 10
6.38249775
 20
18.45770119
  0
VERTEX
  8
0
 62
7
 10
6.38140033
 20
18.44718358
  0
VERTEX
  8
0
 62
7
 10
6.37528544
 20
18.43703282
  0
SEQEND
  0
POLYLINE
  8
0
 62
7
 66
1
 70
1
  0
VERTEX
  8
0
 62
7
 10
.00001605
 20
.00000000
  0
VERTEX
  8
0
 62
7
 10
42.00044105
 20
.00000000
  0
VERTEX
  8
0
 62
7
 10
40.95039292
 20
20.50800000
  0
VERTEX
  8
0
 62
7
 10
40.34351440
 20
20.51887012
  0
VERTEX
  8
0
 62
7
 10
39.73856297
 20
20.53458594
  0
VERTEX
  8
0
 62
7
 10
39.13563751
 20
20.55511816
  0
VERTEX
  8
0
 62
7
 10
38.53483690
 20
20.58043750
  0
VERTEX
  8
0
 62
7
 10
37.93626003
 20
20.61051465
  0
VERTEX
  8
0
 62
7
 10
37.34000577
 20
20.64532031
  0
VERTEX
  8
0
 62
7
 10
36.74617301
 20
20.68482520
  0
VERTEX
  8
0
 62
7
 10
36.15486063
 20
20.72900000
  0
VERTEX
  8
0
 62
7
 10
35.56616751
 20
20.77781543
  0
VERTEX
  8
0
 62
7
 10
34.98019253
 20
20.83124219
  0
VERTEX
  8
0
 62
7
 10
34.39703458
 20
20.88925098
  0
VERTEX
  8
0
 62
7
 10
33.81679253
 20
20.95181250
  0
VERTEX
  8
0
 62
7
 10
33.23956527
 20
21.01889746
  0
VERTEX
  8
0
 62
7
 10
32.66545168
 20
21.09047656
  0
VERTEX
  8
0
 62
7
 10
32.09455063
 20
21.16652051
  0
VERTEX
  8
0
 62
7
 10
31.52696102
 20
21.24700000
  0
VERTEX
  8
0
 62
7
 10
30.89740018
 20
21.33605249
  0
VERTEX
  8
0
 62
7
 10
30.26277222
 20
21.41979492
  0
VERTEX
  8
0
 62
7
 10
29.62335400
 20
21.49816724
  0
VERTEX
  8
0
 62
7
 10
28.97942238
 20
21.57110938
  0
VERTEX
  8
0
 62
7
 10
28.33125425
 20
21.63856128
  0
VERTEX
  8
0
 62
7
 10
27.67912646
 20
21.70046289
  0
VERTEX
  8
0
 62
7
 10
27.02331589
 20
21.75675415
  0
VERTEX
  8
0
 62
7
 10
26.36409939
 20
21.80737500
  0
VERTEX
  8
0
 62
7
 10
25.70175385
 20
21.85226538
  0
VERTEX
  8
0
 62
7
 10
25.03655613
 20
21.89136523
  0
VERTEX
  8
0
 62
7
 10
24.36878309
 20
21.92461450
  0
VERTEX
  8
0
 62
7
 10
23.69871160
 20
21.95195313
  0
VERTEX
  8
0
 62
7
 10
23.02661855
 20
21.97332104
  0
VERTEX
  8
0
 62
7
 10
22.35278078
 20
21.98865820
  0
VERTEX
  8
0
 62
7
 10
21.67747517
 20
21.99790454
  0
VERTEX
  8
0
 62
7
 10
21.00097859
 20
22.00100000
  0
VERTEX
  8
0
 62
7
 10
20.32446516
 20
21.99790454
  0
VERTEX
  8
0
 62
7
 10
19.64911194
 20
21.98865820
  0
VERTEX
  8
0
 62
7
 10
18.97520019
 20
21.97332104
  0
VERTEX
  8
0
 62
7
 10
18.30301118
 20
21.95195313
  0
VERTEX
  8
0
 62
7
 10
17.63282617
 20
21.92461450
  0
VERTEX
  8
0
 62
7
 10
16.96492641
 20
21.89136523
  0
VERTEX
  8
0
 62
7
 10
16.29959319
 20
21.85226538
  0
VERTEX
  8
0
 62
7
 10
15.63710774
 20
21.80737500
  0
VERTEX
  8
0
 62
7
 10
14.97775135
 20
21.75675415
  0
VERTEX
  8
0
 62
7
 10
14.32180527
 20
21.70046289
  0
VERTEX
  8
0
 62
7
 10
13.66955077
 20
21.63856128
  0
VERTEX
  8
0
 62
7
 10
13.02126910
 20
21.57110938
  0
VERTEX
  8
0
 62
7
 10
12.37724154
 20
21.49816724
  0
VERTEX
  8
0
 62
7
 10
11.73774934
 20
21.41979492
  0
VERTEX
  8
0
 62
7
 10
11.10307376
 20
21.33605249
  0
VERTEX
  8
0
 62
7
 10
10.47349608
 20
21.24700000
  0
VERTEX
  8
0
 62
7
 10
9.90590647
 20
21.16652051
  0
VERTEX
  8
0
 62
7
 10
9.33500542
 20
21.09047656
  0
VERTEX
  8
0
 62
7
 10
8.76089183
 20
21.01889746
  0
VERTEX
  8
0
 62
7
 10
8.18366457
 20
20.95181250
  0
VERTEX
  8
0
 62
7
 10
7.60342252
 20
20.88925098
  0
VERTEX
  8
0
 62
7
 10
7.02026457
 20
20.83124219
  0
VERTEX
  8
0
 62
7
 10
6.43428959
 20
20.77781543
  0
VERTEX
  8
0
 62
7
 10
5.84559647
 20
20.72900000
  0
VERTEX
  8
0
 62
7
 10
5.25428409
 20
20.68482520
  0
VERTEX
  8
0
 62
7
 10
4.66045133
 20
20.64532031
  0
VERTEX
  8
0
 62
7
 10
4.06419708
 20
20.61051465
  0
VERTEX
  8
0
 62
7
 10
3.46562020
 20
20.58043750
  0
VERTEX
  8
0
 62
7
 10
2.86481960
 20
20.55511816
  0
VERTEX
  8
0
 62
7
 10
2.26189413
 20
20.53458594
  0
VERTEX
  8
0
 62
7
 10
1.65694270
 20
20.51887012
  0
VERTEX
  8
0
 62
7
 10
1.05006418
 20
20.50800000
  0
VERTEX
  8
0
 62
7
 10
.00001605
 20
.00000000
  0
SEQEND
  0
POLYLINE
  8
0
 62
7
 66
1
 70
1
  0
VERTEX
  8
0
 62
7
 10
34.05200000
 20
19.24800000
  0
VERTEX
  8
0
 62
7
 10
34.08309375
 20
19.23489063
  0
VERTEX
  8
0
 62
7
 10
34.11325000
 20
19.21962500
  0
VERTEX
  8
0
 62
7
 10
34.14228125
 20
19.20229688
  0
VERTEX
  8
0
 62
7
 10
34.17000000
 20
19.18300000
  0
VERTEX
  8
0
 62
7
 10
34.20100000
 20
19.19800000
  0
VERTEX
  8
0
 62
7
 10
34.21100000
 20
19.21500000
  0
VERTEX
  8
0
 62
7
 10
34.23140625
 20
19.23968750
  0
VERTEX
  8
0
 62
7
 10
34.25575000
 20
19.26025000
  0
VERTEX
  8
0
 62
7
 10
34.28271875
 20
19.27743750
  0
VERTEX
  8
0
 62
7
 10
34.31100000
 20
19.29200000
  0
VERTEX
  8
0
 62
7
 10
34.33530859
 20
19.30113086
  0
VERTEX
  8
0
 62
7
 10
34.36015625
 20
19.30710938
  0
VERTEX
  8
0
 62
7
 10
34.38542578
 20
19.31043945
  0
VERTEX
  8
0
 62
7
 10
34.41100000
 20
19.31162500
  0
VERTEX
  8
0
 62
7
 10
34.43676172
 20
19.31116992
  0
VERTEX
  8
0
 62
7
 10
34.46259375
 20
19.30957813
  0
VERTEX
  8
0
 62
7
 10
34.48837891
 20
19.30735352
  0
VERTEX
  8
0
 62
7
 10
34.51400000
 20
19.30500000
  0
VERTEX
  8
0
 62
7
 10
34.57250000
 20
19.29595313
  0
VERTEX
  8
0
 62
7
 10
34.62950000
 20
19.28137500
  0
VERTEX
  8
0
 62
7
 10
34.68500000
 20
19.26210938
  0
VERTEX
  8
0
 62
7
 10
34.73900000
 20
19.23900000
  0
VERTEX
  8
0
 62
7
 10
34.79632227
 20
19.22891797
  0
VERTEX
  8
0
 62
7
 10
34.85276563
 20
19.21609375
  0
VERTEX
  8
0
 62
7
 10
34.90829492
 20
19.20078516
  0
VERTEX
  8
0
 62
7
 10
34.96287500
 20
19.18325000
  0
VERTEX
  8
0
 62
7
 10
35.01647070
 20
19.16374609
  0
VERTEX
  8
0
 62
7
 10
35.06904688
 20
19.14253125
  0
VERTEX
  8
0
 62
7
 10
35.12056836
 20
19.11986328
  0
VERTEX
  8
0
 62
7
 10
35.17100000
 20
19.09600000
  0
VERTEX
  8
0
 62
7
 10
35.22578125
 20
19.06596875
  0
VERTEX
  8
0
 62
7
 10
35.28600000
 20
19.02750000
  0
VERTEX
  8
0
 62
7
 10
35.34846875
 20
18.98378125
  0
VERTEX
  8
0
 62
7
 10
35.41000000
 20
18.93800000
  0
VERTEX
  8
0
 62
7
 10
35.34212500
 20
19.01250000
  0
VERTEX
  8
0
 62
7
 10
35.26900000
 20
19.08400000
  0
VERTEX
  8
0
 62
7
 10
35.19334375
 20
19.15121875
  0
VERTEX
  8
0
 62
7
 10
35.11375000
 20
19.21450000
  0
VERTEX
  8
0
 62
7
 10
35.03078125
 20
19.27328125
  0
VERTEX
  8
0
 62
7
 10
34.94500000
 20
19.32700000
  0
VERTEX
  8
0
 62
7
 10
34.86825000
 20
19.36900000
  0
VERTEX
  8
0
 62
7
 10
34.79000000
 20
19.40500000
  0
VERTEX
  8
0
 62
7
 10
34.74199023
 20
19.42483789
  0
VERTEX
  8
0
 62
7
 10
34.69260938
 20
19.44332813
  0
VERTEX
  8
0
 62
7
 10
34.64208008
 20
19.45968555
  0
VERTEX
  8
0
 62
7
 10
34.59062500
 20
19.47312500
  0
VERTEX
  8
0
 62
7
 10
34.53846680
 20
19.48286133
  0
VERTEX
  8
0
 62
7
 10
34.48582813
 20
19.48810938
  0
VERTEX
  8
0
 62
7
 10
34.43293164
 20
19.48808398
  0
VERTEX
  8
0
 62
7
 10
34.38000000
 20
19.48200000
  0
VERTEX
  8
0
 62
7
 10
34.35139648
 20
19.47676367
  0
VERTEX
  8
0
 62
7
 10
34.32273438
 20
19.47067188
  0
VERTEX
  8
0
 62
7
 10
34.29423633
 20
19.46352539
  0
VERTEX
  8
0
 62
7
 10
34.26612500
 20
19.45512500
  0
VERTEX
  8
0
 62
7
 10
34.23862305
 20
19.44527148
  0
VERTEX
  8
0
 62
7
 10
34.21195313
 20
19.43376563
  0
VERTEX
  8
0
 62
7
 10
34.18633789
 20
19.42040820
  0
VERTEX
  8
0
 62
7
 10
34.16200000
 20
19.40500000
  0
VERTEX
  8
0
 62
7
 10
34.13687500
 20
19.38387500
  0
VERTEX
  8
0
 62
7
 10
34.11400000
 20
19.35900000
  0
VERTEX
  8
0
 62
7
 10
34.09432813
 20
19.33335938
  0
VERTEX
  8
0
 62
7
 10
34.07737500
 20
19.30612500
  0
VERTEX
  8
0
 62
7
 10
34.06323438
 20
19.27757813
  0
VERTEX
  8
0
 62
7
 10
34.05200000
 20
19.24800000
  0
SEQEND
  0
POLYLINE
  8
0
 62
7
 66
1
 70
1
  0
VERTEX
  8
0
 62
7
 10
33.96200000
 20
19.01000000
  0
VERTEX
  8
0
 62
7
 10
33.99010938
 20
19.04296875
  0
VERTEX
  8
0
 62
7
 10
34.02037500
 20
19.07425000
  0
VERTEX
  8
0
 62
7
 10
34.05270313
 20
19.10365625
  0
VERTEX
  8
0
 62
7
 10
34.08700000
 20
19.13100000
  0
VERTEX
  8
0
 62
7
 10
34.06137500
 20
19.14562500
  0
VERTEX
  8
0
 62
7
 10
34.03500000
 20
19.15800000
  0
VERTEX
  8
0
 62
7
 10
34.01700000
 20
19.16400000
  0
VERTEX
  8
0
 62
7
 10
33.98187500
 20
19.17500000
  0
VERTEX
  8
0
 62
7
 10
33.94600000
 20
19.18300000
  0
VERTEX
  8
0
 62
7
 10
33.91546680
 20
19.18628320
  0
VERTEX
  8
0
 62
7
 10
33.88473438
 20
19.18714063
  0
VERTEX
  8
0
 62
7
 10
33.85397852
 20
19.18558398
  0
VERTEX
  8
0
 62
7
 10
33.82337500
 20
19.18162500
  0
VERTEX
  8
0
 62
7
 10
33.79309961
 20
19.17527539
  0
VERTEX
  8
0
 62
7
 10
33.76332813
 20
19.16654688
  0
VERTEX
  8
0
 62
7
 10
33.73423633
 20
19.15545117
  0
VERTEX
  8
0
 62
7
 10
33.70600000
 20
19.14200000
  0
VERTEX
  8
0
 62
7
 10
33.65718750
 20
19.11275000
  0
VERTEX
  8
0
 62
7
 10
33.61325000
 20
19.07750000
  0
VERTEX
  8
0
 62
7
 10
33.57493750
 20
19.03625000
  0
VERTEX
  8
0
 62
7
 10
33.54300000
 20
18.98900000
  0
VERTEX
  8
0
 62
7
 10
33.53093359
 20
18.96538867
  0
VERTEX
  8
0
 62
7
 10
33.52034375
 20
18.94110938
  0
VERTEX
  8
0
 62
7
 10
33.51139453
 20
18.91624414
  0
VERTEX
  8
0
 62
7
 10
33.50425000
 20
18.89087500
  0
VERTEX
  8
0
 62
7
 10
33.49907422
 20
18.86508398
  0
VERTEX
  8
0
 62
7
 10
33.49603125
 20
18.83895313
  0
VERTEX
  8
0
 62
7
 10
33.49528516
 20
18.81256445
  0
VERTEX
  8
0
 62
7
 10
33.49700000
 20
18.78600000
  0
VERTEX
  8
0
 62
7
 10
33.50131445
 20
18.75636523
  0
VERTEX
  8
0
 62
7
 10
33.50714063
 20
18.72648438
  0
VERTEX
  8
0
 62
7
 10
33.51505273
 20
18.69714258
  0
VERTEX
  8
0
 62
7
 10
33.52562500
 20
18.66912500
  0
VERTEX
  8
0
 62
7
 10
33.53943164
 20
18.64321680
  0
VERTEX
  8
0
 62
7
 10
33.55704688
 20
18.62020313
  0
VERTEX
  8
0
 62
7
 10
33.57904492
 20
18.60086914
  0
VERTEX
  8
0
 62
7
 10
33.60600000
 20
18.58600000
  0
VERTEX
  8
0
 62
7
 10
33.62770508
 20
18.57873633
  0
VERTEX
  8
0
 62
7
 10
33.64989063
 20
18.57420313
  0
VERTEX
  8
0
 62
7
 10
33.67228711
 20
18.57241211
  0
VERTEX
  8
0
 62
7
 10
33.69462500
 20
18.57337500
  0
VERTEX
  8
0
 62
7
 10
33.71663477
 20
18.57710352
  0
VERTEX
  8
0
 62
7
 10
33.73804688
 20
18.58360938
  0
VERTEX
  8
0
 62
7
 10
33.75859180
 20
18.59290430
  0
VERTEX
  8
0
 62
7
 10
33.77800000
 20
18.60500000
  0
VERTEX
  8
0
 62
7
 10
33.75112500
 20
18.60739063
  0
VERTEX
  8
0
 62
7
 10
33.72500000
 20
18.61437500
  0
VERTEX
  8
0
 62
7
 10
33.70037500
 20
18.62567188
  0
VERTEX
  8
0
 62
7
 10
33.67800000
 20
18.64100000
  0
VERTEX
  8
0
 62
7
 10
33.65919531
 20
18.66078711
  0
VERTEX
  8
0
 62
7
 10
33.64587500
 20
18.68304688
  0
VERTEX
  8
0
 62
7
 10
33.63742969
 20
18.70725195
  0
VERTEX
  8
0
 62
7
 10
33.63325000
 20
18.73287500
  0
VERTEX
  8
0
 62
7
 10
33.63272656
 20
18.75938867
  0
VERTEX
  8
0
 62
7
 10
33.63525000
 20
18.78626563
  0
VERTEX
  8
0
 62
7
 10
33.64021094
 20
18.81297852
  0
VERTEX
  8
0
 62
7
 10
33.64700000
 20
18.83900000
  0
VERTEX
  8
0
 62
7
 10
33.65983398
 20
18.87292773
  0
VERTEX
  8
0
 62
7
 10
33.67767188
 20
18.90342188
  0
VERTEX
  8
0
 62
7
 10
33.69989258
 20
18.93042383
  0
VERTEX
  8
0
 62
7
 10
33.72587500
 20
18.95387500
  0
VERTEX
  8
0
 62
7
 10
33.75499805
 20
18.97371680
  0
VERTEX
  8
0
 62
7
 10
33.78664063
 20
18.98989063
  0
VERTEX
  8
0
 62
7
 10
33.82018164
 20
19.00233789
  0
VERTEX
  8
0
 62
7
 10
33.85500000
 20
19.01100000
  0
VERTEX
  8
0
 62
7
 10
33.88156250
 20
19.01450000
  0
VERTEX
  8
0
 62
7
 10
33.90850000
 20
19.01575000
  0
VERTEX
  8
0
 62
7
 10
33.93543750
 20
19.01437500
  0
VERTEX
  8
0
 62
7
 10
33.96200000
 20
19.01000000
  0
SEQEND
  0
POLYLINE
  8
0
 62
7
 66
1
 70
1
  0
VERTEX
  8
0
 62
7
 10
37.13100000
 20
17.25500000
  0
VERTEX
  8
0
 62
7
 10
37.17000000
 20
17.29450000
  0
VERTEX
  8
0
 62
7
 10
37.21200000
 20
17.33100000
  0
VERTEX
  8
0
 62
7
 10
37.26087500
 20
17.36903125
  0
VERTEX
  8
0
 62
7
 10
37.31275000
 20
17.40350000
  0
VERTEX
  8
0
 62
7
 10
37.36725000
 20
17.43421875
  0
VERTEX
  8
0
 62
7
 10
37.42400000
 20
17.46100000
  0
VERTEX
  8
0
 62
7
 10
37.44150000
 20
17.46637500
  0
VERTEX
  8
0
 62
7
 10
37.45900000
 20
17.46800000
  0
VERTEX
  8
0
 62
7
 10
37.47159375
 20
17.54354688
  0
VERTEX
  8
0
 62
7
 10
37.48700000
 20
17.61862500
  0
VERTEX
  8
0
 62
7
 10
37.50540625
 20
17.69314063
  0
VERTEX
  8
0
 62
7
 10
37.52700000
 20
17.76700000
  0
VERTEX
  8
0
 62
7
 10
37.54332813
 20
17.81424609
  0
VERTEX
  8
0
 62
7
 10
37.56143750
 20
17.86015625
  0
VERTEX
  8
0
 62
7
 10
37.58114063
 20
17.90498828
  0
VERTEX
  8
0
 62
7
 10
37.60225000
 20
17.94900000
  0
VERTEX
  8
0
 62
7
 10
37.62457813
 20
17.99244922
  0
VERTEX
  8
0
 62
7
 10
37.64793750
 20
18.03559375
  0
VERTEX
  8
0
 62
7
 10
37.67214063
 20
18.07869141
  0
VERTEX
  8
0
 62
7
 10
37.69700000
 20
18.12200000
  0
VERTEX
  8
0
 62
7
 10
37.73300000
 20
18.10000000
  0
VERTEX
  8
0
 62
7
 10
37.68715625
 20
18.01487500
  0
VERTEX
  8
0
 62
7
 10
37.64675000
 20
17.92750000
  0
VERTEX
  8
0
 62
7
 10
37.61121875
 20
17.83787500
  0
VERTEX
  8
0
 62
7
 10
37.58000000
 20
17.74600000
  0
VERTEX
  8
0
 62
7
 10
37.55875000
 20
17.67187500
  0
VERTEX
  8
0
 62
7
 10
37.54125000
 20
17.59775000
  0
VERTEX
  8
0
 62
7
 10
37.52712500
 20
17.52325000
  0
VERTEX
  8
0
 62
7
 10
37.51600000
 20
17.44800000
  0
VERTEX
  8
0
 62
7
 10
37.53196875
 20
17.43164063
  0
VERTEX
  8
0
 62
7
 10
37.54325000
 20
17.41162500
  0
VERTEX
  8
0
 62
7
 10
37.54890625
 20
17.38879688
  0
VERTEX
  8
0
 62
7
 10
37.54800000
 20
17.36400000
  0
VERTEX
  8
0
 62
7
 10
37.54350000
 20
17.32800000
  0
VERTEX
  8
0
 62
7
 10
37.54200000
 20
17.29200000
  0
VERTEX
  8
0
 62
7
 10
37.54309375
 20
17.26067188
  0
VERTEX
  8
0
 62
7
 10
37.54625000
 20
17.22962500
  0
VERTEX
  8
0
 62
7
 10
37.55128125
 20
17.19876563
  0
VERTEX
  8
0
 62
7
 10
37.55800000
 20
17.16800000
  0
VERTEX
  8
0
 62
7
 10
37.57809375
 20
17.10348438
  0
VERTEX
  8
0
 62
7
 10
37.60325000
 20
17.03962500
  0
VERTEX
  8
0
 62
7
 10
37.63253125
 20
16.97520313
  0
VERTEX
  8
0
 62
7
 10
37.66500000
 20
16.90900000
  0
VERTEX
  8
0
 62
7
 10
37.70500000
 20
16.82500000
  0
VERTEX
  8
0
 62
7
 10
37.73650000
 20
16.88946875
  0
VERTEX
  8
0
 62
7
 10
37.76500000
 20
16.95525000
  0
VERTEX
  8
0
 62
7
 10
37.79050000
 20
17.02215625
  0
VERTEX
  8
0
 62
7
 10
37.81300000
 20
17.09000000
  0
VERTEX
  8
0
 62
7
 10
37.83956641
 20
17.18189258
  0
VERTEX
  8
0
 62
7
 10
37.86221875
 20
17.27351563
  0
VERTEX
  8
0
 62
7
 10
37.88088672
 20
17.36553711
  0
VERTEX
  8
0
 62
7
 10
37.89550000
 20
17.45862500
  0
VERTEX
  8
0
 62
7
 10
37.90598828
 20
17.55344727
  0
VERTEX
  8
0
 62
7
 10
37.91228125
 20
17.65067188
  0
VERTEX
  8
0
 62
7
 10
37.91430859
 20
17.75096680
  0
VERTEX
  8
0
 62
7
 10
37.91200000
 20
17.85500000
  0
VERTEX
  8
0
 62
7
 10
37.91051172
 20
17.90052930
  0
VERTEX
  8
0
 62
7
 10
37.90946875
 20
17.94754688
  0
VERTEX
  8
0
 62
7
 10
37.90950391
 20
17.99557227
  0
VERTEX
  8
0
 62
7
 10
37.91125000
 20
18.04412500
  0
VERTEX
  8
0
 62
7
 10
37.91533984
 20
18.09272461
  0
VERTEX
  8
0
 62
7
 10
37.92240625
 20
18.14089063
  0
VERTEX
  8
0
 62
7
 10
37.93308203
 20
18.18814258
  0
VERTEX
  8
0
 62
7
 10
37.94800000
 20
18.23400000
  0
VERTEX
  8
0
 62
7
 10
37.97106250
 20
18.28834375
  0
VERTEX
  8
0
 62
7
 10
37.99825000
 20
18.34025000
  0
VERTEX
  8
0
 62
7
 10
38.02956250
 20
18.38953125
  0
VERTEX
  8
0
 62
7
 10
38.06500000
 20
18.43600000
  0
VERTEX
  8
0
 62
7
 10
37.99520313
 20
18.45081250
  0
VERTEX
  8
0
 62
7
 10
37.92437500
 20
18.45775000
  0
VERTEX
  8
0
 62
7
 10
37.85335938
 20
18.45681250
  0
VERTEX
  8
0
 62
7
 10
37.78300000
 20
18.44800000
  0
VERTEX
  8
0
 62
7
 10
37.73060352
 20
18.43624609
  0
VERTEX
  8
0
 62
7
 10
37.67995313
 20
18.41996875
  0
VERTEX
  8
0
 62
7
 10
37.63110742
 20
18.39951953
  0
VERTEX
  8
0
 62
7
 10
37.58412500
 20
18.37525000
  0
VERTEX
  8
0
 62
7
 10
37.53906445
 20
18.34751172
  0
VERTEX
  8
0
 62
7
 10
37.49598438
 20
18.31665625
  0
VERTEX
  8
0
 62
7
 10
37.45494336
 20
18.28303516
  0
VERTEX
  8
0
 62
7
 10
37.41600000
 20
18.24700000
  0
VERTEX
  8
0
 62
7
 10
37.37532227
 20
18.20234375
  0
VERTEX
  8
0
 62
7
 10
37.33920313
 20
18.15487500
  0
VERTEX
  8
0
 62
7
 10
37.30713867
 20
18.10496875
  0
VERTEX
  8
0
 62
7
 10
37.27862500
 20
18.05300000
  0
VERTEX
  8
0
 62
7
 10
37.25315820
 20
17.99934375
  0
VERTEX
  8
0
 62
7
 10
37.23023438
 20
17.94437500
  0
VERTEX
  8
0
 62
7
 10
37.20934961
 20
17.88846875
  0
VERTEX
  8
0
 62
7
 10
37.19000000
 20
17.83200000
  0
VERTEX
  8
0
 62
7
 10
37.16986914
 20
17.76233594
  0
VERTEX
  8
0
 62
7
 10
37.15364063
 20
17.69150000
  0
VERTEX
  8
0
 62
7
 10
37.14118555
 20
17.61972656
  0
VERTEX
  8
0
 62
7
 10
37.13237500
 20
17.54725000
  0
VERTEX
  8
0
 62
7
 10
37.12708008
 20
17.47430469
  0
VERTEX
  8
0
 62
7
 10
37.12517188
 20
17.40112500
  0
VERTEX
  8
0
 62
7
 10
37.12652148
 20
17.32794531
  0
VERTEX
  8
0
 62
7
 10
37.13100000
 20
17.25500000
  0
SEQEND
  0
POLYLINE
  8
0
 62
7
 66
1
 70
1
  0
VERTEX
  8
0
 62
7
 10
39.05400000
 20
14.45700000
  0
VERTEX
  8
0
 62
7
 10
38.95000000
 20
16.49800000
  0
VERTEX
  8
0
 62
7
 10
38.63800000
 20
16.49800000
  0
VERTEX
  8
0
 62
7
 10
38.66600000
 20
16.48300000
  0
VERTEX
  8
0
 62
7
 10
38.68826953
 20
16.46528711
  0
VERTEX
  8
0
 62
7
 10
38.70278125
 20
16.44329688
  0
VERTEX
  8
0
 62
7
 10
38.70983984
 20
16.41875195
  0
VERTEX
  8
0
 62
7
 10
38.70975000
 20
16.39337500
  0
VERTEX
  8
0
 62
7
 10
38.70281641
 20
16.36888867
  0
VERTEX
  8
0
 62
7
 10
38.68934375
 20
16.34701563
  0
VERTEX
  8
0
 62
7
 10
38.66963672
 20
16.32947852
  0
VERTEX
  8
0
 62
7
 10
38.64400000
 20
16.31800000
  0
VERTEX
  8
0
 62
7
 10
38.60800000
 20
16.30287500
  0
VERTEX
  8
0
 62
7
 10
38.57800000
 20
16.27800000
  0
VERTEX
  8
0
 62
7
 10
38.56887500
 20
16.26423438
  0
VERTEX
  8
0
 62
7
 10
38.56200000
 20
16.24512500
  0
VERTEX
  8
0
 62
7
 10
38.55662500
 20
16.21795313
  0
VERTEX
  8
0
 62
7
 10
38.55200000
 20
16.18000000
  0
VERTEX
  8
0
 62
7
 10
38.54400000
 20
16.12700000
  0
VERTEX
  8
0
 62
7
 10
38.53275000
 20
16.02825000
  0
VERTEX
  8
0
 62
7
 10
38.52600000
 20
15.92500000
  0
VERTEX
  8
0
 62
7
 10
38.52084375
 20
15.83757813
  0
VERTEX
  8
0
 62
7
 10
38.51175000
 20
15.74612500
  0
VERTEX
  8
0
 62
7
 10
38.49478125
 20
15.65260938
  0
VERTEX
  8
0
 62
7
 10
38.46600000
 20
15.55900000
  0
VERTEX
  8
0
 62
7
 10
38.44098047
 20
15.49903125
  0
VERTEX
  8
0
 62
7
 10
38.41246875
 20
15.44075000
  0
VERTEX
  8
0
 62
7
 10
38.38053516
 20
15.38434375
  0
VERTEX
  8
0
 62
7
 10
38.34525000
 20
15.33000000
  0
VERTEX
  8
0
 62
7
 10
38.30668359
 20
15.27790625
  0
VERTEX
  8
0
 62
7
 10
38.26490625
 20
15.22825000
  0
VERTEX
  8
0
 62
7
 10
38.21998828
 20
15.18121875
  0
VERTEX
  8
0
 62
7
 10
38.17200000
 20
15.13700000
  0
VERTEX
  8
0
 62
7
 10
38.12275000
 20
15.10125000
  0
VERTEX
  8
0
 62
7
 10
38.07800000
 20
15.07600000
  0
VERTEX
  8
0
 62
7
 10
38.03150000
 20
15.04925000
  0
VERTEX
  8
0
 62
7
 10
38.00600000
 20
15.02700000
  0
VERTEX
  8
0
 62
7
 10
37.99600000
 20
15.01500000
  0
VERTEX
  8
0
 62
7
 10
38.06412500
 20
14.91534375
  0
VERTEX
  8
0
 62
7
 10
38.14200000
 20
14.82375000
  0
VERTEX
  8
0
 62
7
 10
38.22887500
 20
14.74078125
  0
VERTEX
  8
0
 62
7
 10
38.32400000
 20
14.66700000
  0
VERTEX
  8
0
 62
7
 10
38.41237500
 20
14.61217188
  0
VERTEX
  8
0
 62
7
 10
38.50600000
 20
14.56587500
  0
VERTEX
  8
0
 62
7
 10
38.60412500
 20
14.52764063
  0
VERTEX
  8
0
 62
7
 10
38.70600000
 20
14.49700000
  0
VERTEX
  8
0
 62
7
 10
38.78468750
 20
14.47935938
  0
VERTEX
  8
0
 62
7
 10
38.86450000
 20
14.46687500
  0
VERTEX
  8
0
 62
7
 10
38.94506250
 20
14.45945313
  0
VERTEX
  8
0
 62
7
 10
39.02600000
 20
14.45700000
  0
VERTEX
  8
0
 62
7
 10
39.05400000
 20
14.45700000
  0
SEQEND
  0
POLYLINE
  8
0
 62
7
 66
1
 70
1
  0
VERTEX
  8
0
 62
7
 10
21.00400000
 20
19.80100000
  0
VERTEX
  8
0
 62
7
 10
20.34777588
 20
19.79798706
  0
VERTEX
  8
0
 62
7
 10
19.69255078
 20
19.78899023
  0
VERTEX
  8
0
 62
7
 10
19.03862061
 20
19.77407251
  0
VERTEX
  8
0
 62
7
 10
18.38628125
 20
19.75329688
  0
VERTEX
  8
0
 62
7
 10
17.73582861
 20
19.72672632
  0
VERTEX
  8
0
 62
7
 10
17.08755859
 20
19.69442383
  0
VERTEX
  8
0
 62
7
 10
16.44176709
 20
19.65645239
  0
VERTEX
  8
0
 62
7
 10
15.79875000
 20
19.61287500
  0
VERTEX
  8
0
 62
7
 10
15.15880322
 20
19.56375464
  0
VERTEX
  8
0
 62
7
 10
14.52222266
 20
19.50915430
  0
VERTEX
  8
0
 62
7
 10
13.88930420
 20
19.44913696
  0
VERTEX
  8
0
 62
7
 10
13.26034375
 20
19.38376563
  0
VERTEX
  8
0
 62
7
 10
12.63563721
 20
19.31310327
  0
VERTEX
  8
0
 62
7
 10
12.01548047
 20
19.23721289
  0
VERTEX
  8
0
 62
7
 10
11.40016943
 20
19.15615747
  0
VERTEX
  8
0
 62
7
 10
10.79000000
 20
19.07000000
  0
VERTEX
  8
0
 62
7
 10
10.24521875
 20
18.99254688
  0
VERTEX
  8
0
 62
7
 10
9.69725000
 20
18.91912500
  0
VERTEX
  8
0
 62
7
 10
9.14665625
 20
18.84964063
  0
VERTEX
  8
0
 62
7
 10
8.59400000
 20
18.78400000
  0
VERTEX
  8
0
 62
7
 10
8.59200000
 20
18.77400000
  0
VERTEX
  8
0
 62
7
 10
8.58815234
 20
18.74418555
  0
VERTEX
  8
0
 62
7
 10
8.58184375
 20
18.70929688
  0
VERTEX
  8
0
 62
7
 10
8.57192578
 20
18.67129102
  0
VERTEX
  8
0
 62
7
 10
8.55725000
 20
18.63212500
  0
VERTEX
  8
0
 62
7
 10
8.53666797
 20
18.59375586
  0
VERTEX
  8
0
 62
7
 10
8.50903125
 20
18.55814063
  0
VERTEX
  8
0
 62
7
 10
8.47319141
 20
18.52723633
  0
VERTEX
  8
0
 62
7
 10
8.42800000
 20
18.50300000
  0
VERTEX
  8
0
 62
7
 10
8.40334375
 20
18.49381250
  0
VERTEX
  8
0
 62
7
 10
8.37775000
 20
18.48725000
  0
VERTEX
  8
0
 62
7
 10
8.35178125
 20
18.48331250
  0
VERTEX
  8
0
 62
7
 10
8.32600000
 20
18.48200000
  0
VERTEX
  8
0
 62
7
 10
8.28562500
 20
18.48514063
  0
VERTEX
  8
0
 62
7
 10
8.24600000
 20
18.49437500
  0
VERTEX
  8
0
 62
7
 10
8.20787500
 20
18.50942188
  0
VERTEX
  8
0
 62
7
 10
8.17200000
 20
18.53000000
  0
VERTEX
  8
0
 62
7
 10
8.05600000
 20
18.58300000
  0
VERTEX
  8
0
 62
7
 10
8.02528125
 20
18.59554688
  0
VERTEX
  8
0
 62
7
 10
7.99325000
 20
18.60462500
  0
VERTEX
  8
0
 62
7
 10
7.96009375
 20
18.61014063
  0
VERTEX
  8
0
 62
7
 10
7.92600000
 20
18.61200000
  0
VERTEX
  8
0
 62
7
 10
7.89000000
 20
18.60900000
  0
VERTEX
  8
0
 62
7
 10
7.84996875
 20
18.59885938
  0
VERTEX
  8
0
 62
7
 10
7.80525000
 20
18.57887500
  0
VERTEX
  8
0
 62
7
 10
7.75640625
 20
18.55120313
  0
VERTEX
  8
0
 62
7
 10
7.70400000
 20
18.51800000
  0
VERTEX
  8
0
 62
7
 10
7.67400000
 20
18.50000000
  0
VERTEX
  8
0
 62
7
 10
7.61171875
 20
18.45757813
  0
VERTEX
  8
0
 62
7
 10
7.55525000
 20
18.41412500
  0
VERTEX
  8
0
 62
7
 10
7.50215625
 20
18.36935938
  0
VERTEX
  8
0
 62
7
 10
7.45000000
 20
18.32300000
  0
VERTEX
  8
0
 62
7
 10
7.40832031
 20
18.28640234
  0
VERTEX
  8
0
 62
7
 10
7.36518750
 20
18.24959375
  0
VERTEX
  8
0
 62
7
 10
7.31971094
 20
18.21292578
  0
VERTEX
  8
0
 62
7
 10
7.27100000
 20
18.17675000
  0
VERTEX
  8
0
 62
7
 10
7.21816406
 20
18.14141797
  0
VERTEX
  8
0
 62
7
 10
7.16031250
 20
18.10728125
  0
VERTEX
  8
0
 62
7
 10
7.09655469
 20
18.07469141
  0
VERTEX
  8
0
 62
7
 10
7.02600000
 20
18.04400000
  0
VERTEX
  8
0
 62
7
 10
6.95681250
 20
18.01975000
  0
VERTEX
  8
0
 62
7
 10
6.88950000
 20
18.00075000
  0
VERTEX
  8
0
 62
7
 10
6.82293750
 20
17.98662500
  0
VERTEX
  8
0
 62
7
 10
6.75600000
 20
17.97700000
  0
VERTEX
  8
0
 62
7
 10
6.72800000
 20
17.94600000
  0
VERTEX
  8
0
 62
7
 10
6.69800000
 20
17.92187500
  0
VERTEX
  8
0
 62
7
 10
6.66800000
 20
17.90300000
  0
VERTEX
  8
0
 62
7
 10
6.69800000
 20
17.88412500
  0
VERTEX
  8
0
 62
7
 10
6.72800000
 20
17.86000000
  0
VERTEX
  8
0
 62
7
 10
6.74326563
 20
17.84508789
  0
VERTEX
  8
0
 62
7
 10
6.75862500
 20
17.82807813
  0
VERTEX
  8
0
 62
7
 10
6.77342188
 20
17.80893555
  0
VERTEX
  8
0
 62
7
 10
6.78700000
 20
17.78762500
  0
VERTEX
  8
0
 62
7
 10
6.79870313
 20
17.76411133
  0
VERTEX
  8
0
 62
7
 10
6.80787500
 20
17.73835938
  0
VERTEX
  8
0
 62
7
 10
6.81385938
 20
17.71033398
  0
VERTEX
  8
0
 62
7
 10
6.81600000
 20
17.68000000
  0
VERTEX
  8
0
 62
7
 10
6.81200000
 20
17.64600000
  0
VERTEX
  8
0
 62
7
 10
6.80150000
 20
17.59787500
  0
VERTEX
  8
0
 62
7
 10
6.78800000
 20
17.55800000
  0
VERTEX
  8
0
 62
7
 10
6.77256250
 20
17.50631250
  0
VERTEX
  8
0
 62
7
 10
6.76200000
 20
17.45350000
  0
VERTEX
  8
0
 62
7
 10
6.75593750
 20
17.39993750
  0
VERTEX
  8
0
 62
7
 10
6.75400000
 20
17.34600000
  0
VERTEX
  8
0
 62
7
 10
6.75367969
 20
17.32362891
  0
VERTEX
  8
0
 62
7
 10
6.75218750
 20
17.30015625
  0
VERTEX
  8
0
 62
7
 10
6.74872656
 20
17.27579297
  0
VERTEX
  8
0
 62
7
 10
6.74250000
 20
17.25075000
  0
VERTEX
  8
0
 62
7
 10
6.73271094
 20
17.22523828
  0
VERTEX
  8
0
 62
7
 10
6.71856250
 20
17.19946875
  0
VERTEX
  8
0
 62
7
 10
6.69925781
 20
17.17365234
  0
VERTEX
  8
0
 62
7
 10
6.67400000
 20
17.14800000
  0
VERTEX
  8
0
 62
7
 10
6.63400000
 20
17.11300000
  0
VERTEX
  8
0
 62
7
 10
6.59200000
 20
17.07100000
  0
VERTEX
  8
0
 62
7
 10
6.55600000
 20
17.03200000
  0
VERTEX
  8
0
 62
7
 10
6.53109375
 20
17.00715430
  0
VERTEX
  8
0
 62
7
 10
6.50600000
 20
16.98829688
  0
VERTEX
  8
0
 62
7
 10
6.48090625
 20
16.97457227
  0
VERTEX
  8
0
 62
7
 10
6.45600000
 20
16.96512500
  0
VERTEX
  8
0
 62
7
 10
6.43146875
 20
16.95909961
  0
VERTEX
  8
0
 62
7
 10
6.40750000
 20
16.95564063
  0
VERTEX
  8
0
 62
7
 10
6.38428125
 20
16.95389258
  0
VERTEX
  8
0
 62
7
 10
6.36200000
 20
16.95300000
  0
VERTEX
  8
0
 62
7
 10
6.30800000
 20
16.92800000
  0
VERTEX
  8
0
 62
7
 10
6.35598438
 20
16.91610352
  0
VERTEX
  8
0
 62
7
 10
6.40500000
 20
16.90182813
  0
VERTEX
  8
0
 62
7
 10
6.45439063
 20
16.88466992
  0
VERTEX
  8
0
 62
7
 10
6.50350000
 20
16.86412500
  0
VERTEX
  8
0
 62
7
 10
6.55167188
 20
16.83968945
  0
VERTEX
  8
0
 62
7
 10
6.59825000
 20
16.81085938
  0
VERTEX
  8
0
 62
7
 10
6.64257813
 20
16.77713086
  0
VERTEX
  8
0
 62
7
 10
6.68400000
 20
16.73800000
  0
VERTEX
  8
0
 62
7
 10
6.72222656
 20
16.69278516
  0
VERTEX
  8
0
 62
7
 10
6.75581250
 20
16.64440625
  0
VERTEX
  8
0
 62
7
 10
6.78461719
 20
16.59326172
  0
VERTEX
  8
0
 62
7
 10
6.80850000
 20
16.53975000
  0
VERTEX
  8
0
 62
7
 10
6.82732031
 20
16.48426953
  0
VERTEX
  8
0
 62
7
 10
6.84093750
 20
16.42721875
  0
VERTEX
  8
0
 62
7
 10
6.84921094
 20
16.36899609
  0
VERTEX
  8
0
 62
7
 10
6.85200000
 20
16.31000000
  0
VERTEX
  8
0
 62
7
 10
6.84800000
 20
16.24400000
  0
VERTEX
  8
0
 62
7
 10
6.83400000
 20
16.10800000
  0
VERTEX
  8
0
 62
7
 10
6.71400000
 20
16.17500000
  0
VERTEX
  8
0
 62
7
 10
6.67731250
 20
16.19296875
  0
VERTEX
  8
0
 62
7
 10
6.63950000
 20
16.20625000
  0
VERTEX
  8
0
 62
7
 10
6.60093750
 20
16.21465625
  0
VERTEX
  8
0
 62
7
 10
6.56200000
 20
16.21800000
  0
VERTEX
  8
0
 62
7
 10
6.55600000
 20
16.21800000
  0
VERTEX
  8
0
 62
7
 10
6.51483984
 20
16.21502734
  0
VERTEX
  8
0
 62
7
 10
6.47496875
 20
16.20640625
  0
VERTEX
  8
0
 62
7
 10
6.43580078
 20
16.19258203
  0
VERTEX
  8
0
 62
7
 10
6.39675000
 20
16.17400000
  0
VERTEX
  8
0
 62
7
 10
6.35723047
 20
16.15110547
  0
VERTEX
  8
0
 62
7
 10
6.31665625
 20
16.12434375
  0
VERTEX
  8
0
 62
7
 10
6.27444141
 20
16.09416016
  0
VERTEX
  8
0
 62
7
 10
6.23000000
 20
16.06100000
  0
VERTEX
  8
0
 62
7
 10
6.17984375
 20
16.02271875
  0
VERTEX
  8
0
 62
7
 10
6.12575000
 20
15.98425000
  0
VERTEX
  8
0
 62
7
 10
6.06828125
 20
15.94765625
  0
VERTEX
  8
0
 62
7
 10
6.00800000
 20
15.91500000
  0
VERTEX
  8
0
 62
7
 10
5.91659375
 20
15.87576563
  0
VERTEX
  8
0
 62
7
 10
5.82275000
 20
15.84337500
  0
VERTEX
  8
0
 62
7
 10
5.72703125
 20
15.81754688
  0
VERTEX
  8
0
 62
7
 10
5.63000000
 20
15.79800000
  0
VERTEX
  8
0
 62
7
 10
5.68418750
 20
15.76362500
  0
VERTEX
  8
0
 62
7
 10
5.73500000
 20
15.72325000
  0
VERTEX
  8
0
 62
7
 10
5.78131250
 20
15.67650000
  0
VERTEX
  8
0
 62
7
 10
5.82200000
 20
15.62300000
  0
VERTEX
  8
0
 62
7
 10
5.86693750
 20
15.54489063
  0
VERTEX
  8
0
 62
7
 10
5.89950000
 20
15.46162500
  0
VERTEX
  8
0
 62
7
 10
5.91931250
 20
15.37479688
  0
VERTEX
  8
0
 62
7
 10
5.92600000
 20
15.28600000
  0
VERTEX
  8
0
 62
7
 10
5.92400000
 20
15.23400000
  0
VERTEX
  8
0
 62
7
 10
5.91878906
 20
15.20820508
  0
VERTEX
  8
0
 62
7
 10
5.90706250
 20
15.18664063
  0
VERTEX
  8
0
 62
7
 10
5.89017969
 20
15.16978711
  0
VERTEX
  8
0
 62
7
 10
5.86950000
 20
15.15812500
  0
VERTEX
  8
0
 62
7
 10
5.84638281
 20
15.15213477
  0
VERTEX
  8
0
 62
7
 10
5.82218750
 20
15.15229688
  0
VERTEX
  8
0
 62
7
 10
5.79827344
 20
15.15909180
  0
VERTEX
  8
0
 62
7
 10
5.77600000
 20
15.17300000
  0
VERTEX
  8
0
 62
7
 10
5.75581250
 20
15.18798438
  0
VERTEX
  8
0
 62
7
 10
5.73450000
 20
15.19987500
  0
VERTEX
  8
0
 62
7
 10
5.71243750
 20
15.20857813
  0
VERTEX
  8
0
 62
7
 10
5.69000000
 20
15.21400000
  0
VERTEX
  8
0
 62
7
 10
5.67800000
 20
15.21500000
  0
VERTEX
  8
0
 62
7
 10
5.65328125
 20
15.21184375
  0
VERTEX
  8
0
 62
7
 10
5.62575000
 20
15.20250000
  0
VERTEX
  8
0
 62
7
 10
5.59334375
 20
15.18715625
  0
VERTEX
  8
0
 62
7
 10
5.55400000
 20
15.16600000
  0
VERTEX
  8
0
 62
7
 10
5.51600000
 20
15.14500000
  0
VERTEX
  8
0
 62
7
 10
5.48050000
 20
15.12275000
  0
VERTEX
  8
0
 62
7
 10
5.44200000
 20
15.09300000
  0
VERTEX
  8
0
 62
7
 10
5.40150000
 20
15.06137500
  0
VERTEX
  8
0
 62
7
 10
5.35200000
 20
15.02900000
  0
VERTEX
  8
0
 62
7
 10
5.29973047
 20
15.00240820
  0
VERTEX
  8
0
 62
7
 10
5.24659375
 20
14.97939063
  0
VERTEX
  8
0
 62
7
 10
5.19284766
 20
14.95958398
  0
VERTEX
  8
0
 62
7
 10
5.13875000
 20
14.94262500
  0
VERTEX
  8
0
 62
7
 10
5.08455859
 20
14.92815039
  0
VERTEX
  8
0
 62
7
 10
5.03053125
 20
14.91579688
  0
VERTEX
  8
0
 62
7
 10
4.97692578
 20
14.90520117
  0
VERTEX
  8
0
 62
7
 10
4.92400000
 20
14.89600000
  0
VERTEX
  8
0
 62
7
 10
4.84650000
 20
14.88800000
  0
VERTEX
  8
0
 62
7
 10
4.77200000
 20
14.88600000
  0
VERTEX
  8
0
 62
7
 10
4.66600000
 20
14.88800000
  0
VERTEX
  8
0
 62
7
 10
4.56800000
 20
14.89000000
  0
VERTEX
  8
0
 62
7
 10
4.50000000
 20
14.88800000
  0
VERTEX
  8
0
 62
7
 10
4.45600000
 20
14.88600000
  0
VERTEX
  8
0
 62
7
 10
4.39600000
 20
14.80000000
  0
VERTEX
  8
0
 62
7
 10
4.32703125
 20
14.70662500
  0
VERTEX
  8
0
 62
7
 10
4.25225000
 20
14.61850000
  0
VERTEX
  8
0
 62
7
 10
4.17184375
 20
14.53562500
  0
VERTEX
  8
0
 62
7
 10
4.08600000
 20
14.45800000
  0
VERTEX
  8
0
 62
7
 10
3.97781250
 20
14.37370313
  0
VERTEX
  8
0
 62
7
 10
3.86400000
 20
14.29887500
  0
VERTEX
  8
0
 62
7
 10
3.74568750
 20
14.23285938
  0
VERTEX
  8
0
 62
7
 10
3.62400000
 20
14.17500000
  0
VERTEX
  8
0
 62
7
 10
3.56437891
 20
14.14961133
  0
VERTEX
  8
0
 62
7
 10
3.50403125
 20
14.12601563
  0
VERTEX
  8
0
 62
7
 10
3.44298047
 20
14.10431836
  0
VERTEX
  8
0
 62
7
 10
3.38125000
 20
14.08462500
  0
VERTEX
  8
0
 62
7
 10
3.31886328
 20
14.06704102
  0
VERTEX
  8
0
 62
7
 10
3.25584375
 20
14.05167188
  0
VERTEX
  8
0
 62
7
 10
3.19221484
 20
14.03862305
  0
VERTEX
  8
0
 62
7
 10
3.12800000
 20
14.02800000
  0
VERTEX
  8
0
 62
7
 10
3.02500000
 20
14.01587500
  0
VERTEX
  8
0
 62
7
 10
2.92200000
 20
14.00900000
  0
VERTEX
  8
0
 62
7
 10
2.45800000
 20
4.95800000
  0
VERTEX
  8
0
 62
7
 10
2.35200000
 20
4.85100000
  0
VERTEX
  8
0
 62
7
 10
2.94800000
 20
16.49800000
  0
VERTEX
  8
0
 62
7
 10
2.74600000
 20
16.49800000
  0
VERTEX
  8
0
 62
7
 10
2.14000000
 20
4.64000000
  0
VERTEX
  8
0
 62
7
 10
2.03200000
 20
4.53300000
  0
VERTEX
  8
0
 62
7
 10
2.65000000
 20
16.60400000
  0
VERTEX
  8
0
 62
7
 10
4.21600000
 20
16.60900000
  0
VERTEX
  8
0
 62
7
 10
4.24800000
 20
16.71500000
  0
VERTEX
  8
0
 62
7
 10
4.20200000
 20
16.80400000
  0
VERTEX
  8
0
 62
7
 10
2.46200000
 20
16.80400000
  0
VERTEX
  8
0
 62
7
 10
1.82400000
 20
4.32300000
  0
VERTEX
  8
0
 62
7
 10
1.71600000
 20
4.21700000
  0
VERTEX
  8
0
 62
7
 10
2.36600000
 20
16.90400000
  0
VERTEX
  8
0
 62
7
 10
2.66400000
 20
16.90400000
  0
VERTEX
  8
0
 62
7
 10
2.76000000
 20
18.74600000
  0
VERTEX
  8
0
 62
7
 10
3.51400000
 20
18.78000000
  0
VERTEX
  8
0
 62
7
 10
4.19800000
 20
18.81600000
  0
VERTEX
  8
0
 62
7
 10
4.20400000
 20
19.11600000
  0
VERTEX
  8
0
 62
7
 10
4.87331250
 20
19.15573438
  0
VERTEX
  8
0
 62
7
 10
5.54000000
 20
19.20137500
  0
VERTEX
  8
0
 62
7
 10
6.20368750
 20
19.25282813
  0
VERTEX
  8
0
 62
7
 10
6.86400000
 20
19.31000000
  0
VERTEX
  8
0
 62
7
 10
6.93750000
 20
19.36073438
  0
VERTEX
  8
0
 62
7
 10
7.01400000
 20
19.40762500
  0
VERTEX
  8
0
 62
7
 10
7.09350000
 20
19.45020313
  0
VERTEX
  8
0
 62
7
 10
7.17600000
 20
19.48800000
  0
VERTEX
  8
0
 62
7
 10
7.21600391
 20
19.50483008
  0
VERTEX
  8
0
 62
7
 10
7.25790625
 20
19.52120313
  0
VERTEX
  8
0
 62
7
 10
7.30154297
 20
19.53656836
  0
VERTEX
  8
0
 62
7
 10
7.34675000
 20
19.55037500
  0
VERTEX
  8
0
 62
7
 10
7.39336328
 20
19.56207227
  0
VERTEX
  8
0
 62
7
 10
7.44121875
 20
19.57110938
  0
VERTEX
  8
0
 62
7
 10
7.49015234
 20
19.57693555
  0
VERTEX
  8
0
 62
7
 10
7.54000000
 20
19.57900000
  0
VERTEX
  8
0
 62
7
 10
7.58800000
 20
19.57725000
  0
VERTEX
  8
0
 62
7
 10
7.63600000
 20
19.57100000
  0
VERTEX
  8
0
 62
7
 10
7.67427734
 20
19.56360547
  0
VERTEX
  8
0
 62
7
 10
7.71496875
 20
19.55440625
  0
VERTEX
  8
0
 62
7
 10
7.75711328
 20
19.54262891
  0
VERTEX
  8
0
 62
7
 10
7.79975000
 20
19.52750000
  0
VERTEX
  8
0
 62
7
 10
7.84191797
 20
19.50824609
  0
VERTEX
  8
0
 62
7
 10
7.88265625
 20
19.48409375
  0
VERTEX
  8
0
 62
7
 10
7.92100391
 20
19.45426953
  0
VERTEX
  8
0
 62
7
 10
7.95600000
 20
19.41800000
  0
VERTEX
  8
0
 62
7
 10
8.64559375
 20
19.49468750
  0
VERTEX
  8
0
 62
7
 10
9.33125000
 20
19.57775000
  0
VERTEX
  8
0
 62
7
 10
10.01278125
 20
19.66718750
  0
VERTEX
  8
0
 62
7
 10
10.69000000
 20
19.76300000
  0
VERTEX
  8
0
 62
7
 10
11.30577344
 20
19.85006006
  0
VERTEX
  8
0
 62
7
 10
11.92665625
 20
19.93194922
  0
VERTEX
  8
0
 62
7
 10
12.55236719
 20
20.00860596
  0
VERTEX
  8
0
 62
7
 10
13.18262500
 20
20.07996875
  0
VERTEX
  8
0
 62
7
 10
13.81714844
 20
20.14597607
  0
VERTEX
  8
0
 62
7
 10
14.45565625
 20
20.20656641
  0
VERTEX
  8
0
 62
7
 10
15.09786719
 20
20.26167822
  0
VERTEX
  8
0
 62
7
 10
15.74350000
 20
20.31125000
  0
VERTEX
  8
0
 62
7
 10
16.39227344
 20
20.35522021
  0
VERTEX
  8
0
 62
7
 10
17.04390625
 20
20.39352734
  0
VERTEX
  8
0
 62
7
 10
17.69811719
 20
20.42610986
  0
VERTEX
  8
0
 62
7
 10
18.35462500
 20
20.45290625
  0
VERTEX
  8
0
 62
7
 10
19.01314844
 20
20.47385498
  0
VERTEX
  8
0
 62
7
 10
19.67340625
 20
20.48889453
  0
VERTEX
  8
0
 62
7
 10
20.33511719
 20
20.49796338
  0
VERTEX
  8
0
 62
7
 10
20.99800000
 20
20.50100000
  0
VERTEX
  8
0
 62
7
 10
21.66092773
 20
20.49796338
  0
VERTEX
  8
0
 62
7
 10
22.32276563
 20
20.48889453
  0
VERTEX
  8
0
 62
7
 10
22.98322070
 20
20.47385498
  0
VERTEX
  8
0
 62
7
 10
23.64200000
 20
20.45290625
  0
VERTEX
  8
0
 62
7
 10
24.29881055
 20
20.42610986
  0
VERTEX
  8
0
 62
7
 10
24.95335938
 20
20.39352734
  0
VERTEX
  8
0
 62
7
 10
25.60535352
 20
20.35522021
  0
VERTEX
  8
0
 62
7
 10
26.25450000
 20
20.31125000
  0
VERTEX
  8
0
 62
7
 10
26.90050586
 20
20.26167822
  0
VERTEX
  8
0
 62
7
 10
27.54307813
 20
20.20656641
  0
VERTEX
  8
0
 62
7
 10
28.18192383
 20
20.14597607
  0
VERTEX
  8
0
 62
7
 10
28.81675000
 20
20.07996875
  0
VERTEX
  8
0
 62
7
 10
29.44726367
 20
20.00860596
  0
VERTEX
  8
0
 62
7
 10
30.07317188
 20
19.93194922
  0
VERTEX
  8
0
 62
7
 10
30.69418164
 20
19.85006006
  0
VERTEX
  8
0
 62
7
 10
31.31000000
 20
19.76300000
  0
VERTEX
  8
0
 62
7
 10
31.98721875
 20
19.66718750
  0
VERTEX
  8
0
 62
7
 10
32.66875000
 20
19.57775000
  0
VERTEX
  8
0
 62
7
 10
33.35440625
 20
19.49468750
  0
VERTEX
  8
0
 62
7
 10
34.04400000
 20
19.41800000
  0
VERTEX
  8
0
 62
7
 10
34.07899609
 20
19.45426953
  0
VERTEX
  8
0
 62
7
 10
34.11734375
 20
19.48409375
  0
VERTEX
  8
0
 62
7
 10
34.15808203
 20
19.50824609
  0
VERTEX
  8
0
 62
7
 10
34.20025000
 20
19.52750000
  0
VERTEX
  8
0
 62
7
 10
34.24288672
 20
19.54262891
  0
VERTEX
  8
0
 62
7
 10
34.28503125
 20
19.55440625
  0
VERTEX
  8
0
 62
7
 10
34.32572266
 20
19.56360547
  0
VERTEX
  8
0
 62
7
 10
34.36400000
 20
19.57100000
  0
VERTEX
  8
0
 62
7
 10
34.41200000
 20
19.57725000
  0
VERTEX
  8
0
 62
7
 10
34.46000000
 20
19.57900000
  0
VERTEX
  8
0
 62
7
 10
34.50984766
 20
19.57693555
  0
VERTEX
  8
0
 62
7
 10
34.55878125
 20
19.57110938
  0
VERTEX
  8
0
 62
7
 10
34.60663672
 20
19.56207227
  0
VERTEX
  8
0
 62
7
 10
34.65325000
 20
19.55037500
  0
VERTEX
  8
0
 62
7
 10
34.69845703
 20
19.53656836
  0
VERTEX
  8
0
 62
7
 10
34.74209375
 20
19.52120313
  0
VERTEX
  8
0
 62
7
 10
34.78399609
 20
19.50483008
  0
VERTEX
  8
0
 62
7
 10
34.82400000
 20
19.48800000
  0
VERTEX
  8
0
 62
7
 10
34.90650000
 20
19.45020313
  0
VERTEX
  8
0
 62
7
 10
34.98600000
 20
19.40762500
  0
VERTEX
  8
0
 62
7
 10
35.06250000
 20
19.36073438
  0
VERTEX
  8
0
 62
7
 10
35.13600000
 20
19.31000000
  0
VERTEX
  8
0
 62
7
 10
35.79631250
 20
19.25282813
  0
VERTEX
  8
0
 62
7
 10
36.46000000
 20
19.20137500
  0
VERTEX
  8
0
 62
7
 10
37.12668750
 20
19.15573438
  0
VERTEX
  8
0
 62
7
 10
37.79600000
 20
19.11600000
  0
VERTEX
  8
0
 62
7
 10
37.80200000
 20
18.81600000
  0
VERTEX
  8
0
 62
7
 10
38.48600000
 20
18.78000000
  0
VERTEX
  8
0
 62
7
 10
39.24000000
 20
18.74600000
  0
VERTEX
  8
0
 62
7
 10
39.33600000
 20
16.90400000
  0
VERTEX
  8
0
 62
7
 10
39.63400000
 20
16.90400000
  0
VERTEX
  8
0
 62
7
 10
40.28400000
 20
4.21700000
  0
VERTEX
  8
0
 62
7
 10
40.17600000
 20
4.32300000
  0
VERTEX
  8
0
 62
7
 10
39.53800000
 20
16.80400000
  0
VERTEX
  8
0
 62
7
 10
37.79800000
 20
16.80400000
  0
VERTEX
  8
0
 62
7
 10
37.75200000
 20
16.71500000
  0
VERTEX
  8
0
 62
7
 10
37.78400000
 20
16.60900000
  0
VERTEX
  8
0
 62
7
 10
39.35000000
 20
16.60400000
  0
VERTEX
  8
0
 62
7
 10
39.96800000
 20
4.53300000
  0
VERTEX
  8
0
 62
7
 10
39.86000000
 20
4.64000000
  0
VERTEX
  8
0
 62
7
 10
39.25400000
 20
16.49800000
  0
VERTEX
  8
0
 62
7
 10
39.05200000
 20
16.49800000
  0
VERTEX
  8
0
 62
7
 10
39.64800000
 20
4.85100000
  0
VERTEX
  8
0
 62
7
 10
39.54200000
 20
4.95800000
  0
VERTEX
  8
0
 62
7
 10
39.07800000
 20
14.00900000
  0
VERTEX
  8
0
 62
7
 10
38.97500000
 20
14.01587500
  0
VERTEX
  8
0
 62
7
 10
38.87200000
 20
14.02800000
  0
VERTEX
  8
0
 62
7
 10
38.80778516
 20
14.03862305
  0
VERTEX
  8
0
 62
7
 10
38.74415625
 20
14.05167188
  0
VERTEX
  8
0
 62
7
 10
38.68113672
 20
14.06704102
  0
VERTEX
  8
0
 62
7
 10
38.61875000
 20
14.08462500
  0
VERTEX
  8
0
 62
7
 10
38.55701953
 20
14.10431836
  0
VERTEX
  8
0
 62
7
 10
38.49596875
 20
14.12601563
  0
VERTEX
  8
0
 62
7
 10
38.43562109
 20
14.14961133
  0
VERTEX
  8
0
 62
7
 10
38.37600000
 20
14.17500000
  0
VERTEX
  8
0
 62
7
 10
38.25431250
 20
14.23285938
  0
VERTEX
  8
0
 62
7
 10
38.13600000
 20
14.29887500
  0
VERTEX
  8
0
 62
7
 10
38.02218750
 20
14.37370313
  0
VERTEX
  8
0
 62
7
 10
37.91400000
 20
14.45800000
  0
VERTEX
  8
0
 62
7
 10
37.82815625
 20
14.53562500
  0
VERTEX
  8
0
 62
7
 10
37.74775000
 20
14.61850000
  0
VERTEX
  8
0
 62
7
 10
37.67296875
 20
14.70662500
  0
VERTEX
  8
0
 62
7
 10
37.60400000
 20
14.80000000
  0
VERTEX
  8
0
 62
7
 10
37.54400000
 20
14.88600000
  0
VERTEX
  8
0
 62
7
 10
37.50000000
 20
14.88800000
  0
VERTEX
  8
0
 62
7
 10
37.43200000
 20
14.89000000
  0
VERTEX
  8
0
 62
7
 10
37.33400000
 20
14.88800000
  0
VERTEX
  8
0
 62
7
 10
37.22800000
 20
14.88600000
  0
VERTEX
  8
0
 62
7
 10
37.15350000
 20
14.88800000
  0
VERTEX
  8
0
 62
7
 10
37.07600000
 20
14.89600000
  0
VERTEX
  8
0
 62
7
 10
37.02307422
 20
14.90520117
  0
VERTEX
  8
0
 62
7
 10
36.96946875
 20
14.91579688
  0
VERTEX
  8
0
 62
7
 10
36.91544141
 20
14.92815039
  0
VERTEX
  8
0
 62
7
 10
36.86125000
 20
14.94262500
  0
VERTEX
  8
0
 62
7
 10
36.80715234
 20
14.95958398
  0
VERTEX
  8
0
 62
7
 10
36.75340625
 20
14.97939063
  0
VERTEX
  8
0
 62
7
 10
36.70026953
 20
15.00240820
  0
VERTEX
  8
0
 62
7
 10
36.64800000
 20
15.02900000
  0
VERTEX
  8
0
 62
7
 10
36.59850000
 20
15.06137500
  0
VERTEX
  8
0
 62
7
 10
36.55800000
 20
15.09300000
  0
VERTEX
  8
0
 62
7
 10
36.51950000
 20
15.12275000
  0
VERTEX
  8
0
 62
7
 10
36.48400000
 20
15.14500000
  0
VERTEX
  8
0
 62
7
 10
36.44600000
 20
15.16600000
  0
VERTEX
  8
0
 62
7
 10
36.40665625
 20
15.18715625
  0
VERTEX
  8
0
 62
7
 10
36.37425000
 20
15.20250000
  0
VERTEX
  8
0
 62
7
 10
36.34671875
 20
15.21184375
  0
VERTEX
  8
0
 62
7
 10
36.32200000
 20
15.21500000
  0
VERTEX
  8
0
 62
7
 10
36.31000000
 20
15.21400000
  0
VERTEX
  8
0
 62
7
 10
36.28756250
 20
15.20857813
  0
VERTEX
  8
0
 62
7
 10
36.26550000
 20
15.19987500
  0
VERTEX
  8
0
 62
7
 10
36.24418750
 20
15.18798438
  0
VERTEX
  8
0
 62
7
 10
36.22400000
 20
15.17300000
  0
VERTEX
  8
0
 62
7
 10
36.20172656
 20
15.15909180
  0
VERTEX
  8
0
 62
7
 10
36.17781250
 20
15.15229688
  0
VERTEX
  8
0
 62
7
 10
36.15361719
 20
15.15213477
  0
VERTEX
  8
0
 62
7
 10
36.13050000
 20
15.15812500
  0
VERTEX
  8
0
 62
7
 10
36.10982031
 20
15.16978711
  0
VERTEX
  8
0
 62
7
 10
36.09293750
 20
15.18664063
  0
VERTEX
  8
0
 62
7
 10
36.08121094
 20
15.20820508
  0
VERTEX
  8
0
 62
7
 10
36.07600000
 20
15.23400000
  0
VERTEX
  8
0
 62
7
 10
36.07400000
 20
15.28600000
  0
VERTEX
  8
0
 62
7
 10
36.08068750
 20
15.37479688
  0
VERTEX
  8
0
 62
7
 10
36.10050000
 20
15.46162500
  0
VERTEX
  8
0
 62
7
 10
36.13306250
 20
15.54489063
  0
VERTEX
  8
0
 62
7
 10
36.17800000
 20
15.62300000
  0
VERTEX
  8
0
 62
7
 10
36.21868750
 20
15.67650000
  0
VERTEX
  8
0
 62
7
 10
36.26500000
 20
15.72325000
  0
VERTEX
  8
0
 62
7
 10
36.31581250
 20
15.76362500
  0
VERTEX
  8
0
 62
7
 10
36.37000000
 20
15.79800000
  0
VERTEX
  8
0
 62
7
 10
36.27296875
 20
15.81754688
  0
VERTEX
  8
0
 62
7
 10
36.17725000
 20
15.84337500
  0
VERTEX
  8
0
 62
7
 10
36.08340625
 20
15.87576563
  0
VERTEX
  8
0
 62
7
 10
35.99200000
 20
15.91500000
  0
VERTEX
  8
0
 62
7
 10
35.93171875
 20
15.94765625
  0
VERTEX
  8
0
 62
7
 10
35.87425000
 20
15.98425000
  0
VERTEX
  8
0
 62
7
 10
35.82015625
 20
16.02271875
  0
VERTEX
  8
0
 62
7
 10
35.77000000
 20
16.06100000
  0
VERTEX
  8
0
 62
7
 10
35.72555859
 20
16.09416016
  0
VERTEX
  8
0
 62
7
 10
35.68334375
 20
16.12434375
  0
VERTEX
  8
0
 62
7
 10
35.64276953
 20
16.15110547
  0
VERTEX
  8
0
 62
7
 10
35.60325000
 20
16.17400000
  0
VERTEX
  8
0
 62
7
 10
35.56419922
 20
16.19258203
  0
VERTEX
  8
0
 62
7
 10
35.52503125
 20
16.20640625
  0
VERTEX
  8
0
 62
7
 10
35.48516016
 20
16.21502734
  0
VERTEX
  8
0
 62
7
 10
35.44400000
 20
16.21800000
  0
VERTEX
  8
0
 62
7
 10
35.43800000
 20
16.21800000
  0
VERTEX
  8
0
 62
7
 10
35.39906250
 20
16.21465625
  0
VERTEX
  8
0
 62
7
 10
35.36050000
 20
16.20625000
  0
VERTEX
  8
0
 62
7
 10
35.32268750
 20
16.19296875
  0
VERTEX
  8
0
 62
7
 10
35.28600000
 20
16.17500000
  0
VERTEX
  8
0
 62
7
 10
35.16600000
 20
16.10800000
  0
VERTEX
  8
0
 62
7
 10
35.15200000
 20
16.24400000
  0
VERTEX
  8
0
 62
7
 10
35.14800000
 20
16.31000000
  0
VERTEX
  8
0
 62
7
 10
35.15078906
 20
16.36899609
  0
VERTEX
  8
0
 62
7
 10
35.15906250
 20
16.42721875
  0
VERTEX
  8
0
 62
7
 10
35.17267969
 20
16.48426953
  0
VERTEX
  8
0
 62
7
 10
35.19150000
 20
16.53975000
  0
VERTEX
  8
0
 62
7
 10
35.21538281
 20
16.59326172
  0
VERTEX
  8
0
 62
7
 10
35.24418750
 20
16.64440625
  0
VERTEX
  8
0
 62
7
 10
35.27777344
 20
16.69278516
  0
VERTEX
  8
0
 62
7
 10
35.31600000
 20
16.73800000
  0
VERTEX
  8
0
 62
7
 10
35.35742188
 20
16.77713086
  0
VERTEX
  8
0
 62
7
 10
35.40175000
 20
16.81085938
  0
VERTEX
  8
0
 62
7
 10
35.44832813
 20
16.83968945
  0
VERTEX
  8
0
 62
7
 10
35.49650000
 20
16.86412500
  0
VERTEX
  8
0
 62
7
 10
35.54560938
 20
16.88466992
  0
VERTEX
  8
0
 62
7
 10
35.59500000
 20
16.90182813
  0
VERTEX
  8
0
 62
7
 10
35.64401563
 20
16.91610352
  0
VERTEX
  8
0
 62
7
 10
35.69200000
 20
16.92800000
  0
VERTEX
  8
0
 62
7
 10
35.63800000
 20
16.95300000
  0
VERTEX
  8
0
 62
7
 10
35.61571875
 20
16.95389258
  0
VERTEX
  8
0
 62
7
 10
35.59250000
 20
16.95564063
  0
VERTEX
  8
0
 62
7
 10
35.56853125
 20
16.95909961
  0
VERTEX
  8
0
 62
7
 10
35.54400000
 20
16.96512500
  0
VERTEX
  8
0
 62
7
 10
35.51909375
 20
16.97457227
  0
VERTEX
  8
0
 62
7
 10
35.49400000
 20
16.98829688
  0
VERTEX
  8
0
 62
7
 10
35.46890625
 20
17.00715430
  0
VERTEX
  8
0
 62
7
 10
35.44400000
 20
17.03200000
  0
VERTEX
  8
0
 62
7
 10
35.40800000
 20
17.07100000
  0
VERTEX
  8
0
 62
7
 10
35.36600000
 20
17.11300000
  0
VERTEX
  8
0
 62
7
 10
35.32600000
 20
17.14800000
  0
VERTEX
  8
0
 62
7
 10
35.30074219
 20
17.17365234
  0
VERTEX
  8
0
 62
7
 10
35.28143750
 20
17.19946875
  0
VERTEX
  8
0
 62
7
 10
35.26728906
 20
17.22523828
  0
VERTEX
  8
0
 62
7
 10
35.25750000
 20
17.25075000
  0
VERTEX
  8
0
 62
7
 10
35.25127344
 20
17.27579297
  0
VERTEX
  8
0
 62
7
 10
35.24781250
 20
17.30015625
  0
VERTEX
  8
0
 62
7
 10
35.24632031
 20
17.32362891
  0
VERTEX
  8
0
 62
7
 10
35.24600000
 20
17.34600000
  0
VERTEX
  8
0
 62
7
 10
35.24406250
 20
17.39993750
  0
VERTEX
  8
0
 62
7
 10
35.23800000
 20
17.45350000
  0
VERTEX
  8
0
 62
7
 10
35.22743750
 20
17.50631250
  0
VERTEX
  8
0
 62
7
 10
35.21200000
 20
17.55800000
  0
VERTEX
  8
0
 62
7
 10
35.19850000
 20
17.59787500
  0
VERTEX
  8
0
 62
7
 10
35.18800000
 20
17.64600000
  0
VERTEX
  8
0
 62
7
 10
35.18400000
 20
17.68000000
  0
VERTEX
  8
0
 62
7
 10
35.18614063
 20
17.71033398
  0
VERTEX
  8
0
 62
7
 10
35.19212500
 20
17.73835938
  0
VERTEX
  8
0
 62
7
 10
35.20129688
 20
17.76411133
  0
VERTEX
  8
0
 62
7
 10
35.21300000
 20
17.78762500
  0
VERTEX
  8
0
 62
7
 10
35.22657813
 20
17.80893555
  0
VERTEX
  8
0
 62
7
 10
35.24137500
 20
17.82807813
  0
VERTEX
  8
0
 62
7
 10
35.25673438
 20
17.84508789
  0
VERTEX
  8
0
 62
7
 10
35.27200000
 20
17.86000000
  0
VERTEX
  8
0
 62
7
 10
35.30200000
 20
17.88412500
  0
VERTEX
  8
0
 62
7
 10
35.33200000
 20
17.90300000
  0
VERTEX
  8
0
 62
7
 10
35.30200000
 20
17.92187500
  0
VERTEX
  8
0
 62
7
 10
35.27200000
 20
17.94600000
  0
VERTEX
  8
0
 62
7
 10
35.24400000
 20
17.97700000
  0
VERTEX
  8
0
 62
7
 10
35.17706250
 20
17.98662500
  0
VERTEX
  8
0
 62
7
 10
35.11050000
 20
18.00075000
  0
VERTEX
  8
0
 62
7
 10
35.04318750
 20
18.01975000
  0
VERTEX
  8
0
 62
7
 10
34.97400000
 20
18.04400000
  0
VERTEX
  8
0
 62
7
 10
34.90344531
 20
18.07469141
  0
VERTEX
  8
0
 62
7
 10
34.83968750
 20
18.10728125
  0
VERTEX
  8
0
 62
7
 10
34.78183594
 20
18.14141797
  0
VERTEX
  8
0
 62
7
 10
34.72900000
 20
18.17675000
  0
VERTEX
  8
0
 62
7
 10
34.68028906
 20
18.21292578
  0
VERTEX
  8
0
 62
7
 10
34.63481250
 20
18.24959375
  0
VERTEX
  8
0
 62
7
 10
34.59167969
 20
18.28640234
  0
VERTEX
  8
0
 62
7
 10
34.55000000
 20
18.32300000
  0
VERTEX
  8
0
 62
7
 10
34.49784375
 20
18.36935938
  0
VERTEX
  8
0
 62
7
 10
34.44475000
 20
18.41412500
  0
VERTEX
  8
0
 62
7
 10
34.38828125
 20
18.45757813
  0
VERTEX
  8
0
 62
7
 10
34.32600000
 20
18.50000000
  0
VERTEX
  8
0
 62
7
 10
34.29600000
 20
18.51800000
  0
VERTEX
  8
0
 62
7
 10
34.24359375
 20
18.55120313
  0
VERTEX
  8
0
 62
7
 10
34.19475000
 20
18.57887500
  0
VERTEX
  8
0
 62
7
 10
34.15003125
 20
18.59885938
  0
VERTEX
  8
0
 62
7
 10
34.11000000
 20
18.60900000
  0
VERTEX
  8
0
 62
7
 10
34.07400000
 20
18.61200000
  0
VERTEX
  8
0
 62
7
 10
34.03990625
 20
18.61014063
  0
VERTEX
  8
0
 62
7
 10
34.00675000
 20
18.60462500
  0
VERTEX
  8
0
 62
7
 10
33.97471875
 20
18.59554688
  0
VERTEX
  8
0
 62
7
 10
33.94400000
 20
18.58300000
  0
VERTEX
  8
0
 62
7
 10
33.82800000
 20
18.53000000
  0
VERTEX
  8
0
 62
7
 10
33.79212500
 20
18.50942188
  0
VERTEX
  8
0
 62
7
 10
33.75400000
 20
18.49437500
  0
VERTEX
  8
0
 62
7
 10
33.71437500
 20
18.48514063
  0
VERTEX
  8
0
 62
7
 10
33.67400000
 20
18.48200000
  0
VERTEX
  8
0
 62
7
 10
33.64821875
 20
18.48331250
  0
VERTEX
  8
0
 62
7
 10
33.62225000
 20
18.48725000
  0
VERTEX
  8
0
 62
7
 10
33.59665625
 20
18.49381250
  0
VERTEX
  8
0
 62
7
 10
33.57200000
 20
18.50300000
  0
VERTEX
  8
0
 62
7
 10
33.52680859
 20
18.52723633
  0
VERTEX
  8
0
 62
7
 10
33.49096875
 20
18.55814063
  0
VERTEX
  8
0
 62
7
 10
33.46333203
 20
18.59375586
  0
VERTEX
  8
0
 62
7
 10
33.44275000
 20
18.63212500
  0
VERTEX
  8
0
 62
7
 10
33.42807422
 20
18.67129102
  0
VERTEX
  8
0
 62
7
 10
33.41815625
 20
18.70929688
  0
VERTEX
  8
0
 62
7
 10
33.41184766
 20
18.74418555
  0
VERTEX
  8
0
 62
7
 10
33.40800000
 20
18.77400000
  0
VERTEX
  8
0
 62
7
 10
33.40600000
 20
18.78400000
  0
VERTEX
  8
0
 62
7
 10
32.85334375
 20
18.84964063
  0
VERTEX
  8
0
 62
7
 10
32.30275000
 20
18.91912500
  0
VERTEX
  8
0
 62
7
 10
31.75478125
 20
18.99254688
  0
VERTEX
  8
0
 62
7
 10
31.21000000
 20
19.07000000
  0
VERTEX
  8
0
 62
7
 10
30.59992041
 20
19.15615747
  0
VERTEX
  8
0
 62
7
 10
29.98486328
 20
19.23721289
  0
VERTEX
  8
0
 62
7
 10
29.36510107
 20
19.31310327
  0
VERTEX
  8
0
 62
7
 10
28.74090625
 20
19.38376563
  0
VERTEX
  8
0
 62
7
 10
28.11255127
 20
19.44913696
  0
VERTEX
  8
0
 62
7
 10
27.48030859
 20
19.50915430
  0
VERTEX
  8
0
 62
7
 10
26.84445068
 20
19.56375464
  0
VERTEX
  8
0
 62
7
 10
26.20525000
 20
19.61287500
  0
VERTEX
  8
0
 62
7
 10
25.56297900
 20
19.65645239
  0
VERTEX
  8
0
 62
7
 10
24.91791016
 20
19.69442383
  0
VERTEX
  8
0
 62
7
 10
24.27031592
 20
19.72672632
  0
VERTEX
  8
0
 62
7
 10
23.62046875
 20
19.75329688
  0
VERTEX
  8
0
 62
7
 10
22.96864111
 20
19.77407251
  0
VERTEX
  8
0
 62
7
 10
22.31510547
 20
19.78899023
  0
VERTEX
  8
0
 62
7
 10
21.66013428
 20
19.79798706
  0
VERTEX
  8
0
 62
7
 10
21.00400000
 20
19.80100000
  0
SEQEND
  0
POLYLINE
  8
0
 62
7
 66
1
 70
1
  0
VERTEX
  8
0
 62
7
 10
38.19800000
 20
18.49400000
  0
VERTEX
  8
0
 62
7
 10
38.95000000
 20
18.46100000
  0
VERTEX
  8
0
 62
7
 10
39.03200000
 20
16.90400000
  0
VERTEX
  8
0
 62
7
 10
39.23200000
 20
16.90400000
  0
VERTEX
  8
0
 62
7
 10
39.14400000
 20
18.65400000
  0
VERTEX
  8
0
 62
7
 10
38.47200000
 20
18.68187500
  0
VERTEX
  8
0
 62
7
 10
37.80600000
 20
18.71500000
  0
VERTEX
  8
0
 62
7
 10
37.80800000
 20
18.54300000
  0
VERTEX
  8
0
 62
7
 10
37.85100000
 20
18.54700000
  0
VERTEX
  8
0
 62
7
 10
37.89400000
 20
18.54800000
  0
VERTEX
  8
0
 62
7
 10
37.94315625
 20
18.54648438
  0
VERTEX
  8
0
 62
7
 10
37.99175000
 20
18.54187500
  0
VERTEX
  8
0
 62
7
 10
38.03996875
 20
18.53407813
  0
VERTEX
  8
0
 62
7
 10
38.08800000
 20
18.52300000
  0
VERTEX
  8
0
 62
7
 10
38.19800000
 20
18.49400000
  0
SEQEND
  0
POLYLINE
  8
0
 62
7
 66
1
 70
1
  0
VERTEX
  8
0
 62
7
 10
37.84200000
 20
16.90400000
  0
VERTEX
  8
0
 62
7
 10
38.93200000
 20
16.90400000
  0
VERTEX
  8
0
 62
7
 10
38.85400000
 20
18.36500000
  0
VERTEX
  8
0
 62
7
 10
38.14800000
 20
18.39700000
  0
VERTEX
  8
0
 62
7
 10
38.13400000
 20
18.37900000
  0
VERTEX
  8
0
 62
7
 10
38.10287500
 20
18.33856250
  0
VERTEX
  8
0
 62
7
 10
38.07550000
 20
18.29550000
  0
VERTEX
  8
0
 62
7
 10
38.05187500
 20
18.25018750
  0
VERTEX
  8
0
 62
7
 10
38.03200000
 20
18.20300000
  0
VERTEX
  8
0
 62
7
 10
38.01571875
 20
18.14929688
  0
VERTEX
  8
0
 62
7
 10
38.00525000
 20
18.09212500
  0
VERTEX
  8
0
 62
7
 10
37.99965625
 20
18.03214063
  0
VERTEX
  8
0
 62
7
 10
37.99800000
 20
17.97000000
  0
VERTEX
  8
0
 62
7
 10
38.00200000
 20
17.85800000
  0
VERTEX
  8
0
 62
7
 10
38.00400000
 20
17.74900000
  0
VERTEX
  8
0
 62
7
 10
37.99728125
 20
17.56896875
  0
VERTEX
  8
0
 62
7
 10
37.97725000
 20
17.39700000
  0
VERTEX
  8
0
 62
7
 10
37.94409375
 20
17.22953125
  0
VERTEX
  8
0
 62
7
 10
37.89800000
 20
17.06300000
  0
VERTEX
  8
0
 62
7
 10
37.87300000
 20
16.98462500
  0
VERTEX
  8
0
 62
7
 10
37.84200000
 20
16.90400000
  0
SEQEND
  0
POLYLINE
  8
0
 62
7
 66
1
  0
VERTEX
  8
0
 62
7
 10
37.50700000
 20
18.43500000
  0
VERTEX
  8
0
 62
7
 10
37.50500000
 20
18.53200000
  0
VERTEX
  8
0
 62
7
 10
37.50300000
 20
18.73200000
  0
VERTEX
  8
0
 62
7
 10
37.50100000
 20
18.83200000
  0
VERTEX
  8
0
 62
7
 10
37.00625000
 20
18.86262500
  0
VERTEX
  8
0
 62
7
 10
36.51300000
 20
18.89700000
  0
VERTEX
  8
0
 62
7
 10
36.51100000
 20
18.89700000
  0
VERTEX
  8
0
 62
7
 10
36.37100000
 20
18.90700000
  0
VERTEX
  8
0
 62
7
 10
36.37100000
 20
18.90700000
  0
VERTEX
  8
0
 62
7
 10
35.92525000
 20
18.94137500
  0
VERTEX
  8
0
 62
7
 10
35.48100000
 20
18.97800000
  0
VERTEX
  8
0
 62
7
 10
35.39750000
 20
19.07675000
  0
VERTEX
  8
0
 62
7
 10
35.32900000
 20
19.15000000
  0
VERTEX
  8
0
 62
7
 10
35.27700000
 20
19.19700000
  0
VERTEX
  8
0
 62
7
 10
35.87815625
 20
19.14559375
  0
VERTEX
  8
0
 62
7
 10
36.48175000
 20
19.09925000
  0
VERTEX
  8
0
 62
7
 10
37.08796875
 20
19.05778125
  0
VERTEX
  8
0
 62
7
 10
37.69700000
 20
19.02100000
  0
VERTEX
  8
0
 62
7
 10
37.70300000
 20
18.72100000
  0
VERTEX
  8
0
 62
7
 10
37.70500000
 20
18.52400000
  0
VERTEX
  8
0
 62
7
 10
37.65225000
 20
18.50687500
  0
VERTEX
  8
0
 62
7
 10
37.60100000
 20
18.48600000
  0
VERTEX
  8
0
 62
7
 10
37.50500000
 20
18.43500000
  0
SEQEND
  0
POLYLINE
  8
0
 62
7
 66
1
 70
1
  0
VERTEX
  8
0
 62
7
 10
36.87300000
 20
16.31100000
  0
VERTEX
  8
0
 62
7
 10
36.87800000
 20
16.48400000
  0
VERTEX
  8
0
 62
7
 10
36.87800000
 20
16.51500000
  0
VERTEX
  8
0
 62
7
 10
36.87900000
 20
16.59700000
  0
VERTEX
  8
0
 62
7
 10
36.85837500
 20
16.63725000
  0
VERTEX
  8
0
 62
7
 10
36.84000000
 20
16.67900000
  0
VERTEX
  8
0
 62
7
 10
36.81645313
 20
16.74035938
  0
VERTEX
  8
0
 62
7
 10
36.79187500
 20
16.81137500
  0
VERTEX
  8
0
 62
7
 10
36.77010938
 20
16.88445313
  0
VERTEX
  8
0
 62
7
 10
36.75500000
 20
16.95200000
  0
VERTEX
  8
0
 62
7
 10
36.71453125
 20
16.94954688
  0
VERTEX
  8
0
 62
7
 10
36.67425000
 20
16.94512500
  0
VERTEX
  8
0
 62
7
 10
36.63434375
 20
16.93864063
  0
VERTEX
  8
0
 62
7
 10
36.59500000
 20
16.93000000
  0
VERTEX
  8
0
 62
7
 10
36.62903125
 20
16.83689063
  0
VERTEX
  8
0
 62
7
 10
36.66775000
 20
16.73787500
  0
VERTEX
  8
0
 62
7
 10
36.70834375
 20
16.64017188
  0
VERTEX
  8
0
 62
7
 10
36.74800000
 20
16.55100000
  0
VERTEX
  8
0
 62
7
 10
36.80825000
 20
16.42987500
  0
VERTEX
  8
0
 62
7
 10
36.87300000
 20
16.31100000
  0
SEQEND
  0
POLYLINE
  8
0
 62
7
 66
1
 70
1
  0
VERTEX
  8
0
 62
7
 10
36.44304863
 20
16.90497791
  0
VERTEX
  8
0
 62
7
 10
36.48364453
 20
16.85312324
  0
VERTEX
  8
0
 62
7
 10
36.52753199
 20
16.80291476
  0
VERTEX
  8
0
 62
7
 10
36.60762661
 20
16.72280068
  0
VERTEX
  8
0
 62
7
 10
36.65151407
 20
16.60647064
  0
VERTEX
  8
0
 62
7
 10
36.59452894
 20
16.66062309
  0
VERTEX
  8
0
 62
7
 10
36.53877815
 20
16.70386961
  0
VERTEX
  8
0
 62
7
 10
36.49166771
 20
16.73518132
  0
VERTEX
  8
0
 62
7
 10
36.46060361
 20
16.75352936
  0
VERTEX
  8
0
 62
7
 10
36.38160618
 20
16.79715313
  0
VERTEX
  8
0
 62
7
 10
36.29931719
 20
16.83254600
  0
VERTEX
  8
0
 62
7
 10
36.25515544
 20
16.89180847
  0
VERTEX
  8
0
 62
7
 10
36.21593102
 20
16.95436330
  0
VERTEX
  8
0
 62
7
 10
36.17752949
 20
17.02899012
  0
VERTEX
  8
0
 62
7
 10
36.19618166
 20
17.05971881
  0
VERTEX
  8
0
 62
7
 10
36.21922258
 20
17.02569776
  0
VERTEX
  8
0
 62
7
 10
36.23499463
 20
17.00506907
  0
VERTEX
  8
0
 62
7
 10
36.25158958
 20
16.98495481
  0
VERTEX
  8
0
 62
7
 10
36.26983031
 20
16.96628096
  0
VERTEX
  8
0
 62
7
 10
36.29053970
 20
16.94997349
  0
VERTEX
  8
0
 62
7
 10
36.31090623
 20
16.93668402
  0
VERTEX
  8
0
 62
7
 10
36.33250709
 20
16.92514361
  0
VERTEX
  8
0
 62
7
 10
36.35534228
 20
16.91586670
  0
VERTEX
  8
0
 62
7
 10
36.37941181
 20
16.90936772
  0
VERTEX
  8
0
 62
7
 10
36.41081877
 20
16.90429200
  0
VERTEX
  8
0
 62
7
 10
36.44304863
 20
16.90497791
  0
SEQEND
  0
POLYLINE
  8
0
 62
7
 66
1
  0
VERTEX
  8
0
 62
7
 10
37.03800000
 20
15.81200000
  0
VERTEX
  8
0
 62
7
 10
37.01456250
 20
15.85937500
  0
VERTEX
  8
0
 62
7
 10
36.99075000
 20
15.90975000
  0
VERTEX
  8
0
 62
7
 10
36.96881250
 20
15.96050000
  0
VERTEX
  8
0
 62
7
 10
36.95100000
 20
16.00900000
  0
VERTEX
  8
0
 62
7
 10
36.94000000
 20
16.04300000
  0
VERTEX
  8
0
 62
7
 10
36.91900000
 20
16.06900000
  0
VERTEX
  8
0
 62
7
 10
36.87266797
 20
16.13277148
  0
VERTEX
  8
0
 62
7
 10
36.83071875
 20
16.19948438
  0
VERTEX
  8
0
 62
7
 10
36.79134766
 20
16.26786133
  0
VERTEX
  8
0
 62
7
 10
36.75275000
 20
16.33662500
  0
VERTEX
  8
0
 62
7
 10
36.71312109
 20
16.40449805
  0
VERTEX
  8
0
 62
7
 10
36.67065625
 20
16.47020313
  0
VERTEX
  8
0
 62
7
 10
36.62355078
 20
16.53246289
  0
VERTEX
  8
0
 62
7
 10
36.57000000
 20
16.59000000
  0
VERTEX
  8
0
 62
7
 10
36.53023828
 20
16.62555664
  0
VERTEX
  8
0
 62
7
 10
36.48834375
 20
16.65807813
  0
VERTEX
  8
0
 62
7
 10
36.44452734
 20
16.68771680
  0
VERTEX
  8
0
 62
7
 10
36.39900000
 20
16.71462500
  0
VERTEX
  8
0
 62
7
 10
36.35197266
 20
16.73895508
  0
VERTEX
  8
0
 62
7
 10
36.30365625
 20
16.76085938
  0
VERTEX
  8
0
 62
7
 10
36.25426172
 20
16.78049023
  0
VERTEX
  8
0
 62
7
 10
36.20400000
 20
16.79800000
  0
VERTEX
  8
0
 62
7
 10
36.14426563
 20
16.81604883
  0
VERTEX
  8
0
 62
7
 10
36.08368750
 20
16.83157813
  0
VERTEX
  8
0
 62
7
 10
36.02245313
 20
16.84403711
  0
VERTEX
  8
0
 62
7
 10
35.96075000
 20
16.85287500
  0
VERTEX
  8
0
 62
7
 10
35.89876563
 20
16.85754102
  0
VERTEX
  8
0
 62
7
 10
35.83668750
 20
16.85748438
  0
VERTEX
  8
0
 62
7
 10
35.77470313
 20
16.85215430
  0
VERTEX
  8
0
 62
7
 10
35.71300000
 20
16.84100000
  0
VERTEX
  8
0
 62
7
 10
35.66736133
 20
16.82935742
  0
VERTEX
  8
0
 62
7
 10
35.62220313
 20
16.81592188
  0
VERTEX
  8
0
 62
7
 10
35.57791211
 20
16.80030664
  0
VERTEX
  8
0
 62
7
 10
35.53487500
 20
16.78212500
  0
VERTEX
  8
0
 62
7
 10
35.49347852
 20
16.76099023
  0
VERTEX
  8
0
 62
7
 10
35.45410938
 20
16.73651563
  0
VERTEX
  8
0
 62
7
 10
35.41715430
 20
16.70831445
  0
VERTEX
  8
0
 62
7
 10
35.38300000
 20
16.67600000
  0
VERTEX
  8
0
 62
7
 10
35.34552148
 20
16.63174023
  0
VERTEX
  8
0
 62
7
 10
35.31342188
 20
16.58404688
  0
VERTEX
  8
0
 62
7
 10
35.28683008
 20
16.53342383
  0
VERTEX
  8
0
 62
7
 10
35.26587500
 20
16.48037500
  0
VERTEX
  8
0
 62
7
 10
35.25068555
 20
16.42540430
  0
VERTEX
  8
0
 62
7
 10
35.24139063
 20
16.36901563
  0
VERTEX
  8
0
 62
7
 10
35.23811914
 20
16.31171289
  0
VERTEX
  8
0
 62
7
 10
35.24100000
 20
16.25400000
  0
VERTEX
  8
0
 62
7
 10
35.28781250
 20
16.27664063
  0
VERTEX
  8
0
 62
7
 10
35.33650000
 20
16.29337500
  0
VERTEX
  8
0
 62
7
 10
35.38668750
 20
16.30392188
  0
VERTEX
  8
0
 62
7
 10
35.43800000
 20
16.30800000
  0
VERTEX
  8
0
 62
7
 10
35.48081567
 20
16.30638599
  0
VERTEX
  8
0
 62
7
 10
35.52200977
 20
16.30000977
  0
VERTEX
  8
0
 62
7
 10
35.56176538
 20
16.28938257
  0
VERTEX
  8
0
 62
7
 10
35.60026563
 20
16.27501563
  0
VERTEX
  8
0
 62
7
 10
35.63769360
 20
16.25742017
  0
VERTEX
  8
0
 62
7
 10
35.67423242
 20
16.23710742
  0
VERTEX
  8
0
 62
7
 10
35.71006519
 20
16.21458862
  0
VERTEX
  8
0
 62
7
 10
35.74537500
 20
16.19037500
  0
VERTEX
  8
0
 62
7
 10
35.78034497
 20
16.16497778
  0
VERTEX
  8
0
 62
7
 10
35.81515820
 20
16.13890820
  0
VERTEX
  8
0
 62
7
 10
35.84999780
 20
16.11267749
  0
VERTEX
  8
0
 62
7
 10
35.88504688
 20
16.08679688
  0
VERTEX
  8
0
 62
7
 10
35.92048853
 20
16.06177759
  0
VERTEX
  8
0
 62
7
 10
35.95650586
 20
16.03813086
  0
VERTEX
  8
0
 62
7
 10
35.99328198
 20
16.01636792
  0
VERTEX
  8
0
 62
7
 10
36.03100000
 20
15.99700000
  0
VERTEX
  8
0
 62
7
 10
36.08512305
 20
15.97280664
  0
VERTEX
  8
0
 62
7
 10
36.14017188
 20
15.95120313
  0
VERTEX
  8
0
 62
7
 10
36.19604102
 20
15.93215430
  0
VERTEX
  8
0
 62
7
 10
36.25262500
 20
15.91562500
  0
VERTEX
  8
0
 62
7
 10
36.30981836
 20
15.90158008
  0
VERTEX
  8
0
 62
7
 10
36.36751563
 20
15.88998438
  0
VERTEX
  8
0
 62
7
 10
36.42561133
 20
15.88080273
  0
VERTEX
  8
0
 62
7
 10
36.48400000
 20
15.87400000
  0
VERTEX
  8
0
 62
7
 10
36.55000000
 20
15.87118750
  0
VERTEX
  8
0
 62
7
 10
36.61600000
 20
15.87325000
  0
VERTEX
  8
0
 62
7
 10
36.68200000
 20
15.87568750
  0
VERTEX
  8
0
 62
7
 10
36.74800000
 20
15.87400000
  0
VERTEX
  8
0
 62
7
 10
36.79760938
 20
15.86915625
  0
VERTEX
  8
0
 62
7
 10
36.84712500
 20
15.86300000
  0
VERTEX
  8
0
 62
7
 10
36.89607813
 20
15.85459375
  0
VERTEX
  8
0
 62
7
 10
36.94400000
 20
15.84300000
  0
VERTEX
  8
0
 62
7
 10
36.99125000
 20
15.82862500
  0
VERTEX
  8
0
 62
7
 10
37.03700000
 20
15.81200000
  0
SEQEND
  0
POLYLINE
  8
0
 62
7
 66
1
 70
1
  0
VERTEX
  8
0
 62
7
 10
39.07200000
 20
14.09900000
  0
VERTEX
  8
0
 62
7
 10
38.97812500
 20
14.10575000
  0
VERTEX
  8
0
 62
7
 10
38.88500000
 20
14.11700000
  0
VERTEX
  8
0
 62
7
 10
38.82411328
 20
14.12715820
  0
VERTEX
  8
0
 62
7
 10
38.76371875
 20
14.13957813
  0
VERTEX
  8
0
 62
7
 10
38.70383984
 20
14.15417773
  0
VERTEX
  8
0
 62
7
 10
38.64450000
 20
14.17087500
  0
VERTEX
  8
0
 62
7
 10
38.58572266
 20
14.18958789
  0
VERTEX
  8
0
 62
7
 10
38.52753125
 20
14.21023438
  0
VERTEX
  8
0
 62
7
 10
38.46994922
 20
14.23273242
  0
VERTEX
  8
0
 62
7
 10
38.41300000
 20
14.25700000
  0
VERTEX
  8
0
 62
7
 10
38.35414258
 20
14.28410547
  0
VERTEX
  8
0
 62
7
 10
38.29614063
 20
14.31296875
  0
VERTEX
  8
0
 62
7
 10
38.23909961
 20
14.34366016
  0
VERTEX
  8
0
 62
7
 10
38.18312500
 20
14.37625000
  0
VERTEX
  8
0
 62
7
 10
38.12832227
 20
14.41080859
  0
VERTEX
  8
0
 62
7
 10
38.07479688
 20
14.44740625
  0
VERTEX
  8
0
 62
7
 10
38.02265430
 20
14.48611328
  0
VERTEX
  8
0
 62
7
 10
37.97200000
 20
14.52700000
  0
VERTEX
  8
0
 62
7
 10
37.89062500
 20
14.60068750
  0
VERTEX
  8
0
 62
7
 10
37.81450000
 20
14.67925000
  0
VERTEX
  8
0
 62
7
 10
37.74362500
 20
14.76268750
  0
VERTEX
  8
0
 62
7
 10
37.67800000
 20
14.85100000
  0
VERTEX
  8
0
 62
7
 10
37.79500000
 20
14.86300000
  0
VERTEX
  8
0
 62
7
 10
37.91200000
 20
14.72300000
  0
VERTEX
  8
0
 62
7
 10
37.99800000
 20
14.62500000
  0
VERTEX
  8
0
 62
7
 10
38.02200000
 20
14.65600000
  0
VERTEX
  8
0
 62
7
 10
37.86800000
 20
14.83900000
  0
VERTEX
  8
0
 62
7
 10
37.77700000
 20
14.94200000
  0
VERTEX
  8
0
 62
7
 10
37.74000000
 20
14.95400000
  0
VERTEX
  8
0
 62
7
 10
37.68250000
 20
14.96632813
  0
VERTEX
  8
0
 62
7
 10
37.62425000
 20
14.97237500
  0
VERTEX
  8
0
 62
7
 10
37.56562500
 20
14.97523438
  0
VERTEX
  8
0
 62
7
 10
37.50700000
 20
14.97800000
  0
VERTEX
  8
0
 62
7
 10
37.45512305
 20
14.98026953
  0
VERTEX
  8
0
 62
7
 10
37.40304688
 20
14.98021875
  0
VERTEX
  8
0
 62
7
 10
37.35085352
 20
14.97880859
  0
VERTEX
  8
0
 62
7
 10
37.29862500
 20
14.97700000
  0
VERTEX
  8
0
 62
7
 10
37.24644336
 20
14.97575391
  0
VERTEX
  8
0
 62
7
 10
37.19439063
 20
14.97603125
  0
VERTEX
  8
0
 62
7
 10
37.14254883
 20
14.97879297
  0
VERTEX
  8
0
 62
7
 10
37.09100000
 20
14.98500000
  0
VERTEX
  8
0
 62
7
 10
37.03932227
 20
14.99377148
  0
VERTEX
  8
0
 62
7
 10
36.98789063
 20
15.00379688
  0
VERTEX
  8
0
 62
7
 10
36.93685742
 20
15.01539258
  0
VERTEX
  8
0
 62
7
 10
36.88637500
 20
15.02887500
  0
VERTEX
  8
0
 62
7
 10
36.83659570
 20
15.04456055
  0
VERTEX
  8
0
 62
7
 10
36.78767188
 20
15.06276563
  0
VERTEX
  8
0
 62
7
 10
36.73975586
 20
15.08380664
  0
VERTEX
  8
0
 62
7
 10
36.69300000
 20
15.10800000
  0
VERTEX
  8
0
 62
7
 10
36.65075000
 20
15.13554688
  0
VERTEX
  8
0
 62
7
 10
36.61075000
 20
15.16637500
  0
VERTEX
  8
0
 62
7
 10
36.57037500
 20
15.19701563
  0
VERTEX
  8
0
 62
7
 10
36.52700000
 20
15.22400000
  0
VERTEX
  8
0
 62
7
 10
36.49984570
 20
15.23916602
  0
VERTEX
  8
0
 62
7
 10
36.47232813
 20
15.25476563
  0
VERTEX
  8
0
 62
7
 10
36.44436523
 20
15.26982617
  0
VERTEX
  8
0
 62
7
 10
36.41587500
 20
15.28337500
  0
VERTEX
  8
0
 62
7
 10
36.38677539
 20
15.29443945
  0
VERTEX
  8
0
 62
7
 10
36.35698438
 20
15.30204688
  0
VERTEX
  8
0
 62
7
 10
36.32641992
 20
15.30522461
  0
VERTEX
  8
0
 62
7
 10
36.29500000
 20
15.30300000
  0
VERTEX
  8
0
 62
7
 10
36.26021875
 20
15.29445313
  0
VERTEX
  8
0
 62
7
 10
36.22675000
 20
15.28112500
  0
VERTEX
  8
0
 62
7
 10
36.19515625
 20
15.26348438
  0
VERTEX
  8
0
 62
7
 10
36.16600000
 20
15.24200000
  0
VERTEX
  8
0
 62
7
 10
36.16411719
 20
15.28550586
  0
VERTEX
  8
0
 62
7
 10
36.16593750
 20
15.32885938
  0
VERTEX
  8
0
 62
7
 10
36.17141406
 20
15.37181445
  0
VERTEX
  8
0
 62
7
 10
36.18050000
 20
15.41412500
  0
VERTEX
  8
0
 62
7
 10
36.19314844
 20
15.45554492
  0
VERTEX
  8
0
 62
7
 10
36.20931250
 20
15.49582813
  0
VERTEX
  8
0
 62
7
 10
36.22894531
 20
15.53472852
  0
VERTEX
  8
0
 62
7
 10
36.25200000
 20
15.57200000
  0
VERTEX
  8
0
 62
7
 10
36.28669141
 20
15.61660547
  0
VERTEX
  8
0
 62
7
 10
36.32590625
 20
15.65603125
  0
VERTEX
  8
0
 62
7
 10
36.36910547
 20
15.69044141
  0
VERTEX
  8
0
 62
7
 10
36.41575000
 20
15.72000000
  0
VERTEX
  8
0
 62
7
 10
36.46530078
 20
15.74487109
  0
VERTEX
  8
0
 62
7
 10
36.51721875
 20
15.76521875
  0
VERTEX
  8
0
 62
7
 10
36.57096484
 20
15.78120703
  0
VERTEX
  8
0
 62
7
 10
36.62600000
 20
15.79300000
  0
VERTEX
  8
0
 62
7
 10
36.67996875
 20
15.79924414
  0
VERTEX
  8
0
 62
7
 10
36.73375000
 20
15.80020313
  0
VERTEX
  8
0
 62
7
 10
36.78715625
 20
15.79621680
  0
VERTEX
  8
0
 62
7
 10
36.84000000
 20
15.78762500
  0
VERTEX
  8
0
 62
7
 10
36.89209375
 20
15.77476758
  0
VERTEX
  8
0
 62
7
 10
36.94325000
 20
15.75798438
  0
VERTEX
  8
0
 62
7
 10
36.99328125
 20
15.73761523
  0
VERTEX
  8
0
 62
7
 10
37.04200000
 20
15.71400000
  0
VERTEX
  8
0
 62
7
 10
37.08886328
 20
15.68642383
  0
VERTEX
  8
0
 62
7
 10
37.13284375
 20
15.65501563
  0
VERTEX
  8
0
 62
7
 10
37.17415234
 20
15.62025586
  0
VERTEX
  8
0
 62
7
 10
37.21300000
 20
15.58262500
  0
VERTEX
  8
0
 62
7
 10
37.24959766
 20
15.54260352
  0
VERTEX
  8
0
 62
7
 10
37.28415625
 20
15.50067188
  0
VERTEX
  8
0
 62
7
 10
37.31688672
 20
15.45731055
  0
VERTEX
  8
0
 62
7
 10
37.34800000
 20
15.41300000
  0
VERTEX
  8
0
 62
7
 10
37.37057813
 20
15.37573438
  0
VERTEX
  8
0
 62
7
 10
37.39062500
 20
15.33687500
  0
VERTEX
  8
0
 62
7
 10
37.41085938
 20
15.29782813
  0
VERTEX
  8
0
 62
7
 10
37.43400000
 20
15.26000000
  0
VERTEX
  8
0
 62
7
 10
37.47478125
 20
15.20534375
  0
VERTEX
  8
0
 62
7
 10
37.51950000
 20
15.15350000
  0
VERTEX
  8
0
 62
7
 10
37.56871875
 20
15.10615625
  0
VERTEX
  8
0
 62
7
 10
37.62300000
 20
15.06500000
  0
VERTEX
  8
0
 62
7
 10
37.66275000
 20
15.04187500
  0
VERTEX
  8
0
 62
7
 10
37.70400000
 20
15.02100000
  0
VERTEX
  8
0
 62
7
 10
37.64900000
 20
15.12500000
  0
VERTEX
  8
0
 62
7
 10
37.61050000
 20
15.19400000
  0
VERTEX
  8
0
 62
7
 10
37.56900000
 20
15.26000000
  0
VERTEX
  8
0
 62
7
 10
37.52701563
 20
15.31355859
  0
VERTEX
  8
0
 62
7
 10
37.48268750
 20
15.36521875
  0
VERTEX
  8
0
 62
7
 10
37.43695313
 20
15.41570703
  0
VERTEX
  8
0
 62
7
 10
37.39075000
 20
15.46575000
  0
VERTEX
  8
0
 62
7
 10
37.34501563
 20
15.51607422
  0
VERTEX
  8
0
 62
7
 10
37.30068750
 20
15.56740625
  0
VERTEX
  8
0
 62
7
 10
37.25870313
 20
15.62047266
  0
VERTEX
  8
0
 62
7
 10
37.22000000
 20
15.67600000
  0
VERTEX
  8
0
 62
7
 10
37.16565625
 20
15.76207813
  0
VERTEX
  8
0
 62
7
 10
37.11600000
 20
15.85087500
  0
VERTEX
  8
0
 62
7
 10
37.07234375
 20
15.94248438
  0
VERTEX
  8
0
 62
7
 10
37.03600000
 20
16.03700000
  0
VERTEX
  8
0
 62
7
 10
37.01962500
 20
16.09168750
  0
VERTEX
  8
0
 62
7
 10
37.00568750
 20
16.14693750
  0
VERTEX
  8
0
 62
7
 10
36.99409375
 20
16.20265625
  0
VERTEX
  8
0
 62
7
 10
36.98475000
 20
16.25875000
  0
VERTEX
  8
0
 62
7
 10
36.97756250
 20
16.31512500
  0
VERTEX
  8
0
 62
7
 10
36.97243750
 20
16.37168750
  0
VERTEX
  8
0
 62
7
 10
36.96928125
 20
16.42834375
  0
VERTEX
  8
0
 62
7
 10
36.96800000
 20
16.48500000
  0
VERTEX
  8
0
 62
7
 10
36.96798438
 20
16.53869336
  0
VERTEX
  8
0
 62
7
 10
36.96900000
 20
16.59242188
  0
VERTEX
  8
0
 62
7
 10
36.97151563
 20
16.64603320
  0
VERTEX
  8
0
 62
7
 10
36.97600000
 20
16.69937500
  0
VERTEX
  8
0
 62
7
 10
36.98292188
 20
16.75229492
  0
VERTEX
  8
0
 62
7
 10
36.99275000
 20
16.80464063
  0
VERTEX
  8
0
 62
7
 10
37.00595313
 20
16.85625977
  0
VERTEX
  8
0
 62
7
 10
37.02300000
 20
16.90700000
  0
VERTEX
  8
0
 62
7
 10
37.04415234
 20
16.95748633
  0
VERTEX
  8
0
 62
7
 10
37.06790625
 20
17.00676563
  0
VERTEX
  8
0
 62
7
 10
37.09433203
 20
17.05456836
  0
VERTEX
  8
0
 62
7
 10
37.12350000
 20
17.10062500
  0
VERTEX
  8
0
 62
7
 10
37.15548047
 20
17.14466602
  0
VERTEX
  8
0
 62
7
 10
37.19034375
 20
17.18642188
  0
VERTEX
  8
0
 62
7
 10
37.22816016
 20
17.22562305
  0
VERTEX
  8
0
 62
7
 10
37.26900000
 20
17.26200000
  0
VERTEX
  8
0
 62
7
 10
37.31317188
 20
17.29587500
  0
VERTEX
  8
0
 62
7
 10
37.35987500
 20
17.32675000
  0
VERTEX
  8
0
 62
7
 10
37.40864063
 20
17.35425000
  0
VERTEX
  8
0
 62
7
 10
37.45900000
 20
17.37800000
  0
VERTEX
  8
0
 62
7
 10
37.45300000
 20
17.31939063
  0
VERTEX
  8
0
 62
7
 10
37.45300000
 20
17.26087500
  0
VERTEX
  8
0
 62
7
 10
37.45900000
 20
17.20292188
  0
VERTEX
  8
0
 62
7
 10
37.47100000
 20
17.14600000
  0
VERTEX
  8
0
 62
7
 10
37.49313867
 20
17.07292773
  0
VERTEX
  8
0
 62
7
 10
37.52079688
 20
17.00242188
  0
VERTEX
  8
0
 62
7
 10
37.55208789
 20
16.93367383
  0
VERTEX
  8
0
 62
7
 10
37.58512500
 20
16.86587500
  0
VERTEX
  8
0
 62
7
 10
37.61802148
 20
16.79821680
  0
VERTEX
  8
0
 62
7
 10
37.64889063
 20
16.72989063
  0
VERTEX
  8
0
 62
7
 10
37.67584570
 20
16.66008789
  0
VERTEX
  8
0
 62
7
 10
37.69700000
 20
16.58800000
  0
VERTEX
  8
0
 62
7
 10
37.71773438
 20
16.49131250
  0
VERTEX
  8
0
 62
7
 10
37.73312500
 20
16.39350000
  0
VERTEX
  8
0
 62
7
 10
37.74270313
 20
16.29493750
  0
VERTEX
  8
0
 62
7
 10
37.74600000
 20
16.19600000
  0
VERTEX
  8
0
 62
7
 10
37.74417188
 20
16.13467188
  0
VERTEX
  8
0
 62
7
 10
37.73962500
 20
16.07362500
  0
VERTEX
  8
0
 62
7
 10
37.73376563
 20
16.01276563
  0
VERTEX
  8
0
 62
7
 10
37.72800000
 20
15.95200000
  0
VERTEX
  8
0
 62
7
 10
37.71856250
 20
15.86814063
  0
VERTEX
  8
0
 62
7
 10
37.70725000
 20
15.78437500
  0
VERTEX
  8
0
 62
7
 10
37.69706250
 20
15.70042188
  0
VERTEX
  8
0
 62
7
 10
37.69100000
 20
15.61600000
  0
VERTEX
  8
0
 62
7
 10
37.68953125
 20
15.56975391
  0
VERTEX
  8
0
 62
7
 10
37.68787500
 20
15.52334375
  0
VERTEX
  8
0
 62
7
 10
37.68678125
 20
15.47688672
  0
VERTEX
  8
0
 62
7
 10
37.68700000
 20
15.43050000
  0
VERTEX
  8
0
 62
7
 10
37.68928125
 20
15.38430078
  0
VERTEX
  8
0
 62
7
 10
37.69437500
 20
15.33840625
  0
VERTEX
  8
0
 62
7
 10
37.70303125
 20
15.29293359
  0
VERTEX
  8
0
 62
7
 10
37.71600000
 20
15.24800000
  0
VERTEX
  8
0
 62
7
 10
37.73171875
 20
15.20656250
  0
VERTEX
  8
0
 62
7
 10
37.75025000
 20
15.16625000
  0
VERTEX
  8
0
 62
7
 10
37.77140625
 20
15.12706250
  0
VERTEX
  8
0
 62
7
 10
37.79500000
 20
15.08900000
  0
VERTEX
  8
0
 62
7
 10
37.80453125
 20
15.10453125
  0
VERTEX
  8
0
 62
7
 10
37.81200000
 20
15.12100000
  0
VERTEX
  8
0
 62
7
 10
37.81721875
 20
15.13821875
  0
VERTEX
  8
0
 62
7
 10
37.82000000
 20
15.15600000
  0
VERTEX
  8
0
 62
7
 10
37.81885938
 20
15.17707813
  0
VERTEX
  8
0
 62
7
 10
37.81387500
 20
15.19712500
  0
VERTEX
  8
0
 62
7
 10
37.80720313
 20
15.21660938
  0
VERTEX
  8
0
 62
7
 10
37.80100000
 20
15.23600000
  0
VERTEX
  8
0
 62
7
 10
37.78978125
 20
15.28476563
  0
VERTEX
  8
0
 62
7
 10
37.77800000
 20
15.33362500
  0
VERTEX
  8
0
 62
7
 10
37.76696875
 20
15.38267188
  0
VERTEX
  8
0
 62
7
 10
37.75800000
 20
15.43200000
  0
VERTEX
  8
0
 62
7
 10
37.74857813
 20
15.52515625
  0
VERTEX
  8
0
 62
7
 10
37.74562500
 20
15.61850000
  0
VERTEX
  8
0
 62
7
 10
37.74885938
 20
15.71184375
  0
VERTEX
  8
0
 62
7
 10
37.75800000
 20
15.80500000
  0
VERTEX
  8
0
 62
7
 10
37.76493164
 20
15.85347266
  0
VERTEX
  8
0
 62
7
 10
37.77257813
 20
15.90196875
  0
VERTEX
  8
0
 62
7
 10
37.78146680
 20
15.95023047
  0
VERTEX
  8
0
 62
7
 10
37.79212500
 20
15.99800000
  0
VERTEX
  8
0
 62
7
 10
37.80508008
 20
16.04501953
  0
VERTEX
  8
0
 62
7
 10
37.82085938
 20
16.09103125
  0
VERTEX
  8
0
 62
7
 10
37.83999023
 20
16.13577734
  0
VERTEX
  8
0
 62
7
 10
37.86300000
 20
16.17900000
  0
VERTEX
  8
0
 62
7
 10
37.88582031
 20
16.21656641
  0
VERTEX
  8
0
 62
7
 10
37.91018750
 20
16.25321875
  0
VERTEX
  8
0
 62
7
 10
37.93633594
 20
16.28851172
  0
VERTEX
  8
0
 62
7
 10
37.96450000
 20
16.32200000
  0
VERTEX
  8
0
 62
7
 10
37.99491406
 20
16.35323828
  0
VERTEX
  8
0
 62
7
 10
38.02781250
 20
16.38178125
  0
VERTEX
  8
0
 62
7
 10
38.06342969
 20
16.40718359
  0
VERTEX
  8
0
 62
7
 10
38.10200000
 20
16.42900000
  0
VERTEX
  8
0
 62
7
 10
38.13586523
 20
16.44410742
  0
VERTEX
  8
0
 62
7
 10
38.17060938
 20
16.45648438
  0
VERTEX
  8
0
 62
7
 10
38.20608008
 20
16.46621289
  0
VERTEX
  8
0
 62
7
 10
38.24212500
 20
16.47337500
  0
VERTEX
  8
0
 62
7
 10
38.27859180
 20
16.47805273
  0
VERTEX
  8
0
 62
7
 10
38.31532813
 20
16.48032813
  0
VERTEX
  8
0
 62
7
 10
38.35218164
 20
16.48028320
  0
VERTEX
  8
0
 62
7
 10
38.38900000
 20
16.47800000
  0
VERTEX
  8
0
 62
7
 10
38.45043750
 20
16.46940625
  0
VERTEX
  8
0
 62
7
 10
38.51000000
 20
16.45425000
  0
VERTEX
  8
0
 62
7
 10
38.56731250
 20
16.43271875
  0
VERTEX
  8
0
 62
7
 10
38.62200000
 20
16.40500000
  0
VERTEX
  8
0
 62
7
 10
38.59073438
 20
16.39453125
  0
VERTEX
  8
0
 62
7
 10
38.56162500
 20
16.37975000
  0
VERTEX
  8
0
 62
7
 10
38.53495313
 20
16.36084375
  0
VERTEX
  8
0
 62
7
 10
38.51100000
 20
16.33800000
  0
VERTEX
  8
0
 62
7
 10
38.49530664
 20
16.31710938
  0
VERTEX
  8
0
 62
7
 10
38.48370313
 20
16.29443750
  0
VERTEX
  8
0
 62
7
 10
38.47540430
 20
16.27035938
  0
VERTEX
  8
0
 62
7
 10
38.46962500
 20
16.24525000
  0
VERTEX
  8
0
 62
7
 10
38.46558008
 20
16.21948438
  0
VERTEX
  8
0
 62
7
 10
38.46248438
 20
16.19343750
  0
VERTEX
  8
0
 62
7
 10
38.45955273
 20
16.16748438
  0
VERTEX
  8
0
 62
7
 10
38.45600000
 20
16.14200000
  0
VERTEX
  8
0
 62
7
 10
38.44642383
 20
16.07238672
  0
VERTEX
  8
0
 62
7
 10
38.44051563
 20
16.00246875
  0
VERTEX
  8
0
 62
7
 10
38.43650586
 20
15.93250391
  0
VERTEX
  8
0
 62
7
 10
38.43262500
 20
15.86275000
  0
VERTEX
  8
0
 62
7
 10
38.42710352
 20
15.79346484
  0
VERTEX
  8
0
 62
7
 10
38.41817188
 20
15.72490625
  0
VERTEX
  8
0
 62
7
 10
38.40406055
 20
15.65733203
  0
VERTEX
  8
0
 62
7
 10
38.38300000
 20
15.59100000
  0
VERTEX
  8
0
 62
7
 10
38.35995703
 20
15.53622852
  0
VERTEX
  8
0
 62
7
 10
38.33365625
 20
15.48301563
  0
VERTEX
  8
0
 62
7
 10
38.30421484
 20
15.43151367
  0
VERTEX
  8
0
 62
7
 10
38.27175000
 20
15.38187500
  0
VERTEX
  8
0
 62
7
 10
38.23637891
 20
15.33425195
  0
VERTEX
  8
0
 62
7
 10
38.19821875
 20
15.28879688
  0
VERTEX
  8
0
 62
7
 10
38.15738672
 20
15.24566211
  0
VERTEX
  8
0
 62
7
 10
38.11400000
 20
15.20500000
  0
VERTEX
  8
0
 62
7
 10
38.09244727
 20
15.18860156
  0
VERTEX
  8
0
 62
7
 10
38.06945313
 20
15.17412500
  0
VERTEX
  8
0
 62
7
 10
38.04563867
 20
15.16077344
  0
VERTEX
  8
0
 62
7
 10
38.02162500
 20
15.14775000
  0
VERTEX
  8
0
 62
7
 10
37.99803320
 20
15.13425781
  0
VERTEX
  8
0
 62
7
 10
37.97548438
 20
15.11950000
  0
VERTEX
  8
0
 62
7
 10
37.95459961
 20
15.10267969
  0
VERTEX
  8
0
 62
7
 10
37.93600000
 20
15.08300000
  0
VERTEX
  8
0
 62
7
 10
37.91300000
 20
15.05062500
  0
VERTEX
  8
0
 62
7
 10
37.89300000
 20
15.01600000
  0
VERTEX
  8
0
 62
7
 10
37.92926172
 20
14.95377344
  0
VERTEX
  8
0
 62
7
 10
37.96896875
 20
14.89393750
  0
VERTEX
  8
0
 62
7
 10
38.01200391
 20
14.83663281
  0
VERTEX
  8
0
 62
7
 10
38.05825000
 20
14.78200000
  0
VERTEX
  8
0
 62
7
 10
38.10758984
 20
14.73017969
  0
VERTEX
  8
0
 62
7
 10
38.15990625
 20
14.68131250
  0
VERTEX
  8
0
 62
7
 10
38.21508203
 20
14.63553906
  0
VERTEX
  8
0
 62
7
 10
38.27300000
 20
14.59300000
  0
VERTEX
  8
0
 62
7
 10
38.32023047
 20
14.56200391
  0
VERTEX
  8
0
 62
7
 10
38.36884375
 20
14.53346875
  0
VERTEX
  8
0
 62
7
 10
38.41872266
 20
14.50732422
  0
VERTEX
  8
0
 62
7
 10
38.46975000
 20
14.48350000
  0
VERTEX
  8
0
 62
7
 10
38.52180859
 20
14.46192578
  0
VERTEX
  8
0
 62
7
 10
38.57478125
 20
14.44253125
  0
VERTEX
  8
0
 62
7
 10
38.62855078
 20
14.42524609
  0
VERTEX
  8
0
 62
7
 10
38.68300000
 20
14.41000000
  0
VERTEX
  8
0
 62
7
 10
38.77534375
 20
14.38935938
  0
VERTEX
  8
0
 62
7
 10
38.86900000
 20
14.37537500
  0
VERTEX
  8
0
 62
7
 10
38.96340625
 20
14.36795313
  0
VERTEX
  8
0
 62
7
 10
39.05800000
 20
14.36700000
  0
VERTEX
  8
0
 62
7
 10
39.07200000
 20
14.09900000
  0
SEQEND
  0
POLYLINE
  8
0
 62
7
 66
1
 70
1
  0
VERTEX
  8
0
 62
7
 10
37.91900000
 20
15.30600000
  0
VERTEX
  8
0
 62
7
 10
37.93776563
 20
15.37465625
  0
VERTEX
  8
0
 62
7
 10
37.95287500
 20
15.44425000
  0
VERTEX
  8
0
 62
7
 10
37.96554688
 20
15.51496875
  0
VERTEX
  8
0
 62
7
 10
37.97700000
 20
15.58700000
  0
VERTEX
  8
0
 62
7
 10
37.99006250
 20
15.66771875
  0
VERTEX
  8
0
 62
7
 10
38.00500000
 20
15.74900000
  0
VERTEX
  8
0
 62
7
 10
38.02368750
 20
15.83028125
  0
VERTEX
  8
0
 62
7
 10
38.04800000
 20
15.91100000
  0
VERTEX
  8
0
 62
7
 10
38.06133984
 20
15.94927344
  0
VERTEX
  8
0
 62
7
 10
38.07540625
 20
15.98806250
  0
VERTEX
  8
0
 62
7
 10
38.09064453
 20
16.02694531
  0
VERTEX
  8
0
 62
7
 10
38.10750000
 20
16.06550000
  0
VERTEX
  8
0
 62
7
 10
38.12641797
 20
16.10330469
  0
VERTEX
  8
0
 62
7
 10
38.14784375
 20
16.13993750
  0
VERTEX
  8
0
 62
7
 10
38.17222266
 20
16.17497656
  0
VERTEX
  8
0
 62
7
 10
38.20000000
 20
16.20800000
  0
VERTEX
  8
0
 62
7
 10
38.23245313
 20
16.23928125
  0
VERTEX
  8
0
 62
7
 10
38.26687500
 20
16.26850000
  0
VERTEX
  8
0
 62
7
 10
38.30335938
 20
16.29546875
  0
VERTEX
  8
0
 62
7
 10
38.34200000
 20
16.32000000
  0
VERTEX
  8
0
 62
7
 10
38.36100000
 20
16.29200000
  0
VERTEX
  8
0
 62
7
 10
38.32157861
 20
16.26662280
  0
VERTEX
  8
0
 62
7
 10
38.28567578
 20
16.23720117
  0
VERTEX
  8
0
 62
7
 10
38.25308350
 20
16.20405005
  0
VERTEX
  8
0
 62
7
 10
38.22359375
 20
16.16748438
  0
VERTEX
  8
0
 62
7
 10
38.19699854
 20
16.12781909
  0
VERTEX
  8
0
 62
7
 10
38.17308984
 20
16.08536914
  0
VERTEX
  8
0
 62
7
 10
38.15165967
 20
16.04044946
  0
VERTEX
  8
0
 62
7
 10
38.13250000
 20
15.99337500
  0
VERTEX
  8
0
 62
7
 10
38.11540283
 20
15.94446069
  0
VERTEX
  8
0
 62
7
 10
38.10016016
 20
15.89402148
  0
VERTEX
  8
0
 62
7
 10
38.08656396
 20
15.84237231
  0
VERTEX
  8
0
 62
7
 10
38.07440625
 20
15.78982813
  0
VERTEX
  8
0
 62
7
 10
38.06347900
 20
15.73670386
  0
VERTEX
  8
0
 62
7
 10
38.05357422
 20
15.68331445
  0
VERTEX
  8
0
 62
7
 10
38.04448389
 20
15.62997485
  0
VERTEX
  8
0
 62
7
 10
38.03600000
 20
15.57700000
  0
VERTEX
  8
0
 62
7
 10
38.02453125
 20
15.50526563
  0
VERTEX
  8
0
 62
7
 10
38.01175000
 20
15.43287500
  0
VERTEX
  8
0
 62
7
 10
37.99634375
 20
15.36029688
  0
VERTEX
  8
0
 62
7
 10
37.97700000
 20
15.28800000
  0
VERTEX
  8
0
 62
7
 10
37.97120313
 20
15.27742188
  0
VERTEX
  8
0
 62
7
 10
37.96212500
 20
15.27012500
  0
VERTEX
  8
0
 62
7
 10
37.95098438
 20
15.26676563
  0
VERTEX
  8
0
 62
7
 10
37.93900000
 20
15.26800000
  0
VERTEX
  8
0
 62
7
 10
37.92842188
 20
15.27379688
  0
VERTEX
  8
0
 62
7
 10
37.92112500
 20
15.28287500
  0
VERTEX
  8
0
 62
7
 10
37.91776563
 20
15.29401563
  0
VERTEX
  8
0
 62
7
 10
37.91900000
 20
15.30600000
  0
SEQEND
  0
POLYLINE
  8
0
 62
7
 66
1
 70
1
  0
VERTEX
  8
0
 62
7
 10
37.48800000
 20
15.60400000
  0
VERTEX
  8
0
 62
7
 10
37.46048633
 20
15.67927930
  0
VERTEX
  8
0
 62
7
 10
37.43495313
 20
15.75510938
  0
VERTEX
  8
0
 62
7
 10
37.41141211
 20
15.83147852
  0
VERTEX
  8
0
 62
7
 10
37.38987500
 20
15.90837500
  0
VERTEX
  8
0
 62
7
 10
37.37035352
 20
15.98578711
  0
VERTEX
  8
0
 62
7
 10
37.35285938
 20
16.06370313
  0
VERTEX
  8
0
 62
7
 10
37.33740430
 20
16.14211133
  0
VERTEX
  8
0
 62
7
 10
37.32400000
 20
16.22100000
  0
VERTEX
  8
0
 62
7
 10
37.31091406
 20
16.31375977
  0
VERTEX
  8
0
 62
7
 10
37.30087500
 20
16.40676563
  0
VERTEX
  8
0
 62
7
 10
37.29383594
 20
16.49998242
  0
VERTEX
  8
0
 62
7
 10
37.28975000
 20
16.59337500
  0
VERTEX
  8
0
 62
7
 10
37.28857031
 20
16.68690820
  0
VERTEX
  8
0
 62
7
 10
37.29025000
 20
16.78054688
  0
VERTEX
  8
0
 62
7
 10
37.29474219
 20
16.87425586
  0
VERTEX
  8
0
 62
7
 10
37.30200000
 20
16.96800000
  0
VERTEX
  8
0
 62
7
 10
37.34500000
 20
16.96200000
  0
VERTEX
  8
0
 62
7
 10
37.33838281
 20
16.87017383
  0
VERTEX
  8
0
 62
7
 10
37.33556250
 20
16.77845313
  0
VERTEX
  8
0
 62
7
 10
37.33621094
 20
16.68684961
  0
VERTEX
  8
0
 62
7
 10
37.34000000
 20
16.59537500
  0
VERTEX
  8
0
 62
7
 10
37.34660156
 20
16.50404102
  0
VERTEX
  8
0
 62
7
 10
37.35568750
 20
16.41285938
  0
VERTEX
  8
0
 62
7
 10
37.36692969
 20
16.32184180
  0
VERTEX
  8
0
 62
7
 10
37.38000000
 20
16.23100000
  0
VERTEX
  8
0
 62
7
 10
37.39344531
 20
16.15357031
  0
VERTEX
  8
0
 62
7
 10
37.40900000
 20
16.07656250
  0
VERTEX
  8
0
 62
7
 10
37.42661719
 20
16.00002344
  0
VERTEX
  8
0
 62
7
 10
37.44625000
 20
15.92400000
  0
VERTEX
  8
0
 62
7
 10
37.46785156
 20
15.84853906
  0
VERTEX
  8
0
 62
7
 10
37.49137500
 20
15.77368750
  0
VERTEX
  8
0
 62
7
 10
37.51677344
 20
15.69949219
  0
VERTEX
  8
0
 62
7
 10
37.54400000
 20
15.62600000
  0
VERTEX
  8
0
 62
7
 10
37.54598438
 20
15.61400000
  0
VERTEX
  8
0
 62
7
 10
37.54337500
 20
15.60275000
  0
VERTEX
  8
0
 62
7
 10
37.53682813
 20
15.59337500
  0
VERTEX
  8
0
 62
7
 10
37.52700000
 20
15.58700000
  0
VERTEX
  8
0
 62
7
 10
37.51500000
 20
15.58501563
  0
VERTEX
  8
0
 62
7
 10
37.50375000
 20
15.58762500
  0
VERTEX
  8
0
 62
7
 10
37.49437500
 20
15.59417188
  0
VERTEX
  8
0
 62
7
 10
37.48800000
 20
15.60400000
  0
SEQEND
  0
POLYLINE
  8
0
 62
7
 66
1
 70
1
  0
VERTEX
  8
0
 62
7
 10
36.76900000
 20
16.00600000
  0
VERTEX
  8
0
 62
7
 10
36.70296289
 20
16.02736719
  0
VERTEX
  8
0
 62
7
 10
36.63895313
 20
16.05281250
  0
VERTEX
  8
0
 62
7
 10
36.57674805
 20
16.08172656
  0
VERTEX
  8
0
 62
7
 10
36.51612500
 20
16.11350000
  0
VERTEX
  8
0
 62
7
 10
36.45686133
 20
16.14752344
  0
VERTEX
  8
0
 62
7
 10
36.39873438
 20
16.18318750
  0
VERTEX
  8
0
 62
7
 10
36.34152148
 20
16.21988281
  0
VERTEX
  8
0
 62
7
 10
36.28500000
 20
16.25700000
  0
VERTEX
  8
0
 62
7
 10
36.11100000
 20
16.36700000
  0
VERTEX
  8
0
 62
7
 10
36.05557813
 20
16.39898438
  0
VERTEX
  8
0
 62
7
 10
35.99987500
 20
16.42787500
  0
VERTEX
  8
0
 62
7
 10
35.94323438
 20
16.45207813
  0
VERTEX
  8
0
 62
7
 10
35.88500000
 20
16.47000000
  0
VERTEX
  8
0
 62
7
 10
35.83986523
 20
16.47976563
  0
VERTEX
  8
0
 62
7
 10
35.79392188
 20
16.48775000
  0
VERTEX
  8
0
 62
7
 10
35.74748633
 20
16.49348438
  0
VERTEX
  8
0
 62
7
 10
35.70087500
 20
16.49650000
  0
VERTEX
  8
0
 62
7
 10
35.65440430
 20
16.49632813
  0
VERTEX
  8
0
 62
7
 10
35.60839063
 20
16.49250000
  0
VERTEX
  8
0
 62
7
 10
35.56315039
 20
16.48454688
  0
VERTEX
  8
0
 62
7
 10
35.51900000
 20
16.47200000
  0
VERTEX
  8
0
 62
7
 10
35.50600000
 20
16.51100000
  0
VERTEX
  8
0
 62
7
 10
35.56142188
 20
16.52732813
  0
VERTEX
  8
0
 62
7
 10
35.61787500
 20
16.53887500
  0
VERTEX
  8
0
 62
7
 10
35.67489063
 20
16.54573438
  0
VERTEX
  8
0
 62
7
 10
35.73200000
 20
16.54800000
  0
VERTEX
  8
0
 62
7
 10
35.77396875
 20
16.54670313
  0
VERTEX
  8
0
 62
7
 10
35.81575000
 20
16.54287500
  0
VERTEX
  8
0
 62
7
 10
35.85715625
 20
16.53660938
  0
VERTEX
  8
0
 62
7
 10
35.89800000
 20
16.52800000
  0
VERTEX
  8
0
 62
7
 10
35.96354688
 20
16.50829688
  0
VERTEX
  8
0
 62
7
 10
36.02562500
 20
16.48212500
  0
VERTEX
  8
0
 62
7
 10
36.08489063
 20
16.45164063
  0
VERTEX
  8
0
 62
7
 10
36.14200000
 20
16.41900000
  0
VERTEX
  8
0
 62
7
 10
36.23062500
 20
16.36375000
  0
VERTEX
  8
0
 62
7
 10
36.31700000
 20
16.30700000
  0
VERTEX
  8
0
 62
7
 10
36.37410547
 20
16.26981641
  0
VERTEX
  8
0
 62
7
 10
36.43090625
 20
16.23359375
  0
VERTEX
  8
0
 62
7
 10
36.48775391
 20
16.19882422
  0
VERTEX
  8
0
 62
7
 10
36.54500000
 20
16.16600000
  0
VERTEX
  8
0
 62
7
 10
36.60299609
 20
16.13561328
  0
VERTEX
  8
0
 62
7
 10
36.66209375
 20
16.10815625
  0
VERTEX
  8
0
 62
7
 10
36.72264453
 20
16.08412109
  0
VERTEX
  8
0
 62
7
 10
36.78500000
 20
16.06400000
  0
VERTEX
  8
0
 62
7
 10
36.79559375
 20
16.05835938
  0
VERTEX
  8
0
 62
7
 10
36.80300000
 20
16.04962500
  0
VERTEX
  8
0
 62
7
 10
36.80665625
 20
16.03882813
  0
VERTEX
  8
0
 62
7
 10
36.80600000
 20
16.02700000
  0
VERTEX
  8
0
 62
7
 10
36.80035938
 20
16.01640625
  0
VERTEX
  8
0
 62
7
 10
36.79162500
 20
16.00900000
  0
VERTEX
  8
0
 62
7
 10
36.78082813
 20
16.00534375
  0
VERTEX
  8
0
 62
7
 10
36.76900000
 20
16.00600000
  0
SEQEND
  0
POLYLINE
  8
0
 62
7
 66
1
 70
1
  0
VERTEX
  8
0
 62
7
 10
37.34000000
 20
15.11100000
  0
VERTEX
  8
0
 62
7
 10
37.26618750
 20
15.16785938
  0
VERTEX
  8
0
 62
7
 10
37.18900000
 20
15.22087500
  0
VERTEX
  8
0
 62
7
 10
37.10881250
 20
15.26920313
  0
VERTEX
  8
0
 62
7
 10
37.02600000
 20
15.31200000
  0
VERTEX
  8
0
 62
7
 10
36.95823633
 20
15.34257617
  0
VERTEX
  8
0
 62
7
 10
36.88926563
 20
15.37098438
  0
VERTEX
  8
0
 62
7
 10
36.81919336
 20
15.39674414
  0
VERTEX
  8
0
 62
7
 10
36.74812500
 20
15.41937500
  0
VERTEX
  8
0
 62
7
 10
36.67616602
 20
15.43839648
  0
VERTEX
  8
0
 62
7
 10
36.60342188
 20
15.45332813
  0
VERTEX
  8
0
 62
7
 10
36.52999805
 20
15.46368945
  0
VERTEX
  8
0
 62
7
 10
36.45600000
 20
15.46900000
  0
VERTEX
  8
0
 62
7
 10
36.45800000
 20
15.50500000
  0
VERTEX
  8
0
 62
7
 10
36.53503906
 20
15.50016797
  0
VERTEX
  8
0
 62
7
 10
36.61156250
 20
15.49165625
  0
VERTEX
  8
0
 62
7
 10
36.68742969
 20
15.47944141
  0
VERTEX
  8
0
 62
7
 10
36.76250000
 20
15.46350000
  0
VERTEX
  8
0
 62
7
 10
36.83663281
 20
15.44380859
  0
VERTEX
  8
0
 62
7
 10
36.90968750
 20
15.42034375
  0
VERTEX
  8
0
 62
7
 10
36.98152344
 20
15.39308203
  0
VERTEX
  8
0
 62
7
 10
37.05200000
 20
15.36200000
  0
VERTEX
  8
0
 62
7
 10
37.13823438
 20
15.31829688
  0
VERTEX
  8
0
 62
7
 10
37.22137500
 20
15.26962500
  0
VERTEX
  8
0
 62
7
 10
37.30132813
 20
15.21589063
  0
VERTEX
  8
0
 62
7
 10
37.37800000
 20
15.15700000
  0
VERTEX
  8
0
 62
7
 10
37.38565625
 20
15.14804688
  0
VERTEX
  8
0
 62
7
 10
37.38900000
 20
15.13712500
  0
VERTEX
  8
0
 62
7
 10
37.38784375
 20
15.12564063
  0
VERTEX
  8
0
 62
7
 10
37.38200000
 20
15.11500000
  0
VERTEX
  8
0
 62
7
 10
37.37304688
 20
15.10734375
  0
VERTEX
  8
0
 62
7
 10
37.36212500
 20
15.10400000
  0
VERTEX
  8
0
 62
7
 10
37.35064063
 20
15.10515625
  0
VERTEX
  8
0
 62
7
 10
37.34000000
 20
15.11100000
  0
SEQEND
  0
POLYLINE
  8
0
 62
7
 66
1
 70
1
  0
VERTEX
  8
0
 62
7
 10
36.73592701
 20
18.47502038
  0
VERTEX
  8
0
 62
7
 10
36.63499479
 20
18.38317804
  0
VERTEX
  8
0
 62
7
 10
36.53599120
 20
18.28903388
  0
VERTEX
  8
0
 62
7
 10
36.44638975
 20
18.20248570
  0
VERTEX
  8
0
 62
7
 10
36.35919909
 20
18.11409608
  0
VERTEX
  8
0
 62
7
 10
36.34894314
 20
18.11931352
  0
VERTEX
  8
0
 62
7
 10
36.33838584
 20
18.12314988
  0
VERTEX
  8
0
 62
7
 10
36.32746692
 20
18.12583533
  0
VERTEX
  8
0
 62
7
 10
36.31612610
 20
18.12760005
  0
VERTEX
  8
0
 62
7
 10
36.30983416
 20
18.12800527
  0
VERTEX
  8
0
 62
7
 10
36.30243476
 20
18.12761923
  0
VERTEX
  8
0
 62
7
 10
36.29450799
 20
18.12680161
  0
VERTEX
  8
0
 62
7
 10
36.28663397
 20
18.12591205
  0
VERTEX
  8
0
 62
7
 10
36.27939277
 20
18.12531023
  0
VERTEX
  8
0
 62
7
 10
36.27336451
 20
18.12535578
  0
VERTEX
  8
0
 62
7
 10
36.26912929
 20
18.12640838
  0
VERTEX
  8
0
 62
7
 10
36.26726719
 20
18.12882768
  0
VERTEX
  8
0
 62
7
 10
36.25762399
 20
18.19304827
  0
VERTEX
  8
0
 62
7
 10
36.24990942
 20
18.25588777
  0
VERTEX
  8
0
 62
7
 10
36.24447507
 20
18.32692748
  0
VERTEX
  8
0
 62
7
 10
36.23970370
 20
18.40205290
  0
VERTEX
  8
0
 62
7
 10
36.23698150
 20
18.47729342
  0
VERTEX
  8
0
 62
7
 10
36.23769469
 20
18.54867840
  0
VERTEX
  8
0
 62
7
 10
36.23926674
 20
18.58045541
  0
VERTEX
  8
0
 62
7
 10
36.24111000
 20
18.61092327
  0
VERTEX
  8
0
 62
7
 10
36.24397785
 20
18.64015389
  0
VERTEX
  8
0
 62
7
 10
36.24862366
 20
18.66821923
  0
VERTEX
  8
0
 62
7
 10
36.25580082
 20
18.69519121
  0
VERTEX
  8
0
 62
7
 10
36.26626269
 20
18.72114175
  0
VERTEX
  8
0
 62
7
 10
36.28076266
 20
18.74614280
  0
VERTEX
  8
0
 62
7
 10
36.30005409
 20
18.77026628
  0
VERTEX
  8
0
 62
7
 10
36.31404930
 20
18.78418146
  0
VERTEX
  8
0
 62
7
 10
36.32908416
 20
18.79711118
  0
VERTEX
  8
0
 62
7
 10
36.34523402
 20
18.80864542
  0
VERTEX
  8
0
 62
7
 10
36.36257421
 20
18.81837418
  0
VERTEX
  8
0
 62
7
 10
36.38118008
 20
18.82588744
  0
VERTEX
  8
0
 62
7
 10
36.40112695
 20
18.83077519
  0
VERTEX
  8
0
 62
7
 10
36.42249017
 20
18.83262743
  0
VERTEX
  8
0
 62
7
 10
36.44534507
 20
18.83103415
  0
VERTEX
  8
0
 62
7
 10
36.47670558
 20
18.82400403
  0
VERTEX
  8
0
 62
7
 10
36.50674015
 20
18.81484473
  0
VERTEX
  8
0
 62
7
 10
36.53629255
 20
18.80487980
  0
VERTEX
  8
0
 62
7
 10
36.56620658
 20
18.79543277
  0
VERTEX
  8
0
 62
7
 10
36.58760245
 20
18.78810533
  0
VERTEX
  8
0
 62
7
 10
36.60863669
 20
18.77962699
  0
VERTEX
  8
0
 62
7
 10
36.62967093
 20
18.77229955
  0
VERTEX
  8
0
 62
7
 10
36.65106680
 20
18.76842483
  0
VERTEX
  8
0
 62
7
 10
36.67602864
 20
18.76768633
  0
VERTEX
  8
0
 62
7
 10
36.70370263
 20
18.76896192
  0
VERTEX
  8
0
 62
7
 10
36.73125608
 20
18.77058278
  0
VERTEX
  8
0
 62
7
 10
36.75585631
 20
18.77088010
  0
VERTEX
  8
0
 62
7
 10
36.77577681
 20
18.77029745
  0
VERTEX
  8
0
 62
7
 10
36.79468026
 20
18.76909619
  0
VERTEX
  8
0
 62
7
 10
36.81275499
 20
18.76671525
  0
VERTEX
  8
0
 62
7
 10
36.83018935
 20
18.76259357
  0
VERTEX
  8
0
 62
7
 10
36.84717169
 20
18.75617007
  0
VERTEX
  8
0
 62
7
 10
36.86389035
 20
18.74688370
  0
VERTEX
  8
0
 62
7
 10
36.88053367
 20
18.73417337
  0
VERTEX
  8
0
 62
7
 10
36.89729000
 20
18.71747803
  0
VERTEX
  8
0
 62
7
 10
36.89555974
 20
18.71608256
  0
VERTEX
  8
0
 62
7
 10
36.89104200
 20
18.71206877
  0
VERTEX
  8
0
 62
7
 10
36.88474629
 20
18.70569563
  0
VERTEX
  8
0
 62
7
 10
36.87768214
 20
18.69722208
  0
VERTEX
  8
0
 62
7
 10
36.87085907
 20
18.68690708
  0
VERTEX
  8
0
 62
7
 10
36.86528661
 20
18.67500958
  0
VERTEX
  8
0
 62
7
 10
36.86197426
 20
18.66178854
  0
VERTEX
  8
0
 62
7
 10
36.86193157
 20
18.64750291
  0
VERTEX
  8
0
 62
7
 10
36.86632124
 20
18.63031604
  0
VERTEX
  8
0
 62
7
 10
36.87342306
 20
18.61589135
  0
VERTEX
  8
0
 62
7
 10
36.88281514
 20
18.60330810
  0
VERTEX
  8
0
 62
7
 10
36.89407559
 20
18.59164558
  0
VERTEX
  8
0
 62
7
 10
36.90579812
 20
18.58044342
  0
VERTEX
  8
0
 62
7
 10
36.91842469
 20
18.57108272
  0
VERTEX
  8
0
 62
7
 10
36.93285936
 20
18.56402382
  0
VERTEX
  8
0
 62
7
 10
36.95000619
 20
18.55972710
  0
VERTEX
  8
0
 62
7
 10
36.96427638
 20
18.55964438
  0
VERTEX
  8
0
 62
7
 10
36.97749937
 20
18.56286333
  0
VERTEX
  8
0
 62
7
 10
36.98941149
 20
18.56836969
  0
VERTEX
  8
0
 62
7
 10
36.99974906
 20
18.57514925
  0
VERTEX
  8
0
 62
7
 10
37.00824839
 20
18.58218777
  0
VERTEX
  8
0
 62
7
 10
37.01464581
 20
18.58847100
  0
VERTEX
  8
0
 62
7
 10
37.01867762
 20
18.59298471
  0
VERTEX
  8
0
 62
7
 10
37.02008015
 20
18.59471466
  0
VERTEX
  8
0
 62
7
 10
37.03671845
 20
18.57802412
  0
VERTEX
  8
0
 62
7
 10
37.04940153
 20
18.56143428
  0
VERTEX
  8
0
 62
7
 10
37.05869441
 20
18.54475813
  0
VERTEX
  8
0
 62
7
 10
37.06516214
 20
18.52780863
  0
VERTEX
  8
0
 62
7
 10
37.06936974
 20
18.51039877
  0
VERTEX
  8
0
 62
7
 10
37.07188225
 20
18.49234153
  0
VERTEX
  8
0
 62
7
 10
37.07326470
 20
18.47344987
  0
VERTEX
  8
0
 62
7
 10
37.07408211
 20
18.45353679
  0
VERTEX
  8
0
 62
7
 10
37.07339905
 20
18.42902248
  0
VERTEX
  8
0
 62
7
 10
37.07151059
 20
18.40151581
  0
VERTEX
  8
0
 62
7
 10
37.07010429
 20
18.37377897
  0
VERTEX
  8
0
 62
7
 10
37.07086771
 20
18.34857411
  0
VERTEX
  8
0
 62
7
 10
37.07481539
 20
18.32731111
  0
VERTEX
  8
0
 62
7
 10
37.08219847
 20
18.30645093
  0
VERTEX
  8
0
 62
7
 10
37.09066641
 20
18.28547566
  0
VERTEX
  8
0
 62
7
 10
37.09786868
 20
18.26386739
  0
VERTEX
  8
0
 62
7
 10
37.10738130
 20
18.23419318
  0
VERTEX
  8
0
 62
7
 10
37.11755690
 20
18.20463406
  0
VERTEX
  8
0
 62
7
 10
37.12688871
 20
18.17461458
  0
VERTEX
  8
0
 62
7
 10
37.13386999
 20
18.14355929
  0
VERTEX
  8
0
 62
7
 10
37.13538553
 20
18.12064186
  0
VERTEX
  8
0
 62
7
 10
37.13345814
 20
18.09924938
  0
VERTEX
  8
0
 62
7
 10
37.12850219
 20
18.07929554
  0
VERTEX
  8
0
 62
7
 10
37.12093202
 20
18.06069401
  0
VERTEX
  8
0
 62
7
 10
37.11116199
 20
18.04335848
  0
VERTEX
  8
0
 62
7
 10
37.09960647
 20
18.02720263
  0
VERTEX
  8
0
 62
7
 10
37.08667980
 20
18.01214014
  0
VERTEX
  8
0
 62
7
 10
37.07279635
 20
17.99808470
  0
VERTEX
  8
0
 62
7
 10
37.04873856
 20
17.97885497
  0
VERTEX
  8
0
 62
7
 10
37.02377672
 20
17.96440150
  0
VERTEX
  8
0
 62
7
 10
36.99785055
 20
17.95397620
  0
VERTEX
  8
0
 62
7
 10
36.97089980
 20
17.94683099
  0
VERTEX
  8
0
 62
7
 10
36.94286419
 20
17.94221777
  0
VERTEX
  8
0
 62
7
 10
36.91368345
 20
17.93938846
  0
VERTEX
  8
0
 62
7
 10
36.88329730
 20
17.93759497
  0
VERTEX
  8
0
 62
7
 10
36.85164549
 20
17.93608920
  0
VERTEX
  8
0
 62
7
 10
36.77998441
 20
17.93541783
  0
VERTEX
  8
0
 62
7
 10
36.70458659
 20
17.93808410
  0
VERTEX
  8
0
 62
7
 10
36.62942985
 20
17.94282200
  0
VERTEX
  8
0
 62
7
 10
36.55849202
 20
17.94836553
  0
VERTEX
  8
0
 62
7
 10
36.49524866
 20
17.95580806
  0
VERTEX
  8
0
 62
7
 10
36.43055882
 20
17.96555240
  0
VERTEX
  8
0
 62
7
 10
36.42823717
 20
17.96720803
  0
VERTEX
  8
0
 62
7
 10
36.42729419
 20
17.97131653
  0
VERTEX
  8
0
 62
7
 10
36.42736074
 20
17.97728086
  0
VERTEX
  8
0
 62
7
 10
36.42806766
 20
17.98450400
  0
VERTEX
  8
0
 62
7
 10
36.42904579
 20
17.99238891
  0
VERTEX
  8
0
 62
7
 10
36.42992598
 20
18.00033856
  0
VERTEX
  8
0
 62
7
 10
36.43033908
 20
18.00775591
  0
VERTEX
  8
0
 62
7
 10
36.42991594
 20
18.01404393
  0
VERTEX
  8
0
 62
7
 10
36.42806766
 20
18.02568727
  0
VERTEX
  8
0
 62
7
 10
36.42525505
 20
18.03675516
  0
VERTEX
  8
0
 62
7
 10
36.42123705
 20
18.04736268
  0
VERTEX
  8
0
 62
7
 10
36.41577257
 20
18.05762493
  0
VERTEX
  8
0
 62
7
 10
36.50449006
 20
18.14455674
  0
VERTEX
  8
0
 62
7
 10
36.59127892
 20
18.23379036
  0
VERTEX
  8
0
 62
7
 10
36.68546090
 20
18.33238469
  0
VERTEX
  8
0
 62
7
 10
36.77771424
 20
18.43328084
  0
VERTEX
  8
0
 62
7
 10
36.78382914
 20
18.44363420
  0
VERTEX
  8
0
 62
7
 10
36.78492655
 20
18.45430406
  0
VERTEX
  8
0
 62
7
 10
36.78189547
 20
18.46439847
  0
VERTEX
  8
0
 62
7
 10
36.77562488
 20
18.47302548
  0
VERTEX
  8
0
 62
7
 10
36.76700375
 20
18.47929312
  0
VERTEX
  8
0
 62
7
 10
36.75692108
 20
18.48230946
  0
VERTEX
  8
0
 62
7
 10
36.74626584
 20
18.48118253
  0
VERTEX
  8
0
 62
7
 10
36.73592701
 20
18.47502038
  0
SEQEND
  0
POLYLINE
  8
0
 62
7
 66
1
 70
1
  0
VERTEX
  8
0
 62
7
 10
36.29610704
 20
17.87353641
  0
VERTEX
  8
0
 62
7
 10
36.30767889
 20
17.87417051
  0
VERTEX
  8
0
 62
7
 10
36.32270534
 20
17.87270043
  0
VERTEX
  8
0
 62
7
 10
36.33676219
 20
17.86847350
  0
VERTEX
  8
0
 62
7
 10
36.34953078
 20
17.86176465
  0
VERTEX
  8
0
 62
7
 10
36.36069241
 20
17.85284882
  0
VERTEX
  8
0
 62
7
 10
36.36992842
 20
17.84200097
  0
VERTEX
  8
0
 62
7
 10
36.37692012
 20
17.82949603
  0
VERTEX
  8
0
 62
7
 10
36.38134884
 20
17.81560894
  0
VERTEX
  8
0
 62
7
 10
36.38289589
 20
17.80061465
  0
VERTEX
  8
0
 62
7
 10
36.38139856
 20
17.78553862
  0
VERTEX
  8
0
 62
7
 10
36.37710093
 20
17.77143604
  0
VERTEX
  8
0
 62
7
 10
36.37029456
 20
17.75862643
  0
VERTEX
  8
0
 62
7
 10
36.36127100
 20
17.74742933
  0
VERTEX
  8
0
 62
7
 10
36.35032182
 20
17.73816425
  0
VERTEX
  8
0
 62
7
 10
36.33773857
 20
17.73115074
  0
VERTEX
  8
0
 62
7
 10
36.32381280
 20
17.72670830
  0
VERTEX
  8
0
 62
7
 10
36.30883607
 20
17.72515649
  0
VERTEX
  8
0
 62
7
 10
36.29380962
 20
17.72665381
  0
VERTEX
  8
0
 62
7
 10
36.27975276
 20
17.73095258
  0
VERTEX
  8
0
 62
7
 10
36.26698418
 20
17.73776298
  0
VERTEX
  8
0
 62
7
 10
36.25582254
 20
17.74679523
  0
VERTEX
  8
0
 62
7
 10
36.24658654
 20
17.75775950
  0
VERTEX
  8
0
 62
7
 10
36.23959484
 20
17.77036599
  0
VERTEX
  8
0
 62
7
 10
36.23516612
 20
17.78432491
  0
VERTEX
  8
0
 62
7
 10
36.23361906
 20
17.79934645
  0
VERTEX
  8
0
 62
7
 10
36.23419765
 20
17.80822388
  0
VERTEX
  8
0
 62
7
 10
36.22674828
 20
17.81308863
  0
VERTEX
  8
0
 62
7
 10
36.21843101
 20
17.81622942
  0
VERTEX
  8
0
 62
7
 10
36.20946283
 20
17.81758680
  0
VERTEX
  8
0
 62
7
 10
36.20006070
 20
17.81710131
  0
VERTEX
  8
0
 62
7
 10
36.18653611
 20
17.81234554
  0
VERTEX
  8
0
 62
7
 10
36.17518123
 20
17.80378516
  0
VERTEX
  8
0
 62
7
 10
36.17633842
 20
17.79237132
  0
VERTEX
  8
0
 62
7
 10
36.17484108
 20
17.77732254
  0
VERTEX
  8
0
 62
7
 10
36.17054345
 20
17.76329179
  0
VERTEX
  8
0
 62
7
 10
36.16373708
 20
17.75058374
  0
VERTEX
  8
0
 62
7
 10
36.15471353
 20
17.73950305
  0
VERTEX
  8
0
 62
7
 10
36.14376435
 20
17.73035439
  0
VERTEX
  8
0
 62
7
 10
36.13118109
 20
17.72344243
  0
VERTEX
  8
0
 62
7
 10
36.11725532
 20
17.71907183
  0
VERTEX
  8
0
 62
7
 10
36.10227859
 20
17.71754726
  0
VERTEX
  8
0
 62
7
 10
36.08725214
 20
17.71901734
  0
VERTEX
  8
0
 62
7
 10
36.07319529
 20
17.72324427
  0
VERTEX
  8
0
 62
7
 10
36.06042670
 20
17.72995312
  0
VERTEX
  8
0
 62
7
 10
36.04926507
 20
17.73886895
  0
VERTEX
  8
0
 62
7
 10
36.04002906
 20
17.74971680
  0
VERTEX
  8
0
 62
7
 10
36.03303736
 20
17.76222174
  0
VERTEX
  8
0
 62
7
 10
36.02860864
 20
17.77610883
  0
VERTEX
  8
0
 62
7
 10
36.02706159
 20
17.79110312
  0
VERTEX
  8
0
 62
7
 10
36.02855892
 20
17.80617915
  0
VERTEX
  8
0
 62
7
 10
36.03285655
 20
17.82028173
  0
VERTEX
  8
0
 62
7
 10
36.03966292
 20
17.83309134
  0
VERTEX
  8
0
 62
7
 10
36.04868648
 20
17.84428844
  0
VERTEX
  8
0
 62
7
 10
36.05963566
 20
17.85355352
  0
VERTEX
  8
0
 62
7
 10
36.07221891
 20
17.86056704
  0
VERTEX
  8
0
 62
7
 10
36.08614468
 20
17.86500947
  0
VERTEX
  8
0
 62
7
 10
36.10112141
 20
17.86656128
  0
VERTEX
  8
0
 62
7
 10
36.10806452
 20
17.86592718
  0
VERTEX
  8
0
 62
7
 10
36.11544157
 20
17.87742029
  0
VERTEX
  8
0
 62
7
 10
36.11847918
 20
17.89129127
  0
VERTEX
  8
0
 62
7
 10
36.11829837
 20
17.90063437
  0
VERTEX
  8
0
 62
7
 10
36.11616481
 20
17.90944245
  0
VERTEX
  8
0
 62
7
 10
36.11229547
 20
17.91741826
  0
VERTEX
  8
0
 62
7
 10
36.10690733
 20
17.92426459
  0
VERTEX
  8
0
 62
7
 10
36.09417830
 20
17.92363048
  0
VERTEX
  8
0
 62
7
 10
36.07915185
 20
17.92512781
  0
VERTEX
  8
0
 62
7
 10
36.06509499
 20
17.92942658
  0
VERTEX
  8
0
 62
7
 10
36.05232641
 20
17.93623698
  0
VERTEX
  8
0
 62
7
 10
36.04116478
 20
17.94526922
  0
VERTEX
  8
0
 62
7
 10
36.03192877
 20
17.95623349
  0
VERTEX
  8
0
 62
7
 10
36.02493707
 20
17.96883999
  0
VERTEX
  8
0
 62
7
 10
36.02050835
 20
17.98279891
  0
VERTEX
  8
0
 62
7
 10
36.01896129
 20
17.99782045
  0
VERTEX
  8
0
 62
7
 10
36.02045863
 20
18.01268717
  0
VERTEX
  8
0
 62
7
 10
36.02475626
 20
18.02663247
  0
VERTEX
  8
0
 62
7
 10
36.03156263
 20
18.03932937
  0
VERTEX
  8
0
 62
7
 10
36.04058618
 20
18.05045093
  0
VERTEX
  8
0
 62
7
 10
36.05153537
 20
18.05967018
  0
VERTEX
  8
0
 62
7
 10
36.06411862
 20
18.06666017
  0
VERTEX
  8
0
 62
7
 10
36.07804439
 20
18.07109393
  0
VERTEX
  8
0
 62
7
 10
36.09302112
 20
18.07264451
  0
VERTEX
  8
0
 62
7
 10
36.10804757
 20
18.07114719
  0
VERTEX
  8
0
 62
7
 10
36.12210442
 20
18.06684842
  0
VERTEX
  8
0
 62
7
 10
36.13487301
 20
18.06003801
  0
VERTEX
  8
0
 62
7
 10
36.14603464
 20
18.05100577
  0
VERTEX
  8
0
 62
7
 10
36.15527065
 20
18.04004150
  0
VERTEX
  8
0
 62
7
 10
36.16226235
 20
18.02743500
  0
VERTEX
  8
0
 62
7
 10
36.16669107
 20
18.01347608
  0
VERTEX
  8
0
 62
7
 10
36.16823812
 20
17.99845455
  0
VERTEX
  8
0
 62
7
 10
36.16765953
 20
17.99211353
  0
VERTEX
  8
0
 62
7
 10
36.17327369
 20
17.98774416
  0
VERTEX
  8
0
 62
7
 10
36.17959300
 20
17.98426651
  0
VERTEX
  8
0
 62
7
 10
36.18645474
 20
17.98185890
  0
VERTEX
  8
0
 62
7
 10
36.19369619
 20
17.98069969
  0
VERTEX
  8
0
 62
7
 10
36.20242028
 20
17.98113563
  0
VERTEX
  8
0
 62
7
 10
36.21098164
 20
17.98323609
  0
VERTEX
  8
0
 62
7
 10
36.21900056
 20
17.98676329
  0
VERTEX
  8
0
 62
7
 10
36.22609736
 20
17.99147942
  0
VERTEX
  8
0
 62
7
 10
36.22436158
 20
18.00542967
  0
VERTEX
  8
0
 62
7
 10
36.22585892
 20
18.02050570
  0
VERTEX
  8
0
 62
7
 10
36.23015655
 20
18.03460828
  0
VERTEX
  8
0
 62
7
 10
36.23696292
 20
18.04741789
  0
VERTEX
  8
0
 62
7
 10
36.24598647
 20
18.05861500
  0
VERTEX
  8
0
 62
7
 10
36.25693566
 20
18.06788007
  0
VERTEX
  8
0
 62
7
 10
36.26951891
 20
18.07489359
  0
VERTEX
  8
0
 62
7
 10
36.28344468
 20
18.07933602
  0
VERTEX
  8
0
 62
7
 10
36.29842141
 20
18.08088784
  0
VERTEX
  8
0
 62
7
 10
36.31344786
 20
18.07939051
  0
VERTEX
  8
0
 62
7
 10
36.32750471
 20
18.07509175
  0
VERTEX
  8
0
 62
7
 10
36.34027330
 20
18.06828134
  0
VERTEX
  8
0
 62
7
 10
36.35143493
 20
18.05924910
  0
VERTEX
  8
0
 62
7
 10
36.36067094
 20
18.04828483
  0
VERTEX
  8
0
 62
7
 10
36.36766264
 20
18.03567833
  0
VERTEX
  8
0
 62
7
 10
36.37209136
 20
18.02171941
  0
VERTEX
  8
0
 62
7
 10
36.37363842
 20
18.00669788
  0
VERTEX
  8
0
 62
7
 10
36.37214108
 20
17.99164910
  0
VERTEX
  8
0
 62
7
 10
36.36784345
 20
17.97761834
  0
VERTEX
  8
0
 62
7
 10
36.36103708
 20
17.96491029
  0
VERTEX
  8
0
 62
7
 10
36.35201353
 20
17.95382960
  0
VERTEX
  8
0
 62
7
 10
36.34106434
 20
17.94468094
  0
VERTEX
  8
0
 62
7
 10
36.32848109
 20
17.93776898
  0
VERTEX
  8
0
 62
7
 10
36.31455532
 20
17.93339838
  0
VERTEX
  8
0
 62
7
 10
36.29957859
 20
17.93187381
  0
VERTEX
  8
0
 62
7
 10
36.29147830
 20
17.93187381
  0
VERTEX
  8
0
 62
7
 10
36.28662355
 20
17.92457173
  0
VERTEX
  8
0
 62
7
 10
36.28345033
 20
17.91625905
  0
VERTEX
  8
0
 62
7
 10
36.28212138
 20
17.90735189
  0
VERTEX
  8
0
 62
7
 10
36.28279941
 20
17.89826640
  0
VERTEX
  8
0
 62
7
 10
36.28750048
 20
17.88447467
  0
VERTEX
  8
0
 62
7
 10
36.29610704
 20
17.87353641
  0
SEQEND
  0
POLYLINE
  8
0
 62
7
 66
1
 70
1
  0
VERTEX
  8
0
 62
7
 10
36.77628544
 20
17.36396718
  0
VERTEX
  8
0
 62
7
 10
36.68403210
 20
17.46494005
  0
VERTEX
  8
0
 62
7
 10
36.58985012
 20
17.56407147
  0
VERTEX
  8
0
 62
7
 10
36.50306126
 20
17.65330509
  0
VERTEX
  8
0
 62
7
 10
36.41434376
 20
17.74023690
  0
VERTEX
  8
0
 62
7
 10
36.41980825
 20
17.75048956
  0
VERTEX
  8
0
 62
7
 10
36.42382625
 20
17.76102995
  0
VERTEX
  8
0
 62
7
 10
36.42663885
 20
17.77191560
  0
VERTEX
  8
0
 62
7
 10
36.42848713
 20
17.78320408
  0
VERTEX
  8
0
 62
7
 10
36.42872570
 20
17.78949330
  0
VERTEX
  8
0
 62
7
 10
36.42822596
 20
17.79691905
  0
VERTEX
  8
0
 62
7
 10
36.42733447
 20
17.80489148
  0
VERTEX
  8
0
 62
7
 10
36.42639777
 20
17.81282074
  0
VERTEX
  8
0
 62
7
 10
36.42576242
 20
17.82011701
  0
VERTEX
  8
0
 62
7
 10
36.42577498
 20
17.82619044
  0
VERTEX
  8
0
 62
7
 10
36.42678199
 20
17.83045119
  0
VERTEX
  8
0
 62
7
 10
36.42913001
 20
17.83230943
  0
VERTEX
  8
0
 62
7
 10
36.49381985
 20
17.84174686
  0
VERTEX
  8
0
 62
7
 10
36.55706321
 20
17.84888248
  0
VERTEX
  8
0
 62
7
 10
36.62772984
 20
17.85478088
  0
VERTEX
  8
0
 62
7
 10
36.70291671
 20
17.85970100
  0
VERTEX
  8
0
 62
7
 10
36.77846520
 20
17.86243441
  0
VERTEX
  8
0
 62
7
 10
36.85021668
 20
17.86177264
  0
VERTEX
  8
0
 62
7
 10
36.88186975
 20
17.86026567
  0
VERTEX
  8
0
 62
7
 10
36.91226469
 20
17.85846378
  0
VERTEX
  8
0
 62
7
 10
36.94146929
 20
17.85561169
  0
VERTEX
  8
0
 62
7
 10
36.96955136
 20
17.85095411
  0
VERTEX
  8
0
 62
7
 10
36.99657870
 20
17.84373577
  0
VERTEX
  8
0
 62
7
 10
37.02261913
 20
17.83320138
  0
VERTEX
  8
0
 62
7
 10
37.04774043
 20
17.81859566
  0
VERTEX
  8
0
 62
7
 10
37.07201042
 20
17.79916332
  0
VERTEX
  8
0
 62
7
 10
37.08568168
 20
17.78528530
  0
VERTEX
  8
0
 62
7
 10
37.09844888
 20
17.77031393
  0
VERTEX
  8
0
 62
7
 10
37.10989014
 20
17.75419164
  0
VERTEX
  8
0
 62
7
 10
37.11958357
 20
17.73686091
  0
VERTEX
  8
0
 62
7
 10
37.12710728
 20
17.71826418
  0
VERTEX
  8
0
 62
7
 10
37.13203938
 20
17.69834390
  0
VERTEX
  8
0
 62
7
 10
37.13395798
 20
17.67704254
  0
VERTEX
  8
0
 62
7
 10
37.13244118
 20
17.65430254
  0
VERTEX
  8
0
 62
7
 10
37.12519873
 20
17.62297870
  0
VERTEX
  8
0
 62
7
 10
37.11596737
 20
17.59292086
  0
VERTEX
  8
0
 62
7
 10
37.10613331
 20
17.56332338
  0
VERTEX
  8
0
 62
7
 10
37.09708276
 20
17.53338063
  0
VERTEX
  8
0
 62
7
 10
37.08950883
 20
17.51212722
  0
VERTEX
  8
0
 62
7
 10
37.08085003
 20
17.49133417
  0
VERTEX
  8
0
 62
7
 10
37.07339663
 20
17.47054113
  0
VERTEX
  8
0
 62
7
 10
37.06943890
 20
17.44928772
  0
VERTEX
  8
0
 62
7
 10
37.06884625
 20
17.42383350
  0
VERTEX
  8
0
 62
7
 10
37.07000142
 20
17.39619256
  0
VERTEX
  8
0
 62
7
 10
37.07151822
 20
17.36901199
  0
VERTEX
  8
0
 62
7
 10
37.07201042
 20
17.34493886
  0
VERTEX
  8
0
 62
7
 10
37.07140521
 20
17.32482317
  0
VERTEX
  8
0
 62
7
 10
37.07018223
 20
17.30577926
  0
VERTEX
  8
0
 62
7
 10
37.06778399
 20
17.28761292
  0
VERTEX
  8
0
 62
7
 10
37.06365298
 20
17.27012993
  0
VERTEX
  8
0
 62
7
 10
37.05723171
 20
17.25313607
  0
VERTEX
  8
0
 62
7
 10
37.04796268
 20
17.23643714
  0
VERTEX
  8
0
 62
7
 10
37.03528839
 20
17.21983891
  0
VERTEX
  8
0
 62
7
 10
37.01865135
 20
17.20314717
  0
VERTEX
  8
0
 62
7
 10
37.01724882
 20
17.20485195
  0
VERTEX
  8
0
 62
7
 10
37.01321700
 20
17.20930452
  0
VERTEX
  8
0
 62
7
 10
37.00681959
 20
17.21551222
  0
VERTEX
  8
0
 62
7
 10
36.99832026
 20
17.22248240
  0
VERTEX
  8
0
 62
7
 10
36.98798269
 20
17.22922239
  0
VERTEX
  8
0
 62
7
 10
36.97607057
 20
17.23473955
  0
VERTEX
  8
0
 62
7
 10
36.96284757
 20
17.23804122
  0
VERTEX
  8
0
 62
7
 10
36.94857739
 20
17.23813473
  0
VERTEX
  8
0
 62
7
 10
36.93152096
 20
17.23409696
  0
VERTEX
  8
0
 62
7
 10
36.91723697
 20
17.22700930
  0
VERTEX
  8
0
 62
7
 10
36.90464053
 20
17.21750473
  0
VERTEX
  8
0
 62
7
 10
36.89264679
 20
17.20621625
  0
VERTEX
  8
0
 62
7
 10
36.88138634
 20
17.19429478
  0
VERTEX
  8
0
 62
7
 10
36.87199426
 20
17.18174030
  0
VERTEX
  8
0
 62
7
 10
36.86489244
 20
17.16745947
  0
VERTEX
  8
0
 62
7
 10
36.86050277
 20
17.15035892
  0
VERTEX
  8
0
 62
7
 10
36.86054546
 20
17.13607329
  0
VERTEX
  8
0
 62
7
 10
36.86385780
 20
17.12285225
  0
VERTEX
  8
0
 62
7
 10
36.86943027
 20
17.11095475
  0
VERTEX
  8
0
 62
7
 10
36.87625334
 20
17.10063975
  0
VERTEX
  8
0
 62
7
 10
36.88331749
 20
17.09216621
  0
VERTEX
  8
0
 62
7
 10
36.88961320
 20
17.08579306
  0
VERTEX
  8
0
 62
7
 10
36.89413094
 20
17.08177927
  0
VERTEX
  8
0
 62
7
 10
36.89586119
 20
17.08038380
  0
VERTEX
  8
0
 62
7
 10
36.87910361
 20
17.06368726
  0
VERTEX
  8
0
 62
7
 10
36.86245150
 20
17.05096855
  0
VERTEX
  8
0
 62
7
 10
36.84570899
 20
17.04165939
  0
VERTEX
  8
0
 62
7
 10
36.82868019
 20
17.03519153
  0
VERTEX
  8
0
 62
7
 10
36.81116923
 20
17.03099672
  0
VERTEX
  8
0
 62
7
 10
36.79298024
 20
17.02850669
  0
VERTEX
  8
0
 62
7
 10
36.77391732
 20
17.02715317
  0
VERTEX
  8
0
 62
7
 10
36.75378462
 20
17.02636792
  0
VERTEX
  8
0
 62
7
 10
36.72964647
 20
17.02693378
  0
VERTEX
  8
0
 62
7
 10
36.70243455
 20
17.02859300
  0
VERTEX
  8
0
 62
7
 10
36.67486101
 20
17.02990695
  0
VERTEX
  8
0
 62
7
 10
36.64963799
 20
17.02943700
  0
VERTEX
  8
0
 62
7
 10
36.62824213
 20
17.02556228
  0
VERTEX
  8
0
 62
7
 10
36.60720789
 20
17.01823484
  0
VERTEX
  8
0
 62
7
 10
36.58617364
 20
17.00975650
  0
VERTEX
  8
0
 62
7
 10
36.56477778
 20
17.00242906
  0
VERTEX
  8
0
 62
7
 10
36.53477335
 20
16.99298204
  0
VERTEX
  8
0
 62
7
 10
36.50507026
 20
16.98301710
  0
VERTEX
  8
0
 62
7
 10
36.47500556
 20
16.97385780
  0
VERTEX
  8
0
 62
7
 10
36.44391626
 20
16.96682768
  0
VERTEX
  8
0
 62
7
 10
36.42124594
 20
16.96523320
  0
VERTEX
  8
0
 62
7
 10
36.39996936
 20
16.96707705
  0
VERTEX
  8
0
 62
7
 10
36.38003379
 20
16.97194202
  0
VERTEX
  8
0
 62
7
 10
36.36138649
 20
16.97941093
  0
VERTEX
  8
0
 62
7
 10
36.34397473
 20
16.98906656
  0
VERTEX
  8
0
 62
7
 10
36.32774576
 20
17.00049170
  0
VERTEX
  8
0
 62
7
 10
36.31264686
 20
17.01326916
  0
VERTEX
  8
0
 62
7
 10
36.29862529
 20
17.02698173
  0
VERTEX
  8
0
 62
7
 10
36.27951843
 20
17.05113039
  0
VERTEX
  8
0
 62
7
 10
36.26510510
 20
17.07619258
  0
VERTEX
  8
0
 62
7
 10
36.25465453
 20
17.10221865
  0
VERTEX
  8
0
 62
7
 10
36.24743594
 20
17.12925896
  0
VERTEX
  8
0
 62
7
 10
36.24271855
 20
17.15736386
  0
VERTEX
  8
0
 62
7
 10
36.23977160
 20
17.18658370
  0
VERTEX
  8
0
 62
7
 10
36.23786430
 20
17.21696884
  0
VERTEX
  8
0
 62
7
 10
36.23626589
 20
17.24856961
  0
VERTEX
  8
0
 62
7
 10
36.23556274
 20
17.32004091
  0
VERTEX
  8
0
 62
7
 10
36.23835525
 20
17.39542529
  0
VERTEX
  8
0
 62
7
 10
36.24331748
 20
17.47057949
  0
VERTEX
  8
0
 62
7
 10
36.24912350
 20
17.54136025
  0
VERTEX
  8
0
 62
7
 10
36.25603446
 20
17.60466011
  0
VERTEX
  8
0
 62
7
 10
36.26583839
 20
17.66842033
  0
VERTEX
  8
0
 62
7
 10
36.26770048
 20
17.67104104
  0
VERTEX
  8
0
 62
7
 10
36.27193571
 20
17.67223750
  0
VERTEX
  8
0
 62
7
 10
36.27796397
 20
17.67236938
  0
VERTEX
  8
0
 62
7
 10
36.28520516
 20
17.67179632
  0
VERTEX
  8
0
 62
7
 10
36.29307919
 20
17.67087800
  0
VERTEX
  8
0
 62
7
 10
36.30100596
 20
17.66997405
  0
VERTEX
  8
0
 62
7
 10
36.30840536
 20
17.66944416
  0
VERTEX
  8
0
 62
7
 10
36.31469730
 20
17.66964796
  0
VERTEX
  8
0
 62
7
 10
36.33703739
 20
17.67440505
  0
VERTEX
  8
0
 62
7
 10
36.35841317
 20
17.68376575
  0
VERTEX
  8
0
 62
7
 10
36.44504130
 20
17.59537613
  0
VERTEX
  8
0
 62
7
 10
36.53456240
 20
17.50882795
  0
VERTEX
  8
0
 62
7
 10
36.63332490
 20
17.41445361
  0
VERTEX
  8
0
 62
7
 10
36.73449821
 20
17.32284145
  0
VERTEX
  8
0
 62
7
 10
36.74483703
 20
17.31667811
  0
VERTEX
  8
0
 62
7
 10
36.75549227
 20
17.31554278
  0
VERTEX
  8
0
 62
7
 10
36.76557495
 20
17.31853634
  0
VERTEX
  8
0
 62
7
 10
36.77419607
 20
17.32475963
  0
VERTEX
  8
0
 62
7
 10
36.78046667
 20
17.33331350
  0
VERTEX
  8
0
 62
7
 10
36.78349775
 20
17.34329881
  0
VERTEX
  8
0
 62
7
 10
36.78240033
 20
17.35381642
  0
VERTEX
  8
0
 62
7
 10
36.77628544
 20
17.36396718
  0
SEQEND
  0
POLYLINE
  8
0
 62
7
 66
1
 70
1
  0
VERTEX
  8
0
 62
7
 10
35.66507299
 20
17.32597962
  0
VERTEX
  8
0
 62
7
 10
35.76600521
 20
17.41782196
  0
VERTEX
  8
0
 62
7
 10
35.86500880
 20
17.51196612
  0
VERTEX
  8
0
 62
7
 10
35.95461025
 20
17.59851430
  0
VERTEX
  8
0
 62
7
 10
36.04180091
 20
17.68690392
  0
VERTEX
  8
0
 62
7
 10
36.05205686
 20
17.68168648
  0
VERTEX
  8
0
 62
7
 10
36.06261416
 20
17.67785012
  0
VERTEX
  8
0
 62
7
 10
36.07353308
 20
17.67516467
  0
VERTEX
  8
0
 62
7
 10
36.08487390
 20
17.67339995
  0
VERTEX
  8
0
 62
7
 10
36.09116584
 20
17.67299473
  0
VERTEX
  8
0
 62
7
 10
36.09856524
 20
17.67338077
  0
VERTEX
  8
0
 62
7
 10
36.10649201
 20
17.67419839
  0
VERTEX
  8
0
 62
7
 10
36.11436603
 20
17.67508795
  0
VERTEX
  8
0
 62
7
 10
36.12160723
 20
17.67568977
  0
VERTEX
  8
0
 62
7
 10
36.12763549
 20
17.67564422
  0
VERTEX
  8
0
 62
7
 10
36.13187071
 20
17.67459162
  0
VERTEX
  8
0
 62
7
 10
36.13373281
 20
17.67217232
  0
VERTEX
  8
0
 62
7
 10
36.14329565
 20
17.60787500
  0
VERTEX
  8
0
 62
7
 10
36.15044770
 20
17.54449841
  0
VERTEX
  8
0
 62
7
 10
36.15625371
 20
17.47381357
  0
VERTEX
  8
0
 62
7
 10
36.16121594
 20
17.39887037
  0
VERTEX
  8
0
 62
7
 10
36.16400846
 20
17.32369699
  0
VERTEX
  8
0
 62
7
 10
36.16330531
 20
17.25232160
  0
VERTEX
  8
0
 62
7
 10
36.16173326
 20
17.22054459
  0
VERTEX
  8
0
 62
7
 10
36.15989000
 20
17.19007673
  0
VERTEX
  8
0
 62
7
 10
36.15702215
 20
17.16084611
  0
VERTEX
  8
0
 62
7
 10
36.15237634
 20
17.13278077
  0
VERTEX
  8
0
 62
7
 10
36.14519918
 20
17.10580879
  0
VERTEX
  8
0
 62
7
 10
36.13473731
 20
17.07985825
  0
VERTEX
  8
0
 62
7
 10
36.12023734
 20
17.05485720
  0
VERTEX
  8
0
 62
7
 10
36.10094591
 20
17.03073372
  0
VERTEX
  8
0
 62
7
 10
36.08695070
 20
17.01681854
  0
VERTEX
  8
0
 62
7
 10
36.07191584
 20
17.00388882
  0
VERTEX
  8
0
 62
7
 10
36.05576598
 20
16.99235458
  0
VERTEX
  8
0
 62
7
 10
36.03842579
 20
16.98262582
  0
VERTEX
  8
0
 62
7
 10
36.01981992
 20
16.97511256
  0
VERTEX
  8
0
 62
7
 10
35.99987305
 20
16.97022481
  0
VERTEX
  8
0
 62
7
 10
35.97850983
 20
16.96837257
  0
VERTEX
  8
0
 62
7
 10
35.95565493
 20
16.96996585
  0
VERTEX
  8
0
 62
7
 10
35.92429442
 20
16.97699597
  0
VERTEX
  8
0
 62
7
 10
35.89425985
 20
16.98615527
  0
VERTEX
  8
0
 62
7
 10
35.86470745
 20
16.99612020
  0
VERTEX
  8
0
 62
7
 10
35.83479342
 20
17.00556723
  0
VERTEX
  8
0
 62
7
 10
35.81339755
 20
17.01289467
  0
VERTEX
  8
0
 62
7
 10
35.79236331
 20
17.02137301
  0
VERTEX
  8
0
 62
7
 10
35.77132907
 20
17.02870045
  0
VERTEX
  8
0
 62
7
 10
35.74993320
 20
17.03257517
  0
VERTEX
  8
0
 62
7
 10
35.72498141
 20
17.03331367
  0
VERTEX
  8
0
 62
7
 10
35.69737773
 20
17.03203808
  0
VERTEX
  8
0
 62
7
 10
35.67001513
 20
17.03041722
  0
VERTEX
  8
0
 62
7
 10
35.64578658
 20
17.03011990
  0
VERTEX
  8
0
 62
7
 10
35.62565387
 20
17.03070255
  0
VERTEX
  8
0
 62
7
 10
35.60659096
 20
17.03190381
  0
VERTEX
  8
0
 62
7
 10
35.58840196
 20
17.03428475
  0
VERTEX
  8
0
 62
7
 10
35.57089101
 20
17.03840643
  0
VERTEX
  8
0
 62
7
 10
35.55386221
 20
17.04482993
  0
VERTEX
  8
0
 62
7
 10
35.53711970
 20
17.05411630
  0
VERTEX
  8
0
 62
7
 10
35.52046759
 20
17.06682663
  0
VERTEX
  8
0
 62
7
 10
35.50371000
 20
17.08352197
  0
VERTEX
  8
0
 62
7
 10
35.50544026
 20
17.08491744
  0
VERTEX
  8
0
 62
7
 10
35.50995800
 20
17.08893123
  0
VERTEX
  8
0
 62
7
 10
35.51625371
 20
17.09530437
  0
VERTEX
  8
0
 62
7
 10
35.52331786
 20
17.10377792
  0
VERTEX
  8
0
 62
7
 10
35.53014093
 20
17.11409292
  0
VERTEX
  8
0
 62
7
 10
35.53571339
 20
17.12599042
  0
VERTEX
  8
0
 62
7
 10
35.53902574
 20
17.13921146
  0
VERTEX
  8
0
 62
7
 10
35.53906843
 20
17.15349709
  0
VERTEX
  8
0
 62
7
 10
35.53494997
 20
17.17094291
  0
VERTEX
  8
0
 62
7
 10
35.52781802
 20
17.18533884
  0
VERTEX
  8
0
 62
7
 10
35.51827526
 20
17.19777822
  0
VERTEX
  8
0
 62
7
 10
35.50692441
 20
17.20935442
  0
VERTEX
  8
0
 62
7
 10
35.49529229
 20
17.22064289
  0
VERTEX
  8
0
 62
7
 10
35.48281639
 20
17.23014746
  0
VERTEX
  8
0
 62
7
 10
35.46841185
 20
17.23723513
  0
VERTEX
  8
0
 62
7
 10
35.45099381
 20
17.24127290
  0
VERTEX
  8
0
 62
7
 10
35.43672362
 20
17.24135562
  0
VERTEX
  8
0
 62
7
 10
35.42350063
 20
17.23813667
  0
VERTEX
  8
0
 62
7
 10
35.41158851
 20
17.23263031
  0
VERTEX
  8
0
 62
7
 10
35.40125094
 20
17.22585075
  0
VERTEX
  8
0
 62
7
 10
35.39275161
 20
17.21881223
  0
VERTEX
  8
0
 62
7
 10
35.38635419
 20
17.21252900
  0
VERTEX
  8
0
 62
7
 10
35.38232238
 20
17.20801529
  0
VERTEX
  8
0
 62
7
 10
35.38091985
 20
17.20628534
  0
VERTEX
  8
0
 62
7
 10
35.36428280
 20
17.22297708
  0
VERTEX
  8
0
 62
7
 10
35.35160852
 20
17.23957531
  0
VERTEX
  8
0
 62
7
 10
35.34233949
 20
17.25627424
  0
VERTEX
  8
0
 62
7
 10
35.33591822
 20
17.27326810
  0
VERTEX
  8
0
 62
7
 10
35.33178721
 20
17.29075109
  0
VERTEX
  8
0
 62
7
 10
35.32938896
 20
17.30891743
  0
VERTEX
  8
0
 62
7
 10
35.32816598
 20
17.32796134
  0
VERTEX
  8
0
 62
7
 10
35.32756077
 20
17.34807703
  0
VERTEX
  8
0
 62
7
 10
35.32787217
 20
17.37223647
  0
VERTEX
  8
0
 62
7
 10
35.32956977
 20
17.39956091
  0
VERTEX
  8
0
 62
7
 10
35.33090576
 20
17.42723062
  0
VERTEX
  8
0
 62
7
 10
35.33013229
 20
17.45242589
  0
VERTEX
  8
0
 62
7
 10
35.32618461
 20
17.47368889
  0
VERTEX
  8
0
 62
7
 10
35.31880153
 20
17.49454907
  0
VERTEX
  8
0
 62
7
 10
35.31033359
 20
17.51552434
  0
VERTEX
  8
0
 62
7
 10
35.30313132
 20
17.53713261
  0
VERTEX
  8
0
 62
7
 10
35.29361870
 20
17.56680682
  0
VERTEX
  8
0
 62
7
 10
35.28344310
 20
17.59636594
  0
VERTEX
  8
0
 62
7
 10
35.27411129
 20
17.62638542
  0
VERTEX
  8
0
 62
7
 10
35.26713001
 20
17.65744071
  0
VERTEX
  8
0
 62
7
 10
35.26561447
 20
17.68035814
  0
VERTEX
  8
0
 62
7
 10
35.26754186
 20
17.70175062
  0
VERTEX
  8
0
 62
7
 10
35.27249781
 20
17.72170446
  0
VERTEX
  8
0
 62
7
 10
35.28006798
 20
17.74030599
  0
VERTEX
  8
0
 62
7
 10
35.28983801
 20
17.75764152
  0
VERTEX
  8
0
 62
7
 10
35.30139353
 20
17.77379737
  0
VERTEX
  8
0
 62
7
 10
35.31432020
 20
17.78885986
  0
VERTEX
  8
0
 62
7
 10
35.32820365
 20
17.80291530
  0
VERTEX
  8
0
 62
7
 10
35.35226144
 20
17.82214503
  0
VERTEX
  8
0
 62
7
 10
35.37722328
 20
17.83659850
  0
VERTEX
  8
0
 62
7
 10
35.40314945
 20
17.84702380
  0
VERTEX
  8
0
 62
7
 10
35.43010020
 20
17.85416901
  0
VERTEX
  8
0
 62
7
 10
35.45813581
 20
17.85878223
  0
VERTEX
  8
0
 62
7
 10
35.48731655
 20
17.86161154
  0
VERTEX
  8
0
 62
7
 10
35.51770270
 20
17.86340503
  0
VERTEX
  8
0
 62
7
 10
35.54935451
 20
17.86491080
  0
VERTEX
  8
0
 62
7
 10
35.62101559
 20
17.86557257
  0
VERTEX
  8
0
 62
7
 10
35.69641341
 20
17.86283917
  0
VERTEX
  8
0
 62
7
 10
35.77157015
 20
17.85791905
  0
VERTEX
  8
0
 62
7
 10
35.84250798
 20
17.85202065
  0
VERTEX
  8
0
 62
7
 10
35.90575134
 20
17.84511521
  0
VERTEX
  8
0
 62
7
 10
35.97044118
 20
17.83544760
  0
VERTEX
  8
0
 62
7
 10
35.97276283
 20
17.83379197
  0
VERTEX
  8
0
 62
7
 10
35.97370581
 20
17.82968347
  0
VERTEX
  8
0
 62
7
 10
35.97363926
 20
17.82371914
  0
VERTEX
  8
0
 62
7
 10
35.97293234
 20
17.81649600
  0
VERTEX
  8
0
 62
7
 10
35.97195421
 20
17.80861109
  0
VERTEX
  8
0
 62
7
 10
35.97107402
 20
17.80066144
  0
VERTEX
  8
0
 62
7
 10
35.97066092
 20
17.79324409
  0
VERTEX
  8
0
 62
7
 10
35.97108406
 20
17.78695607
  0
VERTEX
  8
0
 62
7
 10
35.97293234
 20
17.77531273
  0
VERTEX
  8
0
 62
7
 10
35.97574495
 20
17.76424484
  0
VERTEX
  8
0
 62
7
 10
35.97976295
 20
17.75363732
  0
VERTEX
  8
0
 62
7
 10
35.98522743
 20
17.74337507
  0
VERTEX
  8
0
 62
7
 10
35.89650994
 20
17.65644326
  0
VERTEX
  8
0
 62
7
 10
35.80972108
 20
17.56720964
  0
VERTEX
  8
0
 62
7
 10
35.71553910
 20
17.46861531
  0
VERTEX
  8
0
 62
7
 10
35.62328576
 20
17.36771916
  0
VERTEX
  8
0
 62
7
 10
35.61717086
 20
17.35736580
  0
VERTEX
  8
0
 62
7
 10
35.61607345
 20
17.34669594
  0
VERTEX
  8
0
 62
7
 10
35.61910453
 20
17.33660153
  0
VERTEX
  8
0
 62
7
 10
35.62537512
 20
17.32797452
  0
VERTEX
  8
0
 62
7
 10
35.63399625
 20
17.32170688
  0
VERTEX
  8
0
 62
7
 10
35.64407892
 20
17.31869054
  0
VERTEX
  8
0
 62
7
 10
35.65473416
 20
17.31981747
  0
VERTEX
  8
0
 62
7
 10
35.66507299
 20
17.32597962
  0
SEQEND
  0
POLYLINE
  8
0
 62
7
 66
1
 70
1
  0
VERTEX
  8
0
 62
7
 10
35.24900000
 20
18.47100000
  0
VERTEX
  8
0
 62
7
 10
35.13675000
 20
18.54950000
  0
VERTEX
  8
0
 62
7
 10
35.02000000
 20
18.62200000
  0
VERTEX
  8
0
 62
7
 10
34.94520313
 20
18.66564063
  0
VERTEX
  8
0
 62
7
 10
34.87012500
 20
18.70712500
  0
VERTEX
  8
0
 62
7
 10
34.79373438
 20
18.74504688
  0
VERTEX
  8
0
 62
7
 10
34.71500000
 20
18.77800000
  0
VERTEX
  8
0
 62
7
 10
34.66026367
 20
18.79708008
  0
VERTEX
  8
0
 62
7
 10
34.60485938
 20
18.81382813
  0
VERTEX
  8
0
 62
7
 10
34.54886914
 20
18.82825586
  0
VERTEX
  8
0
 62
7
 10
34.49237500
 20
18.84037500
  0
VERTEX
  8
0
 62
7
 10
34.43545898
 20
18.85019727
  0
VERTEX
  8
0
 62
7
 10
34.37820313
 20
18.85773438
  0
VERTEX
  8
0
 62
7
 10
34.32068945
 20
18.86299805
  0
VERTEX
  8
0
 62
7
 10
34.26300000
 20
18.86600000
  0
VERTEX
  8
0
 62
7
 10
34.26500000
 20
18.90100000
  0
VERTEX
  8
0
 62
7
 10
34.32502734
 20
18.89826563
  0
VERTEX
  8
0
 62
7
 10
34.38503125
 20
18.89431250
  0
VERTEX
  8
0
 62
7
 10
34.44489453
 20
18.88876563
  0
VERTEX
  8
0
 62
7
 10
34.50450000
 20
18.88125000
  0
VERTEX
  8
0
 62
7
 10
34.56373047
 20
18.87139063
  0
VERTEX
  8
0
 62
7
 10
34.62246875
 20
18.85881250
  0
VERTEX
  8
0
 62
7
 10
34.68059766
 20
18.84314063
  0
VERTEX
  8
0
 62
7
 10
34.73800000
 20
18.82400000
  0
VERTEX
  8
0
 62
7
 10
34.82009375
 20
18.79114063
  0
VERTEX
  8
0
 62
7
 10
34.89900000
 20
18.75537500
  0
VERTEX
  8
0
 62
7
 10
34.97565625
 20
18.71642188
  0
VERTEX
  8
0
 62
7
 10
35.05100000
 20
18.67400000
  0
VERTEX
  8
0
 62
7
 10
35.15500000
 20
18.60875000
  0
VERTEX
  8
0
 62
7
 10
35.25600000
 20
18.53900000
  0
VERTEX
  8
0
 62
7
 10
35.26501563
 20
18.56798438
  0
VERTEX
  8
0
 62
7
 10
35.27937500
 20
18.59762500
  0
VERTEX
  8
0
 62
7
 10
35.30029688
 20
18.62745313
  0
VERTEX
  8
0
 62
7
 10
35.32900000
 20
18.65700000
  0
VERTEX
  8
0
 62
7
 10
35.37062500
 20
18.69437500
  0
VERTEX
  8
0
 62
7
 10
35.41000000
 20
18.73400000
  0
VERTEX
  8
0
 62
7
 10
35.44500000
 20
18.77400000
  0
VERTEX
  8
0
 62
7
 10
35.45600000
 20
18.78600000
  0
VERTEX
  8
0
 62
7
 10
35.41964258
 20
18.81524023
  0
VERTEX
  8
0
 62
7
 10
35.37964063
 20
18.84667188
  0
VERTEX
  8
0
 62
7
 10
35.33722461
 20
18.87911133
  0
VERTEX
  8
0
 62
7
 10
35.29362500
 20
18.91137500
  0
VERTEX
  8
0
 62
7
 10
35.25007227
 20
18.94227930
  0
VERTEX
  8
0
 62
7
 10
35.20779688
 20
18.97064063
  0
VERTEX
  8
0
 62
7
 10
35.16802930
 20
18.99527539
  0
VERTEX
  8
0
 62
7
 10
35.13200000
 20
19.01500000
  0
VERTEX
  8
0
 62
7
 10
35.07153320
 20
19.04333789
  0
VERTEX
  8
0
 62
7
 10
35.01014063
 20
19.06957813
  0
VERTEX
  8
0
 62
7
 10
34.94783398
 20
19.09331055
  0
VERTEX
  8
0
 62
7
 10
34.88462500
 20
19.11412500
  0
VERTEX
  8
0
 62
7
 10
34.82052539
 20
19.13161133
  0
VERTEX
  8
0
 62
7
 10
34.75554688
 20
19.14535938
  0
VERTEX
  8
0
 62
7
 10
34.68970117
 20
19.15495898
  0
VERTEX
  8
0
 62
7
 10
34.62300000
 20
19.16000000
  0
VERTEX
  8
0
 62
7
 10
34.56723242
 20
19.16166992
  0
VERTEX
  8
0
 62
7
 10
34.51117188
 20
19.16229688
  0
VERTEX
  8
0
 62
7
 10
34.45518164
 20
19.16093164
  0
VERTEX
  8
0
 62
7
 10
34.39962500
 20
19.15662500
  0
VERTEX
  8
0
 62
7
 10
34.34486523
 20
19.14842773
  0
VERTEX
  8
0
 62
7
 10
34.29126563
 20
19.13539063
  0
VERTEX
  8
0
 62
7
 10
34.23918945
 20
19.11656445
  0
VERTEX
  8
0
 62
7
 10
34.18900000
 20
19.09100000
  0
VERTEX
  8
0
 62
7
 10
34.13339063
 20
19.05321875
  0
VERTEX
  8
0
 62
7
 10
34.08237500
 20
19.00925000
  0
VERTEX
  8
0
 62
7
 10
34.03642188
 20
18.95965625
  0
VERTEX
  8
0
 62
7
 10
33.99600000
 20
18.90500000
  0
VERTEX
  8
0
 62
7
 10
33.96379688
 20
18.84907813
  0
VERTEX
  8
0
 62
7
 10
33.93787500
 20
18.78987500
  0
VERTEX
  8
0
 62
7
 10
33.91851563
 20
18.72823438
  0
VERTEX
  8
0
 62
7
 10
33.90600000
 20
18.66500000
  0
VERTEX
  8
0
 62
7
 10
33.95743750
 20
18.68465625
  0
VERTEX
  8
0
 62
7
 10
34.01075000
 20
18.69700000
  0
VERTEX
  8
0
 62
7
 10
34.06518750
 20
18.70184375
  0
VERTEX
  8
0
 62
7
 10
34.12000000
 20
18.69900000
  0
VERTEX
  8
0
 62
7
 10
34.15330859
 20
18.69264844
  0
VERTEX
  8
0
 62
7
 10
34.18696875
 20
18.68175000
  0
VERTEX
  8
0
 62
7
 10
34.22058203
 20
18.66728906
  0
VERTEX
  8
0
 62
7
 10
34.25375000
 20
18.65025000
  0
VERTEX
  8
0
 62
7
 10
34.28607422
 20
18.63161719
  0
VERTEX
  8
0
 62
7
 10
34.31715625
 20
18.61237500
  0
VERTEX
  8
0
 62
7
 10
34.34659766
 20
18.59350781
  0
VERTEX
  8
0
 62
7
 10
34.37400000
 20
18.57600000
  0
VERTEX
  8
0
 62
7
 10
34.41751782
 20
18.54706250
  0
VERTEX
  8
0
 62
7
 10
34.45804883
 20
18.51770313
  0
VERTEX
  8
0
 62
7
 10
34.49612183
 20
18.48803906
  0
VERTEX
  8
0
 62
7
 10
34.53226563
 20
18.45818750
  0
VERTEX
  8
0
 62
7
 10
34.56700903
 20
18.42826563
  0
VERTEX
  8
0
 62
7
 10
34.60088086
 20
18.39839063
  0
VERTEX
  8
0
 62
7
 10
34.63440991
 20
18.36867969
  0
VERTEX
  8
0
 62
7
 10
34.66812500
 20
18.33925000
  0
VERTEX
  8
0
 62
7
 10
34.70255493
 20
18.31021875
  0
VERTEX
  8
0
 62
7
 10
34.73822852
 20
18.28170313
  0
VERTEX
  8
0
 62
7
 10
34.77567456
 20
18.25382031
  0
VERTEX
  8
0
 62
7
 10
34.81542188
 20
18.22668750
  0
VERTEX
  8
0
 62
7
 10
34.85799927
 20
18.20042188
  0
VERTEX
  8
0
 62
7
 10
34.90393555
 20
18.17514063
  0
VERTEX
  8
0
 62
7
 10
34.95375952
 20
18.15096094
  0
VERTEX
  8
0
 62
7
 10
35.00800000
 20
18.12800000
  0
VERTEX
  8
0
 62
7
 10
35.05490625
 20
18.11071875
  0
VERTEX
  8
0
 62
7
 10
35.10125000
 20
18.09625000
  0
VERTEX
  8
0
 62
7
 10
35.14721875
 20
18.08440625
  0
VERTEX
  8
0
 62
7
 10
35.19300000
 20
18.07500000
  0
VERTEX
  8
0
 62
7
 10
35.18913672
 20
18.09570313
  0
VERTEX
  8
0
 62
7
 10
35.18778125
 20
18.11706250
  0
VERTEX
  8
0
 62
7
 10
35.18853516
 20
18.13870313
  0
VERTEX
  8
0
 62
7
 10
35.19100000
 20
18.16025000
  0
VERTEX
  8
0
 62
7
 10
35.19477734
 20
18.18132813
  0
VERTEX
  8
0
 62
7
 10
35.19946875
 20
18.20156250
  0
VERTEX
  8
0
 62
7
 10
35.20467578
 20
18.22057813
  0
VERTEX
  8
0
 62
7
 10
35.21000000
 20
18.23800000
  0
VERTEX
  8
0
 62
7
 10
35.22537500
 20
18.28575000
  0
VERTEX
  8
0
 62
7
 10
35.24300000
 20
18.33200000
  0
VERTEX
  8
0
 62
7
 10
35.24900000
 20
18.47100000
  0
SEQEND
  0
POLYLINE
  8
0
 62
7
 66
1
 70
1
  0
VERTEX
  8
0
 62
7
 10
35.62471456
 20
18.43703282
  0
VERTEX
  8
0
 62
7
 10
35.71696790
 20
18.33605995
  0
VERTEX
  8
0
 62
7
 10
35.81114988
 20
18.23692853
  0
VERTEX
  8
0
 62
7
 10
35.89793874
 20
18.14769491
  0
VERTEX
  8
0
 62
7
 10
35.98665624
 20
18.06076310
  0
VERTEX
  8
0
 62
7
 10
35.98119175
 20
18.05051044
  0
VERTEX
  8
0
 62
7
 10
35.97717375
 20
18.03997005
  0
VERTEX
  8
0
 62
7
 10
35.97436115
 20
18.02908440
  0
VERTEX
  8
0
 62
7
 10
35.97251287
 20
18.01779592
  0
VERTEX
  8
0
 62
7
 10
35.97227430
 20
18.01150670
  0
VERTEX
  8
0
 62
7
 10
35.97277404
 20
18.00408095
  0
VERTEX
  8
0
 62
7
 10
35.97366553
 20
17.99610852
  0
VERTEX
  8
0
 62
7
 10
35.97460223
 20
17.98817926
  0
VERTEX
  8
0
 62
7
 10
35.97523758
 20
17.98088299
  0
VERTEX
  8
0
 62
7
 10
35.97522502
 20
17.97480956
  0
VERTEX
  8
0
 62
7
 10
35.97421801
 20
17.97054881
  0
VERTEX
  8
0
 62
7
 10
35.97186999
 20
17.96869057
  0
VERTEX
  8
0
 62
7
 10
35.90718015
 20
17.95925314
  0
VERTEX
  8
0
 62
7
 10
35.84393679
 20
17.95211752
  0
VERTEX
  8
0
 62
7
 10
35.77327016
 20
17.94621912
  0
VERTEX
  8
0
 62
7
 10
35.69808329
 20
17.94129900
  0
VERTEX
  8
0
 62
7
 10
35.62253480
 20
17.93856559
  0
VERTEX
  8
0
 62
7
 10
35.55078332
 20
17.93922736
  0
VERTEX
  8
0
 62
7
 10
35.51913025
 20
17.94073433
  0
VERTEX
  8
0
 62
7
 10
35.48873531
 20
17.94253622
  0
VERTEX
  8
0
 62
7
 10
35.45953071
 20
17.94538831
  0
VERTEX
  8
0
 62
7
 10
35.43144864
 20
17.95004589
  0
VERTEX
  8
0
 62
7
 10
35.40442130
 20
17.95726423
  0
VERTEX
  8
0
 62
7
 10
35.37838087
 20
17.96779862
  0
VERTEX
  8
0
 62
7
 10
35.35325957
 20
17.98240434
  0
VERTEX
  8
0
 62
7
 10
35.32898958
 20
18.00183668
  0
VERTEX
  8
0
 62
7
 10
35.31531832
 20
18.01571470
  0
VERTEX
  8
0
 62
7
 10
35.30255112
 20
18.03068607
  0
VERTEX
  8
0
 62
7
 10
35.29110986
 20
18.04680836
  0
VERTEX
  8
0
 62
7
 10
35.28141643
 20
18.06413909
  0
VERTEX
  8
0
 62
7
 10
35.27389272
 20
18.08273582
  0
VERTEX
  8
0
 62
7
 10
35.26896062
 20
18.10265610
  0
VERTEX
  8
0
 62
7
 10
35.26704202
 20
18.12395746
  0
VERTEX
  8
0
 62
7
 10
35.26855882
 20
18.14669746
  0
VERTEX
  8
0
 62
7
 10
35.27580127
 20
18.17802130
  0
VERTEX
  8
0
 62
7
 10
35.28503263
 20
18.20807914
  0
VERTEX
  8
0
 62
7
 10
35.29486669
 20
18.23767662
  0
VERTEX
  8
0
 62
7
 10
35.30391724
 20
18.26761937
  0
VERTEX
  8
0
 62
7
 10
35.31149117
 20
18.28887278
  0
VERTEX
  8
0
 62
7
 10
35.32014997
 20
18.30966583
  0
VERTEX
  8
0
 62
7
 10
35.32760337
 20
18.33045887
  0
VERTEX
  8
0
 62
7
 10
35.33156110
 20
18.35171228
  0
VERTEX
  8
0
 62
7
 10
35.33215375
 20
18.37716650
  0
VERTEX
  8
0
 62
7
 10
35.33099858
 20
18.40480744
  0
VERTEX
  8
0
 62
7
 10
35.32948178
 20
18.43198801
  0
VERTEX
  8
0
 62
7
 10
35.32898958
 20
18.45606114
  0
VERTEX
  8
0
 62
7
 10
35.32959479
 20
18.47617683
  0
VERTEX
  8
0
 62
7
 10
35.33081777
 20
18.49522074
  0
VERTEX
  8
0
 62
7
 10
35.33321601
 20
18.51338708
  0
VERTEX
  8
0
 62
7
 10
35.33734702
 20
18.53087007
  0
VERTEX
  8
0
 62
7
 10
35.34376829
 20
18.54786393
  0
VERTEX
  8
0
 62
7
 10
35.35303732
 20
18.56456286
  0
VERTEX
  8
0
 62
7
 10
35.36571161
 20
18.58116109
  0
VERTEX
  8
0
 62
7
 10
35.38234865
 20
18.59785283
  0
VERTEX
  8
0
 62
7
 10
35.38375118
 20
18.59614805
  0
VERTEX
  8
0
 62
7
 10
35.38778300
 20
18.59169548
  0
VERTEX
  8
0
 62
7
 10
35.39418041
 20
18.58548778
  0
VERTEX
  8
0
 62
7
 10
35.40267974
 20
18.57851760
  0
VERTEX
  8
0
 62
7
 10
35.41301731
 20
18.57177761
  0
VERTEX
  8
0
 62
7
 10
35.42492943
 20
18.56626045
  0
VERTEX
  8
0
 62
7
 10
35.43815243
 20
18.56295878
  0
VERTEX
  8
0
 62
7
 10
35.45242261
 20
18.56286527
  0
VERTEX
  8
0
 62
7
 10
35.46947904
 20
18.56690304
  0
VERTEX
  8
0
 62
7
 10
35.48376303
 20
18.57399070
  0
VERTEX
  8
0
 62
7
 10
35.49635947
 20
18.58349527
  0
VERTEX
  8
0
 62
7
 10
35.50835321
 20
18.59478375
  0
VERTEX
  8
0
 62
7
 10
35.51961366
 20
18.60670522
  0
VERTEX
  8
0
 62
7
 10
35.52900574
 20
18.61925970
  0
VERTEX
  8
0
 62
7
 10
35.53610756
 20
18.63354053
  0
VERTEX
  8
0
 62
7
 10
35.54049723
 20
18.65064108
  0
VERTEX
  8
0
 62
7
 10
35.54045454
 20
18.66492671
  0
VERTEX
  8
0
 62
7
 10
35.53714220
 20
18.67814775
  0
VERTEX
  8
0
 62
7
 10
35.53156973
 20
18.69004525
  0
VERTEX
  8
0
 62
7
 10
35.52474666
 20
18.70036025
  0
VERTEX
  8
0
 62
7
 10
35.51768251
 20
18.70883379
  0
VERTEX
  8
0
 62
7
 10
35.51138680
 20
18.71520694
  0
VERTEX
  8
0
 62
7
 10
35.50686906
 20
18.71922073
  0
VERTEX
  8
0
 62
7
 10
35.50513881
 20
18.72061620
  0
VERTEX
  8
0
 62
7
 10
35.52189639
 20
18.73731274
  0
VERTEX
  8
0
 62
7
 10
35.53854850
 20
18.75003145
  0
VERTEX
  8
0
 62
7
 10
35.55529101
 20
18.75934061
  0
VERTEX
  8
0
 62
7
 10
35.57231981
 20
18.76580847
  0
VERTEX
  8
0
 62
7
 10
35.58983077
 20
18.77000328
  0
VERTEX
  8
0
 62
7
 10
35.60801976
 20
18.77249331
  0
VERTEX
  8
0
 62
7
 10
35.62708268
 20
18.77384683
  0
VERTEX
  8
0
 62
7
 10
35.64721538
 20
18.77463208
  0
VERTEX
  8
0
 62
7
 10
35.67135353
 20
18.77406622
  0
VERTEX
  8
0
 62
7
 10
35.69856545
 20
18.77240700
  0
VERTEX
  8
0
 62
7
 10
35.72613899
 20
18.77109305
  0
VERTEX
  8
0
 62
7
 10
35.75136201
 20
18.77156300
  0
VERTEX
  8
0
 62
7
 10
35.77275787
 20
18.77543772
  0
VERTEX
  8
0
 62
7
 10
35.79379211
 20
18.78276516
  0
VERTEX
  8
0
 62
7
 10
35.81482636
 20
18.79124350
  0
VERTEX
  8
0
 62
7
 10
35.83622222
 20
18.79857094
  0
VERTEX
  8
0
 62
7
 10
35.86622665
 20
18.80801796
  0
VERTEX
  8
0
 62
7
 10
35.89592974
 20
18.81798290
  0
VERTEX
  8
0
 62
7
 10
35.92599444
 20
18.82714220
  0
VERTEX
  8
0
 62
7
 10
35.95708374
 20
18.83417232
  0
VERTEX
  8
0
 62
7
 10
35.97975406
 20
18.83576680
  0
VERTEX
  8
0
 62
7
 10
36.00103064
 20
18.83392295
  0
VERTEX
  8
0
 62
7
 10
36.02096621
 20
18.82905798
  0
VERTEX
  8
0
 62
7
 10
36.03961351
 20
18.82158907
  0
VERTEX
  8
0
 62
7
 10
36.05702527
 20
18.81193344
  0
VERTEX
  8
0
 62
7
 10
36.07325424
 20
18.80050830
  0
VERTEX
  8
0
 62
7
 10
36.08835314
 20
18.78773084
  0
VERTEX
  8
0
 62
7
 10
36.10237471
 20
18.77401827
  0
VERTEX
  8
0
 62
7
 10
36.12148157
 20
18.74986961
  0
VERTEX
  8
0
 62
7
 10
36.13589490
 20
18.72480742
  0
VERTEX
  8
0
 62
7
 10
36.14634547
 20
18.69878135
  0
VERTEX
  8
0
 62
7
 10
36.15356406
 20
18.67174104
  0
VERTEX
  8
0
 62
7
 10
36.15828145
 20
18.64363614
  0
VERTEX
  8
0
 62
7
 10
36.16122840
 20
18.61441630
  0
VERTEX
  8
0
 62
7
 10
36.16313570
 20
18.58403116
  0
VERTEX
  8
0
 62
7
 10
36.16473411
 20
18.55243039
  0
VERTEX
  8
0
 62
7
 10
36.16543726
 20
18.48095909
  0
VERTEX
  8
0
 62
7
 10
36.16264475
 20
18.40557471
  0
VERTEX
  8
0
 62
7
 10
36.15768252
 20
18.33042051
  0
VERTEX
  8
0
 62
7
 10
36.15187650
 20
18.25963975
  0
VERTEX
  8
0
 62
7
 10
36.14496554
 20
18.19633989
  0
VERTEX
  8
0
 62
7
 10
36.13516161
 20
18.13257967
  0
VERTEX
  8
0
 62
7
 10
36.13329952
 20
18.12995896
  0
VERTEX
  8
0
 62
7
 10
36.12906429
 20
18.12876250
  0
VERTEX
  8
0
 62
7
 10
36.12303603
 20
18.12863062
  0
VERTEX
  8
0
 62
7
 10
36.11579484
 20
18.12920368
  0
VERTEX
  8
0
 62
7
 10
36.10792081
 20
18.13012200
  0
VERTEX
  8
0
 62
7
 10
36.09999404
 20
18.13102595
  0
VERTEX
  8
0
 62
7
 10
36.09259464
 20
18.13155584
  0
VERTEX
  8
0
 62
7
 10
36.08630270
 20
18.13135204
  0
VERTEX
  8
0
 62
7
 10
36.06396261
 20
18.12659495
  0
VERTEX
  8
0
 62
7
 10
36.04258683
 20
18.11723425
  0
VERTEX
  8
0
 62
7
 10
35.95595870
 20
18.20562387
  0
VERTEX
  8
0
 62
7
 10
35.86643760
 20
18.29217205
  0
VERTEX
  8
0
 62
7
 10
35.76767510
 20
18.38654639
  0
VERTEX
  8
0
 62
7
 10
35.66650179
 20
18.47815855
  0
VERTEX
  8
0
 62
7
 10
35.65616297
 20
18.48432189
  0
VERTEX
  8
0
 62
7
 10
35.64550773
 20
18.48545722
  0
VERTEX
  8
0
 62
7
 10
35.63542505
 20
18.48246366
  0
VERTEX
  8
0
 62
7
 10
35.62680393
 20
18.47624037
  0
VERTEX
  8
0
 62
7
 10
35.62053333
 20
18.46768650
  0
VERTEX
  8
0
 62
7
 10
35.61750225
 20
18.45770119
  0
VERTEX
  8
0
 62
7
 10
35.61859967
 20
18.44718358
  0
VERTEX
  8
0
 62
7
 10
35.62471456
 20
18.43703282
  0
SEQEND
  0
ENDSEC
  0
EOF
