  0
SECTION
  2
ENTITIES
  0
POLYLINE
  8
0
 62
7
 66
1
 70
1
  0
VERTEX
  8
0
 62
7
 10
3.54700000
 20
9.91900000
  0
VERTEX
  8
0
 62
7
 10
3.57923242
 20
10.00242383
  0
VERTEX
  8
0
 62
7
 10
3.61510938
 20
10.08389063
  0
VERTEX
  8
0
 62
7
 10
3.65452539
 20
10.16331836
  0
VERTEX
  8
0
 62
7
 10
3.69737500
 20
10.24062500
  0
VERTEX
  8
0
 62
7
 10
3.74355273
 20
10.31572852
  0
VERTEX
  8
0
 62
7
 10
3.79295313
 20
10.38854688
  0
VERTEX
  8
0
 62
7
 10
3.84547070
 20
10.45899805
  0
VERTEX
  8
0
 62
7
 10
3.90100000
 20
10.52700000
  0
VERTEX
  8
0
 62
7
 10
3.92100000
 20
10.55100000
  0
VERTEX
  8
0
 62
7
 10
3.92200000
 20
10.56000000
  0
VERTEX
  8
0
 62
7
 10
3.94369922
 20
10.57701172
  0
VERTEX
  8
0
 62
7
 10
3.96678125
 20
10.59203125
  0
VERTEX
  8
0
 62
7
 10
3.99122266
 20
10.60503516
  0
VERTEX
  8
0
 62
7
 10
4.01700000
 20
10.61600000
  0
VERTEX
  8
0
 62
7
 10
4.04408984
 20
10.62490234
  0
VERTEX
  8
0
 62
7
 10
4.07246875
 20
10.63171875
  0
VERTEX
  8
0
 62
7
 10
4.10211328
 20
10.63642578
  0
VERTEX
  8
0
 62
7
 10
4.13300000
 20
10.63900000
  0
VERTEX
  8
0
 62
7
 10
4.18037500
 20
10.64012500
  0
VERTEX
  8
0
 62
7
 10
4.23600000
 20
10.63900000
  0
VERTEX
  8
0
 62
7
 10
4.26636719
 20
10.63453516
  0
VERTEX
  8
0
 62
7
 10
4.29162500
 20
10.62709375
  0
VERTEX
  8
0
 62
7
 10
4.31200781
 20
10.61773047
  0
VERTEX
  8
0
 62
7
 10
4.32775000
 20
10.60750000
  0
VERTEX
  8
0
 62
7
 10
4.33908594
 20
10.59745703
  0
VERTEX
  8
0
 62
7
 10
4.34625000
 20
10.58865625
  0
VERTEX
  8
0
 62
7
 10
4.34947656
 20
10.58215234
  0
VERTEX
  8
0
 62
7
 10
4.34900000
 20
10.57900000
  0
VERTEX
  8
0
 62
7
 10
4.33192188
 20
10.56826563
  0
VERTEX
  8
0
 62
7
 10
4.31737500
 20
10.55687500
  0
VERTEX
  8
0
 62
7
 10
4.30414063
 20
10.54229688
  0
VERTEX
  8
0
 62
7
 10
4.29100000
 20
10.52200000
  0
VERTEX
  8
0
 62
7
 10
4.24005859
 20
10.43408203
  0
VERTEX
  8
0
 62
7
 10
4.18890625
 20
10.34703125
  0
VERTEX
  8
0
 62
7
 10
4.13817578
 20
10.26040234
  0
VERTEX
  8
0
 62
7
 10
4.08850000
 20
10.17375000
  0
VERTEX
  8
0
 62
7
 10
4.04051172
 20
10.08662891
  0
VERTEX
  8
0
 62
7
 10
3.99484375
 20
9.99859375
  0
VERTEX
  8
0
 62
7
 10
3.95212891
 20
9.90919922
  0
VERTEX
  8
0
 62
7
 10
3.91300000
 20
9.81800000
  0
VERTEX
  8
0
 62
7
 10
3.87814453
 20
9.72751367
  0
VERTEX
  8
0
 62
7
 10
3.84490625
 20
9.63673438
  0
VERTEX
  8
0
 62
7
 10
3.81340234
 20
9.54555664
  0
VERTEX
  8
0
 62
7
 10
3.78375000
 20
9.45387500
  0
VERTEX
  8
0
 62
7
 10
3.75606641
 20
9.36158398
  0
VERTEX
  8
0
 62
7
 10
3.73046875
 20
9.26857812
  0
VERTEX
  8
0
 62
7
 10
3.70707422
 20
9.17475195
  0
VERTEX
  8
0
 62
7
 10
3.68600000
 20
9.08000000
  0
VERTEX
  8
0
 62
7
 10
3.66805859
 20
9.09316211
  0
VERTEX
  8
0
 62
7
 10
3.64859375
 20
9.10542187
  0
VERTEX
  8
0
 62
7
 10
3.62739453
 20
9.11643945
  0
VERTEX
  8
0
 62
7
 10
3.60425000
 20
9.12587500
  0
VERTEX
  8
0
 62
7
 10
3.57894922
 20
9.13338867
  0
VERTEX
  8
0
 62
7
 10
3.55128125
 20
9.13864063
  0
VERTEX
  8
0
 62
7
 10
3.52103516
 20
9.14129102
  0
VERTEX
  8
0
 62
7
 10
3.48800000
 20
9.14100000
  0
VERTEX
  8
0
 62
7
 10
3.43000000
 20
9.13800000
  0
VERTEX
  8
0
 62
7
 10
3.42700000
 20
9.24100000
  0
VERTEX
  8
0
 62
7
 10
3.42895703
 20
9.32751367
  0
VERTEX
  8
0
 62
7
 10
3.43478125
 20
9.41373438
  0
VERTEX
  8
0
 62
7
 10
3.44440234
 20
9.49955664
  0
VERTEX
  8
0
 62
7
 10
3.45775000
 20
9.58487500
  0
VERTEX
  8
0
 62
7
 10
3.47475391
 20
9.66958398
  0
VERTEX
  8
0
 62
7
 10
3.49534375
 20
9.75357813
  0
VERTEX
  8
0
 62
7
 10
3.51944922
 20
9.83675195
  0
VERTEX
  8
0
 62
7
 10
3.54700000
 20
9.91900000
  0
SEQEND
  0
POLYLINE
  8
0
 62
7
 66
1
 70
1
  0
VERTEX
  8
0
 62
7
 10
2.53500000
 20
8.43900000
  0
VERTEX
  8
0
 62
7
 10
2.51559961
 20
8.49419922
  0
VERTEX
  8
0
 62
7
 10
2.49867188
 20
8.55021875
  0
VERTEX
  8
0
 62
7
 10
2.48425195
 20
8.60694141
  0
VERTEX
  8
0
 62
7
 10
2.47237500
 20
8.66425000
  0
VERTEX
  8
0
 62
7
 10
2.46307617
 20
8.72202734
  0
VERTEX
  8
0
 62
7
 10
2.45639063
 20
8.78015625
  0
VERTEX
  8
0
 62
7
 10
2.45235352
 20
8.83851953
  0
VERTEX
  8
0
 62
7
 10
2.45100000
 20
8.89700000
  0
VERTEX
  8
0
 62
7
 10
2.45187500
 20
8.94500000
  0
VERTEX
  8
0
 62
7
 10
2.45500000
 20
8.99300000
  0
VERTEX
  8
0
 62
7
 10
2.46454688
 20
9.07881250
  0
VERTEX
  8
0
 62
7
 10
2.47962500
 20
9.16350000
  0
VERTEX
  8
0
 62
7
 10
2.50014063
 20
9.24668750
  0
VERTEX
  8
0
 62
7
 10
2.52600000
 20
9.32800000
  0
VERTEX
  8
0
 62
7
 10
2.49687500
 20
9.44312500
  0
VERTEX
  8
0
 62
7
 10
2.47300000
 20
9.55600000
  0
VERTEX
  8
0
 62
7
 10
2.44123242
 20
9.49109961
  0
VERTEX
  8
0
 62
7
 10
2.41273438
 20
9.42473438
  0
VERTEX
  8
0
 62
7
 10
2.38758789
 20
9.35703320
  0
VERTEX
  8
0
 62
7
 10
2.36587500
 20
9.28812500
  0
VERTEX
  8
0
 62
7
 10
2.34767773
 20
9.21813867
  0
VERTEX
  8
0
 62
7
 10
2.33307813
 20
9.14720313
  0
VERTEX
  8
0
 62
7
 10
2.32215820
 20
9.07544727
  0
VERTEX
  8
0
 62
7
 10
2.31500000
 20
9.00300000
  0
VERTEX
  8
0
 62
7
 10
2.31100000
 20
8.89700000
  0
VERTEX
  8
0
 62
7
 10
2.31217188
 20
8.83860352
  0
VERTEX
  8
0
 62
7
 10
2.31568750
 20
8.78045312
  0
VERTEX
  8
0
 62
7
 10
2.32154688
 20
8.72260742
  0
VERTEX
  8
0
 62
7
 10
2.32975000
 20
8.66512500
  0
VERTEX
  8
0
 62
7
 10
2.34029688
 20
8.60806445
  0
VERTEX
  8
0
 62
7
 10
2.35318750
 20
8.55148437
  0
VERTEX
  8
0
 62
7
 10
2.36842188
 20
8.49544336
  0
VERTEX
  8
0
 62
7
 10
2.38600000
 20
8.44000000
  0
VERTEX
  8
0
 62
7
 10
2.43287500
 20
8.44562500
  0
VERTEX
  8
0
 62
7
 10
2.47600000
 20
8.44600000
  0
VERTEX
  8
0
 62
7
 10
2.53500000
 20
8.43900000
  0
SEQEND
  0
POLYLINE
  8
0
 62
7
 66
1
 70
1
  0
VERTEX
  8
0
 62
7
 10
3.14200000
 20
11.83500000
  0
VERTEX
  8
0
 62
7
 10
3.09135938
 20
11.72615625
  0
VERTEX
  8
0
 62
7
 10
3.04737500
 20
11.61525000
  0
VERTEX
  8
0
 62
7
 10
3.00995313
 20
11.50396875
  0
VERTEX
  8
0
 62
7
 10
2.97900000
 20
11.39400000
  0
VERTEX
  8
0
 62
7
 10
2.96550000
 20
11.33325000
  0
VERTEX
  8
0
 62
7
 10
2.95200000
 20
11.25600000
  0
VERTEX
  8
0
 62
7
 10
2.95200000
 20
14.40600000
  0
VERTEX
  8
0
 62
7
 10
3.14200000
 20
14.41000000
  0
VERTEX
  8
0
 62
7
 10
3.14200000
 20
11.83500000
  0
SEQEND
  0
POLYLINE
  8
0
 62
7
 66
1
 70
1
  0
VERTEX
  8
0
 62
7
 10
3.47200000
 20
12.27200000
  0
VERTEX
  8
0
 62
7
 10
3.46600000
 20
12.26700000
  0
VERTEX
  8
0
 62
7
 10
3.39776563
 20
12.20223438
  0
VERTEX
  8
0
 62
7
 10
3.33412500
 20
12.13137500
  0
VERTEX
  8
0
 62
7
 10
3.27517188
 20
12.05507813
  0
VERTEX
  8
0
 62
7
 10
3.22100000
 20
11.97400000
  0
VERTEX
  8
0
 62
7
 10
3.22100000
 20
14.41500000
  0
VERTEX
  8
0
 62
7
 10
3.47200000
 20
14.42200000
  0
VERTEX
  8
0
 62
7
 10
3.47200000
 20
12.27200000
  0
SEQEND
  0
POLYLINE
  8
0
 62
7
 66
1
 70
1
  0
VERTEX
  8
0
 62
7
 10
3.73800000
 20
11.65900000
  0
VERTEX
  8
0
 62
7
 10
3.71580273
 20
11.71322656
  0
VERTEX
  8
0
 62
7
 10
3.69523438
 20
11.76975000
  0
VERTEX
  8
0
 62
7
 10
3.67670508
 20
11.82796094
  0
VERTEX
  8
0
 62
7
 10
3.66062500
 20
11.88725000
  0
VERTEX
  8
0
 62
7
 10
3.64740430
 20
11.94700781
  0
VERTEX
  8
0
 62
7
 10
3.63745313
 20
12.00662500
  0
VERTEX
  8
0
 62
7
 10
3.63118164
 20
12.06549219
  0
VERTEX
  8
0
 62
7
 10
3.62900000
 20
12.12300000
  0
VERTEX
  8
0
 62
7
 10
3.63200000
 20
12.18300000
  0
VERTEX
  8
0
 62
7
 10
3.65300000
 20
12.43000000
  0
VERTEX
  8
0
 62
7
 10
3.55100000
 20
12.34100000
  0
VERTEX
  8
0
 62
7
 10
3.55100000
 20
14.42700000
  0
VERTEX
  8
0
 62
7
 10
3.73800000
 20
14.43500000
  0
VERTEX
  8
0
 62
7
 10
3.73800000
 20
11.65900000
  0
SEQEND
  0
POLYLINE
  8
0
 62
7
 66
1
 70
1
  0
VERTEX
  8
0
 62
7
 10
2.95400000
 20
3.98300000
  0
VERTEX
  8
0
 62
7
 10
2.95900000
 20
3.98700000
  0
VERTEX
  8
0
 62
7
 10
3.00909375
 20
4.02362500
  0
VERTEX
  8
0
 62
7
 10
3.05600000
 20
4.06250000
  0
VERTEX
  8
0
 62
7
 10
3.09990625
 20
4.10287500
  0
VERTEX
  8
0
 62
7
 10
3.14100000
 20
4.14400000
  0
VERTEX
  8
0
 62
7
 10
3.14100000
 20
2.91400000
  0
VERTEX
  8
0
 62
7
 10
2.95400000
 20
2.91400000
  0
VERTEX
  8
0
 62
7
 10
2.95400000
 20
3.98300000
  0
SEQEND
  0
POLYLINE
  8
0
 62
7
 66
1
 70
1
  0
VERTEX
  8
0
 62
7
 10
3.22200000
 20
4.23100000
  0
VERTEX
  8
0
 62
7
 10
3.23200000
 20
4.24200000
  0
VERTEX
  8
0
 62
7
 10
3.26400000
 20
4.27800000
  0
VERTEX
  8
0
 62
7
 10
3.32200000
 20
4.34100000
  0
VERTEX
  8
0
 62
7
 10
3.39250000
 20
4.42387500
  0
VERTEX
  8
0
 62
7
 10
3.47200000
 20
4.51200000
  0
VERTEX
  8
0
 62
7
 10
3.47200000
 20
2.18800000
  0
VERTEX
  8
0
 62
7
 10
3.22200000
 20
2.18800000
  0
VERTEX
  8
0
 62
7
 10
3.22200000
 20
4.23100000
  0
SEQEND
  0
POLYLINE
  8
0
 62
7
 66
1
 70
1
  0
VERTEX
  8
0
 62
7
 10
3.55200000
 20
4.59700000
  0
VERTEX
  8
0
 62
7
 10
3.64537500
 20
4.69187500
  0
VERTEX
  8
0
 62
7
 10
3.73800000
 20
4.78000000
  0
VERTEX
  8
0
 62
7
 10
3.73900000
 20
4.78100000
  0
VERTEX
  8
0
 62
7
 10
3.73900000
 20
2.91400000
  0
VERTEX
  8
0
 62
7
 10
3.55200000
 20
2.91400000
  0
VERTEX
  8
0
 62
7
 10
3.55200000
 20
4.59700000
  0
SEQEND
  0
POLYLINE
  8
0
 62
7
 66
1
 70
1
  0
VERTEX
  8
0
 62
7
 10
5.35500000
 20
9.17200000
  0
VERTEX
  8
0
 62
7
 10
5.32175000
 20
9.18725000
  0
VERTEX
  8
0
 62
7
 10
5.28700000
 20
9.19800000
  0
VERTEX
  8
0
 62
7
 10
5.28006689
 20
9.22800342
  0
VERTEX
  8
0
 62
7
 10
5.27119141
 20
9.25751172
  0
VERTEX
  8
0
 62
7
 10
5.26025928
 20
9.28633447
  0
VERTEX
  8
0
 62
7
 10
5.24715625
 20
9.31428125
  0
VERTEX
  8
0
 62
7
 10
5.23176807
 20
9.34116162
  0
VERTEX
  8
0
 62
7
 10
5.21398047
 20
9.36678516
  0
VERTEX
  8
0
 62
7
 10
5.19367920
 20
9.39096143
  0
VERTEX
  8
0
 62
7
 10
5.17075000
 20
9.41350000
  0
VERTEX
  8
0
 62
7
 10
5.14507861
 20
9.43421045
  0
VERTEX
  8
0
 62
7
 10
5.11655078
 20
9.45290234
  0
VERTEX
  8
0
 62
7
 10
5.08505225
 20
9.46938525
  0
VERTEX
  8
0
 62
7
 10
5.05046875
 20
9.48346875
  0
VERTEX
  8
0
 62
7
 10
5.01268604
 20
9.49496240
  0
VERTEX
  8
0
 62
7
 10
4.97158984
 20
9.50367578
  0
VERTEX
  8
0
 62
7
 10
4.92706592
 20
9.50941846
  0
VERTEX
  8
0
 62
7
 10
4.87900000
 20
9.51200000
  0
VERTEX
  8
0
 62
7
 10
4.87100000
 20
9.51200000
  0
VERTEX
  8
0
 62
7
 10
4.82085938
 20
9.50858008
  0
VERTEX
  8
0
 62
7
 10
4.76687500
 20
9.49870313
  0
VERTEX
  8
0
 62
7
 10
4.70970313
 20
9.48294336
  0
VERTEX
  8
0
 62
7
 10
4.65000000
 20
9.46187500
  0
VERTEX
  8
0
 62
7
 10
4.58842188
 20
9.43607227
  0
VERTEX
  8
0
 62
7
 10
4.52562500
 20
9.40610938
  0
VERTEX
  8
0
 62
7
 10
4.46226563
 20
9.37256055
  0
VERTEX
  8
0
 62
7
 10
4.39900000
 20
9.33600000
  0
VERTEX
  8
0
 62
7
 10
4.44325000
 20
9.46420312
  0
VERTEX
  8
0
 62
7
 10
4.48450000
 20
9.59587500
  0
VERTEX
  8
0
 62
7
 10
4.52050000
 20
9.73635937
  0
VERTEX
  8
0
 62
7
 10
4.54900000
 20
9.89100000
  0
VERTEX
  8
0
 62
7
 10
4.56340625
 20
9.98867188
  0
VERTEX
  8
0
 62
7
 10
4.58025000
 20
10.07462500
  0
VERTEX
  8
0
 62
7
 10
4.60046875
 20
10.14876563
  0
VERTEX
  8
0
 62
7
 10
4.62500000
 20
10.21100000
  0
VERTEX
  8
0
 62
7
 10
4.65118750
 20
10.17009375
  0
VERTEX
  8
0
 62
7
 10
4.67400000
 20
10.12675000
  0
VERTEX
  8
0
 62
7
 10
4.69081250
 20
10.08078125
  0
VERTEX
  8
0
 62
7
 10
4.69900000
 20
10.03200000
  0
VERTEX
  8
0
 62
7
 10
4.70446875
 20
10.00219922
  0
VERTEX
  8
0
 62
7
 10
4.71687500
 20
9.97771875
  0
VERTEX
  8
0
 62
7
 10
4.73471875
 20
9.95919141
  0
VERTEX
  8
0
 62
7
 10
4.75650000
 20
9.94725000
  0
VERTEX
  8
0
 62
7
 10
4.78071875
 20
9.94252734
  0
VERTEX
  8
0
 62
7
 10
4.80587500
 20
9.94565625
  0
VERTEX
  8
0
 62
7
 10
4.83046875
 20
9.95726953
  0
VERTEX
  8
0
 62
7
 10
4.85300000
 20
9.97800000
  0
VERTEX
  8
0
 62
7
 10
4.89532031
 20
10.03147461
  0
VERTEX
  8
0
 62
7
 10
4.93131250
 20
10.08798438
  0
VERTEX
  8
0
 62
7
 10
4.95952344
 20
10.14690820
  0
VERTEX
  8
0
 62
7
 10
4.97850000
 20
10.20762500
  0
VERTEX
  8
0
 62
7
 10
4.98678906
 20
10.26951367
  0
VERTEX
  8
0
 62
7
 10
4.98293750
 20
10.33195313
  0
VERTEX
  8
0
 62
7
 10
4.96549219
 20
10.39432227
  0
VERTEX
  8
0
 62
7
 10
4.93300000
 20
10.45600000
  0
VERTEX
  8
0
 62
7
 10
4.91538525
 20
10.48107373
  0
VERTEX
  8
0
 62
7
 10
4.89633203
 20
10.50523047
  0
VERTEX
  8
0
 62
7
 10
4.87590186
 20
10.52837354
  0
VERTEX
  8
0
 62
7
 10
4.85415625
 20
10.55040625
  0
VERTEX
  8
0
 62
7
 10
4.83115674
 20
10.57123193
  0
VERTEX
  8
0
 62
7
 10
4.80696484
 20
10.59075391
  0
VERTEX
  8
0
 62
7
 10
4.78164209
 20
10.60887549
  0
VERTEX
  8
0
 62
7
 10
4.75525000
 20
10.62550000
  0
VERTEX
  8
0
 62
7
 10
4.72785010
 20
10.64053076
  0
VERTEX
  8
0
 62
7
 10
4.69950391
 20
10.65387109
  0
VERTEX
  8
0
 62
7
 10
4.67027295
 20
10.66542432
  0
VERTEX
  8
0
 62
7
 10
4.64021875
 20
10.67509375
  0
VERTEX
  8
0
 62
7
 10
4.60940283
 20
10.68278271
  0
VERTEX
  8
0
 62
7
 10
4.57788672
 20
10.68839453
  0
VERTEX
  8
0
 62
7
 10
4.54573193
 20
10.69183252
  0
VERTEX
  8
0
 62
7
 10
4.51300000
 20
10.69300000
  0
VERTEX
  8
0
 62
7
 10
4.46000000
 20
10.68900000
  0
VERTEX
  8
0
 62
7
 10
4.40100000
 20
10.67600000
  0
VERTEX
  8
0
 62
7
 10
4.36125000
 20
10.70512500
  0
VERTEX
  8
0
 62
7
 10
4.32300000
 20
10.72300000
  0
VERTEX
  8
0
 62
7
 10
4.27468750
 20
10.73520313
  0
VERTEX
  8
0
 62
7
 10
4.22600000
 20
10.74037500
  0
VERTEX
  8
0
 62
7
 10
4.17731250
 20
10.74085938
  0
VERTEX
  8
0
 62
7
 10
4.12900000
 20
10.73900000
  0
VERTEX
  8
0
 62
7
 10
4.07415625
 20
10.73395313
  0
VERTEX
  8
0
 62
7
 10
4.02325000
 20
10.72337500
  0
VERTEX
  8
0
 62
7
 10
3.97571875
 20
10.70735938
  0
VERTEX
  8
0
 62
7
 10
3.93100000
 20
10.68600000
  0
VERTEX
  8
0
 62
7
 10
3.93100000
 20
10.72000000
  0
VERTEX
  8
0
 62
7
 10
3.92478125
 20
10.86209375
  0
VERTEX
  8
0
 62
7
 10
3.90675000
 20
11.02650000
  0
VERTEX
  8
0
 62
7
 10
3.87784375
 20
11.20065625
  0
VERTEX
  8
0
 62
7
 10
3.83900000
 20
11.37200000
  0
VERTEX
  8
0
 62
7
 10
3.83900000
 20
14.13900000
  0
VERTEX
  8
0
 62
7
 10
3.83900000
 20
14.13900000
  0
VERTEX
  8
0
 62
7
 10
4.27901025
 20
14.15902588
  0
VERTEX
  8
0
 62
7
 10
4.71776953
 20
14.18122266
  0
VERTEX
  8
0
 62
7
 10
5.15524561
 20
14.20558154
  0
VERTEX
  8
0
 62
7
 10
5.59140625
 20
14.23209375
  0
VERTEX
  8
0
 62
7
 10
6.02621924
 20
14.26075049
  0
VERTEX
  8
0
 62
7
 10
6.45965234
 20
14.29154297
  0
VERTEX
  8
0
 62
7
 10
6.89167334
 20
14.32446240
  0
VERTEX
  8
0
 62
7
 10
7.32225000
 20
14.35950000
  0
VERTEX
  8
0
 62
7
 10
7.75135010
 20
14.39664697
  0
VERTEX
  8
0
 62
7
 10
8.17894141
 20
14.43589453
  0
VERTEX
  8
0
 62
7
 10
8.60499170
 20
14.47723389
  0
VERTEX
  8
0
 62
7
 10
9.02946875
 20
14.52065625
  0
VERTEX
  8
0
 62
7
 10
9.45234033
 20
14.56615283
  0
VERTEX
  8
0
 62
7
 10
9.87357422
 20
14.61371484
  0
VERTEX
  8
0
 62
7
 10
10.29313818
 20
14.66333350
  0
VERTEX
  8
0
 62
7
 10
10.71100000
 20
14.71500000
  0
VERTEX
  8
0
 62
7
 10
11.32619629
 20
14.78986206
  0
VERTEX
  8
0
 62
7
 10
11.94613281
 20
14.86028711
  0
VERTEX
  8
0
 62
7
 10
12.57058105
 20
14.92622095
  0
VERTEX
  8
0
 62
7
 10
13.19931250
 20
14.98760938
  0
VERTEX
  8
0
 62
7
 10
13.83209863
 20
15.04439819
  0
VERTEX
  8
0
 62
7
 10
14.46871094
 20
15.09653320
  0
VERTEX
  8
0
 62
7
 10
15.10892090
 20
15.14396021
  0
VERTEX
  8
0
 62
7
 10
15.75250000
 20
15.18662500
  0
VERTEX
  8
0
 62
7
 10
16.39921973
 20
15.22447339
  0
VERTEX
  8
0
 62
7
 10
17.04885156
 20
15.25745117
  0
VERTEX
  8
0
 62
7
 10
17.70116699
 20
15.28550415
  0
VERTEX
  8
0
 62
7
 10
18.35593750
 20
15.30857813
  0
VERTEX
  8
0
 62
7
 10
19.01293457
 20
15.32661890
  0
VERTEX
  8
0
 62
7
 10
19.67192969
 20
15.33957227
  0
VERTEX
  8
0
 62
7
 10
20.33269434
 20
15.34738403
  0
VERTEX
  8
0
 62
7
 10
20.99500000
 20
15.35000000
  0
VERTEX
  8
0
 62
7
 10
21.65777002
 20
15.34738403
  0
VERTEX
  8
0
 62
7
 10
22.31916016
 20
15.33957227
  0
VERTEX
  8
0
 62
7
 10
22.97891553
 20
15.32661890
  0
VERTEX
  8
0
 62
7
 10
23.63678125
 20
15.30857813
  0
VERTEX
  8
0
 62
7
 10
24.29250244
 20
15.28550415
  0
VERTEX
  8
0
 62
7
 10
24.94582422
 20
15.25745117
  0
VERTEX
  8
0
 62
7
 10
25.59649170
 20
15.22447339
  0
VERTEX
  8
0
 62
7
 10
26.24425000
 20
15.18662500
  0
VERTEX
  8
0
 62
7
 10
26.88884424
 20
15.14396021
  0
VERTEX
  8
0
 62
7
 10
27.53001953
 20
15.09653320
  0
VERTEX
  8
0
 62
7
 10
28.16752100
 20
15.04439819
  0
VERTEX
  8
0
 62
7
 10
28.80109375
 20
14.98760938
  0
VERTEX
  8
0
 62
7
 10
29.43048291
 20
14.92622095
  0
VERTEX
  8
0
 62
7
 10
30.05543359
 20
14.86028711
  0
VERTEX
  8
0
 62
7
 10
30.67569092
 20
14.78986206
  0
VERTEX
  8
0
 62
7
 10
31.29100000
 20
14.71500000
  0
VERTEX
  8
0
 62
7
 10
31.70853223
 20
14.66333350
  0
VERTEX
  8
0
 62
7
 10
32.12785156
 20
14.61371484
  0
VERTEX
  8
0
 62
7
 10
32.54891699
 20
14.56615283
  0
VERTEX
  8
0
 62
7
 10
32.97168750
 20
14.52065625
  0
VERTEX
  8
0
 62
7
 10
33.39612207
 20
14.47723389
  0
VERTEX
  8
0
 62
7
 10
33.82217969
 20
14.43589453
  0
VERTEX
  8
0
 62
7
 10
34.24981934
 20
14.39664697
  0
VERTEX
  8
0
 62
7
 10
34.67900000
 20
14.35950000
  0
VERTEX
  8
0
 62
7
 10
35.10968066
 20
14.32446240
  0
VERTEX
  8
0
 62
7
 10
35.54182031
 20
14.29154297
  0
VERTEX
  8
0
 62
7
 10
35.97537793
 20
14.26075049
  0
VERTEX
  8
0
 62
7
 10
36.41031250
 20
14.23209375
  0
VERTEX
  8
0
 62
7
 10
36.84658301
 20
14.20558154
  0
VERTEX
  8
0
 62
7
 10
37.28414844
 20
14.18122266
  0
VERTEX
  8
0
 62
7
 10
37.72296777
 20
14.15902588
  0
VERTEX
  8
0
 62
7
 10
38.16300000
 20
14.13900000
  0
VERTEX
  8
0
 62
7
 10
38.16300000
 20
14.13900000
  0
VERTEX
  8
0
 62
7
 10
38.16300000
 20
11.37200000
  0
VERTEX
  8
0
 62
7
 10
38.12384375
 20
11.20065625
  0
VERTEX
  8
0
 62
7
 10
38.09425000
 20
11.02650000
  0
VERTEX
  8
0
 62
7
 10
38.07553125
 20
10.86209375
  0
VERTEX
  8
0
 62
7
 10
38.06900000
 20
10.72000000
  0
VERTEX
  8
0
 62
7
 10
38.06900000
 20
10.68600000
  0
VERTEX
  8
0
 62
7
 10
38.02428125
 20
10.70735938
  0
VERTEX
  8
0
 62
7
 10
37.97675000
 20
10.72337500
  0
VERTEX
  8
0
 62
7
 10
37.92584375
 20
10.73395313
  0
VERTEX
  8
0
 62
7
 10
37.87100000
 20
10.73900000
  0
VERTEX
  8
0
 62
7
 10
37.82300000
 20
10.74085938
  0
VERTEX
  8
0
 62
7
 10
37.77500000
 20
10.74037500
  0
VERTEX
  8
0
 62
7
 10
37.72700000
 20
10.73520313
  0
VERTEX
  8
0
 62
7
 10
37.67900000
 20
10.72300000
  0
VERTEX
  8
0
 62
7
 10
37.64050000
 20
10.70512500
  0
VERTEX
  8
0
 62
7
 10
37.59900000
 20
10.67600000
  0
VERTEX
  8
0
 62
7
 10
37.54100000
 20
10.68900000
  0
VERTEX
  8
0
 62
7
 10
37.48900000
 20
10.69300000
  0
VERTEX
  8
0
 62
7
 10
37.45626807
 20
10.69183252
  0
VERTEX
  8
0
 62
7
 10
37.42411328
 20
10.68839453
  0
VERTEX
  8
0
 62
7
 10
37.39259717
 20
10.68278271
  0
VERTEX
  8
0
 62
7
 10
37.36178125
 20
10.67509375
  0
VERTEX
  8
0
 62
7
 10
37.33172705
 20
10.66542432
  0
VERTEX
  8
0
 62
7
 10
37.30249609
 20
10.65387109
  0
VERTEX
  8
0
 62
7
 10
37.27414990
 20
10.64053076
  0
VERTEX
  8
0
 62
7
 10
37.24675000
 20
10.62550000
  0
VERTEX
  8
0
 62
7
 10
37.22035791
 20
10.60887549
  0
VERTEX
  8
0
 62
7
 10
37.19503516
 20
10.59075391
  0
VERTEX
  8
0
 62
7
 10
37.17084326
 20
10.57123193
  0
VERTEX
  8
0
 62
7
 10
37.14784375
 20
10.55040625
  0
VERTEX
  8
0
 62
7
 10
37.12609814
 20
10.52837354
  0
VERTEX
  8
0
 62
7
 10
37.10566797
 20
10.50523047
  0
VERTEX
  8
0
 62
7
 10
37.08661475
 20
10.48107373
  0
VERTEX
  8
0
 62
7
 10
37.06900000
 20
10.45600000
  0
VERTEX
  8
0
 62
7
 10
37.03650391
 20
10.39432227
  0
VERTEX
  8
0
 62
7
 10
37.01903125
 20
10.33195313
  0
VERTEX
  8
0
 62
7
 10
37.01510547
 20
10.26951367
  0
VERTEX
  8
0
 62
7
 10
37.02325000
 20
10.20762500
  0
VERTEX
  8
0
 62
7
 10
37.04198828
 20
10.14690820
  0
VERTEX
  8
0
 62
7
 10
37.06984375
 20
10.08798438
  0
VERTEX
  8
0
 62
7
 10
37.10533984
 20
10.03147461
  0
VERTEX
  8
0
 62
7
 10
37.14700000
 20
9.97800000
  0
VERTEX
  8
0
 62
7
 10
37.17010547
 20
9.95726953
  0
VERTEX
  8
0
 62
7
 10
37.19496875
 20
9.94565625
  0
VERTEX
  8
0
 62
7
 10
37.22016016
 20
9.94252734
  0
VERTEX
  8
0
 62
7
 10
37.24425000
 20
9.94725000
  0
VERTEX
  8
0
 62
7
 10
37.26580859
 20
9.95919141
  0
VERTEX
  8
0
 62
7
 10
37.28340625
 20
9.97771875
  0
VERTEX
  8
0
 62
7
 10
37.29561328
 20
10.00219922
  0
VERTEX
  8
0
 62
7
 10
37.30100000
 20
10.03200000
  0
VERTEX
  8
0
 62
7
 10
37.30950000
 20
10.08078125
  0
VERTEX
  8
0
 62
7
 10
37.32700000
 20
10.12675000
  0
VERTEX
  8
0
 62
7
 10
37.35050000
 20
10.17009375
  0
VERTEX
  8
0
 62
7
 10
37.37700000
 20
10.21100000
  0
VERTEX
  8
0
 62
7
 10
37.40153125
 20
10.14876563
  0
VERTEX
  8
0
 62
7
 10
37.42175000
 20
10.07462500
  0
VERTEX
  8
0
 62
7
 10
37.43859375
 20
9.98867188
  0
VERTEX
  8
0
 62
7
 10
37.45300000
 20
9.89100000
  0
VERTEX
  8
0
 62
7
 10
37.48121875
 20
9.73635937
  0
VERTEX
  8
0
 62
7
 10
37.51675000
 20
9.59587500
  0
VERTEX
  8
0
 62
7
 10
37.55790625
 20
9.46420312
  0
VERTEX
  8
0
 62
7
 10
37.60300000
 20
9.33600000
  0
VERTEX
  8
0
 62
7
 10
37.53973047
 20
9.37256055
  0
VERTEX
  8
0
 62
7
 10
37.47634375
 20
9.40610938
  0
VERTEX
  8
0
 62
7
 10
37.41347266
 20
9.43607227
  0
VERTEX
  8
0
 62
7
 10
37.35175000
 20
9.46187500
  0
VERTEX
  8
0
 62
7
 10
37.29180859
 20
9.48294336
  0
VERTEX
  8
0
 62
7
 10
37.23428125
 20
9.49870313
  0
VERTEX
  8
0
 62
7
 10
37.17980078
 20
9.50858008
  0
VERTEX
  8
0
 62
7
 10
37.12900000
 20
9.51200000
  0
VERTEX
  8
0
 62
7
 10
37.12300000
 20
9.51200000
  0
VERTEX
  8
0
 62
7
 10
37.07491162
 20
9.50941846
  0
VERTEX
  8
0
 62
7
 10
37.03032422
 20
9.50367578
  0
VERTEX
  8
0
 62
7
 10
36.98912939
 20
9.49496240
  0
VERTEX
  8
0
 62
7
 10
36.95121875
 20
9.48346875
  0
VERTEX
  8
0
 62
7
 10
36.91648389
 20
9.46938525
  0
VERTEX
  8
0
 62
7
 10
36.88481641
 20
9.45290234
  0
VERTEX
  8
0
 62
7
 10
36.85610791
 20
9.43421045
  0
VERTEX
  8
0
 62
7
 10
36.83025000
 20
9.41350000
  0
VERTEX
  8
0
 62
7
 10
36.80713428
 20
9.39096143
  0
VERTEX
  8
0
 62
7
 10
36.78665234
 20
9.36678516
  0
VERTEX
  8
0
 62
7
 10
36.76869580
 20
9.34116162
  0
VERTEX
  8
0
 62
7
 10
36.75315625
 20
9.31428125
  0
VERTEX
  8
0
 62
7
 10
36.73992529
 20
9.28633447
  0
VERTEX
  8
0
 62
7
 10
36.72889453
 20
9.25751172
  0
VERTEX
  8
0
 62
7
 10
36.71995557
 20
9.22800342
  0
VERTEX
  8
0
 62
7
 10
36.71300000
 20
9.19800000
  0
VERTEX
  8
0
 62
7
 10
36.67900000
 20
9.18725000
  0
VERTEX
  8
0
 62
7
 10
36.64500000
 20
9.17200000
  0
VERTEX
  8
0
 62
7
 10
5.35500000
 20
9.17200000
  0
SEQEND
  0
POLYLINE
  8
0
 62
7
 66
1
 70
1
  0
VERTEX
  8
0
 62
7
 10
36.50100000
 20
9.02200000
  0
VERTEX
  8
0
 62
7
 10
36.47159375
 20
8.95292187
  0
VERTEX
  8
0
 62
7
 10
36.45175000
 20
8.88112500
  0
VERTEX
  8
0
 62
7
 10
36.44053125
 20
8.80951563
  0
VERTEX
  8
0
 62
7
 10
36.43700000
 20
8.74100000
  0
VERTEX
  8
0
 62
7
 10
36.43828125
 20
8.69595313
  0
VERTEX
  8
0
 62
7
 10
36.44275000
 20
8.65137500
  0
VERTEX
  8
0
 62
7
 10
36.45134375
 20
8.60810938
  0
VERTEX
  8
0
 62
7
 10
36.46500000
 20
8.56700000
  0
VERTEX
  8
0
 62
7
 10
36.49200000
 20
8.51096875
  0
VERTEX
  8
0
 62
7
 10
36.52950000
 20
8.46225000
  0
VERTEX
  8
0
 62
7
 10
36.57525000
 20
8.41990625
  0
VERTEX
  8
0
 62
7
 10
36.62700000
 20
8.38300000
  0
VERTEX
  8
0
 62
7
 10
36.67821875
 20
8.35443750
  0
VERTEX
  8
0
 62
7
 10
36.73075000
 20
8.33450000
  0
VERTEX
  8
0
 62
7
 10
36.78590625
 20
8.32281250
  0
VERTEX
  8
0
 62
7
 10
36.84500000
 20
8.31900000
  0
VERTEX
  8
0
 62
7
 10
36.87800000
 20
8.32050000
  0
VERTEX
  8
0
 62
7
 10
36.90500000
 20
8.32500000
  0
VERTEX
  8
0
 62
7
 10
36.93380469
 20
8.33575391
  0
VERTEX
  8
0
 62
7
 10
36.95693750
 20
8.35028125
  0
VERTEX
  8
0
 62
7
 10
36.97397656
 20
8.36785547
  0
VERTEX
  8
0
 62
7
 10
36.98450000
 20
8.38775000
  0
VERTEX
  8
0
 62
7
 10
36.98808594
 20
8.40923828
  0
VERTEX
  8
0
 62
7
 10
36.98431250
 20
8.43159375
  0
VERTEX
  8
0
 62
7
 10
36.97275781
 20
8.45408984
  0
VERTEX
  8
0
 62
7
 10
36.95300000
 20
8.47600000
  0
VERTEX
  8
0
 62
7
 10
36.93275000
 20
8.49950000
  0
VERTEX
  8
0
 62
7
 10
36.92300000
 20
8.52300000
  0
VERTEX
  8
0
 62
7
 10
36.92100000
 20
8.55600000
  0
VERTEX
  8
0
 62
7
 10
36.92350000
 20
8.58200000
  0
VERTEX
  8
0
 62
7
 10
36.93500000
 20
8.60500000
  0
VERTEX
  8
0
 62
7
 10
36.94900000
 20
8.62600000
  0
VERTEX
  8
0
 62
7
 10
36.97593750
 20
8.61565625
  0
VERTEX
  8
0
 62
7
 10
37.00250000
 20
8.60100000
  0
VERTEX
  8
0
 62
7
 10
37.02831250
 20
8.58184375
  0
VERTEX
  8
0
 62
7
 10
37.05300000
 20
8.55800000
  0
VERTEX
  8
0
 62
7
 10
37.24375000
 20
8.36850000
  0
VERTEX
  8
0
 62
7
 10
37.39100000
 20
8.23900000
  0
VERTEX
  8
0
 62
7
 10
37.34156250
 20
8.13996875
  0
VERTEX
  8
0
 62
7
 10
37.31350000
 20
8.08950000
  0
VERTEX
  8
0
 62
7
 10
37.29368750
 20
8.06378125
  0
VERTEX
  8
0
 62
7
 10
37.26900000
 20
8.03900000
  0
VERTEX
  8
0
 62
7
 10
37.21900000
 20
7.99400000
  0
VERTEX
  8
0
 62
7
 10
37.19910156
 20
7.97312891
  0
VERTEX
  8
0
 62
7
 10
37.17906250
 20
7.95059375
  0
VERTEX
  8
0
 62
7
 10
37.15986719
 20
7.92576172
  0
VERTEX
  8
0
 62
7
 10
37.14250000
 20
7.89800000
  0
VERTEX
  8
0
 62
7
 10
37.12794531
 20
7.86667578
  0
VERTEX
  8
0
 62
7
 10
37.11718750
 20
7.83115625
  0
VERTEX
  8
0
 62
7
 10
37.11121094
 20
7.79080859
  0
VERTEX
  8
0
 62
7
 10
37.11100000
 20
7.74500000
  0
VERTEX
  8
0
 62
7
 10
37.11300000
 20
7.68400000
  0
VERTEX
  8
0
 62
7
 10
37.17100000
 20
7.66500000
  0
VERTEX
  8
0
 62
7
 10
37.17500000
 20
7.60600000
  0
VERTEX
  8
0
 62
7
 10
37.11300000
 20
7.58700000
  0
VERTEX
  8
0
 62
7
 10
37.11100000
 20
7.52500000
  0
VERTEX
  8
0
 62
7
 10
37.11121094
 20
7.47951953
  0
VERTEX
  8
0
 62
7
 10
37.11718750
 20
7.43940625
  0
VERTEX
  8
0
 62
7
 10
37.12794531
 20
7.40402734
  0
VERTEX
  8
0
 62
7
 10
37.14250000
 20
7.37275000
  0
VERTEX
  8
0
 62
7
 10
37.15986719
 20
7.34494141
  0
VERTEX
  8
0
 62
7
 10
37.17906250
 20
7.31996875
  0
VERTEX
  8
0
 62
7
 10
37.19910156
 20
7.29719922
  0
VERTEX
  8
0
 62
7
 10
37.21900000
 20
7.27600000
  0
VERTEX
  8
0
 62
7
 10
37.26656250
 20
7.22332813
  0
VERTEX
  8
0
 62
7
 10
37.31150000
 20
7.16812500
  0
VERTEX
  8
0
 62
7
 10
37.35118750
 20
7.10935938
  0
VERTEX
  8
0
 62
7
 10
37.38300000
 20
7.04600000
  0
VERTEX
  8
0
 62
7
 10
37.40925000
 20
6.99425000
  0
VERTEX
  8
0
 62
7
 10
37.44300000
 20
6.93800000
  0
VERTEX
  8
0
 62
7
 10
37.47300000
 20
6.90500000
  0
VERTEX
  8
0
 62
7
 10
37.50160547
 20
6.88014844
  0
VERTEX
  8
0
 62
7
 10
37.53159375
 20
6.86068750
  0
VERTEX
  8
0
 62
7
 10
37.56247266
 20
6.84600781
  0
VERTEX
  8
0
 62
7
 10
37.59375000
 20
6.83550000
  0
VERTEX
  8
0
 62
7
 10
37.62493359
 20
6.82855469
  0
VERTEX
  8
0
 62
7
 10
37.65553125
 20
6.82456250
  0
VERTEX
  8
0
 62
7
 10
37.68505078
 20
6.82291406
  0
VERTEX
  8
0
 62
7
 10
37.71300000
 20
6.82300000
  0
VERTEX
  8
0
 62
7
 10
37.74487500
 20
6.82518750
  0
VERTEX
  8
0
 62
7
 10
37.77450000
 20
6.83000000
  0
VERTEX
  8
0
 62
7
 10
37.80187500
 20
6.83706250
  0
VERTEX
  8
0
 62
7
 10
37.82700000
 20
6.84600000
  0
VERTEX
  8
0
 62
7
 10
37.81325000
 20
6.78987500
  0
VERTEX
  8
0
 62
7
 10
37.80700000
 20
6.72700000
  0
VERTEX
  8
0
 62
7
 10
37.80700000
 20
6.68700000
  0
VERTEX
  8
0
 62
7
 10
37.77935547
 20
6.70268555
  0
VERTEX
  8
0
 62
7
 10
37.75046875
 20
6.71667188
  0
VERTEX
  8
0
 62
7
 10
37.72041016
 20
6.72885352
  0
VERTEX
  8
0
 62
7
 10
37.68925000
 20
6.73912500
  0
VERTEX
  8
0
 62
7
 10
37.65705859
 20
6.74738086
  0
VERTEX
  8
0
 62
7
 10
37.62390625
 20
6.75351563
  0
VERTEX
  8
0
 62
7
 10
37.58986328
 20
6.75742383
  0
VERTEX
  8
0
 62
7
 10
37.55500000
 20
6.75900000
  0
VERTEX
  8
0
 62
7
 10
37.50588281
 20
6.75569336
  0
VERTEX
  8
0
 62
7
 10
37.45793750
 20
6.74604688
  0
VERTEX
  8
0
 62
7
 10
37.41177344
 20
6.73047070
  0
VERTEX
  8
0
 62
7
 10
37.36800000
 20
6.70937500
  0
VERTEX
  8
0
 62
7
 10
37.32722656
 20
6.68316992
  0
VERTEX
  8
0
 62
7
 10
37.29006250
 20
6.65226563
  0
VERTEX
  8
0
 62
7
 10
37.25711719
 20
6.61707227
  0
VERTEX
  8
0
 62
7
 10
37.22900000
 20
6.57800000
  0
VERTEX
  8
0
 62
7
 10
37.18800000
 20
6.58337500
  0
VERTEX
  8
0
 62
7
 10
37.14700000
 20
6.58500000
  0
VERTEX
  8
0
 62
7
 10
37.10700000
 20
6.58400000
  0
VERTEX
  8
0
 62
7
 10
37.06141797
 20
6.57814453
  0
VERTEX
  8
0
 62
7
 10
37.01909375
 20
6.56828125
  0
VERTEX
  8
0
 62
7
 10
36.97991016
 20
6.55471484
  0
VERTEX
  8
0
 62
7
 10
36.94375000
 20
6.53775000
  0
VERTEX
  8
0
 62
7
 10
36.91049609
 20
6.51769141
  0
VERTEX
  8
0
 62
7
 10
36.88003125
 20
6.49484375
  0
VERTEX
  8
0
 62
7
 10
36.85223828
 20
6.46951172
  0
VERTEX
  8
0
 62
7
 10
36.82700000
 20
6.44200000
  0
VERTEX
  8
0
 62
7
 10
36.78528125
 20
6.38010938
  0
VERTEX
  8
0
 62
7
 10
36.75125000
 20
6.31212500
  0
VERTEX
  8
0
 62
7
 10
36.72659375
 20
6.24132813
  0
VERTEX
  8
0
 62
7
 10
36.71300000
 20
6.17100000
  0
VERTEX
  8
0
 62
7
 10
36.71158594
 20
6.14109375
  0
VERTEX
  8
0
 62
7
 10
36.71331250
 20
6.10893750
  0
VERTEX
  8
0
 62
7
 10
36.71813281
 20
6.07537500
  0
VERTEX
  8
0
 62
7
 10
36.72600000
 20
6.04125000
  0
VERTEX
  8
0
 62
7
 10
36.73686719
 20
6.00740625
  0
VERTEX
  8
0
 62
7
 10
36.75068750
 20
5.97468750
  0
VERTEX
  8
0
 62
7
 10
36.76741406
 20
5.94393750
  0
VERTEX
  8
0
 62
7
 10
36.78700000
 20
5.91600000
  0
VERTEX
  8
0
 62
7
 10
36.81950000
 20
5.87926563
  0
VERTEX
  8
0
 62
7
 10
36.85650000
 20
5.84712500
  0
VERTEX
  8
0
 62
7
 10
36.89725000
 20
5.81967188
  0
VERTEX
  8
0
 62
7
 10
36.94100000
 20
5.79700000
  0
VERTEX
  8
0
 62
7
 10
36.96855469
 20
5.78866406
  0
VERTEX
  8
0
 62
7
 10
36.99381250
 20
5.78787500
  0
VERTEX
  8
0
 62
7
 10
37.01616406
 20
5.79383594
  0
VERTEX
  8
0
 62
7
 10
37.03500000
 20
5.80575000
  0
VERTEX
  8
0
 62
7
 10
37.04971094
 20
5.82282031
  0
VERTEX
  8
0
 62
7
 10
37.05968750
 20
5.84425000
  0
VERTEX
  8
0
 62
7
 10
37.06432031
 20
5.86924219
  0
VERTEX
  8
0
 62
7
 10
37.06300000
 20
5.89700000
  0
VERTEX
  8
0
 62
7
 10
37.06416406
 20
5.91390039
  0
VERTEX
  8
0
 62
7
 10
37.06856250
 20
5.93076563
  0
VERTEX
  8
0
 62
7
 10
37.07530469
 20
5.94634180
  0
VERTEX
  8
0
 62
7
 10
37.08350000
 20
5.95937500
  0
VERTEX
  8
0
 62
7
 10
37.09225781
 20
5.96861133
  0
VERTEX
  8
0
 62
7
 10
37.10068750
 20
5.97279688
  0
VERTEX
  8
0
 62
7
 10
37.10789844
 20
5.97067773
  0
VERTEX
  8
0
 62
7
 10
37.11300000
 20
5.96100000
  0
VERTEX
  8
0
 62
7
 10
37.13800000
 20
5.90262500
  0
VERTEX
  8
0
 62
7
 10
37.15700000
 20
5.84500000
  0
VERTEX
  8
0
 62
7
 10
37.19503516
 20
5.71555664
  0
VERTEX
  8
0
 62
7
 10
37.24415625
 20
5.59601563
  0
VERTEX
  8
0
 62
7
 10
37.30363672
 20
5.48568555
  0
VERTEX
  8
0
 62
7
 10
37.37275000
 20
5.38387500
  0
VERTEX
  8
0
 62
7
 10
37.45076953
 20
5.28989258
  0
VERTEX
  8
0
 62
7
 10
37.53696875
 20
5.20304688
  0
VERTEX
  8
0
 62
7
 10
37.63062109
 20
5.12264648
  0
VERTEX
  8
0
 62
7
 10
37.73100000
 20
5.04800000
  0
VERTEX
  8
0
 62
7
 10
37.78812500
 20
5.01312500
  0
VERTEX
  8
0
 62
7
 10
37.84450000
 20
4.98650000
  0
VERTEX
  8
0
 62
7
 10
37.89862500
 20
4.96587500
  0
VERTEX
  8
0
 62
7
 10
37.94900000
 20
4.94900000
  0
VERTEX
  8
0
 62
7
 10
38.00125000
 20
4.93212500
  0
VERTEX
  8
0
 62
7
 10
38.05350000
 20
4.91300000
  0
VERTEX
  8
0
 62
7
 10
38.10650000
 20
4.88937500
  0
VERTEX
  8
0
 62
7
 10
38.16100000
 20
4.85900000
  0
VERTEX
  8
0
 62
7
 10
38.16100000
 20
2.81400000
  0
VERTEX
  8
0
 62
7
 10
38.42700000
 20
2.81400000
  0
VERTEX
  8
0
 62
7
 10
38.42700000
 20
2.08800000
  0
VERTEX
  8
0
 62
7
 10
38.87700000
 20
2.08800000
  0
VERTEX
  8
0
 62
7
 10
38.87700000
 20
2.81400000
  0
VERTEX
  8
0
 62
7
 10
39.14500000
 20
2.81400000
  0
VERTEX
  8
0
 62
7
 10
39.14500000
 20
3.91800000
  0
VERTEX
  8
0
 62
7
 10
39.17975000
 20
3.90262500
  0
VERTEX
  8
0
 62
7
 10
39.21900000
 20
3.89100000
  0
VERTEX
  8
0
 62
7
 10
39.26575000
 20
3.88325000
  0
VERTEX
  8
0
 62
7
 10
39.31700000
 20
3.88000000
  0
VERTEX
  8
0
 62
7
 10
39.35249609
 20
3.88153906
  0
VERTEX
  8
0
 62
7
 10
39.38946875
 20
3.88650000
  0
VERTEX
  8
0
 62
7
 10
39.42714453
 20
3.89539844
  0
VERTEX
  8
0
 62
7
 10
39.46475000
 20
3.90875000
  0
VERTEX
  8
0
 62
7
 10
39.50151172
 20
3.92707031
  0
VERTEX
  8
0
 62
7
 10
39.53665625
 20
3.95087500
  0
VERTEX
  8
0
 62
7
 10
39.56941016
 20
3.98067969
  0
VERTEX
  8
0
 62
7
 10
39.59900000
 20
4.01700000
  0
VERTEX
  8
0
 62
7
 10
39.62956250
 20
4.06428125
  0
VERTEX
  8
0
 62
7
 10
39.65000000
 20
4.11400000
  0
VERTEX
  8
0
 62
7
 10
39.66143750
 20
4.16521875
  0
VERTEX
  8
0
 62
7
 10
39.66500000
 20
4.21700000
  0
VERTEX
  8
0
 62
7
 10
39.66130469
 20
4.26725781
  0
VERTEX
  8
0
 62
7
 10
39.65043750
 20
4.31625000
  0
VERTEX
  8
0
 62
7
 10
39.63272656
 20
4.36317969
  0
VERTEX
  8
0
 62
7
 10
39.60850000
 20
4.40725000
  0
VERTEX
  8
0
 62
7
 10
39.57808594
 20
4.44766406
  0
VERTEX
  8
0
 62
7
 10
39.54181250
 20
4.48362500
  0
VERTEX
  8
0
 62
7
 10
39.50000781
 20
4.51433594
  0
VERTEX
  8
0
 62
7
 10
39.45300000
 20
4.53900000
  0
VERTEX
  8
0
 62
7
 10
39.41903125
 20
4.55154688
  0
VERTEX
  8
0
 62
7
 10
39.38375000
 20
4.56062500
  0
VERTEX
  8
0
 62
7
 10
39.34809375
 20
4.56614063
  0
VERTEX
  8
0
 62
7
 10
39.31300000
 20
4.56800000
  0
VERTEX
  8
0
 62
7
 10
39.26959375
 20
4.56523438
  0
VERTEX
  8
0
 62
7
 10
39.22675000
 20
4.55712500
  0
VERTEX
  8
0
 62
7
 10
39.18503125
 20
4.54395313
  0
VERTEX
  8
0
 62
7
 10
39.14500000
 20
4.52600000
  0
VERTEX
  8
0
 62
7
 10
39.14500000
 20
4.94500000
  0
VERTEX
  8
0
 62
7
 10
39.21300000
 20
4.97600000
  0
VERTEX
  8
0
 62
7
 10
39.26831250
 20
5.00117188
  0
VERTEX
  8
0
 62
7
 10
39.32700000
 20
5.03112500
  0
VERTEX
  8
0
 62
7
 10
39.39018750
 20
5.06951563
  0
VERTEX
  8
0
 62
7
 10
39.45900000
 20
5.12000000
  0
VERTEX
  8
0
 62
7
 10
39.52056006
 20
5.17019189
  0
VERTEX
  8
0
 62
7
 10
39.57854297
 20
5.22322266
  0
VERTEX
  8
0
 62
7
 10
39.63302783
 20
5.27902490
  0
VERTEX
  8
0
 62
7
 10
39.68409375
 20
5.33753125
  0
VERTEX
  8
0
 62
7
 10
39.73181982
 20
5.39867432
  0
VERTEX
  8
0
 62
7
 10
39.77628516
 20
5.46238672
  0
VERTEX
  8
0
 62
7
 10
39.81756885
 20
5.52860107
  0
VERTEX
  8
0
 62
7
 10
39.85575000
 20
5.59725000
  0
VERTEX
  8
0
 62
7
 10
39.89090771
 20
5.66826611
  0
VERTEX
  8
0
 62
7
 10
39.92312109
 20
5.74158203
  0
VERTEX
  8
0
 62
7
 10
39.95246924
 20
5.81713037
  0
VERTEX
  8
0
 62
7
 10
39.97903125
 20
5.89484375
  0
VERTEX
  8
0
 62
7
 10
40.00288623
 20
5.97465479
  0
VERTEX
  8
0
 62
7
 10
40.02411328
 20
6.05649609
  0
VERTEX
  8
0
 62
7
 10
40.04279150
 20
6.14030029
  0
VERTEX
  8
0
 62
7
 10
40.05900000
 20
6.22600000
  0
VERTEX
  8
0
 62
7
 10
40.07525000
 20
6.34037500
  0
VERTEX
  8
0
 62
7
 10
40.08100000
 20
6.45400000
  0
VERTEX
  8
0
 62
7
 10
40.07843750
 20
6.54519531
  0
VERTEX
  8
0
 62
7
 10
40.07137500
 20
6.63343750
  0
VERTEX
  8
0
 62
7
 10
40.06075000
 20
6.71746094
  0
VERTEX
  8
0
 62
7
 10
40.04750000
 20
6.79600000
  0
VERTEX
  8
0
 62
7
 10
40.03256250
 20
6.86778906
  0
VERTEX
  8
0
 62
7
 10
40.01687500
 20
6.93156250
  0
VERTEX
  8
0
 62
7
 10
40.00137500
 20
6.98605469
  0
VERTEX
  8
0
 62
7
 10
39.98700000
 20
7.03000000
  0
VERTEX
  8
0
 62
7
 10
39.98321875
 20
7.04737500
  0
VERTEX
  8
0
 62
7
 10
39.98075000
 20
7.06175000
  0
VERTEX
  8
0
 62
7
 10
39.97040625
 20
7.08175000
  0
VERTEX
  8
0
 62
7
 10
39.94300000
 20
7.11600000
  0
VERTEX
  8
0
 62
7
 10
39.93100000
 20
7.12600000
  0
VERTEX
  8
0
 62
7
 10
39.90100000
 20
7.14200000
  0
VERTEX
  8
0
 62
7
 10
39.91275000
 20
7.16875000
  0
VERTEX
  8
0
 62
7
 10
39.92300000
 20
7.18200000
  0
VERTEX
  8
0
 62
7
 10
39.96900000
 20
7.22700000
  0
VERTEX
  8
0
 62
7
 10
40.01900000
 20
7.27400000
  0
VERTEX
  8
0
 62
7
 10
40.03947266
 20
7.29519922
  0
VERTEX
  8
0
 62
7
 10
40.05978125
 20
7.31796875
  0
VERTEX
  8
0
 62
7
 10
40.07901172
 20
7.34294141
  0
VERTEX
  8
0
 62
7
 10
40.09625000
 20
7.37075000
  0
VERTEX
  8
0
 62
7
 10
40.11058203
 20
7.40202734
  0
VERTEX
  8
0
 62
7
 10
40.12109375
 20
7.43740625
  0
VERTEX
  8
0
 62
7
 10
40.12687109
 20
7.47751953
  0
VERTEX
  8
0
 62
7
 10
40.12700000
 20
7.52300000
  0
VERTEX
  8
0
 62
7
 10
40.12300000
 20
7.58400000
  0
VERTEX
  8
0
 62
7
 10
40.06500000
 20
7.60300000
  0
VERTEX
  8
0
 62
7
 10
40.06500000
 20
7.66200000
  0
VERTEX
  8
0
 62
7
 10
40.12300000
 20
7.68100000
  0
VERTEX
  8
0
 62
7
 10
40.12700000
 20
7.74300000
  0
VERTEX
  8
0
 62
7
 10
40.12687109
 20
7.78852148
  0
VERTEX
  8
0
 62
7
 10
40.12109375
 20
7.82873438
  0
VERTEX
  8
0
 62
7
 10
40.11058203
 20
7.86423633
  0
VERTEX
  8
0
 62
7
 10
40.09625000
 20
7.89562500
  0
VERTEX
  8
0
 62
7
 10
40.07901172
 20
7.92349805
  0
VERTEX
  8
0
 62
7
 10
40.05978125
 20
7.94845313
  0
VERTEX
  8
0
 62
7
 10
40.03947266
 20
7.97108789
  0
VERTEX
  8
0
 62
7
 10
40.01900000
 20
7.99200000
  0
VERTEX
  8
0
 62
7
 10
39.97003125
 20
8.04453125
  0
VERTEX
  8
0
 62
7
 10
39.92575000
 20
8.10025000
  0
VERTEX
  8
0
 62
7
 10
39.88709375
 20
8.15934375
  0
VERTEX
  8
0
 62
7
 10
39.85500000
 20
8.22200000
  0
VERTEX
  8
0
 62
7
 10
39.82775000
 20
8.27375000
  0
VERTEX
  8
0
 62
7
 10
39.79300000
 20
8.33000000
  0
VERTEX
  8
0
 62
7
 10
39.76500000
 20
8.36300000
  0
VERTEX
  8
0
 62
7
 10
39.73750000
 20
8.38712500
  0
VERTEX
  8
0
 62
7
 10
39.70700000
 20
8.40600000
  0
VERTEX
  8
0
 62
7
 10
39.74259375
 20
8.52631250
  0
VERTEX
  8
0
 62
7
 10
39.76825000
 20
8.64850000
  0
VERTEX
  8
0
 62
7
 10
39.78378125
 20
8.77218750
  0
VERTEX
  8
0
 62
7
 10
39.78900000
 20
8.89700000
  0
VERTEX
  8
0
 62
7
 10
39.78700000
 20
9.01000000
  0
VERTEX
  8
0
 62
7
 10
39.78300000
 20
9.02200000
  0
VERTEX
  8
0
 62
7
 10
39.76500000
 20
9.17200000
  0
VERTEX
  8
0
 62
7
 10
39.73125000
 20
9.31492188
  0
VERTEX
  8
0
 62
7
 10
39.68400000
 20
9.45362500
  0
VERTEX
  8
0
 62
7
 10
39.62325000
 20
9.58726563
  0
VERTEX
  8
0
 62
7
 10
39.54900000
 20
9.71500000
  0
VERTEX
  8
0
 62
7
 10
39.56100000
 20
9.80200000
  0
VERTEX
  8
0
 62
7
 10
39.56700000
 20
10.03200000
  0
VERTEX
  8
0
 62
7
 10
39.56601611
 20
10.10432422
  0
VERTEX
  8
0
 62
7
 10
39.56297266
 20
10.17746875
  0
VERTEX
  8
0
 62
7
 10
39.55773193
 20
10.25112891
  0
VERTEX
  8
0
 62
7
 10
39.55015625
 20
10.32500000
  0
VERTEX
  8
0
 62
7
 10
39.54010791
 20
10.39877734
  0
VERTEX
  8
0
 62
7
 10
39.52744922
 20
10.47215625
  0
VERTEX
  8
0
 62
7
 10
39.51204248
 20
10.54483203
  0
VERTEX
  8
0
 62
7
 10
39.49375000
 20
10.61650000
  0
VERTEX
  8
0
 62
7
 10
39.47243408
 20
10.68685547
  0
VERTEX
  8
0
 62
7
 10
39.44795703
 20
10.75559375
  0
VERTEX
  8
0
 62
7
 10
39.42018115
 20
10.82241016
  0
VERTEX
  8
0
 62
7
 10
39.38896875
 20
10.88700000
  0
VERTEX
  8
0
 62
7
 10
39.35418213
 20
10.94905859
  0
VERTEX
  8
0
 62
7
 10
39.31568359
 20
11.00828125
  0
VERTEX
  8
0
 62
7
 10
39.27333545
 20
11.06436328
  0
VERTEX
  8
0
 62
7
 10
39.22700000
 20
11.11700000
  0
VERTEX
  8
0
 62
7
 10
39.21800000
 20
11.12579688
  0
VERTEX
  8
0
 62
7
 10
39.20300000
 20
11.13637500
  0
VERTEX
  8
0
 62
7
 10
39.18200000
 20
11.14526563
  0
VERTEX
  8
0
 62
7
 10
39.15500000
 20
11.14900000
  0
VERTEX
  8
0
 62
7
 10
39.14500000
 20
11.14900000
  0
VERTEX
  8
0
 62
7
 10
39.14500000
 20
14.50200000
  0
VERTEX
  8
0
 62
7
 10
39.04700000
 20
14.50500000
  0
VERTEX
  8
0
 62
7
 10
38.16100000
 20
14.53900000
  0
VERTEX
  8
0
 62
7
 10
37.72399023
 20
14.55917871
  0
VERTEX
  8
0
 62
7
 10
37.28823438
 20
14.58146094
  0
VERTEX
  8
0
 62
7
 10
36.85376758
 20
14.60584082
  0
VERTEX
  8
0
 62
7
 10
36.42062500
 20
14.63231250
  0
VERTEX
  8
0
 62
7
 10
35.98884180
 20
14.66087012
  0
VERTEX
  8
0
 62
7
 10
35.55845313
 20
14.69150781
  0
VERTEX
  8
0
 62
7
 10
35.12949414
 20
14.72421973
  0
VERTEX
  8
0
 62
7
 10
34.70200000
 20
14.75900000
  0
VERTEX
  8
0
 62
7
 10
34.27600586
 20
14.79584277
  0
VERTEX
  8
0
 62
7
 10
33.85154688
 20
14.83474219
  0
VERTEX
  8
0
 62
7
 10
33.42865820
 20
14.87569238
  0
VERTEX
  8
0
 62
7
 10
33.00737500
 20
14.91868750
  0
VERTEX
  8
0
 62
7
 10
32.58773242
 20
14.96372168
  0
VERTEX
  8
0
 62
7
 10
32.16976563
 20
15.01078906
  0
VERTEX
  8
0
 62
7
 10
31.75350977
 20
15.05988379
  0
VERTEX
  8
0
 62
7
 10
31.33900000
 20
15.11100000
  0
VERTEX
  8
0
 62
7
 10
30.72097754
 20
15.18640137
  0
VERTEX
  8
0
 62
7
 10
30.09785156
 20
15.25732031
  0
VERTEX
  8
0
 62
7
 10
29.46990918
 20
15.32370410
  0
VERTEX
  8
0
 62
7
 10
28.83743750
 20
15.38550000
  0
VERTEX
  8
0
 62
7
 10
28.20072363
 20
15.44265527
  0
VERTEX
  8
0
 62
7
 10
27.56005469
 20
15.49511719
  0
VERTEX
  8
0
 62
7
 10
26.91571777
 20
15.54283301
  0
VERTEX
  8
0
 62
7
 10
26.26800000
 20
15.58575000
  0
VERTEX
  8
0
 62
7
 10
25.61718848
 20
15.62381543
  0
VERTEX
  8
0
 62
7
 10
24.96357031
 20
15.65697656
  0
VERTEX
  8
0
 62
7
 10
24.30743262
 20
15.68518066
  0
VERTEX
  8
0
 62
7
 10
23.64906250
 20
15.70837500
  0
VERTEX
  8
0
 62
7
 10
22.98874707
 20
15.72650684
  0
VERTEX
  8
0
 62
7
 10
22.32677344
 20
15.73952344
  0
VERTEX
  8
0
 62
7
 10
21.66342871
 20
15.74737207
  0
VERTEX
  8
0
 62
7
 10
20.99900000
 20
15.75000000
  0
VERTEX
  8
0
 62
7
 10
20.33424170
 20
15.74737207
  0
VERTEX
  8
0
 62
7
 10
19.67065234
 20
15.73952344
  0
VERTEX
  8
0
 62
7
 10
19.00851025
 20
15.72650684
  0
VERTEX
  8
0
 62
7
 10
18.34809375
 20
15.70837500
  0
VERTEX
  8
0
 62
7
 10
17.68968115
 20
15.68518066
  0
VERTEX
  8
0
 62
7
 10
17.03355078
 20
15.65697656
  0
VERTEX
  8
0
 62
7
 10
16.37998096
 20
15.62381543
  0
VERTEX
  8
0
 62
7
 10
15.72925000
 20
15.58575000
  0
VERTEX
  8
0
 62
7
 10
15.08163623
 20
15.54283301
  0
VERTEX
  8
0
 62
7
 10
14.43741797
 20
15.49511719
  0
VERTEX
  8
0
 62
7
 10
13.79687354
 20
15.44265527
  0
VERTEX
  8
0
 62
7
 10
13.16028125
 20
15.38550000
  0
VERTEX
  8
0
 62
7
 10
12.52791943
 20
15.32370410
  0
VERTEX
  8
0
 62
7
 10
11.90006641
 20
15.25732031
  0
VERTEX
  8
0
 62
7
 10
11.27700049
 20
15.18640137
  0
VERTEX
  8
0
 62
7
 10
10.65900000
 20
15.11100000
  0
VERTEX
  8
0
 62
7
 10
10.24451221
 20
15.05988379
  0
VERTEX
  8
0
 62
7
 10
9.82831641
 20
15.01078906
  0
VERTEX
  8
0
 62
7
 10
9.41043896
 20
14.96372168
  0
VERTEX
  8
0
 62
7
 10
8.99090625
 20
14.91868750
  0
VERTEX
  8
0
 62
7
 10
8.56974463
 20
14.87569238
  0
VERTEX
  8
0
 62
7
 10
8.14698047
 20
14.83474219
  0
VERTEX
  8
0
 62
7
 10
7.72264014
 20
14.79584277
  0
VERTEX
  8
0
 62
7
 10
7.29675000
 20
14.75900000
  0
VERTEX
  8
0
 62
7
 10
6.86933643
 20
14.72421973
  0
VERTEX
  8
0
 62
7
 10
6.44042578
 20
14.69150781
  0
VERTEX
  8
0
 62
7
 10
6.01004443
 20
14.66087012
  0
VERTEX
  8
0
 62
7
 10
5.57821875
 20
14.63231250
  0
VERTEX
  8
0
 62
7
 10
5.14497510
 20
14.60584082
  0
VERTEX
  8
0
 62
7
 10
4.71033984
 20
14.58146094
  0
VERTEX
  8
0
 62
7
 10
4.27433936
 20
14.55917871
  0
VERTEX
  8
0
 62
7
 10
3.83700000
 20
14.53900000
  0
VERTEX
  8
0
 62
7
 10
2.95100000
 20
14.50500000
  0
VERTEX
  8
0
 62
7
 10
2.85500000
 20
14.50200000
  0
VERTEX
  8
0
 62
7
 10
2.85500000
 20
11.14900000
  0
VERTEX
  8
0
 62
7
 10
2.84500000
 20
11.14900000
  0
VERTEX
  8
0
 62
7
 10
2.81771875
 20
11.14526563
  0
VERTEX
  8
0
 62
7
 10
2.79625000
 20
11.13637500
  0
VERTEX
  8
0
 62
7
 10
2.78115625
 20
11.12579688
  0
VERTEX
  8
0
 62
7
 10
2.77300000
 20
11.11700000
  0
VERTEX
  8
0
 62
7
 10
2.72664209
 20
11.06436328
  0
VERTEX
  8
0
 62
7
 10
2.68423047
 20
11.00828125
  0
VERTEX
  8
0
 62
7
 10
2.64563330
 20
10.94905859
  0
VERTEX
  8
0
 62
7
 10
2.61071875
 20
10.88700000
  0
VERTEX
  8
0
 62
7
 10
2.57935498
 20
10.82241016
  0
VERTEX
  8
0
 62
7
 10
2.55141016
 20
10.75559375
  0
VERTEX
  8
0
 62
7
 10
2.52675244
 20
10.68685547
  0
VERTEX
  8
0
 62
7
 10
2.50525000
 20
10.61650000
  0
VERTEX
  8
0
 62
7
 10
2.48677100
 20
10.54483203
  0
VERTEX
  8
0
 62
7
 10
2.47118359
 20
10.47215625
  0
VERTEX
  8
0
 62
7
 10
2.45835596
 20
10.39877734
  0
VERTEX
  8
0
 62
7
 10
2.44815625
 20
10.32500000
  0
VERTEX
  8
0
 62
7
 10
2.44045264
 20
10.25112891
  0
VERTEX
  8
0
 62
7
 10
2.43511328
 20
10.17746875
  0
VERTEX
  8
0
 62
7
 10
2.43200635
 20
10.10432422
  0
VERTEX
  8
0
 62
7
 10
2.43100000
 20
10.03200000
  0
VERTEX
  8
0
 62
7
 10
2.43900000
 20
9.80200000
  0
VERTEX
  8
0
 62
7
 10
2.44900000
 20
9.71500000
  0
VERTEX
  8
0
 62
7
 10
2.41027344
 20
9.65192383
  0
VERTEX
  8
0
 62
7
 10
2.37506250
 20
9.58726563
  0
VERTEX
  8
0
 62
7
 10
2.34332031
 20
9.52113086
  0
VERTEX
  8
0
 62
7
 10
2.31500000
 20
9.45362500
  0
VERTEX
  8
0
 62
7
 10
2.29005469
 20
9.38485352
  0
VERTEX
  8
0
 62
7
 10
2.26843750
 20
9.31492188
  0
VERTEX
  8
0
 62
7
 10
2.25010156
 20
9.24393555
  0
VERTEX
  8
0
 62
7
 10
2.23500000
 20
9.17200000
  0
VERTEX
  8
0
 62
7
 10
2.21700000
 20
9.02200000
  0
VERTEX
  8
0
 62
7
 10
2.21300000
 20
9.01000000
  0
VERTEX
  8
0
 62
7
 10
2.20900000
 20
8.89700000
  0
VERTEX
  8
0
 62
7
 10
2.21421875
 20
8.77218750
  0
VERTEX
  8
0
 62
7
 10
2.22975000
 20
8.64850000
  0
VERTEX
  8
0
 62
7
 10
2.25540625
 20
8.52631250
  0
VERTEX
  8
0
 62
7
 10
2.29100000
 20
8.40600000
  0
VERTEX
  8
0
 62
7
 10
2.26225000
 20
8.38712500
  0
VERTEX
  8
0
 62
7
 10
2.23500000
 20
8.36300000
  0
VERTEX
  8
0
 62
7
 10
2.20500000
 20
8.33000000
  0
VERTEX
  8
0
 62
7
 10
2.17125000
 20
8.27375000
  0
VERTEX
  8
0
 62
7
 10
2.14500000
 20
8.22200000
  0
VERTEX
  8
0
 62
7
 10
2.11175000
 20
8.15934375
  0
VERTEX
  8
0
 62
7
 10
2.07250000
 20
8.10025000
  0
VERTEX
  8
0
 62
7
 10
2.02800000
 20
8.04453125
  0
VERTEX
  8
0
 62
7
 10
1.97900000
 20
7.99200000
  0
VERTEX
  8
0
 62
7
 10
1.95861328
 20
7.97108789
  0
VERTEX
  8
0
 62
7
 10
1.93853125
 20
7.94845313
  0
VERTEX
  8
0
 62
7
 10
1.91962109
 20
7.92349805
  0
VERTEX
  8
0
 62
7
 10
1.90275000
 20
7.89562500
  0
VERTEX
  8
0
 62
7
 10
1.88878516
 20
7.86423633
  0
VERTEX
  8
0
 62
7
 10
1.87859375
 20
7.82873438
  0
VERTEX
  8
0
 62
7
 10
1.87304297
 20
7.78852148
  0
VERTEX
  8
0
 62
7
 10
1.87300000
 20
7.74300000
  0
VERTEX
  8
0
 62
7
 10
1.87500000
 20
7.68100000
  0
VERTEX
  8
0
 62
7
 10
1.93300000
 20
7.66200000
  0
VERTEX
  8
0
 62
7
 10
1.93300000
 20
7.60300000
  0
VERTEX
  8
0
 62
7
 10
1.87500000
 20
7.58400000
  0
VERTEX
  8
0
 62
7
 10
1.87300000
 20
7.52300000
  0
VERTEX
  8
0
 62
7
 10
1.87304297
 20
7.47751953
  0
VERTEX
  8
0
 62
7
 10
1.87859375
 20
7.43740625
  0
VERTEX
  8
0
 62
7
 10
1.88878516
 20
7.40202734
  0
VERTEX
  8
0
 62
7
 10
1.90275000
 20
7.37075000
  0
VERTEX
  8
0
 62
7
 10
1.91962109
 20
7.34294141
  0
VERTEX
  8
0
 62
7
 10
1.93853125
 20
7.31796875
  0
VERTEX
  8
0
 62
7
 10
1.95861328
 20
7.29519922
  0
VERTEX
  8
0
 62
7
 10
1.97900000
 20
7.27400000
  0
VERTEX
  8
0
 62
7
 10
2.02900000
 20
7.22700000
  0
VERTEX
  8
0
 62
7
 10
2.07700000
 20
7.18200000
  0
VERTEX
  8
0
 62
7
 10
2.09900000
 20
7.14200000
  0
VERTEX
  8
0
 62
7
 10
2.05500000
 20
7.11600000
  0
VERTEX
  8
0
 62
7
 10
2.02871875
 20
7.08175000
  0
VERTEX
  8
0
 62
7
 10
2.01875000
 20
7.06175000
  0
VERTEX
  8
0
 62
7
 10
2.01590625
 20
7.04737500
  0
VERTEX
  8
0
 62
7
 10
2.01100000
 20
7.03000000
  0
VERTEX
  8
0
 62
7
 10
1.99728516
 20
6.98605469
  0
VERTEX
  8
0
 62
7
 10
1.98228125
 20
6.93156250
  0
VERTEX
  8
0
 62
7
 10
1.96694922
 20
6.86778906
  0
VERTEX
  8
0
 62
7
 10
1.95225000
 20
6.79600000
  0
VERTEX
  8
0
 62
7
 10
1.93914453
 20
6.71746094
  0
VERTEX
  8
0
 62
7
 10
1.92859375
 20
6.63343750
  0
VERTEX
  8
0
 62
7
 10
1.92155859
 20
6.54519531
  0
VERTEX
  8
0
 62
7
 10
1.91900000
 20
6.45400000
  0
VERTEX
  8
0
 62
7
 10
1.92400000
 20
6.34037500
  0
VERTEX
  8
0
 62
7
 10
1.94100000
 20
6.22600000
  0
VERTEX
  8
0
 62
7
 10
1.95687842
 20
6.14030029
  0
VERTEX
  8
0
 62
7
 10
1.97530859
 20
6.05649609
  0
VERTEX
  8
0
 62
7
 10
1.99635791
 20
5.97465479
  0
VERTEX
  8
0
 62
7
 10
2.02009375
 20
5.89484375
  0
VERTEX
  8
0
 62
7
 10
2.04658350
 20
5.81713037
  0
VERTEX
  8
0
 62
7
 10
2.07589453
 20
5.74158203
  0
VERTEX
  8
0
 62
7
 10
2.10809424
 20
5.66826611
  0
VERTEX
  8
0
 62
7
 10
2.14325000
 20
5.59725000
  0
VERTEX
  8
0
 62
7
 10
2.18142920
 20
5.52860107
  0
VERTEX
  8
0
 62
7
 10
2.22269922
 20
5.46238672
  0
VERTEX
  8
0
 62
7
 10
2.26712744
 20
5.39867432
  0
VERTEX
  8
0
 62
7
 10
2.31478125
 20
5.33753125
  0
VERTEX
  8
0
 62
7
 10
2.36572803
 20
5.27902490
  0
VERTEX
  8
0
 62
7
 10
2.42003516
 20
5.22322266
  0
VERTEX
  8
0
 62
7
 10
2.47777002
 20
5.17019189
  0
VERTEX
  8
0
 62
7
 10
2.53900000
 20
5.12000000
  0
VERTEX
  8
0
 62
7
 10
2.60896875
 20
5.06951563
  0
VERTEX
  8
0
 62
7
 10
2.67275000
 20
5.03112500
  0
VERTEX
  8
0
 62
7
 10
2.73165625
 20
5.00117188
  0
VERTEX
  8
0
 62
7
 10
2.78700000
 20
4.97600000
  0
VERTEX
  8
0
 62
7
 10
2.85300000
 20
4.94500000
  0
VERTEX
  8
0
 62
7
 10
2.85300000
 20
4.52600000
  0
VERTEX
  8
0
 62
7
 10
2.81328125
 20
4.54395313
  0
VERTEX
  8
0
 62
7
 10
2.77225000
 20
4.55712500
  0
VERTEX
  8
0
 62
7
 10
2.73009375
 20
4.56523438
  0
VERTEX
  8
0
 62
7
 10
2.68700000
 20
4.56800000
  0
VERTEX
  8
0
 62
7
 10
2.65078125
 20
4.56614063
  0
VERTEX
  8
0
 62
7
 10
2.61475000
 20
4.56062500
  0
VERTEX
  8
0
 62
7
 10
2.57984375
 20
4.55154688
  0
VERTEX
  8
0
 62
7
 10
2.54700000
 20
4.53900000
  0
VERTEX
  8
0
 62
7
 10
2.49941797
 20
4.51433594
  0
VERTEX
  8
0
 62
7
 10
2.45734375
 20
4.48362500
  0
VERTEX
  8
0
 62
7
 10
2.42103516
 20
4.44766406
  0
VERTEX
  8
0
 62
7
 10
2.39075000
 20
4.40725000
  0
VERTEX
  8
0
 62
7
 10
2.36674609
 20
4.36317969
  0
VERTEX
  8
0
 62
7
 10
2.34928125
 20
4.31625000
  0
VERTEX
  8
0
 62
7
 10
2.33861328
 20
4.26725781
  0
VERTEX
  8
0
 62
7
 10
2.33500000
 20
4.21700000
  0
VERTEX
  8
0
 62
7
 10
2.33853125
 20
4.16521875
  0
VERTEX
  8
0
 62
7
 10
2.34975000
 20
4.11400000
  0
VERTEX
  8
0
 62
7
 10
2.36959375
 20
4.06428125
  0
VERTEX
  8
0
 62
7
 10
2.39900000
 20
4.01700000
  0
VERTEX
  8
0
 62
7
 10
2.42916797
 20
3.98067969
  0
VERTEX
  8
0
 62
7
 10
2.46221875
 20
3.95087500
  0
VERTEX
  8
0
 62
7
 10
2.49747266
 20
3.92707031
  0
VERTEX
  8
0
 62
7
 10
2.53425000
 20
3.90875000
  0
VERTEX
  8
0
 62
7
 10
2.57187109
 20
3.89539844
  0
VERTEX
  8
0
 62
7
 10
2.60965625
 20
3.88650000
  0
VERTEX
  8
0
 62
7
 10
2.64692578
 20
3.88153906
  0
VERTEX
  8
0
 62
7
 10
2.68300000
 20
3.88000000
  0
VERTEX
  8
0
 62
7
 10
2.73400000
 20
3.88325000
  0
VERTEX
  8
0
 62
7
 10
2.77900000
 20
3.89100000
  0
VERTEX
  8
0
 62
7
 10
2.81825000
 20
3.90262500
  0
VERTEX
  8
0
 62
7
 10
2.85300000
 20
3.91800000
  0
VERTEX
  8
0
 62
7
 10
2.85300000
 20
2.81400000
  0
VERTEX
  8
0
 62
7
 10
3.12100000
 20
2.81400000
  0
VERTEX
  8
0
 62
7
 10
3.12100000
 20
2.08800000
  0
VERTEX
  8
0
 62
7
 10
3.57100000
 20
2.08800000
  0
VERTEX
  8
0
 62
7
 10
3.57100000
 20
2.81400000
  0
VERTEX
  8
0
 62
7
 10
3.83900000
 20
2.81400000
  0
VERTEX
  8
0
 62
7
 10
3.83900000
 20
4.85900000
  0
VERTEX
  8
0
 62
7
 10
3.89234375
 20
4.88937500
  0
VERTEX
  8
0
 62
7
 10
3.94475000
 20
4.91300000
  0
VERTEX
  8
0
 62
7
 10
3.99678125
 20
4.93212500
  0
VERTEX
  8
0
 62
7
 10
4.04900000
 20
4.94900000
  0
VERTEX
  8
0
 62
7
 10
4.09968750
 20
4.96587500
  0
VERTEX
  8
0
 62
7
 10
4.15450000
 20
4.98650000
  0
VERTEX
  8
0
 62
7
 10
4.21156250
 20
5.01312500
  0
VERTEX
  8
0
 62
7
 10
4.26900000
 20
5.04800000
  0
VERTEX
  8
0
 62
7
 10
4.36929297
 20
5.12264648
  0
VERTEX
  8
0
 62
7
 10
4.46271875
 20
5.20304688
  0
VERTEX
  8
0
 62
7
 10
4.54859766
 20
5.28989258
  0
VERTEX
  8
0
 62
7
 10
4.62625000
 20
5.38387500
  0
VERTEX
  8
0
 62
7
 10
4.69499609
 20
5.48568555
  0
VERTEX
  8
0
 62
7
 10
4.75415625
 20
5.59601563
  0
VERTEX
  8
0
 62
7
 10
4.80305078
 20
5.71555664
  0
VERTEX
  8
0
 62
7
 10
4.84100000
 20
5.84500000
  0
VERTEX
  8
0
 62
7
 10
4.86075000
 20
5.90262500
  0
VERTEX
  8
0
 62
7
 10
4.88500000
 20
5.96100000
  0
VERTEX
  8
0
 62
7
 10
4.89018359
 20
5.97067773
  0
VERTEX
  8
0
 62
7
 10
4.89759375
 20
5.97279688
  0
VERTEX
  8
0
 62
7
 10
4.90626953
 20
5.96861133
  0
VERTEX
  8
0
 62
7
 10
4.91525000
 20
5.95937500
  0
VERTEX
  8
0
 62
7
 10
4.92357422
 20
5.94634180
  0
VERTEX
  8
0
 62
7
 10
4.93028125
 20
5.93076563
  0
VERTEX
  8
0
 62
7
 10
4.93441016
 20
5.91390039
  0
VERTEX
  8
0
 62
7
 10
4.93500000
 20
5.89700000
  0
VERTEX
  8
0
 62
7
 10
4.93425391
 20
5.86924219
  0
VERTEX
  8
0
 62
7
 10
4.93915625
 20
5.84425000
  0
VERTEX
  8
0
 62
7
 10
4.94916797
 20
5.82282031
  0
VERTEX
  8
0
 62
7
 10
4.96375000
 20
5.80575000
  0
VERTEX
  8
0
 62
7
 10
4.98236328
 20
5.79383594
  0
VERTEX
  8
0
 62
7
 10
5.00446875
 20
5.78787500
  0
VERTEX
  8
0
 62
7
 10
5.02952734
 20
5.78866406
  0
VERTEX
  8
0
 62
7
 10
5.05700000
 20
5.79700000
  0
VERTEX
  8
0
 62
7
 10
5.10159375
 20
5.81967188
  0
VERTEX
  8
0
 62
7
 10
5.14225000
 20
5.84712500
  0
VERTEX
  8
0
 62
7
 10
5.17878125
 20
5.87926563
  0
VERTEX
  8
0
 62
7
 10
5.21100000
 20
5.91600000
  0
VERTEX
  8
0
 62
7
 10
5.23116406
 20
5.94393750
  0
VERTEX
  8
0
 62
7
 10
5.24818750
 20
5.97468750
  0
VERTEX
  8
0
 62
7
 10
5.26211719
 20
6.00740625
  0
VERTEX
  8
0
 62
7
 10
5.27300000
 20
6.04125000
  0
VERTEX
  8
0
 62
7
 10
5.28088281
 20
6.07537500
  0
VERTEX
  8
0
 62
7
 10
5.28581250
 20
6.10893750
  0
VERTEX
  8
0
 62
7
 10
5.28783594
 20
6.14109375
  0
VERTEX
  8
0
 62
7
 10
5.28700000
 20
6.17100000
  0
VERTEX
  8
0
 62
7
 10
5.27253125
 20
6.24132813
  0
VERTEX
  8
0
 62
7
 10
5.24775000
 20
6.31212500
  0
VERTEX
  8
0
 62
7
 10
5.21359375
 20
6.38010938
  0
VERTEX
  8
0
 62
7
 10
5.17100000
 20
6.44200000
  0
VERTEX
  8
0
 62
7
 10
5.14576563
 20
6.46951172
  0
VERTEX
  8
0
 62
7
 10
5.11800000
 20
6.49484375
  0
VERTEX
  8
0
 62
7
 10
5.08760938
 20
6.51769141
  0
VERTEX
  8
0
 62
7
 10
5.05450000
 20
6.53775000
  0
VERTEX
  8
0
 62
7
 10
5.01857813
 20
6.55471484
  0
VERTEX
  8
0
 62
7
 10
4.97975000
 20
6.56828125
  0
VERTEX
  8
0
 62
7
 10
4.93792188
 20
6.57814453
  0
VERTEX
  8
0
 62
7
 10
4.89300000
 20
6.58400000
  0
VERTEX
  8
0
 62
7
 10
4.85300000
 20
6.58500000
  0
VERTEX
  8
0
 62
7
 10
4.81200000
 20
6.58337500
  0
VERTEX
  8
0
 62
7
 10
4.77100000
 20
6.57800000
  0
VERTEX
  8
0
 62
7
 10
4.74287891
 20
6.61707227
  0
VERTEX
  8
0
 62
7
 10
4.70990625
 20
6.65226563
  0
VERTEX
  8
0
 62
7
 10
4.67266797
 20
6.68316992
  0
VERTEX
  8
0
 62
7
 10
4.63175000
 20
6.70937500
  0
VERTEX
  8
0
 62
7
 10
4.58773828
 20
6.73047070
  0
VERTEX
  8
0
 62
7
 10
4.54121875
 20
6.74604688
  0
VERTEX
  8
0
 62
7
 10
4.49277734
 20
6.75569336
  0
VERTEX
  8
0
 62
7
 10
4.44300000
 20
6.75900000
  0
VERTEX
  8
0
 62
7
 10
4.40879688
 20
6.75742383
  0
VERTEX
  8
0
 62
7
 10
4.37525000
 20
6.75351563
  0
VERTEX
  8
0
 62
7
 10
4.34245313
 20
6.74738086
  0
VERTEX
  8
0
 62
7
 10
4.31050000
 20
6.73912500
  0
VERTEX
  8
0
 62
7
 10
4.27948438
 20
6.72885352
  0
VERTEX
  8
0
 62
7
 10
4.24950000
 20
6.71667188
  0
VERTEX
  8
0
 62
7
 10
4.22064063
 20
6.70268555
  0
VERTEX
  8
0
 62
7
 10
4.19300000
 20
6.68700000
  0
VERTEX
  8
0
 62
7
 10
4.19300000
 20
6.72700000
  0
VERTEX
  8
0
 62
7
 10
4.18575000
 20
6.78987500
  0
VERTEX
  8
0
 62
7
 10
4.17100000
 20
6.84600000
  0
VERTEX
  8
0
 62
7
 10
4.19643750
 20
6.83706250
  0
VERTEX
  8
0
 62
7
 10
4.22450000
 20
6.83000000
  0
VERTEX
  8
0
 62
7
 10
4.25481250
 20
6.82518750
  0
VERTEX
  8
0
 62
7
 10
4.28700000
 20
6.82300000
  0
VERTEX
  8
0
 62
7
 10
4.31429297
 20
6.82291406
  0
VERTEX
  8
0
 62
7
 10
4.34334375
 20
6.82456250
  0
VERTEX
  8
0
 62
7
 10
4.37366016
 20
6.82855469
  0
VERTEX
  8
0
 62
7
 10
4.40475000
 20
6.83550000
  0
VERTEX
  8
0
 62
7
 10
4.43612109
 20
6.84600781
  0
VERTEX
  8
0
 62
7
 10
4.46728125
 20
6.86068750
  0
VERTEX
  8
0
 62
7
 10
4.49773828
 20
6.88014844
  0
VERTEX
  8
0
 62
7
 10
4.52700000
 20
6.90500000
  0
VERTEX
  8
0
 62
7
 10
4.55500000
 20
6.93800000
  0
VERTEX
  8
0
 62
7
 10
4.58950000
 20
6.99425000
  0
VERTEX
  8
0
 62
7
 10
4.61500000
 20
7.04600000
  0
VERTEX
  8
0
 62
7
 10
4.64712500
 20
7.10935938
  0
VERTEX
  8
0
 62
7
 10
4.68750000
 20
7.16812500
  0
VERTEX
  8
0
 62
7
 10
4.73312500
 20
7.22332813
  0
VERTEX
  8
0
 62
7
 10
4.78100000
 20
7.27600000
  0
VERTEX
  8
0
 62
7
 10
4.80024219
 20
7.29719922
  0
VERTEX
  8
0
 62
7
 10
4.81981250
 20
7.31996875
  0
VERTEX
  8
0
 62
7
 10
4.83872656
 20
7.34494141
  0
VERTEX
  8
0
 62
7
 10
4.85600000
 20
7.37275000
  0
VERTEX
  8
0
 62
7
 10
4.87064844
 20
7.40402734
  0
VERTEX
  8
0
 62
7
 10
4.88168750
 20
7.43940625
  0
VERTEX
  8
0
 62
7
 10
4.88813281
 20
7.47951953
  0
VERTEX
  8
0
 62
7
 10
4.88900000
 20
7.52500000
  0
VERTEX
  8
0
 62
7
 10
4.88500000
 20
7.58700000
  0
VERTEX
  8
0
 62
7
 10
4.82500000
 20
7.60600000
  0
VERTEX
  8
0
 62
7
 10
4.82700000
 20
7.66500000
  0
VERTEX
  8
0
 62
7
 10
4.88500000
 20
7.68400000
  0
VERTEX
  8
0
 62
7
 10
4.88900000
 20
7.74500000
  0
VERTEX
  8
0
 62
7
 10
4.88813281
 20
7.79080859
  0
VERTEX
  8
0
 62
7
 10
4.88168750
 20
7.83115625
  0
VERTEX
  8
0
 62
7
 10
4.87064844
 20
7.86667578
  0
VERTEX
  8
0
 62
7
 10
4.85600000
 20
7.89800000
  0
VERTEX
  8
0
 62
7
 10
4.83872656
 20
7.92576172
  0
VERTEX
  8
0
 62
7
 10
4.81981250
 20
7.95059375
  0
VERTEX
  8
0
 62
7
 10
4.80024219
 20
7.97312891
  0
VERTEX
  8
0
 62
7
 10
4.78100000
 20
7.99400000
  0
VERTEX
  8
0
 62
7
 10
4.73100000
 20
8.03900000
  0
VERTEX
  8
0
 62
7
 10
4.70546875
 20
8.06378125
  0
VERTEX
  8
0
 62
7
 10
4.68575000
 20
8.08950000
  0
VERTEX
  8
0
 62
7
 10
4.65815625
 20
8.13996875
  0
VERTEX
  8
0
 62
7
 10
4.60900000
 20
8.23900000
  0
VERTEX
  8
0
 62
7
 10
4.67781250
 20
8.29728125
  0
VERTEX
  8
0
 62
7
 10
4.75600000
 20
8.36850000
  0
VERTEX
  8
0
 62
7
 10
4.84468750
 20
8.45471875
  0
VERTEX
  8
0
 62
7
 10
4.94500000
 20
8.55800000
  0
VERTEX
  8
0
 62
7
 10
4.97084375
 20
8.58184375
  0
VERTEX
  8
0
 62
7
 10
4.99725000
 20
8.60100000
  0
VERTEX
  8
0
 62
7
 10
5.02403125
 20
8.61565625
  0
VERTEX
  8
0
 62
7
 10
5.05100000
 20
8.62600000
  0
VERTEX
  8
0
 62
7
 10
5.06500000
 20
8.60500000
  0
VERTEX
  8
0
 62
7
 10
5.07575000
 20
8.58200000
  0
VERTEX
  8
0
 62
7
 10
5.07900000
 20
8.55600000
  0
VERTEX
  8
0
 62
7
 10
5.07500000
 20
8.52300000
  0
VERTEX
  8
0
 62
7
 10
5.06625000
 20
8.49950000
  0
VERTEX
  8
0
 62
7
 10
5.04700000
 20
8.47600000
  0
VERTEX
  8
0
 62
7
 10
5.02666406
 20
8.45408984
  0
VERTEX
  8
0
 62
7
 10
5.01481250
 20
8.43159375
  0
VERTEX
  8
0
 62
7
 10
5.01092969
 20
8.40923828
  0
VERTEX
  8
0
 62
7
 10
5.01450000
 20
8.38775000
  0
VERTEX
  8
0
 62
7
 10
5.02500781
 20
8.36785547
  0
VERTEX
  8
0
 62
7
 10
5.04193750
 20
8.35028125
  0
VERTEX
  8
0
 62
7
 10
5.06477344
 20
8.33575391
  0
VERTEX
  8
0
 62
7
 10
5.09300000
 20
8.32500000
  0
VERTEX
  8
0
 62
7
 10
5.12100000
 20
8.32050000
  0
VERTEX
  8
0
 62
7
 10
5.15500000
 20
8.31900000
  0
VERTEX
  8
0
 62
7
 10
5.21409375
 20
8.32281250
  0
VERTEX
  8
0
 62
7
 10
5.26925000
 20
8.33450000
  0
VERTEX
  8
0
 62
7
 10
5.32178125
 20
8.35443750
  0
VERTEX
  8
0
 62
7
 10
5.37300000
 20
8.38300000
  0
VERTEX
  8
0
 62
7
 10
5.42446875
 20
8.41990625
  0
VERTEX
  8
0
 62
7
 10
5.46975000
 20
8.46225000
  0
VERTEX
  8
0
 62
7
 10
5.50715625
 20
8.51096875
  0
VERTEX
  8
0
 62
7
 10
5.53500000
 20
8.56700000
  0
VERTEX
  8
0
 62
7
 10
5.54781250
 20
8.60810938
  0
VERTEX
  8
0
 62
7
 10
5.55650000
 20
8.65137500
  0
VERTEX
  8
0
 62
7
 10
5.56143750
 20
8.69595313
  0
VERTEX
  8
0
 62
7
 10
5.56300000
 20
8.74100000
  0
VERTEX
  8
0
 62
7
 10
5.55946875
 20
8.80951563
  0
VERTEX
  8
0
 62
7
 10
5.54825000
 20
8.88112500
  0
VERTEX
  8
0
 62
7
 10
5.52840625
 20
8.95292187
  0
VERTEX
  8
0
 62
7
 10
5.49900000
 20
9.02200000
  0
VERTEX
  8
0
 62
7
 10
36.50100000
 20
9.02200000
  0
SEQEND
  0
POLYLINE
  8
0
 62
7
 66
1
 70
1
  0
VERTEX
  8
0
 62
7
 10
3.07700000
 20
9.07400000
  0
VERTEX
  8
0
 62
7
 10
3.07435938
 20
9.13206641
  0
VERTEX
  8
0
 62
7
 10
3.06956250
 20
9.18884375
  0
VERTEX
  8
0
 62
7
 10
3.06279688
 20
9.24482422
  0
VERTEX
  8
0
 62
7
 10
3.05425000
 20
9.30050000
  0
VERTEX
  8
0
 62
7
 10
3.04410938
 20
9.35636328
  0
VERTEX
  8
0
 62
7
 10
3.03256250
 20
9.41290625
  0
VERTEX
  8
0
 62
7
 10
3.01979688
 20
9.47062109
  0
VERTEX
  8
0
 62
7
 10
3.00600000
 20
9.53000000
  0
VERTEX
  8
0
 62
7
 10
2.97676563
 20
9.64267188
  0
VERTEX
  8
0
 62
7
 10
2.94237500
 20
9.75937500
  0
VERTEX
  8
0
 62
7
 10
2.90629688
 20
9.87664063
  0
VERTEX
  8
0
 62
7
 10
2.87200000
 20
9.99100000
  0
VERTEX
  8
0
 62
7
 10
2.83451563
 20
10.13420313
  0
VERTEX
  8
0
 62
7
 10
2.80162500
 20
10.27862500
  0
VERTEX
  8
0
 62
7
 10
2.77342188
 20
10.42398438
  0
VERTEX
  8
0
 62
7
 10
2.75000000
 20
10.57000000
  0
VERTEX
  8
0
 62
7
 10
2.79000000
 20
10.57400000
  0
VERTEX
  8
0
 62
7
 10
2.80123047
 20
10.50163477
  0
VERTEX
  8
0
 62
7
 10
2.81515625
 20
10.42932813
  0
VERTEX
  8
0
 62
7
 10
2.83137891
 20
10.35713867
  0
VERTEX
  8
0
 62
7
 10
2.84950000
 20
10.28512500
  0
VERTEX
  8
0
 62
7
 10
2.86912109
 20
10.21334570
  0
VERTEX
  8
0
 62
7
 10
2.88984375
 20
10.14185938
  0
VERTEX
  8
0
 62
7
 10
2.91126953
 20
10.07072461
  0
VERTEX
  8
0
 62
7
 10
2.93300000
 20
10.00000000
  0
VERTEX
  8
0
 62
7
 10
2.96867188
 20
9.88842188
  0
VERTEX
  8
0
 62
7
 10
3.00687500
 20
9.77412500
  0
VERTEX
  8
0
 62
7
 10
3.04339063
 20
9.65926563
  0
VERTEX
  8
0
 62
7
 10
3.07400000
 20
9.54600000
  0
VERTEX
  8
0
 62
7
 10
3.09931250
 20
9.43615625
  0
VERTEX
  8
0
 62
7
 10
3.12050000
 20
9.32950000
  0
VERTEX
  8
0
 62
7
 10
3.13643750
 20
9.22284375
  0
VERTEX
  8
0
 62
7
 10
3.14600000
 20
9.11300000
  0
VERTEX
  8
0
 62
7
 10
3.16856250
 20
9.12103125
  0
VERTEX
  8
0
 62
7
 10
3.19300000
 20
9.12700000
  0
VERTEX
  8
0
 62
7
 10
3.21968750
 20
9.13071875
  0
VERTEX
  8
0
 62
7
 10
3.24900000
 20
9.13200000
  0
VERTEX
  8
0
 62
7
 10
3.26900000
 20
9.13200000
  0
VERTEX
  8
0
 62
7
 10
3.28757031
 20
9.13487891
  0
VERTEX
  8
0
 62
7
 10
3.30168750
 20
9.14284375
  0
VERTEX
  8
0
 62
7
 10
3.31196094
 20
9.15488672
  0
VERTEX
  8
0
 62
7
 10
3.31900000
 20
9.17000000
  0
VERTEX
  8
0
 62
7
 10
3.32341406
 20
9.18717578
  0
VERTEX
  8
0
 62
7
 10
3.32581250
 20
9.20540625
  0
VERTEX
  8
0
 62
7
 10
3.32680469
 20
9.22368359
  0
VERTEX
  8
0
 62
7
 10
3.32700000
 20
9.24100000
  0
VERTEX
  8
0
 62
7
 10
3.32815039
 20
9.30704297
  0
VERTEX
  8
0
 62
7
 10
3.33151563
 20
9.37240625
  0
VERTEX
  8
0
 62
7
 10
3.33696680
 20
9.43706641
  0
VERTEX
  8
0
 62
7
 10
3.34437500
 20
9.50100000
  0
VERTEX
  8
0
 62
7
 10
3.35361133
 20
9.56418359
  0
VERTEX
  8
0
 62
7
 10
3.36454688
 20
9.62659375
  0
VERTEX
  8
0
 62
7
 10
3.37705273
 20
9.68820703
  0
VERTEX
  8
0
 62
7
 10
3.39100000
 20
9.74900000
  0
VERTEX
  8
0
 62
7
 10
3.39100000
 20
9.75100000
  0
VERTEX
  8
0
 62
7
 10
3.39100000
 20
9.75500000
  0
VERTEX
  8
0
 62
7
 10
3.37002148
 20
9.83052148
  0
VERTEX
  8
0
 62
7
 10
3.34335938
 20
9.90410938
  0
VERTEX
  8
0
 62
7
 10
3.31142383
 20
9.97579883
  0
VERTEX
  8
0
 62
7
 10
3.27462500
 20
10.04562500
  0
VERTEX
  8
0
 62
7
 10
3.23337305
 20
10.11362305
  0
VERTEX
  8
0
 62
7
 10
3.18807813
 20
10.17982813
  0
VERTEX
  8
0
 62
7
 10
3.13915039
 20
10.24427539
  0
VERTEX
  8
0
 62
7
 10
3.08700000
 20
10.30700000
  0
VERTEX
  8
0
 62
7
 10
3.06328857
 20
10.33644873
  0
VERTEX
  8
0
 62
7
 10
3.04023047
 20
10.36938672
  0
VERTEX
  8
0
 62
7
 10
3.01793994
 20
10.40538916
  0
VERTEX
  8
0
 62
7
 10
2.99653125
 20
10.44403125
  0
VERTEX
  8
0
 62
7
 10
2.97611865
 20
10.48488818
  0
VERTEX
  8
0
 62
7
 10
2.95681641
 20
10.52753516
  0
VERTEX
  8
0
 62
7
 10
2.93873877
 20
10.57154736
  0
VERTEX
  8
0
 62
7
 10
2.92200000
 20
10.61650000
  0
VERTEX
  8
0
 62
7
 10
2.90671436
 20
10.66196826
  0
VERTEX
  8
0
 62
7
 10
2.89299609
 20
10.70752734
  0
VERTEX
  8
0
 62
7
 10
2.88095947
 20
10.75275244
  0
VERTEX
  8
0
 62
7
 10
2.87071875
 20
10.79721875
  0
VERTEX
  8
0
 62
7
 10
2.86238818
 20
10.84050146
  0
VERTEX
  8
0
 62
7
 10
2.85608203
 20
10.88217578
  0
VERTEX
  8
0
 62
7
 10
2.85191455
 20
10.92181689
  0
VERTEX
  8
0
 62
7
 10
2.85000000
 20
10.95900000
  0
VERTEX
  8
0
 62
7
 10
2.84500000
 20
11.04800000
  0
VERTEX
  8
0
 62
7
 10
2.80785547
 20
10.99555591
  0
VERTEX
  8
0
 62
7
 10
2.77293750
 20
10.94105664
  0
VERTEX
  8
0
 62
7
 10
2.74026953
 20
10.88462671
  0
VERTEX
  8
0
 62
7
 10
2.70987500
 20
10.82639063
  0
VERTEX
  8
0
 62
7
 10
2.68177734
 20
10.76647290
  0
VERTEX
  8
0
 62
7
 10
2.65600000
 20
10.70499805
  0
VERTEX
  8
0
 62
7
 10
2.63256641
 20
10.64209058
  0
VERTEX
  8
0
 62
7
 10
2.61150000
 20
10.57787500
  0
VERTEX
  8
0
 62
7
 10
2.59282422
 20
10.51247583
  0
VERTEX
  8
0
 62
7
 10
2.57656250
 20
10.44601758
  0
VERTEX
  8
0
 62
7
 10
2.56273828
 20
10.37862476
  0
VERTEX
  8
0
 62
7
 10
2.55137500
 20
10.31042188
  0
VERTEX
  8
0
 62
7
 10
2.54249609
 20
10.24153345
  0
VERTEX
  8
0
 62
7
 10
2.53612500
 20
10.17208398
  0
VERTEX
  8
0
 62
7
 10
2.53228516
 20
10.10219800
  0
VERTEX
  8
0
 62
7
 10
2.53100000
 20
10.03200000
  0
VERTEX
  8
0
 62
7
 10
2.53325000
 20
9.91912500
  0
VERTEX
  8
0
 62
7
 10
2.54000000
 20
9.81000000
  0
VERTEX
  8
0
 62
7
 10
2.55239063
 20
9.70293555
  0
VERTEX
  8
0
 62
7
 10
2.57200000
 20
9.59098438
  0
VERTEX
  8
0
 62
7
 10
2.59835938
 20
9.47525977
  0
VERTEX
  8
0
 62
7
 10
2.63100000
 20
9.35687500
  0
VERTEX
  8
0
 62
7
 10
2.66945313
 20
9.23694336
  0
VERTEX
  8
0
 62
7
 10
2.71325000
 20
9.11657813
  0
VERTEX
  8
0
 62
7
 10
2.76192188
 20
8.99689258
  0
VERTEX
  8
0
 62
7
 10
2.81500000
 20
8.87900000
  0
VERTEX
  8
0
 62
7
 10
2.81800000
 20
8.87200000
  0
VERTEX
  8
0
 62
7
 10
2.84300000
 20
8.88500000
  0
VERTEX
  8
0
 62
7
 10
2.89200000
 20
8.90800000
  0
VERTEX
  8
0
 62
7
 10
2.91728125
 20
8.92106250
  0
VERTEX
  8
0
 62
7
 10
2.93975000
 20
8.93825000
  0
VERTEX
  8
0
 62
7
 10
2.96034375
 20
8.95806250
  0
VERTEX
  8
0
 62
7
 10
2.98000000
 20
8.97900000
  0
VERTEX
  8
0
 62
7
 10
3.02600000
 20
9.02800000
  0
VERTEX
  8
0
 62
7
 10
3.07700000
 20
9.07400000
  0
SEQEND
  0
POLYLINE
  8
0
 62
7
 66
1
 70
1
  0
VERTEX
  8
0
 62
7
 10
3.86400000
 20
8.92000000
  0
VERTEX
  8
0
 62
7
 10
3.83000000
 20
8.93700000
  0
VERTEX
  8
0
 62
7
 10
3.81800000
 20
8.94800000
  0
VERTEX
  8
0
 62
7
 10
3.78200000
 20
8.98700000
  0
VERTEX
  8
0
 62
7
 10
3.74700000
 20
9.02500000
  0
VERTEX
  8
0
 62
7
 10
3.76729688
 20
9.12441992
  0
VERTEX
  8
0
 62
7
 10
3.78993750
 20
9.22317188
  0
VERTEX
  8
0
 62
7
 10
3.81492188
 20
9.32124414
  0
VERTEX
  8
0
 62
7
 10
3.84225000
 20
9.41862500
  0
VERTEX
  8
0
 62
7
 10
3.87192188
 20
9.51530273
  0
VERTEX
  8
0
 62
7
 10
3.90393750
 20
9.61126563
  0
VERTEX
  8
0
 62
7
 10
3.93829688
 20
9.70650195
  0
VERTEX
  8
0
 62
7
 10
3.97500000
 20
9.80100000
  0
VERTEX
  8
0
 62
7
 10
4.01269531
 20
9.89281836
  0
VERTEX
  8
0
 62
7
 10
4.05231250
 20
9.98373437
  0
VERTEX
  8
0
 62
7
 10
4.09389844
 20
10.07368945
  0
VERTEX
  8
0
 62
7
 10
4.13750000
 20
10.16262500
  0
VERTEX
  8
0
 62
7
 10
4.18316406
 20
10.25048242
  0
VERTEX
  8
0
 62
7
 10
4.23093750
 20
10.33720313
  0
VERTEX
  8
0
 62
7
 10
4.28086719
 20
10.42272852
  0
VERTEX
  8
0
 62
7
 10
4.33300000
 20
10.50700000
  0
VERTEX
  8
0
 62
7
 10
4.34910352
 20
10.52820898
  0
VERTEX
  8
0
 62
7
 10
4.36789063
 20
10.54617188
  0
VERTEX
  8
0
 62
7
 10
4.38895117
 20
10.56101758
  0
VERTEX
  8
0
 62
7
 10
4.41187500
 20
10.57287500
  0
VERTEX
  8
0
 62
7
 10
4.43625195
 20
10.58187305
  0
VERTEX
  8
0
 62
7
 10
4.46167188
 20
10.58814063
  0
VERTEX
  8
0
 62
7
 10
4.48772461
 20
10.59180664
  0
VERTEX
  8
0
 62
7
 10
4.51400000
 20
10.59300000
  0
VERTEX
  8
0
 62
7
 10
4.56600977
 20
10.58964844
  0
VERTEX
  8
0
 62
7
 10
4.61601563
 20
10.57987500
  0
VERTEX
  8
0
 62
7
 10
4.66360742
 20
10.56410156
  0
VERTEX
  8
0
 62
7
 10
4.70837500
 20
10.54275000
  0
VERTEX
  8
0
 62
7
 10
4.74990820
 20
10.51624219
  0
VERTEX
  8
0
 62
7
 10
4.78779688
 20
10.48500000
  0
VERTEX
  8
0
 62
7
 10
4.82163086
 20
10.44944531
  0
VERTEX
  8
0
 62
7
 10
4.85100000
 20
10.41000000
  0
VERTEX
  8
0
 62
7
 10
4.86800000
 20
10.38200000
  0
VERTEX
  8
0
 62
7
 10
4.83768750
 20
10.39276563
  0
VERTEX
  8
0
 62
7
 10
4.80550000
 20
10.39987500
  0
VERTEX
  8
0
 62
7
 10
4.77181250
 20
10.40379688
  0
VERTEX
  8
0
 62
7
 10
4.73700000
 20
10.40500000
  0
VERTEX
  8
0
 62
7
 10
4.71662500
 20
10.40398438
  0
VERTEX
  8
0
 62
7
 10
4.69681250
 20
10.40100000
  0
VERTEX
  8
0
 62
7
 10
4.67765625
 20
10.39614063
  0
VERTEX
  8
0
 62
7
 10
4.65925000
 20
10.38950000
  0
VERTEX
  8
0
 62
7
 10
4.64168750
 20
10.38117188
  0
VERTEX
  8
0
 62
7
 10
4.62506250
 20
10.37125000
  0
VERTEX
  8
0
 62
7
 10
4.60946875
 20
10.35982813
  0
VERTEX
  8
0
 62
7
 10
4.59500000
 20
10.34700000
  0
VERTEX
  8
0
 62
7
 10
4.56481445
 20
10.30721289
  0
VERTEX
  8
0
 62
7
 10
4.53914063
 20
10.26176563
  0
VERTEX
  8
0
 62
7
 10
4.51742773
 20
10.21127930
  0
VERTEX
  8
0
 62
7
 10
4.49912500
 20
10.15637500
  0
VERTEX
  8
0
 62
7
 10
4.48368164
 20
10.09767383
  0
VERTEX
  8
0
 62
7
 10
4.47054688
 20
10.03579688
  0
VERTEX
  8
0
 62
7
 10
4.45916992
 20
9.97136523
  0
VERTEX
  8
0
 62
7
 10
4.44900000
 20
9.90500000
  0
VERTEX
  8
0
 62
7
 10
4.43315820
 20
9.81191992
  0
VERTEX
  8
0
 62
7
 10
4.41432813
 20
9.72454688
  0
VERTEX
  8
0
 62
7
 10
4.39280273
 20
9.64155664
  0
VERTEX
  8
0
 62
7
 10
4.36887500
 20
9.56162500
  0
VERTEX
  8
0
 62
7
 10
4.34283789
 20
9.48342773
  0
VERTEX
  8
0
 62
7
 10
4.31498438
 20
9.40564063
  0
VERTEX
  8
0
 62
7
 10
4.28560742
 20
9.32693945
  0
VERTEX
  8
0
 62
7
 10
4.25500000
 20
9.24600000
  0
VERTEX
  8
0
 62
7
 10
4.13540625
 20
9.16089063
  0
VERTEX
  8
0
 62
7
 10
4.02725000
 20
9.07512500
  0
VERTEX
  8
0
 62
7
 10
3.93521875
 20
8.99329688
  0
VERTEX
  8
0
 62
7
 10
3.86400000
 20
8.92000000
  0
SEQEND
  0
POLYLINE
  8
0
 62
7
 66
1
 70
1
  0
VERTEX
  8
0
 62
7
 10
3.38100000
 20
10.03200000
  0
VERTEX
  8
0
 62
7
 10
3.38000000
 20
10.09300000
  0
VERTEX
  8
0
 62
7
 10
3.36600000
 20
10.67200000
  0
VERTEX
  8
0
 62
7
 10
3.36212500
 20
10.79475000
  0
VERTEX
  8
0
 62
7
 10
3.35600000
 20
10.91900000
  0
VERTEX
  8
0
 62
7
 10
3.35028125
 20
11.01056250
  0
VERTEX
  8
0
 62
7
 10
3.34700000
 20
11.09500000
  0
VERTEX
  8
0
 62
7
 10
3.34671875
 20
11.17943750
  0
VERTEX
  8
0
 62
7
 10
3.35000000
 20
11.27100000
  0
VERTEX
  8
0
 62
7
 10
3.35660938
 20
11.37256250
  0
VERTEX
  8
0
 62
7
 10
3.36612500
 20
11.47525000
  0
VERTEX
  8
0
 62
7
 10
3.37882813
 20
11.57756250
  0
VERTEX
  8
0
 62
7
 10
3.39500000
 20
11.67800000
  0
VERTEX
  8
0
 62
7
 10
3.42900000
 20
11.67300000
  0
VERTEX
  8
0
 62
7
 10
3.41654688
 20
11.57348438
  0
VERTEX
  8
0
 62
7
 10
3.41037500
 20
11.47162500
  0
VERTEX
  8
0
 62
7
 10
3.40776563
 20
11.36995313
  0
VERTEX
  8
0
 62
7
 10
3.40600000
 20
11.27100000
  0
VERTEX
  8
0
 62
7
 10
3.40534375
 20
11.17935938
  0
VERTEX
  8
0
 62
7
 10
3.40750000
 20
11.08912500
  0
VERTEX
  8
0
 62
7
 10
3.41190625
 20
10.99832813
  0
VERTEX
  8
0
 62
7
 10
3.41800000
 20
10.90500000
  0
VERTEX
  8
0
 62
7
 10
3.42812500
 20
10.78950000
  0
VERTEX
  8
0
 62
7
 10
3.43600000
 20
10.67400000
  0
VERTEX
  8
0
 62
7
 10
3.45000000
 20
10.09400000
  0
VERTEX
  8
0
 62
7
 10
3.45300000
 20
9.95300000
  0
VERTEX
  8
0
 62
7
 10
3.48682617
 20
10.04054492
  0
VERTEX
  8
0
 62
7
 10
3.52448438
 20
10.12610938
  0
VERTEX
  8
0
 62
7
 10
3.56586914
 20
10.20958789
  0
VERTEX
  8
0
 62
7
 10
3.61087500
 20
10.29087500
  0
VERTEX
  8
0
 62
7
 10
3.65939648
 20
10.36986523
  0
VERTEX
  8
0
 62
7
 10
3.71132813
 20
10.44645313
  0
VERTEX
  8
0
 62
7
 10
3.76656445
 20
10.52053320
  0
VERTEX
  8
0
 62
7
 10
3.82500000
 20
10.59200000
  0
VERTEX
  8
0
 62
7
 10
3.82950000
 20
10.65450000
  0
VERTEX
  8
0
 62
7
 10
3.83100000
 20
10.72000000
  0
VERTEX
  8
0
 62
7
 10
3.83020117
 20
10.76519849
  0
VERTEX
  8
0
 62
7
 10
3.82784375
 20
10.81416602
  0
VERTEX
  8
0
 62
7
 10
3.82398633
 20
10.86633569
  0
VERTEX
  8
0
 62
7
 10
3.81868750
 20
10.92114063
  0
VERTEX
  8
0
 62
7
 10
3.81200586
 20
10.97801392
  0
VERTEX
  8
0
 62
7
 10
3.80400000
 20
11.03638867
  0
VERTEX
  8
0
 62
7
 10
3.79472852
 20
11.09569800
  0
VERTEX
  8
0
 62
7
 10
3.78425000
 20
11.15537500
  0
VERTEX
  8
0
 62
7
 10
3.77262305
 20
11.21485278
  0
VERTEX
  8
0
 62
7
 10
3.75990625
 20
11.27356445
  0
VERTEX
  8
0
 62
7
 10
3.74615820
 20
11.33094312
  0
VERTEX
  8
0
 62
7
 10
3.73143750
 20
11.38642188
  0
VERTEX
  8
0
 62
7
 10
3.71580273
 20
11.43943384
  0
VERTEX
  8
0
 62
7
 10
3.69931250
 20
11.48941211
  0
VERTEX
  8
0
 62
7
 10
3.68202539
 20
11.53578979
  0
VERTEX
  8
0
 62
7
 10
3.66400000
 20
11.57800000
  0
VERTEX
  8
0
 62
7
 10
3.63752734
 20
11.63833203
  0
VERTEX
  8
0
 62
7
 10
3.61253125
 20
11.70253125
  0
VERTEX
  8
0
 62
7
 10
3.58964453
 20
11.76977734
  0
VERTEX
  8
0
 62
7
 10
3.56950000
 20
11.83925000
  0
VERTEX
  8
0
 62
7
 10
3.55273047
 20
11.91012891
  0
VERTEX
  8
0
 62
7
 10
3.53996875
 20
11.98159375
  0
VERTEX
  8
0
 62
7
 10
3.53184766
 20
12.05282422
  0
VERTEX
  8
0
 62
7
 10
3.52900000
 20
12.12300000
  0
VERTEX
  8
0
 62
7
 10
3.53200000
 20
12.19200000
  0
VERTEX
  8
0
 62
7
 10
3.49030542
 20
12.15345703
  0
VERTEX
  8
0
 62
7
 10
3.45034961
 20
12.11221875
  0
VERTEX
  8
0
 62
7
 10
3.41213696
 20
12.06849609
  0
VERTEX
  8
0
 62
7
 10
3.37567188
 20
12.02250000
  0
VERTEX
  8
0
 62
7
 10
3.34095874
 20
11.97444141
  0
VERTEX
  8
0
 62
7
 10
3.30800195
 20
11.92453125
  0
VERTEX
  8
0
 62
7
 10
3.27680591
 20
11.87298047
  0
VERTEX
  8
0
 62
7
 10
3.24737500
 20
11.82000000
  0
VERTEX
  8
0
 62
7
 10
3.21971362
 20
11.76580078
  0
VERTEX
  8
0
 62
7
 10
3.19382617
 20
11.71059375
  0
VERTEX
  8
0
 62
7
 10
3.16971704
 20
11.65458984
  0
VERTEX
  8
0
 62
7
 10
3.14739063
 20
11.59800000
  0
VERTEX
  8
0
 62
7
 10
3.12685132
 20
11.54103516
  0
VERTEX
  8
0
 62
7
 10
3.10810352
 20
11.48390625
  0
VERTEX
  8
0
 62
7
 10
3.09115161
 20
11.42682422
  0
VERTEX
  8
0
 62
7
 10
3.07600000
 20
11.37000000
  0
VERTEX
  8
0
 62
7
 10
3.06233398
 20
11.30410742
  0
VERTEX
  8
0
 62
7
 10
3.04879688
 20
11.21804688
  0
VERTEX
  8
0
 62
7
 10
3.03608008
 20
11.11836914
  0
VERTEX
  8
0
 62
7
 10
3.02487500
 20
11.01162500
  0
VERTEX
  8
0
 62
7
 10
3.01587305
 20
10.90436523
  0
VERTEX
  8
0
 62
7
 10
3.00976563
 20
10.80314063
  0
VERTEX
  8
0
 62
7
 10
3.00724414
 20
10.71450195
  0
VERTEX
  8
0
 62
7
 10
3.00900000
 20
10.64500000
  0
VERTEX
  8
0
 62
7
 10
3.01921289
 20
10.59991211
  0
VERTEX
  8
0
 62
7
 10
3.03126563
 20
10.56048438
  0
VERTEX
  8
0
 62
7
 10
3.04540430
 20
10.52534570
  0
VERTEX
  8
0
 62
7
 10
3.06187500
 20
10.49312500
  0
VERTEX
  8
0
 62
7
 10
3.08092383
 20
10.46245117
  0
VERTEX
  8
0
 62
7
 10
3.10279688
 20
10.43195313
  0
VERTEX
  8
0
 62
7
 10
3.12774023
 20
10.40025977
  0
VERTEX
  8
0
 62
7
 10
3.15600000
 20
10.36600000
  0
VERTEX
  8
0
 62
7
 10
3.22082813
 20
10.28878125
  0
VERTEX
  8
0
 62
7
 10
3.28012500
 20
10.20725000
  0
VERTEX
  8
0
 62
7
 10
3.33360938
 20
10.12159375
  0
VERTEX
  8
0
 62
7
 10
3.38100000
 20
10.03200000
  0
SEQEND
  0
POLYLINE
  8
0
 62
7
 66
1
 70
1
  0
VERTEX
  8
0
 62
7
 10
3.21000000
 20
6.12900000
  0
VERTEX
  8
0
 62
7
 10
3.23987500
 20
6.12687500
  0
VERTEX
  8
0
 62
7
 10
3.27200000
 20
6.12700000
  0
VERTEX
  8
0
 62
7
 10
3.33200000
 20
6.13000000
  0
VERTEX
  8
0
 62
7
 10
3.34300000
 20
6.16100000
  0
VERTEX
  8
0
 62
7
 10
3.38494141
 20
6.07112305
  0
VERTEX
  8
0
 62
7
 10
3.42221875
 20
5.97935938
  0
VERTEX
  8
0
 62
7
 10
3.45476172
 20
5.88588477
  0
VERTEX
  8
0
 62
7
 10
3.48250000
 20
5.79087500
  0
VERTEX
  8
0
 62
7
 10
3.50536328
 20
5.69450586
  0
VERTEX
  8
0
 62
7
 10
3.52328125
 20
5.59695313
  0
VERTEX
  8
0
 62
7
 10
3.53618359
 20
5.49839258
  0
VERTEX
  8
0
 62
7
 10
3.54400000
 20
5.39900000
  0
VERTEX
  8
0
 62
7
 10
3.54700000
 20
5.29700000
  0
VERTEX
  8
0
 62
7
 10
3.54417188
 20
5.19204688
  0
VERTEX
  8
0
 62
7
 10
3.53562500
 20
5.08737500
  0
VERTEX
  8
0
 62
7
 10
3.52126563
 20
4.98326563
  0
VERTEX
  8
0
 62
7
 10
3.50100000
 20
4.88000000
  0
VERTEX
  8
0
 62
7
 10
3.55025000
 20
4.94675000
  0
VERTEX
  8
0
 62
7
 10
3.59200000
 20
5.01500000
  0
VERTEX
  8
0
 62
7
 10
3.63175977
 20
5.09457422
  0
VERTEX
  8
0
 62
7
 10
3.66089063
 20
5.16821875
  0
VERTEX
  8
0
 62
7
 10
3.68141992
 20
5.23694141
  0
VERTEX
  8
0
 62
7
 10
3.69537500
 20
5.30175000
  0
VERTEX
  8
0
 62
7
 10
3.70478320
 20
5.36365234
  0
VERTEX
  8
0
 62
7
 10
3.71167188
 20
5.42365625
  0
VERTEX
  8
0
 62
7
 10
3.71806836
 20
5.48276953
  0
VERTEX
  8
0
 62
7
 10
3.72600000
 20
5.54200000
  0
VERTEX
  8
0
 62
7
 10
3.73920117
 20
5.62337695
  0
VERTEX
  8
0
 62
7
 10
3.75248438
 20
5.69482813
  0
VERTEX
  8
0
 62
7
 10
3.76686914
 20
5.75945898
  0
VERTEX
  8
0
 62
7
 10
3.78337500
 20
5.82037500
  0
VERTEX
  8
0
 62
7
 10
3.80302148
 20
5.88068164
  0
VERTEX
  8
0
 62
7
 10
3.82682813
 20
5.94348438
  0
VERTEX
  8
0
 62
7
 10
3.85581445
 20
6.01188867
  0
VERTEX
  8
0
 62
7
 10
3.89100000
 20
6.08900000
  0
VERTEX
  8
0
 62
7
 10
3.91642480
 20
6.14298315
  0
VERTEX
  8
0
 62
7
 10
3.94219531
 20
6.19630273
  0
VERTEX
  8
0
 62
7
 10
3.96849316
 20
6.24857642
  0
VERTEX
  8
0
 62
7
 10
3.99550000
 20
6.29942188
  0
VERTEX
  8
0
 62
7
 10
4.02339746
 20
6.34845679
  0
VERTEX
  8
0
 62
7
 10
4.05236719
 20
6.39529883
  0
VERTEX
  8
0
 62
7
 10
4.08259082
 20
6.43956567
  0
VERTEX
  8
0
 62
7
 10
4.11425000
 20
6.48087500
  0
VERTEX
  8
0
 62
7
 10
4.14752637
 20
6.51884448
  0
VERTEX
  8
0
 62
7
 10
4.18260156
 20
6.55309180
  0
VERTEX
  8
0
 62
7
 10
4.21965723
 20
6.58323462
  0
VERTEX
  8
0
 62
7
 10
4.25887500
 20
6.60889063
  0
VERTEX
  8
0
 62
7
 10
4.30043652
 20
6.62967749
  0
VERTEX
  8
0
 62
7
 10
4.34452344
 20
6.64521289
  0
VERTEX
  8
0
 62
7
 10
4.39131738
 20
6.65511450
  0
VERTEX
  8
0
 62
7
 10
4.44100000
 20
6.65900000
  0
VERTEX
  8
0
 62
7
 10
4.48195703
 20
6.65621484
  0
VERTEX
  8
0
 62
7
 10
4.52190625
 20
6.64740625
  0
VERTEX
  8
0
 62
7
 10
4.56021484
 20
6.63301953
  0
VERTEX
  8
0
 62
7
 10
4.59625000
 20
6.61350000
  0
VERTEX
  8
0
 62
7
 10
4.62937891
 20
6.58929297
  0
VERTEX
  8
0
 62
7
 10
4.65896875
 20
6.56084375
  0
VERTEX
  8
0
 62
7
 10
4.68438672
 20
6.52859766
  0
VERTEX
  8
0
 62
7
 10
4.70500000
 20
6.49300000
  0
VERTEX
  8
0
 62
7
 10
4.64043750
 20
6.47114063
  0
VERTEX
  8
0
 62
7
 10
4.57925000
 20
6.44187500
  0
VERTEX
  8
0
 62
7
 10
4.52218750
 20
6.40567188
  0
VERTEX
  8
0
 62
7
 10
4.47000000
 20
6.36300000
  0
VERTEX
  8
0
 62
7
 10
4.42471875
 20
6.31467188
  0
VERTEX
  8
0
 62
7
 10
4.38675000
 20
6.26137500
  0
VERTEX
  8
0
 62
7
 10
4.35440625
 20
6.20564063
  0
VERTEX
  8
0
 62
7
 10
4.32600000
 20
6.15000000
  0
VERTEX
  8
0
 62
7
 10
4.29040625
 20
6.06609375
  0
VERTEX
  8
0
 62
7
 10
4.25950000
 20
5.98200000
  0
VERTEX
  8
0
 62
7
 10
4.23009375
 20
5.89940625
  0
VERTEX
  8
0
 62
7
 10
4.19900000
 20
5.82000000
  0
VERTEX
  8
0
 62
7
 10
4.13078125
 20
5.67715625
  0
VERTEX
  8
0
 62
7
 10
4.05525000
 20
5.53825000
  0
VERTEX
  8
0
 62
7
 10
3.97259375
 20
5.40346875
  0
VERTEX
  8
0
 62
7
 10
3.88300000
 20
5.27300000
  0
VERTEX
  8
0
 62
7
 10
3.87789063
 20
5.26179688
  0
VERTEX
  8
0
 62
7
 10
3.87737500
 20
5.25012500
  0
VERTEX
  8
0
 62
7
 10
3.88117188
 20
5.23939063
  0
VERTEX
  8
0
 62
7
 10
3.88900000
 20
5.23100000
  0
VERTEX
  8
0
 62
7
 10
3.90020313
 20
5.22589063
  0
VERTEX
  8
0
 62
7
 10
3.91187500
 20
5.22537500
  0
VERTEX
  8
0
 62
7
 10
3.92260938
 20
5.22917188
  0
VERTEX
  8
0
 62
7
 10
3.93100000
 20
5.23700000
  0
VERTEX
  8
0
 62
7
 10
3.97744336
 20
5.30318359
  0
VERTEX
  8
0
 62
7
 10
4.02223438
 20
5.37046875
  0
VERTEX
  8
0
 62
7
 10
4.06531445
 20
5.43883203
  0
VERTEX
  8
0
 62
7
 10
4.10662500
 20
5.50825000
  0
VERTEX
  8
0
 62
7
 10
4.14610742
 20
5.57869922
  0
VERTEX
  8
0
 62
7
 10
4.18370313
 20
5.65015625
  0
VERTEX
  8
0
 62
7
 10
4.21935352
 20
5.72259766
  0
VERTEX
  8
0
 62
7
 10
4.25300000
 20
5.79600000
  0
VERTEX
  8
0
 62
7
 10
4.28603125
 20
5.87892188
  0
VERTEX
  8
0
 62
7
 10
4.31475000
 20
5.96137500
  0
VERTEX
  8
0
 62
7
 10
4.34384375
 20
6.04364063
  0
VERTEX
  8
0
 62
7
 10
4.37800000
 20
6.12600000
  0
VERTEX
  8
0
 62
7
 10
4.39165430
 20
6.15412109
  0
VERTEX
  8
0
 62
7
 10
4.40510938
 20
6.18203125
  0
VERTEX
  8
0
 62
7
 10
4.41872852
 20
6.20942578
  0
VERTEX
  8
0
 62
7
 10
4.43287500
 20
6.23600000
  0
VERTEX
  8
0
 62
7
 10
4.44791211
 20
6.26144922
  0
VERTEX
  8
0
 62
7
 10
4.46420313
 20
6.28546875
  0
VERTEX
  8
0
 62
7
 10
4.48211133
 20
6.30775391
  0
VERTEX
  8
0
 62
7
 10
4.50200000
 20
6.32800000
  0
VERTEX
  8
0
 62
7
 10
4.54261328
 20
6.36271680
  0
VERTEX
  8
0
 62
7
 10
4.58559375
 20
6.39442188
  0
VERTEX
  8
0
 62
7
 10
4.63077734
 20
6.42244727
  0
VERTEX
  8
0
 62
7
 10
4.67800000
 20
6.44612500
  0
VERTEX
  8
0
 62
7
 10
4.72709766
 20
6.46478711
  0
VERTEX
  8
0
 62
7
 10
4.77790625
 20
6.47776563
  0
VERTEX
  8
0
 62
7
 10
4.83026172
 20
6.48439258
  0
VERTEX
  8
0
 62
7
 10
4.88400000
 20
6.48400000
  0
VERTEX
  8
0
 62
7
 10
4.91802319
 20
6.47981860
  0
VERTEX
  8
0
 62
7
 10
4.94965430
 20
6.47262695
  0
VERTEX
  8
0
 62
7
 10
4.97898560
 20
6.46257886
  0
VERTEX
  8
0
 62
7
 10
5.00610938
 20
6.44982813
  0
VERTEX
  8
0
 62
7
 10
5.03111792
 20
6.43452856
  0
VERTEX
  8
0
 62
7
 10
5.05410352
 20
6.41683398
  0
VERTEX
  8
0
 62
7
 10
5.07515845
 20
6.39689819
  0
VERTEX
  8
0
 62
7
 10
5.09437500
 20
6.37487500
  0
VERTEX
  8
0
 62
7
 10
5.11184546
 20
6.35091821
  0
VERTEX
  8
0
 62
7
 10
5.12766211
 20
6.32518164
  0
VERTEX
  8
0
 62
7
 10
5.14191724
 20
6.29781909
  0
VERTEX
  8
0
 62
7
 10
5.15470313
 20
6.26898438
  0
VERTEX
  8
0
 62
7
 10
5.16611206
 20
6.23883130
  0
VERTEX
  8
0
 62
7
 10
5.17623633
 20
6.20751367
  0
VERTEX
  8
0
 62
7
 10
5.18516821
 20
6.17518530
  0
VERTEX
  8
0
 62
7
 10
5.19300000
 20
6.14200000
  0
VERTEX
  8
0
 62
7
 10
5.13800000
 20
6.15662500
  0
VERTEX
  8
0
 62
7
 10
5.07700000
 20
6.16600000
  0
VERTEX
  8
0
 62
7
 10
5.04201563
 20
6.16748755
  0
VERTEX
  8
0
 62
7
 10
5.00904688
 20
6.16566602
  0
VERTEX
  8
0
 62
7
 10
4.97807031
 20
6.16067163
  0
VERTEX
  8
0
 62
7
 10
4.94906250
 20
6.15264063
  0
VERTEX
  8
0
 62
7
 10
4.92200000
 20
6.14170923
  0
VERTEX
  8
0
 62
7
 10
4.89685938
 20
6.12801367
  0
VERTEX
  8
0
 62
7
 10
4.87361719
 20
6.11169019
  0
VERTEX
  8
0
 62
7
 10
4.85225000
 20
6.09287500
  0
VERTEX
  8
0
 62
7
 10
4.83273438
 20
6.07170435
  0
VERTEX
  8
0
 62
7
 10
4.81504688
 20
6.04831445
  0
VERTEX
  8
0
 62
7
 10
4.79916406
 20
6.02284155
  0
VERTEX
  8
0
 62
7
 10
4.78506250
 20
5.99542188
  0
VERTEX
  8
0
 62
7
 10
4.77271875
 20
5.96619165
  0
VERTEX
  8
0
 62
7
 10
4.76210938
 20
5.93528711
  0
VERTEX
  8
0
 62
7
 10
4.75321094
 20
5.90284448
  0
VERTEX
  8
0
 62
7
 10
4.74600000
 20
5.86900000
  0
VERTEX
  8
0
 62
7
 10
4.72803882
 20
5.80881226
  0
VERTEX
  8
0
 62
7
 10
4.70791992
 20
5.75082617
  0
VERTEX
  8
0
 62
7
 10
4.68566528
 20
5.69496997
  0
VERTEX
  8
0
 62
7
 10
4.66129688
 20
5.64117188
  0
VERTEX
  8
0
 62
7
 10
4.63483667
 20
5.58936011
  0
VERTEX
  8
0
 62
7
 10
4.60630664
 20
5.53946289
  0
VERTEX
  8
0
 62
7
 10
4.57572876
 20
5.49140845
  0
VERTEX
  8
0
 62
7
 10
4.54312500
 20
5.44512500
  0
VERTEX
  8
0
 62
7
 10
4.50851733
 20
5.40054077
  0
VERTEX
  8
0
 62
7
 10
4.47192773
 20
5.35758398
  0
VERTEX
  8
0
 62
7
 10
4.43337817
 20
5.31618286
  0
VERTEX
  8
0
 62
7
 10
4.39289063
 20
5.27626563
  0
VERTEX
  8
0
 62
7
 10
4.35048706
 20
5.23776050
  0
VERTEX
  8
0
 62
7
 10
4.30618945
 20
5.20059570
  0
VERTEX
  8
0
 62
7
 10
4.26001978
 20
5.16469946
  0
VERTEX
  8
0
 62
7
 10
4.21200000
 20
5.13000000
  0
VERTEX
  8
0
 62
7
 10
4.18246851
 20
5.11115674
  0
VERTEX
  8
0
 62
7
 10
4.15270117
 20
5.09512891
  0
VERTEX
  8
0
 62
7
 10
4.12262622
 20
5.08135693
  0
VERTEX
  8
0
 62
7
 10
4.09217188
 20
5.06928125
  0
VERTEX
  8
0
 62
7
 10
4.06126636
 20
5.05834229
  0
VERTEX
  8
0
 62
7
 10
4.02983789
 20
5.04798047
  0
VERTEX
  8
0
 62
7
 10
3.99781470
 20
5.03763623
  0
VERTEX
  8
0
 62
7
 10
3.96512500
 20
5.02675000
  0
VERTEX
  8
0
 62
7
 10
3.93169702
 20
5.01476221
  0
VERTEX
  8
0
 62
7
 10
3.89745898
 20
5.00111328
  0
VERTEX
  8
0
 62
7
 10
3.86233911
 20
4.98524365
  0
VERTEX
  8
0
 62
7
 10
3.82626563
 20
4.96659375
  0
VERTEX
  8
0
 62
7
 10
3.78916675
 20
4.94460400
  0
VERTEX
  8
0
 62
7
 10
3.75097070
 20
4.91871484
  0
VERTEX
  8
0
 62
7
 10
3.71160571
 20
4.88836670
  0
VERTEX
  8
0
 62
7
 10
3.67100000
 20
4.85300000
  0
VERTEX
  8
0
 62
7
 10
3.55859375
 20
4.74573438
  0
VERTEX
  8
0
 62
7
 10
3.44525000
 20
4.63087500
  0
VERTEX
  8
0
 62
7
 10
3.33828125
 20
4.51507813
  0
VERTEX
  8
0
 62
7
 10
3.24500000
 20
4.40500000
  0
VERTEX
  8
0
 62
7
 10
3.15700000
 20
4.30900000
  0
VERTEX
  8
0
 62
7
 10
3.09929688
 20
4.24732813
  0
VERTEX
  8
0
 62
7
 10
3.03737500
 20
4.18537500
  0
VERTEX
  8
0
 62
7
 10
2.97151563
 20
4.12548438
  0
VERTEX
  8
0
 62
7
 10
2.90200000
 20
4.07000000
  0
VERTEX
  8
0
 62
7
 10
2.87671680
 20
4.05177734
  0
VERTEX
  8
0
 62
7
 10
2.85104688
 20
4.03484375
  0
VERTEX
  8
0
 62
7
 10
2.82488477
 20
4.01955078
  0
VERTEX
  8
0
 62
7
 10
2.79812500
 20
4.00625000
  0
VERTEX
  8
0
 62
7
 10
2.77066211
 20
3.99529297
  0
VERTEX
  8
0
 62
7
 10
2.74239063
 20
3.98703125
  0
VERTEX
  8
0
 62
7
 10
2.71320508
 20
3.98181641
  0
VERTEX
  8
0
 62
7
 10
2.68300000
 20
3.98000000
  0
VERTEX
  8
0
 62
7
 10
2.65602539
 20
3.98117188
  0
VERTEX
  8
0
 62
7
 10
2.62864063
 20
3.98487500
  0
VERTEX
  8
0
 62
7
 10
2.60127930
 20
3.99139063
  0
VERTEX
  8
0
 62
7
 10
2.57437500
 20
4.00100000
  0
VERTEX
  8
0
 62
7
 10
2.54836133
 20
4.01398438
  0
VERTEX
  8
0
 62
7
 10
2.52367188
 20
4.03062500
  0
VERTEX
  8
0
 62
7
 10
2.50074023
 20
4.05120313
  0
VERTEX
  8
0
 62
7
 10
2.48000000
 20
4.07600000
  0
VERTEX
  8
0
 62
7
 10
2.45973438
 20
4.10942188
  0
VERTEX
  8
0
 62
7
 10
2.44537500
 20
4.14462500
  0
VERTEX
  8
0
 62
7
 10
2.43682813
 20
4.18076563
  0
VERTEX
  8
0
 62
7
 10
2.43400000
 20
4.21700000
  0
VERTEX
  8
0
 62
7
 10
2.43667578
 20
4.25276367
  0
VERTEX
  8
0
 62
7
 10
2.44453125
 20
4.28767188
  0
VERTEX
  8
0
 62
7
 10
2.45730859
 20
4.32115039
  0
VERTEX
  8
0
 62
7
 10
2.47475000
 20
4.35262500
  0
VERTEX
  8
0
 62
7
 10
2.49659766
 20
4.38152148
  0
VERTEX
  8
0
 62
7
 10
2.52259375
 20
4.40726563
  0
VERTEX
  8
0
 62
7
 10
2.55248047
 20
4.42928320
  0
VERTEX
  8
0
 62
7
 10
2.58600000
 20
4.44700000
  0
VERTEX
  8
0
 62
7
 10
2.61050000
 20
4.45618750
  0
VERTEX
  8
0
 62
7
 10
2.63575000
 20
4.46275000
  0
VERTEX
  8
0
 62
7
 10
2.66137500
 20
4.46668750
  0
VERTEX
  8
0
 62
7
 10
2.68700000
 20
4.46800000
  0
VERTEX
  8
0
 62
7
 10
2.71902539
 20
4.46576172
  0
VERTEX
  8
0
 62
7
 10
2.74876563
 20
4.45928125
  0
VERTEX
  8
0
 62
7
 10
2.77571680
 20
4.44891016
  0
VERTEX
  8
0
 62
7
 10
2.79937500
 20
4.43500000
  0
VERTEX
  8
0
 62
7
 10
2.81923633
 20
4.41790234
  0
VERTEX
  8
0
 62
7
 10
2.83479688
 20
4.39796875
  0
VERTEX
  8
0
 62
7
 10
2.84555273
 20
4.37555078
  0
VERTEX
  8
0
 62
7
 10
2.85100000
 20
4.35100000
  0
VERTEX
  8
0
 62
7
 10
2.85175000
 20
4.32593750
  0
VERTEX
  8
0
 62
7
 10
2.84800000
 20
4.29975000
  0
VERTEX
  8
0
 62
7
 10
2.83750000
 20
4.27168750
  0
VERTEX
  8
0
 62
7
 10
2.81800000
 20
4.24100000
  0
VERTEX
  8
0
 62
7
 10
2.81654688
 20
4.24041602
  0
VERTEX
  8
0
 62
7
 10
2.81537500
 20
4.24364063
  0
VERTEX
  8
0
 62
7
 10
2.81364063
 20
4.25026367
  0
VERTEX
  8
0
 62
7
 10
2.81050000
 20
4.25987500
  0
VERTEX
  8
0
 62
7
 10
2.80510938
 20
4.27206445
  0
VERTEX
  8
0
 62
7
 10
2.79662500
 20
4.28642188
  0
VERTEX
  8
0
 62
7
 10
2.78420313
 20
4.30253711
  0
VERTEX
  8
0
 62
7
 10
2.76700000
 20
4.32000000
  0
VERTEX
  8
0
 62
7
 10
2.75505469
 20
4.32864648
  0
VERTEX
  8
0
 62
7
 10
2.74193750
 20
4.33517188
  0
VERTEX
  8
0
 62
7
 10
2.72797656
 20
4.33970508
  0
VERTEX
  8
0
 62
7
 10
2.71350000
 20
4.34237500
  0
VERTEX
  8
0
 62
7
 10
2.69883594
 20
4.34331055
  0
VERTEX
  8
0
 62
7
 10
2.68431250
 20
4.34264063
  0
VERTEX
  8
0
 62
7
 10
2.67025781
 20
4.34049414
  0
VERTEX
  8
0
 62
7
 10
2.65700000
 20
4.33700000
  0
VERTEX
  8
0
 62
7
 10
2.63202148
 20
4.32619141
  0
VERTEX
  8
0
 62
7
 10
2.61017188
 20
4.31015625
  0
VERTEX
  8
0
 62
7
 10
2.59233008
 20
4.28985547
  0
VERTEX
  8
0
 62
7
 10
2.57937500
 20
4.26625000
  0
VERTEX
  8
0
 62
7
 10
2.57218555
 20
4.24030078
  0
VERTEX
  8
0
 62
7
 10
2.57164063
 20
4.21296875
  0
VERTEX
  8
0
 62
7
 10
2.57861914
 20
4.18521484
  0
VERTEX
  8
0
 62
7
 10
2.59400000
 20
4.15800000
  0
VERTEX
  8
0
 62
7
 10
2.60917188
 20
4.14193750
  0
VERTEX
  8
0
 62
7
 10
2.62912500
 20
4.13000000
  0
VERTEX
  8
0
 62
7
 10
2.65376563
 20
4.12256250
  0
VERTEX
  8
0
 62
7
 10
2.68300000
 20
4.12000000
  0
VERTEX
  8
0
 62
7
 10
2.72315625
 20
4.12395313
  0
VERTEX
  8
0
 62
7
 10
2.76125000
 20
4.13512500
  0
VERTEX
  8
0
 62
7
 10
2.79746875
 20
4.15248438
  0
VERTEX
  8
0
 62
7
 10
2.83200000
 20
4.17500000
  0
VERTEX
  8
0
 62
7
 10
2.87105078
 20
4.20634766
  0
VERTEX
  8
0
 62
7
 10
2.90965625
 20
4.24146875
  0
VERTEX
  8
0
 62
7
 10
2.94812109
 20
4.27973047
  0
VERTEX
  8
0
 62
7
 10
2.98675000
 20
4.32050000
  0
VERTEX
  8
0
 62
7
 10
3.02584766
 20
4.36314453
  0
VERTEX
  8
0
 62
7
 10
3.06571875
 20
4.40703125
  0
VERTEX
  8
0
 62
7
 10
3.10666797
 20
4.45152734
  0
VERTEX
  8
0
 62
7
 10
3.14900000
 20
4.49600000
  0
VERTEX
  8
0
 62
7
 10
3.29500000
 20
4.65300000
  0
VERTEX
  8
0
 62
7
 10
3.26704688
 20
4.70918750
  0
VERTEX
  8
0
 62
7
 10
3.23412500
 20
4.76200000
  0
VERTEX
  8
0
 62
7
 10
3.19614063
 20
4.81106250
  0
VERTEX
  8
0
 62
7
 10
3.15300000
 20
4.85600000
  0
VERTEX
  8
0
 62
7
 10
3.06681055
 20
4.92906250
  0
VERTEX
  8
0
 62
7
 10
2.99148438
 20
4.98243750
  0
VERTEX
  8
0
 62
7
 10
2.92400977
 20
5.02165625
  0
VERTEX
  8
0
 62
7
 10
2.86137500
 20
5.05225000
  0
VERTEX
  8
0
 62
7
 10
2.80056836
 20
5.07975000
  0
VERTEX
  8
0
 62
7
 10
2.73857813
 20
5.10968750
  0
VERTEX
  8
0
 62
7
 10
2.67239258
 20
5.14759375
  0
VERTEX
  8
0
 62
7
 10
2.59900000
 20
5.19900000
  0
VERTEX
  8
0
 62
7
 10
2.54244824
 20
5.24537549
  0
VERTEX
  8
0
 62
7
 10
2.48900781
 20
5.29447266
  0
VERTEX
  8
0
 62
7
 10
2.43862598
 20
5.34624756
  0
VERTEX
  8
0
 62
7
 10
2.39125000
 20
5.40065625
  0
VERTEX
  8
0
 62
7
 10
2.34682715
 20
5.45765479
  0
VERTEX
  8
0
 62
7
 10
2.30530469
 20
5.51719922
  0
VERTEX
  8
0
 62
7
 10
2.26662988
 20
5.57924561
  0
VERTEX
  8
0
 62
7
 10
2.23075000
 20
5.64375000
  0
VERTEX
  8
0
 62
7
 10
2.19761230
 20
5.71066846
  0
VERTEX
  8
0
 62
7
 10
2.16716406
 20
5.77995703
  0
VERTEX
  8
0
 62
7
 10
2.13935254
 20
5.85157178
  0
VERTEX
  8
0
 62
7
 10
2.11412500
 20
5.92546875
  0
VERTEX
  8
0
 62
7
 10
2.09142871
 20
6.00160400
  0
VERTEX
  8
0
 62
7
 10
2.07121094
 20
6.07993359
  0
VERTEX
  8
0
 62
7
 10
2.05341895
 20
6.16041357
  0
VERTEX
  8
0
 62
7
 10
2.03800000
 20
6.24300000
  0
VERTEX
  8
0
 62
7
 10
2.02790430
 20
6.31618921
  0
VERTEX
  8
0
 62
7
 10
2.02239063
 20
6.38976367
  0
VERTEX
  8
0
 62
7
 10
2.02093164
 20
6.46298364
  0
VERTEX
  8
0
 62
7
 10
2.02300000
 20
6.53510938
  0
VERTEX
  8
0
 62
7
 10
2.02806836
 20
6.60540112
  0
VERTEX
  8
0
 62
7
 10
2.03560938
 20
6.67311914
  0
VERTEX
  8
0
 62
7
 10
2.04509570
 20
6.73752368
  0
VERTEX
  8
0
 62
7
 10
2.05600000
 20
6.79787500
  0
VERTEX
  8
0
 62
7
 10
2.06779492
 20
6.85343335
  0
VERTEX
  8
0
 62
7
 10
2.07995313
 20
6.90345898
  0
VERTEX
  8
0
 62
7
 10
2.09194727
 20
6.94721216
  0
VERTEX
  8
0
 62
7
 10
2.10325000
 20
6.98395313
  0
VERTEX
  8
0
 62
7
 10
2.11333398
 20
7.01294214
  0
VERTEX
  8
0
 62
7
 10
2.12167188
 20
7.03343945
  0
VERTEX
  8
0
 62
7
 10
2.12773633
 20
7.04470532
  0
VERTEX
  8
0
 62
7
 10
2.13100000
 20
7.04600000
  0
VERTEX
  8
0
 62
7
 10
2.15637305
 20
6.98475586
  0
VERTEX
  8
0
 62
7
 10
2.18323438
 20
6.92617188
  0
VERTEX
  8
0
 62
7
 10
2.21082227
 20
6.87122070
  0
VERTEX
  8
0
 62
7
 10
2.23837500
 20
6.82087500
  0
VERTEX
  8
0
 62
7
 10
2.26513086
 20
6.77610742
  0
VERTEX
  8
0
 62
7
 10
2.29032813
 20
6.73789063
  0
VERTEX
  8
0
 62
7
 10
2.31320508
 20
6.70719727
  0
VERTEX
  8
0
 62
7
 10
2.33300000
 20
6.68500000
  0
VERTEX
  8
0
 62
7
 10
2.39299658
 20
6.62750293
  0
VERTEX
  8
0
 62
7
 10
2.45316016
 20
6.57236719
  0
VERTEX
  8
0
 62
7
 10
2.51318896
 20
6.51900098
  0
VERTEX
  8
0
 62
7
 10
2.57278125
 20
6.46681250
  0
VERTEX
  8
0
 62
7
 10
2.63163525
 20
6.41520996
  0
VERTEX
  8
0
 62
7
 10
2.68944922
 20
6.36360156
  0
VERTEX
  8
0
 62
7
 10
2.74592139
 20
6.31139551
  0
VERTEX
  8
0
 62
7
 10
2.80075000
 20
6.25800000
  0
VERTEX
  8
0
 62
7
 10
2.85363330
 20
6.20282324
  0
VERTEX
  8
0
 62
7
 10
2.90426953
 20
6.14527344
  0
VERTEX
  8
0
 62
7
 10
2.95235693
 20
6.08475879
  0
VERTEX
  8
0
 62
7
 10
2.99759375
 20
6.02068750
  0
VERTEX
  8
0
 62
7
 10
3.03967822
 20
5.95246777
  0
VERTEX
  8
0
 62
7
 10
3.07830859
 20
5.87950781
  0
VERTEX
  8
0
 62
7
 10
3.11318311
 20
5.80121582
  0
VERTEX
  8
0
 62
7
 10
3.14400000
 20
5.71700000
  0
VERTEX
  8
0
 62
7
 10
3.15255273
 20
5.68345313
  0
VERTEX
  8
0
 62
7
 10
3.16085938
 20
5.64025000
  0
VERTEX
  8
0
 62
7
 10
3.16876758
 20
5.58917188
  0
VERTEX
  8
0
 62
7
 10
3.17612500
 20
5.53200000
  0
VERTEX
  8
0
 62
7
 10
3.18277930
 20
5.47051563
  0
VERTEX
  8
0
 62
7
 10
3.18857813
 20
5.40650000
  0
VERTEX
  8
0
 62
7
 10
3.19336914
 20
5.34173438
  0
VERTEX
  8
0
 62
7
 10
3.19700000
 20
5.27800000
  0
VERTEX
  8
0
 62
7
 10
3.19922461
 20
5.24635938
  0
VERTEX
  8
0
 62
7
 10
3.20317188
 20
5.21218750
  0
VERTEX
  8
0
 62
7
 10
3.20925195
 20
5.17548438
  0
VERTEX
  8
0
 62
7
 10
3.21787500
 20
5.13625000
  0
VERTEX
  8
0
 62
7
 10
3.22945117
 20
5.09448438
  0
VERTEX
  8
0
 62
7
 10
3.24439063
 20
5.05018750
  0
VERTEX
  8
0
 62
7
 10
3.26310352
 20
5.00335938
  0
VERTEX
  8
0
 62
7
 10
3.28600000
 20
4.95400000
  0
VERTEX
  8
0
 62
7
 10
3.31912500
 20
4.88912500
  0
VERTEX
  8
0
 62
7
 10
3.35300000
 20
4.82800000
  0
VERTEX
  8
0
 62
7
 10
3.37998438
 20
4.94360938
  0
VERTEX
  8
0
 62
7
 10
3.39937500
 20
5.06062500
  0
VERTEX
  8
0
 62
7
 10
3.41107813
 20
5.17857813
  0
VERTEX
  8
0
 62
7
 10
3.41500000
 20
5.29700000
  0
VERTEX
  8
0
 62
7
 10
3.41200000
 20
5.39300000
  0
VERTEX
  8
0
 62
7
 10
3.40450977
 20
5.48906055
  0
VERTEX
  8
0
 62
7
 10
3.39182813
 20
5.58435938
  0
VERTEX
  8
0
 62
7
 10
3.37401367
 20
5.67869727
  0
VERTEX
  8
0
 62
7
 10
3.35112500
 20
5.77187500
  0
VERTEX
  8
0
 62
7
 10
3.32322070
 20
5.86369336
  0
VERTEX
  8
0
 62
7
 10
3.29035938
 20
5.95395313
  0
VERTEX
  8
0
 62
7
 10
3.25259961
 20
6.04245508
  0
VERTEX
  8
0
 62
7
 10
3.21000000
 20
6.12900000
  0
SEQEND
  0
POLYLINE
  8
0
 62
7
 66
1
 70
1
  0
VERTEX
  8
0
 62
7
 10
4.55900000
 20
8.32700000
  0
VERTEX
  8
0
 62
7
 10
4.55500000
 20
8.33200000
  0
VERTEX
  8
0
 62
7
 10
4.52700000
 20
8.36500000
  0
VERTEX
  8
0
 62
7
 10
4.49798242
 20
8.38989453
  0
VERTEX
  8
0
 62
7
 10
4.46754688
 20
8.40946875
  0
VERTEX
  8
0
 62
7
 10
4.43624414
 20
8.42430859
  0
VERTEX
  8
0
 62
7
 10
4.40462500
 20
8.43500000
  0
VERTEX
  8
0
 62
7
 10
4.37324023
 20
8.44212891
  0
VERTEX
  8
0
 62
7
 10
4.34264063
 20
8.44628125
  0
VERTEX
  8
0
 62
7
 10
4.31337695
 20
8.44804297
  0
VERTEX
  8
0
 62
7
 10
4.28600000
 20
8.44800000
  0
VERTEX
  8
0
 62
7
 10
4.25350000
 20
8.44523438
  0
VERTEX
  8
0
 62
7
 10
4.22325000
 20
8.44012500
  0
VERTEX
  8
0
 62
7
 10
4.19487500
 20
8.43295312
  0
VERTEX
  8
0
 62
7
 10
4.16800000
 20
8.42400000
  0
VERTEX
  8
0
 62
7
 10
4.17679688
 20
8.45101563
  0
VERTEX
  8
0
 62
7
 10
4.18362500
 20
8.47962500
  0
VERTEX
  8
0
 62
7
 10
4.18839063
 20
8.50992188
  0
VERTEX
  8
0
 62
7
 10
4.19100000
 20
8.54200000
  0
VERTEX
  8
0
 62
7
 10
4.30262500
 20
8.65187500
  0
VERTEX
  8
0
 62
7
 10
4.41200000
 20
8.76400000
  0
VERTEX
  8
0
 62
7
 10
4.48600000
 20
8.84800000
  0
VERTEX
  8
0
 62
7
 10
4.51789063
 20
8.88598438
  0
VERTEX
  8
0
 62
7
 10
4.54987500
 20
8.92162500
  0
VERTEX
  8
0
 62
7
 10
4.58317188
 20
8.95445313
  0
VERTEX
  8
0
 62
7
 10
4.61900000
 20
8.98400000
  0
VERTEX
  8
0
 62
7
 10
4.65200195
 20
9.00731445
  0
VERTEX
  8
0
 62
7
 10
4.68576563
 20
9.02914063
  0
VERTEX
  8
0
 62
7
 10
4.72030273
 20
9.04930273
  0
VERTEX
  8
0
 62
7
 10
4.75562500
 20
9.06762500
  0
VERTEX
  8
0
 62
7
 10
4.79174414
 20
9.08393164
  0
VERTEX
  8
0
 62
7
 10
4.82867188
 20
9.09804688
  0
VERTEX
  8
0
 62
7
 10
4.86641992
 20
9.10979492
  0
VERTEX
  8
0
 62
7
 10
4.90500000
 20
9.11900000
  0
VERTEX
  8
0
 62
7
 10
4.97250000
 20
9.12887500
  0
VERTEX
  8
0
 62
7
 10
5.04000000
 20
9.13200000
  0
VERTEX
  8
0
 62
7
 10
5.08123438
 20
9.13075000
  0
VERTEX
  8
0
 62
7
 10
5.12237500
 20
9.12725000
  0
VERTEX
  8
0
 62
7
 10
5.16332813
 20
9.12187500
  0
VERTEX
  8
0
 62
7
 10
5.20400000
 20
9.11500000
  0
VERTEX
  8
0
 62
7
 10
5.24023438
 20
9.10706250
  0
VERTEX
  8
0
 62
7
 10
5.27487500
 20
9.09725000
  0
VERTEX
  8
0
 62
7
 10
5.30707813
 20
9.08406250
  0
VERTEX
  8
0
 62
7
 10
5.33600000
 20
9.06600000
  0
VERTEX
  8
0
 62
7
 10
5.35831714
 20
9.04606714
  0
VERTEX
  8
0
 62
7
 10
5.37841211
 20
9.02325586
  0
VERTEX
  8
0
 62
7
 10
5.39631274
 20
8.99792212
  0
VERTEX
  8
0
 62
7
 10
5.41204688
 20
8.97042188
  0
VERTEX
  8
0
 62
7
 10
5.42564233
 20
8.94111108
  0
VERTEX
  8
0
 62
7
 10
5.43712695
 20
8.91034570
  0
VERTEX
  8
0
 62
7
 10
5.44652856
 20
8.87848169
  0
VERTEX
  8
0
 62
7
 10
5.45387500
 20
8.84587500
  0
VERTEX
  8
0
 62
7
 10
5.45919409
 20
8.81288159
  0
VERTEX
  8
0
 62
7
 10
5.46251367
 20
8.77985742
  0
VERTEX
  8
0
 62
7
 10
5.46386157
 20
8.74715845
  0
VERTEX
  8
0
 62
7
 10
5.46326563
 20
8.71514063
  0
VERTEX
  8
0
 62
7
 10
5.46075366
 20
8.68415991
  0
VERTEX
  8
0
 62
7
 10
5.45635352
 20
8.65457227
  0
VERTEX
  8
0
 62
7
 10
5.45009302
 20
8.62673364
  0
VERTEX
  8
0
 62
7
 10
5.44200000
 20
8.60100000
  0
VERTEX
  8
0
 62
7
 10
5.43212500
 20
8.57437500
  0
VERTEX
  8
0
 62
7
 10
5.42000000
 20
8.55000000
  0
VERTEX
  8
0
 62
7
 10
5.40802539
 20
8.57705859
  0
VERTEX
  8
0
 62
7
 10
5.39320313
 20
8.60259375
  0
VERTEX
  8
0
 62
7
 10
5.37568555
 20
8.62639453
  0
VERTEX
  8
0
 62
7
 10
5.35562500
 20
8.64825000
  0
VERTEX
  8
0
 62
7
 10
5.33317383
 20
8.66794922
  0
VERTEX
  8
0
 62
7
 10
5.30848438
 20
8.68528125
  0
VERTEX
  8
0
 62
7
 10
5.28170898
 20
8.70003516
  0
VERTEX
  8
0
 62
7
 10
5.25300000
 20
8.71200000
  0
VERTEX
  8
0
 62
7
 10
5.23173657
 20
8.71916431
  0
VERTEX
  8
0
 62
7
 10
5.20964258
 20
8.72520508
  0
VERTEX
  8
0
 62
7
 10
5.18682495
 20
8.73000659
  0
VERTEX
  8
0
 62
7
 10
5.16339063
 20
8.73345313
  0
VERTEX
  8
0
 62
7
 10
5.13944653
 20
8.73542896
  0
VERTEX
  8
0
 62
7
 10
5.11509961
 20
8.73581836
  0
VERTEX
  8
0
 62
7
 10
5.09045679
 20
8.73450562
  0
VERTEX
  8
0
 62
7
 10
5.06562500
 20
8.73137500
  0
VERTEX
  8
0
 62
7
 10
5.04071118
 20
8.72631079
  0
VERTEX
  8
0
 62
7
 10
5.01582227
 20
8.71919727
  0
VERTEX
  8
0
 62
7
 10
4.99106519
 20
8.70991870
  0
VERTEX
  8
0
 62
7
 10
4.96654688
 20
8.69835938
  0
VERTEX
  8
0
 62
7
 10
4.94237427
 20
8.68440356
  0
VERTEX
  8
0
 62
7
 10
4.91865430
 20
8.66793555
  0
VERTEX
  8
0
 62
7
 10
4.89549390
 20
8.64883960
  0
VERTEX
  8
0
 62
7
 10
4.87300000
 20
8.62700000
  0
VERTEX
  8
0
 62
7
 10
4.77921875
 20
8.53034375
  0
VERTEX
  8
0
 62
7
 10
4.69650000
 20
8.44925000
  0
VERTEX
  8
0
 62
7
 10
4.62353125
 20
8.38203125
  0
VERTEX
  8
0
 62
7
 10
4.55900000
 20
8.32700000
  0
SEQEND
  0
POLYLINE
  8
0
 62
7
 66
1
 70
1
  0
VERTEX
  8
0
 62
7
 10
4.18400000
 20
8.63300000
  0
VERTEX
  8
0
 62
7
 10
4.17465625
 20
8.67073438
  0
VERTEX
  8
0
 62
7
 10
4.15950000
 20
8.70837500
  0
VERTEX
  8
0
 62
7
 10
4.13759375
 20
8.74507812
  0
VERTEX
  8
0
 62
7
 10
4.10800000
 20
8.78000000
  0
VERTEX
  8
0
 62
7
 10
4.07500000
 20
8.80900000
  0
VERTEX
  8
0
 62
7
 10
4.01937500
 20
8.84350000
  0
VERTEX
  8
0
 62
7
 10
3.96900000
 20
8.86900000
  0
VERTEX
  8
0
 62
7
 10
3.95800000
 20
8.87500000
  0
VERTEX
  8
0
 62
7
 10
3.99648950
 20
8.91387988
  0
VERTEX
  8
0
 62
7
 10
4.04129102
 20
8.95541406
  0
VERTEX
  8
0
 62
7
 10
4.09159155
 20
8.99888184
  0
VERTEX
  8
0
 62
7
 10
4.14657813
 20
9.04356250
  0
VERTEX
  8
0
 62
7
 10
4.20543774
 20
9.08873535
  0
VERTEX
  8
0
 62
7
 10
4.26735742
 20
9.13367969
  0
VERTEX
  8
0
 62
7
 10
4.33152417
 20
9.17767480
  0
VERTEX
  8
0
 62
7
 10
4.39712500
 20
9.22000000
  0
VERTEX
  8
0
 62
7
 10
4.46334692
 20
9.25993457
  0
VERTEX
  8
0
 62
7
 10
4.52937695
 20
9.29675781
  0
VERTEX
  8
0
 62
7
 10
4.59440210
 20
9.32974902
  0
VERTEX
  8
0
 62
7
 10
4.65760938
 20
9.35818750
  0
VERTEX
  8
0
 62
7
 10
4.71818579
 20
9.38135254
  0
VERTEX
  8
0
 62
7
 10
4.77531836
 20
9.39852344
  0
VERTEX
  8
0
 62
7
 10
4.82819409
 20
9.40897949
  0
VERTEX
  8
0
 62
7
 10
4.87600000
 20
9.41200000
  0
VERTEX
  8
0
 62
7
 10
4.91539722
 20
9.40996265
  0
VERTEX
  8
0
 62
7
 10
4.95155273
 20
9.40545117
  0
VERTEX
  8
0
 62
7
 10
4.98459985
 20
9.39861646
  0
VERTEX
  8
0
 62
7
 10
5.01467188
 20
9.38960937
  0
VERTEX
  8
0
 62
7
 10
5.04190210
 20
9.37858081
  0
VERTEX
  8
0
 62
7
 10
5.06642383
 20
9.36568164
  0
VERTEX
  8
0
 62
7
 10
5.08837036
 20
9.35106274
  0
VERTEX
  8
0
 62
7
 10
5.10787500
 20
9.33487500
  0
VERTEX
  8
0
 62
7
 10
5.12507104
 20
9.31726929
  0
VERTEX
  8
0
 62
7
 10
5.14009180
 20
9.29839648
  0
VERTEX
  8
0
 62
7
 10
5.15307056
 20
9.27840747
  0
VERTEX
  8
0
 62
7
 10
5.16414063
 20
9.25745313
  0
VERTEX
  8
0
 62
7
 10
5.17343530
 20
9.23568433
  0
VERTEX
  8
0
 62
7
 10
5.18108789
 20
9.21325195
  0
VERTEX
  8
0
 62
7
 10
5.18723169
 20
9.19030688
  0
VERTEX
  8
0
 62
7
 10
5.19200000
 20
9.16700000
  0
VERTEX
  8
0
 62
7
 10
5.15626563
 20
9.17334375
  0
VERTEX
  8
0
 62
7
 10
5.11537500
 20
9.17950000
  0
VERTEX
  8
0
 62
7
 10
5.07429688
 20
9.18415625
  0
VERTEX
  8
0
 62
7
 10
5.03800000
 20
9.18600000
  0
VERTEX
  8
0
 62
7
 10
5.00129688
 20
9.18584375
  0
VERTEX
  8
0
 62
7
 10
4.96562500
 20
9.18475000
  0
VERTEX
  8
0
 62
7
 10
4.93014063
 20
9.18178125
  0
VERTEX
  8
0
 62
7
 10
4.89400000
 20
9.17600000
  0
VERTEX
  8
0
 62
7
 10
4.85118945
 20
9.16599805
  0
VERTEX
  8
0
 62
7
 10
4.80970313
 20
9.15335938
  0
VERTEX
  8
0
 62
7
 10
4.76945898
 20
9.13825977
  0
VERTEX
  8
0
 62
7
 10
4.73037500
 20
9.12087500
  0
VERTEX
  8
0
 62
7
 10
4.69236914
 20
9.10138086
  0
VERTEX
  8
0
 62
7
 10
4.65535938
 20
9.07995312
  0
VERTEX
  8
0
 62
7
 10
4.61926367
 20
9.05676758
  0
VERTEX
  8
0
 62
7
 10
4.58400000
 20
9.03200000
  0
VERTEX
  8
0
 62
7
 10
4.54210938
 20
8.99959375
  0
VERTEX
  8
0
 62
7
 10
4.50237500
 20
8.96550000
  0
VERTEX
  8
0
 62
7
 10
4.46545313
 20
8.92990625
  0
VERTEX
  8
0
 62
7
 10
4.43200000
 20
8.89300000
  0
VERTEX
  8
0
 62
7
 10
4.36200000
 20
8.81200000
  0
VERTEX
  8
0
 62
7
 10
4.18400000
 20
8.63300000
  0
SEQEND
  0
POLYLINE
  8
0
 62
7
 66
1
 70
1
  0
VERTEX
  8
0
 62
7
 10
4.65700000
 20
10.32700000
  0
VERTEX
  8
0
 62
7
 10
4.68416016
 20
10.29693555
  0
VERTEX
  8
0
 62
7
 10
4.70853125
 20
10.26460938
  0
VERTEX
  8
0
 62
7
 10
4.72994922
 20
10.23019727
  0
VERTEX
  8
0
 62
7
 10
4.74825000
 20
10.19387500
  0
VERTEX
  8
0
 62
7
 10
4.76326953
 20
10.15581836
  0
VERTEX
  8
0
 62
7
 10
4.77484375
 20
10.11620313
  0
VERTEX
  8
0
 62
7
 10
4.78280859
 20
10.07520508
  0
VERTEX
  8
0
 62
7
 10
4.78700000
 20
10.03300000
  0
VERTEX
  8
0
 62
7
 10
4.80773242
 20
10.05574805
  0
VERTEX
  8
0
 62
7
 10
4.82629688
 20
10.08092188
  0
VERTEX
  8
0
 62
7
 10
4.84249414
 20
10.10804102
  0
VERTEX
  8
0
 62
7
 10
4.85612500
 20
10.13662500
  0
VERTEX
  8
0
 62
7
 10
4.86699023
 20
10.16619336
  0
VERTEX
  8
0
 62
7
 10
4.87489063
 20
10.19626563
  0
VERTEX
  8
0
 62
7
 10
4.87962695
 20
10.22636133
  0
VERTEX
  8
0
 62
7
 10
4.88100000
 20
10.25600000
  0
VERTEX
  8
0
 62
7
 10
4.87900000
 20
10.31000000
  0
VERTEX
  8
0
 62
7
 10
4.85192188
 20
10.32157813
  0
VERTEX
  8
0
 62
7
 10
4.82512500
 20
10.32987500
  0
VERTEX
  8
0
 62
7
 10
4.79701563
 20
10.33573438
  0
VERTEX
  8
0
 62
7
 10
4.76600000
 20
10.34000000
  0
VERTEX
  8
0
 62
7
 10
4.73926563
 20
10.34162500
  0
VERTEX
  8
0
 62
7
 10
4.71037500
 20
10.34100000
  0
VERTEX
  8
0
 62
7
 10
4.68204688
 20
10.33662500
  0
VERTEX
  8
0
 62
7
 10
4.65700000
 20
10.32700000
  0
SEQEND
  0
POLYLINE
  8
0
 62
7
 66
1
 70
1
  0
VERTEX
  8
0
 62
7
 10
5.14800000
 20
8.66000000
  0
VERTEX
  8
0
 62
7
 10
5.16990625
 20
8.66109375
  0
VERTEX
  8
0
 62
7
 10
5.19200000
 20
8.65975000
  0
VERTEX
  8
0
 62
7
 10
5.21409375
 20
8.65578125
  0
VERTEX
  8
0
 62
7
 10
5.23600000
 20
8.64900000
  0
VERTEX
  8
0
 62
7
 10
5.26179688
 20
8.63752539
  0
VERTEX
  8
0
 62
7
 10
5.28506250
 20
8.62282813
  0
VERTEX
  8
0
 62
7
 10
5.30560938
 20
8.60524805
  0
VERTEX
  8
0
 62
7
 10
5.32325000
 20
8.58512500
  0
VERTEX
  8
0
 62
7
 10
5.33779688
 20
8.56279883
  0
VERTEX
  8
0
 62
7
 10
5.34906250
 20
8.53860938
  0
VERTEX
  8
0
 62
7
 10
5.35685938
 20
8.51289648
  0
VERTEX
  8
0
 62
7
 10
5.36100000
 20
8.48600000
  0
VERTEX
  8
0
 62
7
 10
5.33442188
 20
8.46530273
  0
VERTEX
  8
0
 62
7
 10
5.30587500
 20
8.44754688
  0
VERTEX
  8
0
 62
7
 10
5.27564063
 20
8.43286133
  0
VERTEX
  8
0
 62
7
 10
5.24400000
 20
8.42137500
  0
VERTEX
  8
0
 62
7
 10
5.21123438
 20
8.41321680
  0
VERTEX
  8
0
 62
7
 10
5.17762500
 20
8.40851563
  0
VERTEX
  8
0
 62
7
 10
5.14345313
 20
8.40740039
  0
VERTEX
  8
0
 62
7
 10
5.10900000
 20
8.41000000
  0
VERTEX
  8
0
 62
7
 10
5.12735938
 20
8.42745313
  0
VERTEX
  8
0
 62
7
 10
5.14337500
 20
8.44687500
  0
VERTEX
  8
0
 62
7
 10
5.15695313
 20
8.46835938
  0
VERTEX
  8
0
 62
7
 10
5.16800000
 20
8.49200000
  0
VERTEX
  8
0
 62
7
 10
5.17415430
 20
8.51423047
  0
VERTEX
  8
0
 62
7
 10
5.17767188
 20
8.53653125
  0
VERTEX
  8
0
 62
7
 10
5.17863477
 20
8.55869141
  0
VERTEX
  8
0
 62
7
 10
5.17712500
 20
8.58050000
  0
VERTEX
  8
0
 62
7
 10
5.17322461
 20
8.60174609
  0
VERTEX
  8
0
 62
7
 10
5.16701563
 20
8.62221875
  0
VERTEX
  8
0
 62
7
 10
5.15858008
 20
8.64170703
  0
VERTEX
  8
0
 62
7
 10
5.14800000
 20
8.66000000
  0
SEQEND
  0
POLYLINE
  8
0
 62
7
 66
1
 70
1
  0
VERTEX
  8
0
 62
7
 10
3.14100000
 20
4.72200000
  0
VERTEX
  8
0
 62
7
 10
3.14100000
 20
4.59700000
  0
VERTEX
  8
0
 62
7
 10
3.07400000
 20
4.53000000
  0
VERTEX
  8
0
 62
7
 10
3.02837500
 20
4.48225000
  0
VERTEX
  8
0
 62
7
 10
2.98800000
 20
4.43600000
  0
VERTEX
  8
0
 62
7
 10
2.95400000
 20
4.40300000
  0
VERTEX
  8
0
 62
7
 10
2.95400000
 20
4.88700000
  0
VERTEX
  8
0
 62
7
 10
3.01537500
 20
4.84200000
  0
VERTEX
  8
0
 62
7
 10
3.08500000
 20
4.78200000
  0
VERTEX
  8
0
 62
7
 10
3.11450000
 20
4.75350000
  0
VERTEX
  8
0
 62
7
 10
3.14100000
 20
4.72200000
  0
SEQEND
  0
POLYLINE
  8
0
 62
7
 66
1
 70
1
  0
VERTEX
  8
0
 62
7
 10
19.75000000
 20
1.37500000
  0
VERTEX
  8
0
 62
7
 10
19.75000000
 20
7.67500000
  0
VERTEX
  8
0
 62
7
 10
6.70000000
 20
7.67500000
  0
VERTEX
  8
0
 62
7
 10
6.70000000
 20
1.37500000
  0
VERTEX
  8
0
 62
7
 10
19.75000000
 20
1.37500000
  0
SEQEND
  0
POLYLINE
  8
0
 62
7
 66
1
 70
1
  0
VERTEX
  8
0
 62
7
 10
19.65000000
 20
1.47500000
  0
VERTEX
  8
0
 62
7
 10
19.65000000
 20
7.57500000
  0
VERTEX
  8
0
 62
7
 10
6.80000000
 20
7.57500000
  0
VERTEX
  8
0
 62
7
 10
6.80000000
 20
1.47500000
  0
VERTEX
  8
0
 62
7
 10
19.65000000
 20
1.47500000
  0
SEQEND
  0
POLYLINE
  8
0
 62
7
 66
1
 70
1
  0
VERTEX
  8
0
 62
7
 10
19.45000000
 20
1.67500000
  0
VERTEX
  8
0
 62
7
 10
19.45000000
 20
7.37500000
  0
VERTEX
  8
0
 62
7
 10
7.00000000
 20
7.37500000
  0
VERTEX
  8
0
 62
7
 10
7.00000000
 20
1.67500000
  0
VERTEX
  8
0
 62
7
 10
19.45000000
 20
1.67500000
  0
SEQEND
  0
POLYLINE
  8
0
 62
7
 66
1
 70
1
  0
VERTEX
  8
0
 62
7
 10
19.35000000
 20
1.77500000
  0
VERTEX
  8
0
 62
7
 10
19.35000000
 20
7.27511614
  0
VERTEX
  8
0
 62
7
 10
7.10000000
 20
7.27511614
  0
VERTEX
  8
0
 62
7
 10
7.10000000
 20
1.77500000
  0
VERTEX
  8
0
 62
7
 10
19.35000000
 20
1.77500000
  0
SEQEND
  0
POLYLINE
  8
0
 62
7
 66
1
 70
1
  0
VERTEX
  8
0
 62
7
 10
42.00071997
 20
15.95600000
  0
VERTEX
  8
0
 62
7
 10
41.32051989
 20
15.95848714
  0
VERTEX
  8
0
 62
7
 10
40.64499349
 20
15.96595194
  0
VERTEX
  8
0
 62
7
 10
39.97392763
 20
15.97839945
  0
VERTEX
  8
0
 62
7
 10
39.30710917
 20
15.99583473
  0
VERTEX
  8
0
 62
7
 10
38.64432498
 20
16.01826282
  0
VERTEX
  8
0
 62
7
 10
37.98536191
 20
16.04568878
  0
VERTEX
  8
0
 62
7
 10
37.33000682
 20
16.07811766
  0
VERTEX
  8
0
 62
7
 10
36.67804658
 20
16.11555452
  0
VERTEX
  8
0
 62
7
 10
36.02926805
 20
16.15800441
  0
VERTEX
  8
0
 62
7
 10
35.38345809
 20
16.20547239
  0
VERTEX
  8
0
 62
7
 10
34.74040356
 20
16.25796350
  0
VERTEX
  8
0
 62
7
 10
34.09989131
 20
16.31548281
  0
VERTEX
  8
0
 62
7
 10
33.46170821
 20
16.37803536
  0
VERTEX
  8
0
 62
7
 10
32.82564113
 20
16.44562620
  0
VERTEX
  8
0
 62
7
 10
32.19147692
 20
16.51826040
  0
VERTEX
  8
0
 62
7
 10
31.55900244
 20
16.59594300
  0
VERTEX
  8
0
 62
7
 10
30.92521397
 20
16.67378058
  0
VERTEX
  8
0
 62
7
 10
30.28733630
 20
16.74685274
  0
VERTEX
  8
0
 62
7
 10
29.64549907
 20
16.81512412
  0
VERTEX
  8
0
 62
7
 10
28.99983193
 20
16.87855934
  0
VERTEX
  8
0
 62
7
 10
28.35046452
 20
16.93712303
  0
VERTEX
  8
0
 62
7
 10
27.69752648
 20
16.99077980
  0
VERTEX
  8
0
 62
7
 10
27.04114745
 20
17.03949430
  0
VERTEX
  8
0
 62
7
 10
26.38145707
 20
17.08323114
  0
VERTEX
  8
0
 62
7
 10
25.71858499
 20
17.12195495
  0
VERTEX
  8
0
 62
7
 10
25.05266083
 20
17.15563035
  0
VERTEX
  8
0
 62
7
 10
24.38381426
 20
17.18422198
  0
VERTEX
  8
0
 62
7
 10
23.71217490
 20
17.20769445
  0
VERTEX
  8
0
 62
7
 10
23.03787240
 20
17.22601239
  0
VERTEX
  8
0
 62
7
 10
22.36103640
 20
17.23914043
  0
VERTEX
  8
0
 62
7
 10
21.68179654
 20
17.24704320
  0
VERTEX
  8
0
 62
7
 10
21.00028246
 20
17.24968532
  0
VERTEX
  8
0
 62
7
 10
20.32380279
 20
17.24701562
  0
VERTEX
  8
0
 62
7
 10
19.64851407
 20
17.23904105
  0
VERTEX
  8
0
 62
7
 10
18.97469315
 20
17.22581341
  0
VERTEX
  8
0
 62
7
 10
18.30261689
 20
17.20738450
  0
VERTEX
  8
0
 62
7
 10
17.63256216
 20
17.18380612
  0
VERTEX
  8
0
 62
7
 10
16.96480581
 20
17.15513006
  0
VERTEX
  8
0
 62
7
 10
16.29962472
 20
17.12140812
  0
VERTEX
  8
0
 62
7
 10
15.63729574
 20
17.08269210
  0
VERTEX
  8
0
 62
7
 10
14.97809572
 20
17.03903380
  0
VERTEX
  8
0
 62
7
 10
14.32230154
 20
16.99048502
  0
VERTEX
  8
0
 62
7
 10
13.67019006
 20
16.93709755
  0
VERTEX
  8
0
 62
7
 10
13.02203813
 20
16.87892319
  0
VERTEX
  8
0
 62
7
 10
12.37812261
 20
16.81601374
  0
VERTEX
  8
0
 62
7
 10
11.73872037
 20
16.74842100
  0
VERTEX
  8
0
 62
7
 10
11.10410828
 20
16.67619676
  0
VERTEX
  8
0
 62
7
 10
10.47456318
 20
16.59939283
  0
VERTEX
  8
0
 62
7
 10
9.84559085
 20
16.52266638
  0
VERTEX
  8
0
 62
7
 10
9.21259743
 20
16.45066113
  0
VERTEX
  8
0
 62
7
 10
8.57571039
 20
16.38340866
  0
VERTEX
  8
0
 62
7
 10
7.93505715
 20
16.32094054
  0
VERTEX
  8
0
 62
7
 10
7.29076516
 20
16.26328837
  0
VERTEX
  8
0
 62
7
 10
6.64296187
 20
16.21048374
  0
VERTEX
  8
0
 62
7
 10
5.99177472
 20
16.16255821
  0
VERTEX
  8
0
 62
7
 10
5.33733115
 20
16.11954339
  0
VERTEX
  8
0
 62
7
 10
4.67975862
 20
16.08147084
  0
VERTEX
  8
0
 62
7
 10
4.01918455
 20
16.04837216
  0
VERTEX
  8
0
 62
7
 10
3.35573640
 20
16.02027894
  0
VERTEX
  8
0
 62
7
 10
2.68954162
 20
15.99722274
  0
VERTEX
  8
0
 62
7
 10
2.02072763
 20
15.97923517
  0
VERTEX
  8
0
 62
7
 10
1.34942190
 20
15.96634780
  0
VERTEX
  8
0
 62
7
 10
.67575186
 20
15.95859221
  0
VERTEX
  8
0
 62
7
 10
-.00015504
 20
15.95600000
  0
VERTEX
  8
0
 62
7
 10
-.00015504
 20
.00054777
  0
VERTEX
  8
0
 62
7
 10
42.00071997
 20
-.00031468
  0
VERTEX
  8
0
 62
7
 10
42.00071997
 20
15.95600000
  0
SEQEND
  0
POLYLINE
  8
0
 62
7
 66
1
 70
1
  0
VERTEX
  8
0
 62
7
 10
3.31400000
 20
7.52003686
  0
VERTEX
  8
0
 62
7
 10
3.30328669
 20
7.50996314
  0
VERTEX
  8
0
 62
7
 10
3.29041516
 20
7.49447216
  0
VERTEX
  8
0
 62
7
 10
3.28109482
 20
7.47732847
  0
VERTEX
  8
0
 62
7
 10
3.27536152
 20
7.45908296
  0
VERTEX
  8
0
 62
7
 10
3.27325114
 20
7.44028655
  0
VERTEX
  8
0
 62
7
 10
3.27479955
 20
7.42149013
  0
VERTEX
  8
0
 62
7
 10
3.28004262
 20
7.40324463
  0
VERTEX
  8
0
 62
7
 10
3.28901622
 20
7.38610093
  0
VERTEX
  8
0
 62
7
 10
3.30175621
 20
7.37060996
  0
VERTEX
  8
0
 62
7
 10
3.31715660
 20
7.35790139
  0
VERTEX
  8
0
 62
7
 10
3.33427877
 20
7.34874421
  0
VERTEX
  8
0
 62
7
 10
3.35254880
 20
7.34314824
  0
VERTEX
  8
0
 62
7
 10
3.37139276
 20
7.34112333
  0
VERTEX
  8
0
 62
7
 10
3.39023671
 20
7.34267931
  0
VERTEX
  8
0
 62
7
 10
3.40850674
 20
7.34782603
  0
VERTEX
  8
0
 62
7
 10
3.42562891
 20
7.35657331
  0
VERTEX
  8
0
 62
7
 10
3.44102930
 20
7.36893100
  0
VERTEX
  8
0
 62
7
 10
3.45386943
 20
7.38445805
  0
VERTEX
  8
0
 62
7
 10
3.46311355
 20
7.40169684
  0
VERTEX
  8
0
 62
7
 10
3.46875269
 20
7.42007680
  0
VERTEX
  8
0
 62
7
 10
3.47077788
 20
7.43902733
  0
VERTEX
  8
0
 62
7
 10
3.46918015
 20
7.45797787
  0
VERTEX
  8
0
 62
7
 10
3.46395053
 20
7.47635782
  0
VERTEX
  8
0
 62
7
 10
3.45508006
 20
7.49359662
  0
VERTEX
  8
0
 62
7
 10
3.44255977
 20
7.50912366
  0
VERTEX
  8
0
 62
7
 10
3.43337693
 20
7.51667895
  0
VERTEX
  8
0
 62
7
 10
3.43579221
 20
7.52828735
  0
VERTEX
  8
0
 62
7
 10
3.44064668
 20
7.53903003
  0
VERTEX
  8
0
 62
7
 10
3.44779686
 20
7.54867090
  0
VERTEX
  8
0
 62
7
 10
3.45709927
 20
7.55697385
  0
VERTEX
  8
0
 62
7
 10
3.46508643
 20
7.56163032
  0
VERTEX
  8
0
 62
7
 10
3.47393448
 20
7.56526368
  0
VERTEX
  8
0
 62
7
 10
3.48335646
 20
7.56748043
  0
VERTEX
  8
0
 62
7
 10
3.49306540
 20
7.56788705
  0
VERTEX
  8
0
 62
7
 10
3.50224824
 20
7.55613437
  0
VERTEX
  8
0
 62
7
 10
3.51786834
 20
7.54342745
  0
VERTEX
  8
0
 62
7
 10
3.53509364
 20
7.53428174
  0
VERTEX
  8
0
 62
7
 10
3.55337711
 20
7.52871692
  0
VERTEX
  8
0
 62
7
 10
3.57217175
 20
7.52675268
  0
VERTEX
  8
0
 62
7
 10
3.59093051
 20
7.52840868
  0
VERTEX
  8
0
 62
7
 10
3.60910638
 20
7.53370460
  0
VERTEX
  8
0
 62
7
 10
3.62615232
 20
7.54266011
  0
VERTEX
  8
0
 62
7
 10
3.64152133
 20
7.55529490
  0
VERTEX
  8
0
 62
7
 10
3.65417314
 20
7.57078587
  0
VERTEX
  8
0
 62
7
 10
3.66339036
 20
7.58792956
  0
VERTEX
  8
0
 62
7
 10
3.66911020
 20
7.60617507
  0
VERTEX
  8
0
 62
7
 10
3.67126991
 20
7.62497149
  0
VERTEX
  8
0
 62
7
 10
3.66980669
 20
7.64376790
  0
VERTEX
  8
0
 62
7
 10
3.66465778
 20
7.66201341
  0
VERTEX
  8
0
 62
7
 10
3.65576041
 20
7.67915710
  0
VERTEX
  8
0
 62
7
 10
3.64305180
 20
7.69464808
  0
VERTEX
  8
0
 62
7
 10
3.62761853
 20
7.70735500
  0
VERTEX
  8
0
 62
7
 10
3.61040967
 20
7.71650071
  0
VERTEX
  8
0
 62
7
 10
3.59201709
 20
7.72206552
  0
VERTEX
  8
0
 62
7
 10
3.57303264
 20
7.72402977
  0
VERTEX
  8
0
 62
7
 10
3.55404819
 20
7.72237377
  0
VERTEX
  8
0
 62
7
 10
3.53565561
 20
7.71707785
  0
VERTEX
  8
0
 62
7
 10
3.51844675
 20
7.70812234
  0
VERTEX
  8
0
 62
7
 10
3.50301348
 20
7.69548755
  0
VERTEX
  8
0
 62
7
 10
3.49765682
 20
7.68877174
  0
VERTEX
  8
0
 62
7
 10
3.48852181
 20
7.68982108
  0
VERTEX
  8
0
 62
7
 10
3.47967376
 20
7.69275925
  0
VERTEX
  8
0
 62
7
 10
3.47139963
 20
7.69727144
  0
VERTEX
  8
0
 62
7
 10
3.46398640
 20
7.70304285
  0
VERTEX
  8
0
 62
7
 10
3.45538945
 20
7.71194917
  0
VERTEX
  8
0
 62
7
 10
3.44915994
 20
7.72203601
  0
VERTEX
  8
0
 62
7
 10
3.44536963
 20
7.73290986
  0
VERTEX
  8
0
 62
7
 10
3.44409025
 20
7.74417722
  0
VERTEX
  8
0
 62
7
 10
3.45633403
 20
7.75592990
  0
VERTEX
  8
0
 62
7
 10
3.46895297
 20
7.77142087
  0
VERTEX
  8
0
 62
7
 10
3.47808350
 20
7.78856456
  0
VERTEX
  8
0
 62
7
 10
3.48368079
 20
7.80681007
  0
VERTEX
  8
0
 62
7
 10
3.48569999
 20
7.82560649
  0
VERTEX
  8
0
 62
7
 10
3.48409629
 20
7.84440290
  0
VERTEX
  8
0
 62
7
 10
3.47882482
 20
7.86264841
  0
VERTEX
  8
0
 62
7
 10
3.46984076
 20
7.87979210
  0
VERTEX
  8
0
 62
7
 10
3.45709927
 20
7.89528308
  0
VERTEX
  8
0
 62
7
 10
3.44169888
 20
7.90799000
  0
VERTEX
  8
0
 62
7
 10
3.42457671
 20
7.91713571
  0
VERTEX
  8
0
 62
7
 10
3.40630668
 20
7.92270052
  0
VERTEX
  8
0
 62
7
 10
3.38746273
 20
7.92466477
  0
VERTEX
  8
0
 62
7
 10
3.36861877
 20
7.92300877
  0
VERTEX
  8
0
 62
7
 10
3.35034875
 20
7.91771285
  0
VERTEX
  8
0
 62
7
 10
3.33322657
 20
7.90875734
  0
VERTEX
  8
0
 62
7
 10
3.31782618
 20
7.89612255
  0
VERTEX
  8
0
 62
7
 10
3.30520725
 20
7.88087260
  0
VERTEX
  8
0
 62
7
 10
3.29607672
 20
7.86384204
  0
VERTEX
  8
0
 62
7
 10
3.29047943
 20
7.84561129
  0
VERTEX
  8
0
 62
7
 10
3.28846022
 20
7.82676077
  0
VERTEX
  8
0
 62
7
 10
3.29006393
 20
7.80787089
  0
VERTEX
  8
0
 62
7
 10
3.29533540
 20
7.78952209
  0
VERTEX
  8
0
 62
7
 10
3.30431946
 20
7.77229478
  0
VERTEX
  8
0
 62
7
 10
3.31706095
 20
7.75676937
  0
VERTEX
  8
0
 62
7
 10
3.32318284
 20
7.75089303
  0
VERTEX
  8
0
 62
7
 10
3.32232195
 20
7.74185554
  0
VERTEX
  8
0
 62
7
 10
3.31973928
 20
7.73273934
  0
VERTEX
  8
0
 62
7
 10
3.31543482
 20
7.72409535
  0
VERTEX
  8
0
 62
7
 10
3.30940858
 20
7.71647448
  0
VERTEX
  8
0
 62
7
 10
3.30103880
 20
7.70848633
  0
VERTEX
  8
0
 62
7
 10
3.29123421
 20
7.70230830
  0
VERTEX
  8
0
 62
7
 10
3.28056872
 20
7.69817650
  0
VERTEX
  8
0
 62
7
 10
3.26961627
 20
7.69632703
  0
VERTEX
  8
0
 62
7
 10
3.25813772
 20
7.71059814
  0
VERTEX
  8
0
 62
7
 10
3.24248474
 20
7.72330670
  0
VERTEX
  8
0
 62
7
 10
3.22517275
 20
7.73246389
  0
VERTEX
  8
0
 62
7
 10
3.20676672
 20
7.73805986
  0
VERTEX
  8
0
 62
7
 10
3.18783159
 20
7.74008477
  0
VERTEX
  8
0
 62
7
 10
3.16893234
 20
7.73852878
  0
VERTEX
  8
0
 62
7
 10
3.15063391
 20
7.73338207
  0
VERTEX
  8
0
 62
7
 10
3.13350128
 20
7.72463478
  0
VERTEX
  8
0
 62
7
 10
3.11809939
 20
7.71227709
  0
VERTEX
  8
0
 62
7
 10
3.10548046
 20
7.69675005
  0
VERTEX
  8
0
 62
7
 10
3.09634993
 20
7.67951126
  0
VERTEX
  8
0
 62
7
 10
3.09075264
 20
7.66113130
  0
VERTEX
  8
0
 62
7
 10
3.08873343
 20
7.64218076
  0
VERTEX
  8
0
 62
7
 10
3.09033714
 20
7.62323023
  0
VERTEX
  8
0
 62
7
 10
3.09560861
 20
7.60485027
  0
VERTEX
  8
0
 62
7
 10
3.10459267
 20
7.58761148
  0
VERTEX
  8
0
 62
7
 10
3.11733416
 20
7.57208444
  0
VERTEX
  8
0
 62
7
 10
3.13273455
 20
7.55937751
  0
VERTEX
  8
0
 62
7
 10
3.14985672
 20
7.55023180
  0
VERTEX
  8
0
 62
7
 10
3.16812675
 20
7.54466699
  0
VERTEX
  8
0
 62
7
 10
3.18697070
 20
7.54270274
  0
VERTEX
  8
0
 62
7
 10
3.20581466
 20
7.54435874
  0
VERTEX
  8
0
 62
7
 10
3.22408468
 20
7.54965466
  0
VERTEX
  8
0
 62
7
 10
3.24120685
 20
7.55861017
  0
VERTEX
  8
0
 62
7
 10
3.25660724
 20
7.57124496
  0
VERTEX
  8
0
 62
7
 10
3.26425961
 20
7.57880025
  0
VERTEX
  8
0
 62
7
 10
3.27563055
 20
7.57666221
  0
VERTEX
  8
0
 62
7
 10
3.28635582
 20
7.57176963
  0
VERTEX
  8
0
 62
7
 10
3.29578976
 20
7.56451603
  0
VERTEX
  8
0
 62
7
 10
3.30328669
 20
7.55529490
  0
VERTEX
  8
0
 62
7
 10
3.30861943
 20
7.54695259
  0
VERTEX
  8
0
 62
7
 10
3.31208691
 20
7.53829549
  0
VERTEX
  8
0
 62
7
 10
3.31383260
 20
7.52932358
  0
VERTEX
  8
0
 62
7
 10
3.31400000
 20
7.52003686
  0
SEQEND
  0
POLYLINE
  8
0
 62
7
 66
1
 70
1
  0
VERTEX
  8
0
 62
7
 10
3.40030473
 20
8.66674174
  0
VERTEX
  8
0
 62
7
 10
3.40378550
 20
8.57855961
  0
VERTEX
  8
0
 62
7
 10
3.40519375
 20
8.49212969
  0
VERTEX
  8
0
 62
7
 10
3.40628315
 20
8.40402374
  0
VERTEX
  8
0
 62
7
 10
3.40880737
 20
8.31081352
  0
VERTEX
  8
0
 62
7
 10
3.41986079
 20
7.98739015
  0
VERTEX
  8
0
 62
7
 10
3.43642763
 20
7.98233666
  0
VERTEX
  8
0
 62
7
 10
3.45419016
 20
7.97499768
  0
VERTEX
  8
0
 62
7
 10
3.47115556
 20
7.96613502
  0
VERTEX
  8
0
 62
7
 10
3.48533104
 20
7.95651054
  0
VERTEX
  8
0
 62
7
 10
3.49135097
 20
7.95102375
  0
VERTEX
  8
0
 62
7
 10
3.49777942
 20
7.94369905
  0
VERTEX
  8
0
 62
7
 10
3.50438723
 20
7.93544110
  0
VERTEX
  8
0
 62
7
 10
3.51094521
 20
7.92715458
  0
VERTEX
  8
0
 62
7
 10
3.51722421
 20
7.91974417
  0
VERTEX
  8
0
 62
7
 10
3.52299504
 20
7.91411455
  0
VERTEX
  8
0
 62
7
 10
3.52802853
 20
7.91117038
  0
VERTEX
  8
0
 62
7
 10
3.53209551
 20
7.91181635
  0
VERTEX
  8
0
 62
7
 10
3.60128566
 20
7.96321466
  0
VERTEX
  8
0
 62
7
 10
3.66728733
 20
8.01583191
  0
VERTEX
  8
0
 62
7
 10
3.73882900
 20
8.07614366
  0
VERTEX
  8
0
 62
7
 10
3.81363886
 20
8.14178824
  0
VERTEX
  8
0
 62
7
 10
3.88669506
 20
8.20987069
  0
VERTEX
  8
0
 62
7
 10
3.95297572
 20
8.27749603
  0
VERTEX
  8
0
 62
7
 10
3.98116559
 20
8.30848040
  0
VERTEX
  8
0
 62
7
 10
4.00791068
 20
8.33856962
  0
VERTEX
  8
0
 62
7
 10
4.03256333
 20
8.36854456
  0
VERTEX
  8
0
 62
7
 10
4.05447587
 20
8.39918610
  0
VERTEX
  8
0
 62
7
 10
4.07300064
 20
8.43127513
  0
VERTEX
  8
0
 62
7
 10
4.08748999
 20
8.46559252
  0
VERTEX
  8
0
 62
7
 10
4.09729625
 20
8.50291915
  0
VERTEX
  8
0
 62
7
 10
4.10177175
 20
8.54403589
  0
VERTEX
  8
0
 62
7
 10
4.10161731
 20
8.56980805
  0
VERTEX
  8
0
 62
7
 10
4.09957967
 20
8.59571354
  0
VERTEX
  8
0
 62
7
 10
4.09521044
 20
8.62142857
  0
VERTEX
  8
0
 62
7
 10
4.08806126
 20
8.64662935
  0
VERTEX
  8
0
 62
7
 10
4.07768373
 20
8.67099213
  0
VERTEX
  8
0
 62
7
 10
4.06362948
 20
8.69419311
  0
VERTEX
  8
0
 62
7
 10
4.04545013
 20
8.71590851
  0
VERTEX
  8
0
 62
7
 10
4.02269729
 20
8.73581457
  0
VERTEX
  8
0
 62
7
 10
3.98657439
 20
8.75855527
  0
VERTEX
  8
0
 62
7
 10
3.94989351
 20
8.77817246
  0
VERTEX
  8
0
 62
7
 10
3.91305321
 20
8.79672309
  0
VERTEX
  8
0
 62
7
 10
3.87645204
 20
8.81626410
  0
VERTEX
  8
0
 62
7
 10
3.84946948
 20
8.82885973
  0
VERTEX
  8
0
 62
7
 10
3.82192892
 20
8.84023643
  0
VERTEX
  8
0
 62
7
 10
3.79550434
 20
8.85283206
  0
VERTEX
  8
0
 62
7
 10
3.77186969
 20
8.86908449
  0
VERTEX
  8
0
 62
7
 10
3.67664023
 20
8.96903694
  0
VERTEX
  8
0
 62
7
 10
3.65731169
 20
8.98726379
  0
VERTEX
  8
0
 62
7
 10
3.63839167
 20
9.00392888
  0
VERTEX
  8
0
 62
7
 10
3.61917274
 20
9.01868938
  0
VERTEX
  8
0
 62
7
 10
3.59894744
 20
9.03120249
  0
VERTEX
  8
0
 62
7
 10
3.57700833
 20
9.04112536
  0
VERTEX
  8
0
 62
7
 10
3.55264796
 20
9.04811517
  0
VERTEX
  8
0
 62
7
 10
3.52515889
 20
9.05182910
  0
VERTEX
  8
0
 62
7
 10
3.49383367
 20
9.05192433
  0
VERTEX
  8
0
 62
7
 10
3.49411931
 20
9.04899921
  0
VERTEX
  8
0
 62
7
 10
3.49452451
 20
9.04101743
  0
VERTEX
  8
0
 62
7
 10
3.49437173
 20
9.02916934
  0
VERTEX
  8
0
 62
7
 10
3.49298341
 20
9.01464532
  0
VERTEX
  8
0
 62
7
 10
3.48968200
 20
8.99863573
  0
VERTEX
  8
0
 62
7
 10
3.48378994
 20
8.98233092
  0
VERTEX
  8
0
 62
7
 10
3.47462968
 20
8.96692127
  0
VERTEX
  8
0
 62
7
 10
3.46152367
 20
8.95359713
  0
VERTEX
  8
0
 62
7
 10
3.44170192
 20
8.94147129
  0
VERTEX
  8
0
 62
7
 10
3.42156131
 20
8.93460210
  0
VERTEX
  8
0
 62
7
 10
3.40078301
 20
8.93154207
  0
VERTEX
  8
0
 62
7
 10
3.37904816
 20
8.93084373
  0
VERTEX
  8
0
 62
7
 10
3.35743288
 20
8.93154207
  0
VERTEX
  8
0
 62
7
 10
3.33685385
 20
8.93460210
  0
VERTEX
  8
0
 62
7
 10
3.31675310
 20
8.94147129
  0
VERTEX
  8
0
 62
7
 10
3.29657264
 20
8.95359713
  0
VERTEX
  8
0
 62
7
 10
3.28322252
 20
8.96692127
  0
VERTEX
  8
0
 62
7
 10
3.27394767
 20
8.98233092
  0
VERTEX
  8
0
 62
7
 10
3.26804067
 20
8.99863573
  0
VERTEX
  8
0
 62
7
 10
3.26479406
 20
9.01464532
  0
VERTEX
  8
0
 62
7
 10
3.26350040
 20
9.02916934
  0
VERTEX
  8
0
 62
7
 10
3.26345224
 20
9.04101743
  0
VERTEX
  8
0
 62
7
 10
3.26394214
 20
9.04899921
  0
VERTEX
  8
0
 62
7
 10
3.26426265
 20
9.05192433
  0
VERTEX
  8
0
 62
7
 10
3.23293577
 20
9.05183069
  0
VERTEX
  8
0
 62
7
 10
3.20543507
 20
9.04812787
  0
VERTEX
  8
0
 62
7
 10
3.18104315
 20
9.04116821
  0
VERTEX
  8
0
 62
7
 10
3.15904259
 20
9.03130406
  0
VERTEX
  8
0
 62
7
 10
3.13871599
 20
9.01888778
  0
VERTEX
  8
0
 62
7
 10
3.11934594
 20
9.00427170
  0
VERTEX
  8
0
 62
7
 10
3.10021502
 20
8.98780818
  0
VERTEX
  8
0
 62
7
 10
3.08060583
 20
8.96984956
  0
VERTEX
  8
0
 62
7
 10
3.05880455
 20
8.94656288
  0
VERTEX
  8
0
 62
7
 10
3.03501047
 20
8.91946703
  0
VERTEX
  8
0
 62
7
 10
3.01041927
 20
8.89237118
  0
VERTEX
  8
0
 62
7
 10
2.98622663
 20
8.86908449
  0
VERTEX
  8
0
 62
7
 10
2.96259197
 20
8.85281937
  0
VERTEX
  8
0
 62
7
 10
2.93616739
 20
8.84013485
  0
VERTEX
  8
0
 62
7
 10
2.90862684
 20
8.82851690
  0
VERTEX
  8
0
 62
7
 10
2.88164427
 20
8.81545147
  0
VERTEX
  8
0
 62
7
 10
2.84492354
 20
8.79626599
  0
VERTEX
  8
0
 62
7
 10
2.80788395
 20
8.77776615
  0
VERTEX
  8
0
 62
7
 10
2.77116322
 20
8.75819975
  0
VERTEX
  8
0
 62
7
 10
2.73539903
 20
8.73581457
  0
VERTEX
  8
0
 62
7
 10
2.71264453
 20
8.71590693
  0
VERTEX
  8
0
 62
7
 10
2.69445355
 20
8.69418041
  0
VERTEX
  8
0
 62
7
 10
2.68036775
 20
8.67094928
  0
VERTEX
  8
0
 62
7
 10
2.66992878
 20
8.64652778
  0
VERTEX
  8
0
 62
7
 10
2.66267829
 20
8.62123017
  0
VERTEX
  8
0
 62
7
 10
2.65815795
 20
8.59537071
  0
VERTEX
  8
0
 62
7
 10
2.65590940
 20
8.56926366
  0
VERTEX
  8
0
 62
7
 10
2.65547430
 20
8.54322327
  0
VERTEX
  8
0
 62
7
 10
2.66023046
 20
8.50284137
  0
VERTEX
  8
0
 62
7
 10
2.67024762
 20
8.46593534
  0
VERTEX
  8
0
 62
7
 10
2.68488809
 20
8.43179096
  0
VERTEX
  8
0
 62
7
 10
2.70351417
 20
8.39969399
  0
VERTEX
  8
0
 62
7
 10
2.72548815
 20
8.36893024
  0
VERTEX
  8
0
 62
7
 10
2.75017235
 20
8.33878547
  0
VERTEX
  8
0
 62
7
 10
2.77692907
 20
8.30854548
  0
VERTEX
  8
0
 62
7
 10
2.80512060
 20
8.27749603
  0
VERTEX
  8
0
 62
7
 10
2.87140126
 20
8.20998496
  0
VERTEX
  8
0
 62
7
 10
2.94445746
 20
8.14209297
  0
VERTEX
  8
0
 62
7
 10
3.01926732
 20
8.07648648
  0
VERTEX
  8
0
 62
7
 10
3.09080898
 20
8.01583191
  0
VERTEX
  8
0
 62
7
 10
3.15681065
 20
7.96260520
  0
VERTEX
  8
0
 62
7
 10
3.22600081
 20
7.91181635
  0
VERTEX
  8
0
 62
7
 10
3.23003292
 20
7.91113705
  0
VERTEX
  8
0
 62
7
 10
3.23498171
 20
7.91400027
  0
VERTEX
  8
0
 62
7
 10
3.24064792
 20
7.91952991
  0
VERTEX
  8
0
 62
7
 10
3.24683225
 20
7.92684985
  0
VERTEX
  8
0
 62
7
 10
3.25333544
 20
7.93508399
  0
VERTEX
  8
0
 62
7
 10
3.25995819
 20
7.94335623
  0
VERTEX
  8
0
 62
7
 10
3.26650123
 20
7.95079044
  0
VERTEX
  8
0
 62
7
 10
3.27276528
 20
7.95651054
  0
VERTEX
  8
0
 62
7
 10
3.28707361
 20
7.96551286
  0
VERTEX
  8
0
 62
7
 10
3.30433129
 20
7.97306770
  0
VERTEX
  8
0
 62
7
 10
3.32238610
 20
7.97925124
  0
VERTEX
  8
0
 62
7
 10
3.33908580
 20
7.98413967
  0
VERTEX
  8
0
 62
7
 10
3.34673816
 20
8.31406400
  0
VERTEX
  8
0
 62
7
 10
3.35864185
 20
8.66105339
  0
VERTEX
  8
0
 62
7
 10
3.36085054
 20
8.67579644
  0
VERTEX
  8
0
 62
7
 10
3.36562994
 20
8.68696839
  0
VERTEX
  8
0
 62
7
 10
3.37212316
 20
8.69435024
  0
VERTEX
  8
0
 62
7
 10
3.37947329
 20
8.69772293
  0
VERTEX
  8
0
 62
7
 10
3.38682342
 20
8.69686746
  0
VERTEX
  8
0
 62
7
 10
3.39331664
 20
8.69156478
  0
VERTEX
  8
0
 62
7
 10
3.39809604
 20
8.68159589
  0
VERTEX
  8
0
 62
7
 10
3.40030473
 20
8.66674174
  0
SEQEND
  0
POLYLINE
  8
0
 62
7
 66
1
 70
1
  0
VERTEX
  8
0
 62
7
 10
5.05600000
 20
6.12200000
  0
VERTEX
  8
0
 62
7
 10
5.09120313
 20
6.11828125
  0
VERTEX
  8
0
 62
7
 10
5.12612500
 20
6.11175000
  0
VERTEX
  8
0
 62
7
 10
5.16048438
 20
6.10259375
  0
VERTEX
  8
0
 62
7
 10
5.19400000
 20
6.09100000
  0
VERTEX
  8
0
 62
7
 10
5.18409375
 20
6.06084375
  0
VERTEX
  8
0
 62
7
 10
5.17100000
 20
6.03200000
  0
VERTEX
  8
0
 62
7
 10
5.15490625
 20
6.00465625
  0
VERTEX
  8
0
 62
7
 10
5.13600000
 20
5.97900000
  0
VERTEX
  8
0
 62
7
 10
5.11037500
 20
5.95129688
  0
VERTEX
  8
0
 62
7
 10
5.08175000
 20
5.92687500
  0
VERTEX
  8
0
 62
7
 10
5.05050000
 20
5.90601563
  0
VERTEX
  8
0
 62
7
 10
5.01700000
 20
5.88900000
  0
VERTEX
  8
0
 62
7
 10
5.01926563
 20
5.91443750
  0
VERTEX
  8
0
 62
7
 10
5.01712500
 20
5.93950000
  0
VERTEX
  8
0
 62
7
 10
5.01067188
 20
5.96381250
  0
VERTEX
  8
0
 62
7
 10
5.00000000
 20
5.98700000
  0
VERTEX
  8
0
 62
7
 10
4.97957813
 20
6.01517188
  0
VERTEX
  8
0
 62
7
 10
4.95362500
 20
6.03762500
  0
VERTEX
  8
0
 62
7
 10
4.92335938
 20
6.05351563
  0
VERTEX
  8
0
 62
7
 10
4.89000000
 20
6.06200000
  0
VERTEX
  8
0
 62
7
 10
4.91187500
 20
6.08000000
  0
VERTEX
  8
0
 62
7
 10
4.93600000
 20
6.09500000
  0
VERTEX
  8
0
 62
7
 10
4.96445313
 20
6.10807813
  0
VERTEX
  8
0
 62
7
 10
4.99412500
 20
6.11712500
  0
VERTEX
  8
0
 62
7
 10
5.02473438
 20
6.12185938
  0
VERTEX
  8
0
 62
7
 10
5.05600000
 20
6.12200000
  0
SEQEND
  0
POLYLINE
  8
0
 62
7
 66
1
 70
1
  0
VERTEX
  8
0
 62
7
 10
3.09200000
 20
5.17600000
  0
VERTEX
  8
0
 62
7
 10
3.02304688
 20
5.31434375
  0
VERTEX
  8
0
 62
7
 10
2.94687500
 20
5.44875000
  0
VERTEX
  8
0
 62
7
 10
2.86376563
 20
5.57903125
  0
VERTEX
  8
0
 62
7
 10
2.77400000
 20
5.70500000
  0
VERTEX
  8
0
 62
7
 10
2.66300000
 20
5.84200000
  0
VERTEX
  8
0
 62
7
 10
2.58175000
 20
5.94125000
  0
VERTEX
  8
0
 62
7
 10
2.50500000
 20
6.04200000
  0
VERTEX
  8
0
 62
7
 10
2.46231250
 20
6.10292383
  0
VERTEX
  8
0
 62
7
 10
2.42206250
 20
6.16189063
  0
VERTEX
  8
0
 62
7
 10
2.38434375
 20
6.21994336
  0
VERTEX
  8
0
 62
7
 10
2.34925000
 20
6.27812500
  0
VERTEX
  8
0
 62
7
 10
2.31687500
 20
6.33747852
  0
VERTEX
  8
0
 62
7
 10
2.28731250
 20
6.39904688
  0
VERTEX
  8
0
 62
7
 10
2.26065625
 20
6.46387305
  0
VERTEX
  8
0
 62
7
 10
2.23700000
 20
6.53300000
  0
VERTEX
  8
0
 62
7
 10
2.20100000
 20
6.51300000
  0
VERTEX
  8
0
 62
7
 10
2.22549219
 20
6.43902148
  0
VERTEX
  8
0
 62
7
 10
2.25312500
 20
6.36760938
  0
VERTEX
  8
0
 62
7
 10
2.28375781
 20
6.29842383
  0
VERTEX
  8
0
 62
7
 10
2.31725000
 20
6.23112500
  0
VERTEX
  8
0
 62
7
 10
2.35346094
 20
6.16537305
  0
VERTEX
  8
0
 62
7
 10
2.39225000
 20
6.10082813
  0
VERTEX
  8
0
 62
7
 10
2.43347656
 20
6.03715039
  0
VERTEX
  8
0
 62
7
 10
2.47700000
 20
5.97400000
  0
VERTEX
  8
0
 62
7
 10
2.54200000
 20
5.88325000
  0
VERTEX
  8
0
 62
7
 10
2.61000000
 20
5.79700000
  0
VERTEX
  8
0
 62
7
 10
2.71800000
 20
5.66300000
  0
VERTEX
  8
0
 62
7
 10
2.80553125
 20
5.54003125
  0
VERTEX
  8
0
 62
7
 10
2.88650000
 20
5.41275000
  0
VERTEX
  8
0
 62
7
 10
2.96071875
 20
5.28134375
  0
VERTEX
  8
0
 62
7
 10
3.02800000
 20
5.14600000
  0
VERTEX
  8
0
 62
7
 10
3.03618750
 20
5.13504688
  0
VERTEX
  8
0
 62
7
 10
3.04775000
 20
5.12812500
  0
VERTEX
  8
0
 62
7
 10
3.06118750
 20
5.12589063
  0
VERTEX
  8
0
 62
7
 10
3.07500000
 20
5.12900000
  0
VERTEX
  8
0
 62
7
 10
3.08595313
 20
5.13718750
  0
VERTEX
  8
0
 62
7
 10
3.09287500
 20
5.14875000
  0
VERTEX
  8
0
 62
7
 10
3.09510938
 20
5.16218750
  0
VERTEX
  8
0
 62
7
 10
3.09200000
 20
5.17600000
  0
SEQEND
  0
POLYLINE
  8
0
 62
7
 66
1
 70
1
  0
VERTEX
  8
0
 62
7
 10
21.00600000
 20
15.44900000
  0
VERTEX
  8
0
 62
7
 10
20.34278809
 20
15.44639502
  0
VERTEX
  8
0
 62
7
 10
19.68083594
 20
15.43861328
  0
VERTEX
  8
0
 62
7
 10
19.02041895
 20
15.42570459
  0
VERTEX
  8
0
 62
7
 10
18.36181250
 20
15.40771875
  0
VERTEX
  8
0
 62
7
 10
17.70529199
 20
15.38470557
  0
VERTEX
  8
0
 62
7
 10
17.05113281
 20
15.35671484
  0
VERTEX
  8
0
 62
7
 10
16.39961035
 20
15.32379639
  0
VERTEX
  8
0
 62
7
 10
15.75100000
 20
15.28600000
  0
VERTEX
  8
0
 62
7
 10
15.10557715
 20
15.24337549
  0
VERTEX
  8
0
 62
7
 10
14.46361719
 20
15.19597266
  0
VERTEX
  8
0
 62
7
 10
13.82539551
 20
15.14384131
  0
VERTEX
  8
0
 62
7
 10
13.19118750
 20
15.08703125
  0
VERTEX
  8
0
 62
7
 10
12.56126855
 20
15.02559229
  0
VERTEX
  8
0
 62
7
 10
11.93591406
 20
14.95957422
  0
VERTEX
  8
0
 62
7
 10
11.31539941
 20
14.88902686
  0
VERTEX
  8
0
 62
7
 10
10.70000000
 20
14.81400000
  0
VERTEX
  8
0
 62
7
 10
10.28282178
 20
14.76250952
  0
VERTEX
  8
0
 62
7
 10
9.86382422
 20
14.71304492
  0
VERTEX
  8
0
 62
7
 10
9.44306299
 20
14.66561646
  0
VERTEX
  8
0
 62
7
 10
9.02059375
 20
14.62023438
  0
VERTEX
  8
0
 62
7
 10
8.59647217
 20
14.57690894
  0
VERTEX
  8
0
 62
7
 10
8.17075391
 20
14.53565039
  0
VERTEX
  8
0
 62
7
 10
7.74349463
 20
14.49646899
  0
VERTEX
  8
0
 62
7
 10
7.31475000
 20
14.45937500
  0
VERTEX
  8
0
 62
7
 10
6.88457568
 20
14.42437866
  0
VERTEX
  8
0
 62
7
 10
6.45302734
 20
14.39149023
  0
VERTEX
  8
0
 62
7
 10
6.02016064
 20
14.36071997
  0
VERTEX
  8
0
 62
7
 10
5.58603125
 20
14.33207813
  0
VERTEX
  8
0
 62
7
 10
5.15069482
 20
14.30557495
  0
VERTEX
  8
0
 62
7
 10
4.71420703
 20
14.28122070
  0
VERTEX
  8
0
 62
7
 10
4.27662354
 20
14.25902563
  0
VERTEX
  8
0
 62
7
 10
3.83800000
 20
14.23900000
  0
VERTEX
  8
0
 62
7
 10
3.83800000
 20
14.43900000
  0
VERTEX
  8
0
 62
7
 10
4.27543115
 20
14.45901416
  0
VERTEX
  8
0
 62
7
 10
4.71169922
 20
14.48117578
  0
VERTEX
  8
0
 62
7
 10
5.14676611
 20
14.50547607
  0
VERTEX
  8
0
 62
7
 10
5.58059375
 20
14.53190625
  0
VERTEX
  8
0
 62
7
 10
6.01314404
 20
14.56045752
  0
VERTEX
  8
0
 62
7
 10
6.44437891
 20
14.59112109
  0
VERTEX
  8
0
 62
7
 10
6.87426025
 20
14.62388818
  0
VERTEX
  8
0
 62
7
 10
7.30275000
 20
14.65875000
  0
VERTEX
  8
0
 62
7
 10
7.72981006
 20
14.69569775
  0
VERTEX
  8
0
 62
7
 10
8.15540234
 20
14.73472266
  0
VERTEX
  8
0
 62
7
 10
8.57948877
 20
14.77581592
  0
VERTEX
  8
0
 62
7
 10
9.00203125
 20
14.81896875
  0
VERTEX
  8
0
 62
7
 10
9.42299170
 20
14.86417236
  0
VERTEX
  8
0
 62
7
 10
9.84233203
 20
14.91141797
  0
VERTEX
  8
0
 62
7
 10
10.26001416
 20
14.96069678
  0
VERTEX
  8
0
 62
7
 10
10.67600000
 20
15.01200000
  0
VERTEX
  8
0
 62
7
 10
11.29327295
 20
15.08723657
  0
VERTEX
  8
0
 62
7
 10
11.91565234
 20
15.15803320
  0
VERTEX
  8
0
 62
7
 10
12.54285400
 20
15.22433276
  0
VERTEX
  8
0
 62
7
 10
13.17459375
 20
15.28607813
  0
VERTEX
  8
0
 62
7
 10
13.81058740
 20
15.34321216
  0
VERTEX
  8
0
 62
7
 10
14.45055078
 20
15.39567773
  0
VERTEX
  8
0
 62
7
 10
15.09419971
 20
15.44341772
  0
VERTEX
  8
0
 62
7
 10
15.74125000
 20
15.48637500
  0
VERTEX
  8
0
 62
7
 10
16.39141748
 20
15.52449243
  0
VERTEX
  8
0
 62
7
 10
17.04441797
 20
15.55771289
  0
VERTEX
  8
0
 62
7
 10
17.69996729
 20
15.58597925
  0
VERTEX
  8
0
 62
7
 10
18.35778125
 20
15.60923438
  0
VERTEX
  8
0
 62
7
 10
19.01757568
 20
15.62742114
  0
VERTEX
  8
0
 62
7
 10
19.67906641
 20
15.64048242
  0
VERTEX
  8
0
 62
7
 10
20.34196924
 20
15.64836108
  0
VERTEX
  8
0
 62
7
 10
21.00600000
 20
15.65100000
  0
VERTEX
  8
0
 62
7
 10
21.66991846
 20
15.64836108
  0
VERTEX
  8
0
 62
7
 10
22.33250391
 20
15.64048242
  0
VERTEX
  8
0
 62
7
 10
22.99350146
 20
15.62742114
  0
VERTEX
  8
0
 62
7
 10
23.65265625
 20
15.60923438
  0
VERTEX
  8
0
 62
7
 10
24.30971338
 20
15.58597925
  0
VERTEX
  8
0
 62
7
 10
24.96441797
 20
15.55771289
  0
VERTEX
  8
0
 62
7
 10
25.61651514
 20
15.52449243
  0
VERTEX
  8
0
 62
7
 10
26.26575000
 20
15.48637500
  0
VERTEX
  8
0
 62
7
 10
26.91186768
 20
15.44341772
  0
VERTEX
  8
0
 62
7
 10
27.55461328
 20
15.39567773
  0
VERTEX
  8
0
 62
7
 10
28.19373193
 20
15.34321216
  0
VERTEX
  8
0
 62
7
 10
28.82896875
 20
15.28607813
  0
VERTEX
  8
0
 62
7
 10
29.46006885
 20
15.22433276
  0
VERTEX
  8
0
 62
7
 10
30.08677734
 20
15.15803320
  0
VERTEX
  8
0
 62
7
 10
30.70883936
 20
15.08723657
  0
VERTEX
  8
0
 62
7
 10
31.32600000
 20
15.01200000
  0
VERTEX
  8
0
 62
7
 10
31.74165576
 20
14.96069678
  0
VERTEX
  8
0
 62
7
 10
32.15908984
 20
14.91141797
  0
VERTEX
  8
0
 62
7
 10
32.57825244
 20
14.86417236
  0
VERTEX
  8
0
 62
7
 10
32.99909375
 20
14.81896875
  0
VERTEX
  8
0
 62
7
 10
33.42156396
 20
14.77581592
  0
VERTEX
  8
0
 62
7
 10
33.84561328
 20
14.73472266
  0
VERTEX
  8
0
 62
7
 10
34.27119189
 20
14.69569775
  0
VERTEX
  8
0
 62
7
 10
34.69825000
 20
14.65875000
  0
VERTEX
  8
0
 62
7
 10
35.12673779
 20
14.62388818
  0
VERTEX
  8
0
 62
7
 10
35.55660547
 20
14.59112109
  0
VERTEX
  8
0
 62
7
 10
35.98780322
 20
14.56045752
  0
VERTEX
  8
0
 62
7
 10
36.42028125
 20
14.53190625
  0
VERTEX
  8
0
 62
7
 10
36.85398975
 20
14.50547607
  0
VERTEX
  8
0
 62
7
 10
37.28887891
 20
14.48117578
  0
VERTEX
  8
0
 62
7
 10
37.72489893
 20
14.45901416
  0
VERTEX
  8
0
 62
7
 10
38.16200000
 20
14.43900000
  0
VERTEX
  8
0
 62
7
 10
38.16200000
 20
14.23900000
  0
VERTEX
  8
0
 62
7
 10
37.72339844
 20
14.25902563
  0
VERTEX
  8
0
 62
7
 10
37.28587500
 20
14.28122070
  0
VERTEX
  8
0
 62
7
 10
36.84947656
 20
14.30557495
  0
VERTEX
  8
0
 62
7
 10
36.41425000
 20
14.33207813
  0
VERTEX
  8
0
 62
7
 10
35.98024219
 20
14.36071997
  0
VERTEX
  8
0
 62
7
 10
35.54750000
 20
14.39149023
  0
VERTEX
  8
0
 62
7
 10
35.11607031
 20
14.42437866
  0
VERTEX
  8
0
 62
7
 10
34.68600000
 20
14.45937500
  0
VERTEX
  8
0
 62
7
 10
34.25733594
 20
14.49646899
  0
VERTEX
  8
0
 62
7
 10
33.83012500
 20
14.53565039
  0
VERTEX
  8
0
 62
7
 10
33.40441406
 20
14.57690894
  0
VERTEX
  8
0
 62
7
 10
32.98025000
 20
14.62023438
  0
VERTEX
  8
0
 62
7
 10
32.55767969
 20
14.66561646
  0
VERTEX
  8
0
 62
7
 10
32.13675000
 20
14.71304492
  0
VERTEX
  8
0
 62
7
 10
31.71750781
 20
14.76250952
  0
VERTEX
  8
0
 62
7
 10
31.30000000
 20
14.81400000
  0
VERTEX
  8
0
 62
7
 10
30.68506494
 20
14.88902686
  0
VERTEX
  8
0
 62
7
 10
30.06517578
 20
14.95957422
  0
VERTEX
  8
0
 62
7
 10
29.44058154
 20
15.02559229
  0
VERTEX
  8
0
 62
7
 10
28.81153125
 20
15.08703125
  0
VERTEX
  8
0
 62
7
 10
28.17827393
 20
15.14384131
  0
VERTEX
  8
0
 62
7
 10
27.54105859
 20
15.19597266
  0
VERTEX
  8
0
 62
7
 10
26.90013428
 20
15.24337549
  0
VERTEX
  8
0
 62
7
 10
26.25575000
 20
15.28600000
  0
VERTEX
  8
0
 62
7
 10
25.60815479
 20
15.32379639
  0
VERTEX
  8
0
 62
7
 10
24.95759766
 20
15.35671484
  0
VERTEX
  8
0
 62
7
 10
24.30432764
 20
15.38470557
  0
VERTEX
  8
0
 62
7
 10
23.64859375
 20
15.40771875
  0
VERTEX
  8
0
 62
7
 10
22.99064502
 20
15.42570459
  0
VERTEX
  8
0
 62
7
 10
22.33073047
 20
15.43861328
  0
VERTEX
  8
0
 62
7
 10
21.66909912
 20
15.44639502
  0
VERTEX
  8
0
 62
7
 10
21.00600000
 20
15.44900000
  0
SEQEND
  0
POLYLINE
  8
0
 62
7
 66
1
 70
1
  0
VERTEX
  8
0
 62
7
 10
38.45300000
 20
9.91900000
  0
VERTEX
  8
0
 62
7
 10
38.42076758
 20
10.00242383
  0
VERTEX
  8
0
 62
7
 10
38.38489063
 20
10.08389063
  0
VERTEX
  8
0
 62
7
 10
38.34547461
 20
10.16331836
  0
VERTEX
  8
0
 62
7
 10
38.30262500
 20
10.24062500
  0
VERTEX
  8
0
 62
7
 10
38.25644727
 20
10.31572852
  0
VERTEX
  8
0
 62
7
 10
38.20704688
 20
10.38854688
  0
VERTEX
  8
0
 62
7
 10
38.15452930
 20
10.45899805
  0
VERTEX
  8
0
 62
7
 10
38.09900000
 20
10.52700000
  0
VERTEX
  8
0
 62
7
 10
38.07900000
 20
10.55100000
  0
VERTEX
  8
0
 62
7
 10
38.07800000
 20
10.56000000
  0
VERTEX
  8
0
 62
7
 10
38.05630078
 20
10.57701172
  0
VERTEX
  8
0
 62
7
 10
38.03321875
 20
10.59203125
  0
VERTEX
  8
0
 62
7
 10
38.00877734
 20
10.60503516
  0
VERTEX
  8
0
 62
7
 10
37.98300000
 20
10.61600000
  0
VERTEX
  8
0
 62
7
 10
37.95591016
 20
10.62490234
  0
VERTEX
  8
0
 62
7
 10
37.92753125
 20
10.63171875
  0
VERTEX
  8
0
 62
7
 10
37.89788672
 20
10.63642578
  0
VERTEX
  8
0
 62
7
 10
37.86700000
 20
10.63900000
  0
VERTEX
  8
0
 62
7
 10
37.81962500
 20
10.64012500
  0
VERTEX
  8
0
 62
7
 10
37.76400000
 20
10.63900000
  0
VERTEX
  8
0
 62
7
 10
37.73363281
 20
10.63453516
  0
VERTEX
  8
0
 62
7
 10
37.70837500
 20
10.62709375
  0
VERTEX
  8
0
 62
7
 10
37.68799219
 20
10.61773047
  0
VERTEX
  8
0
 62
7
 10
37.67225000
 20
10.60750000
  0
VERTEX
  8
0
 62
7
 10
37.66091406
 20
10.59745703
  0
VERTEX
  8
0
 62
7
 10
37.65375000
 20
10.58865625
  0
VERTEX
  8
0
 62
7
 10
37.65052344
 20
10.58215234
  0
VERTEX
  8
0
 62
7
 10
37.65100000
 20
10.57900000
  0
VERTEX
  8
0
 62
7
 10
37.66807813
 20
10.56826563
  0
VERTEX
  8
0
 62
7
 10
37.68262500
 20
10.55687500
  0
VERTEX
  8
0
 62
7
 10
37.69585938
 20
10.54229688
  0
VERTEX
  8
0
 62
7
 10
37.70900000
 20
10.52200000
  0
VERTEX
  8
0
 62
7
 10
37.75994141
 20
10.43408203
  0
VERTEX
  8
0
 62
7
 10
37.81109375
 20
10.34703125
  0
VERTEX
  8
0
 62
7
 10
37.86182422
 20
10.26040234
  0
VERTEX
  8
0
 62
7
 10
37.91150000
 20
10.17375000
  0
VERTEX
  8
0
 62
7
 10
37.95948828
 20
10.08662891
  0
VERTEX
  8
0
 62
7
 10
38.00515625
 20
9.99859375
  0
VERTEX
  8
0
 62
7
 10
38.04787109
 20
9.90919922
  0
VERTEX
  8
0
 62
7
 10
38.08700000
 20
9.81800000
  0
VERTEX
  8
0
 62
7
 10
38.12185547
 20
9.72751367
  0
VERTEX
  8
0
 62
7
 10
38.15509375
 20
9.63673438
  0
VERTEX
  8
0
 62
7
 10
38.18659766
 20
9.54555664
  0
VERTEX
  8
0
 62
7
 10
38.21625000
 20
9.45387500
  0
VERTEX
  8
0
 62
7
 10
38.24393359
 20
9.36158398
  0
VERTEX
  8
0
 62
7
 10
38.26953125
 20
9.26857812
  0
VERTEX
  8
0
 62
7
 10
38.29292578
 20
9.17475195
  0
VERTEX
  8
0
 62
7
 10
38.31400000
 20
9.08000000
  0
VERTEX
  8
0
 62
7
 10
38.33194141
 20
9.09316211
  0
VERTEX
  8
0
 62
7
 10
38.35140625
 20
9.10542187
  0
VERTEX
  8
0
 62
7
 10
38.37260547
 20
9.11643945
  0
VERTEX
  8
0
 62
7
 10
38.39575000
 20
9.12587500
  0
VERTEX
  8
0
 62
7
 10
38.42105078
 20
9.13338867
  0
VERTEX
  8
0
 62
7
 10
38.44871875
 20
9.13864063
  0
VERTEX
  8
0
 62
7
 10
38.47896484
 20
9.14129102
  0
VERTEX
  8
0
 62
7
 10
38.51200000
 20
9.14100000
  0
VERTEX
  8
0
 62
7
 10
38.57000000
 20
9.13800000
  0
VERTEX
  8
0
 62
7
 10
38.57300000
 20
9.24100000
  0
VERTEX
  8
0
 62
7
 10
38.57104297
 20
9.32751367
  0
VERTEX
  8
0
 62
7
 10
38.56521875
 20
9.41373438
  0
VERTEX
  8
0
 62
7
 10
38.55559766
 20
9.49955664
  0
VERTEX
  8
0
 62
7
 10
38.54225000
 20
9.58487500
  0
VERTEX
  8
0
 62
7
 10
38.52524609
 20
9.66958398
  0
VERTEX
  8
0
 62
7
 10
38.50465625
 20
9.75357813
  0
VERTEX
  8
0
 62
7
 10
38.48055078
 20
9.83675195
  0
VERTEX
  8
0
 62
7
 10
38.45300000
 20
9.91900000
  0
SEQEND
  0
POLYLINE
  8
0
 62
7
 66
1
 70
1
  0
VERTEX
  8
0
 62
7
 10
39.46500000
 20
8.43900000
  0
VERTEX
  8
0
 62
7
 10
39.48440039
 20
8.49419922
  0
VERTEX
  8
0
 62
7
 10
39.50132813
 20
8.55021875
  0
VERTEX
  8
0
 62
7
 10
39.51574805
 20
8.60694141
  0
VERTEX
  8
0
 62
7
 10
39.52762500
 20
8.66425000
  0
VERTEX
  8
0
 62
7
 10
39.53692383
 20
8.72202734
  0
VERTEX
  8
0
 62
7
 10
39.54360938
 20
8.78015625
  0
VERTEX
  8
0
 62
7
 10
39.54764648
 20
8.83851953
  0
VERTEX
  8
0
 62
7
 10
39.54900000
 20
8.89700000
  0
VERTEX
  8
0
 62
7
 10
39.54812500
 20
8.94500000
  0
VERTEX
  8
0
 62
7
 10
39.54500000
 20
8.99300000
  0
VERTEX
  8
0
 62
7
 10
39.53545313
 20
9.07881250
  0
VERTEX
  8
0
 62
7
 10
39.52037500
 20
9.16350000
  0
VERTEX
  8
0
 62
7
 10
39.49985938
 20
9.24668750
  0
VERTEX
  8
0
 62
7
 10
39.47400000
 20
9.32800000
  0
VERTEX
  8
0
 62
7
 10
39.50312500
 20
9.44312500
  0
VERTEX
  8
0
 62
7
 10
39.52700000
 20
9.55600000
  0
VERTEX
  8
0
 62
7
 10
39.55876758
 20
9.49109961
  0
VERTEX
  8
0
 62
7
 10
39.58726563
 20
9.42473438
  0
VERTEX
  8
0
 62
7
 10
39.61241211
 20
9.35703320
  0
VERTEX
  8
0
 62
7
 10
39.63412500
 20
9.28812500
  0
VERTEX
  8
0
 62
7
 10
39.65232227
 20
9.21813867
  0
VERTEX
  8
0
 62
7
 10
39.66692188
 20
9.14720313
  0
VERTEX
  8
0
 62
7
 10
39.67784180
 20
9.07544727
  0
VERTEX
  8
0
 62
7
 10
39.68500000
 20
9.00300000
  0
VERTEX
  8
0
 62
7
 10
39.68900000
 20
8.89700000
  0
VERTEX
  8
0
 62
7
 10
39.68782813
 20
8.83860352
  0
VERTEX
  8
0
 62
7
 10
39.68431250
 20
8.78045312
  0
VERTEX
  8
0
 62
7
 10
39.67845313
 20
8.72260742
  0
VERTEX
  8
0
 62
7
 10
39.67025000
 20
8.66512500
  0
VERTEX
  8
0
 62
7
 10
39.65970313
 20
8.60806445
  0
VERTEX
  8
0
 62
7
 10
39.64681250
 20
8.55148437
  0
VERTEX
  8
0
 62
7
 10
39.63157813
 20
8.49544336
  0
VERTEX
  8
0
 62
7
 10
39.61400000
 20
8.44000000
  0
VERTEX
  8
0
 62
7
 10
39.56712500
 20
8.44562500
  0
VERTEX
  8
0
 62
7
 10
39.52400000
 20
8.44600000
  0
VERTEX
  8
0
 62
7
 10
39.46500000
 20
8.43900000
  0
SEQEND
  0
POLYLINE
  8
0
 62
7
 66
1
 70
1
  0
VERTEX
  8
0
 62
7
 10
38.85800000
 20
11.83500000
  0
VERTEX
  8
0
 62
7
 10
38.90864063
 20
11.72615625
  0
VERTEX
  8
0
 62
7
 10
38.95262500
 20
11.61525000
  0
VERTEX
  8
0
 62
7
 10
38.99004688
 20
11.50396875
  0
VERTEX
  8
0
 62
7
 10
39.02100000
 20
11.39400000
  0
VERTEX
  8
0
 62
7
 10
39.03450000
 20
11.33325000
  0
VERTEX
  8
0
 62
7
 10
39.04800000
 20
11.25600000
  0
VERTEX
  8
0
 62
7
 10
39.04800000
 20
14.40600000
  0
VERTEX
  8
0
 62
7
 10
38.85800000
 20
14.41000000
  0
VERTEX
  8
0
 62
7
 10
38.85800000
 20
11.83500000
  0
SEQEND
  0
POLYLINE
  8
0
 62
7
 66
1
 70
1
  0
VERTEX
  8
0
 62
7
 10
38.52800000
 20
12.27200000
  0
VERTEX
  8
0
 62
7
 10
38.53400000
 20
12.26700000
  0
VERTEX
  8
0
 62
7
 10
38.60223438
 20
12.20223438
  0
VERTEX
  8
0
 62
7
 10
38.66587500
 20
12.13137500
  0
VERTEX
  8
0
 62
7
 10
38.72482813
 20
12.05507813
  0
VERTEX
  8
0
 62
7
 10
38.77900000
 20
11.97400000
  0
VERTEX
  8
0
 62
7
 10
38.77900000
 20
14.41500000
  0
VERTEX
  8
0
 62
7
 10
38.52800000
 20
14.42200000
  0
VERTEX
  8
0
 62
7
 10
38.52800000
 20
12.27200000
  0
SEQEND
  0
POLYLINE
  8
0
 62
7
 66
1
 70
1
  0
VERTEX
  8
0
 62
7
 10
38.26200000
 20
11.65900000
  0
VERTEX
  8
0
 62
7
 10
38.28419727
 20
11.71322656
  0
VERTEX
  8
0
 62
7
 10
38.30476563
 20
11.76975000
  0
VERTEX
  8
0
 62
7
 10
38.32329492
 20
11.82796094
  0
VERTEX
  8
0
 62
7
 10
38.33937500
 20
11.88725000
  0
VERTEX
  8
0
 62
7
 10
38.35259570
 20
11.94700781
  0
VERTEX
  8
0
 62
7
 10
38.36254688
 20
12.00662500
  0
VERTEX
  8
0
 62
7
 10
38.36881836
 20
12.06549219
  0
VERTEX
  8
0
 62
7
 10
38.37100000
 20
12.12300000
  0
VERTEX
  8
0
 62
7
 10
38.36800000
 20
12.18300000
  0
VERTEX
  8
0
 62
7
 10
38.34700000
 20
12.43000000
  0
VERTEX
  8
0
 62
7
 10
38.44900000
 20
12.34100000
  0
VERTEX
  8
0
 62
7
 10
38.44900000
 20
14.42700000
  0
VERTEX
  8
0
 62
7
 10
38.26200000
 20
14.43500000
  0
VERTEX
  8
0
 62
7
 10
38.26200000
 20
11.65900000
  0
SEQEND
  0
POLYLINE
  8
0
 62
7
 66
1
 70
1
  0
VERTEX
  8
0
 62
7
 10
39.04600000
 20
3.98300000
  0
VERTEX
  8
0
 62
7
 10
39.04100000
 20
3.98700000
  0
VERTEX
  8
0
 62
7
 10
38.99090625
 20
4.02362500
  0
VERTEX
  8
0
 62
7
 10
38.94400000
 20
4.06250000
  0
VERTEX
  8
0
 62
7
 10
38.90009375
 20
4.10287500
  0
VERTEX
  8
0
 62
7
 10
38.85900000
 20
4.14400000
  0
VERTEX
  8
0
 62
7
 10
38.85900000
 20
2.91400000
  0
VERTEX
  8
0
 62
7
 10
39.04600000
 20
2.91400000
  0
VERTEX
  8
0
 62
7
 10
39.04600000
 20
3.98300000
  0
SEQEND
  0
POLYLINE
  8
0
 62
7
 66
1
 70
1
  0
VERTEX
  8
0
 62
7
 10
38.77800000
 20
4.23100000
  0
VERTEX
  8
0
 62
7
 10
38.76800000
 20
4.24200000
  0
VERTEX
  8
0
 62
7
 10
38.73600000
 20
4.27800000
  0
VERTEX
  8
0
 62
7
 10
38.67800000
 20
4.34100000
  0
VERTEX
  8
0
 62
7
 10
38.60750000
 20
4.42387500
  0
VERTEX
  8
0
 62
7
 10
38.52800000
 20
4.51200000
  0
VERTEX
  8
0
 62
7
 10
38.52800000
 20
2.18800000
  0
VERTEX
  8
0
 62
7
 10
38.77800000
 20
2.18800000
  0
VERTEX
  8
0
 62
7
 10
38.77800000
 20
4.23100000
  0
SEQEND
  0
POLYLINE
  8
0
 62
7
 66
1
 70
1
  0
VERTEX
  8
0
 62
7
 10
38.44800000
 20
4.59700000
  0
VERTEX
  8
0
 62
7
 10
38.35462500
 20
4.69187500
  0
VERTEX
  8
0
 62
7
 10
38.26200000
 20
4.78000000
  0
VERTEX
  8
0
 62
7
 10
38.26100000
 20
4.78100000
  0
VERTEX
  8
0
 62
7
 10
38.26100000
 20
2.91400000
  0
VERTEX
  8
0
 62
7
 10
38.44800000
 20
2.91400000
  0
VERTEX
  8
0
 62
7
 10
38.44800000
 20
4.59700000
  0
SEQEND
  0
POLYLINE
  8
0
 62
7
 66
1
 70
1
  0
VERTEX
  8
0
 62
7
 10
38.92300000
 20
9.07400000
  0
VERTEX
  8
0
 62
7
 10
38.92564063
 20
9.13206641
  0
VERTEX
  8
0
 62
7
 10
38.93043750
 20
9.18884375
  0
VERTEX
  8
0
 62
7
 10
38.93720313
 20
9.24482422
  0
VERTEX
  8
0
 62
7
 10
38.94575000
 20
9.30050000
  0
VERTEX
  8
0
 62
7
 10
38.95589063
 20
9.35636328
  0
VERTEX
  8
0
 62
7
 10
38.96743750
 20
9.41290625
  0
VERTEX
  8
0
 62
7
 10
38.98020313
 20
9.47062109
  0
VERTEX
  8
0
 62
7
 10
38.99400000
 20
9.53000000
  0
VERTEX
  8
0
 62
7
 10
39.02323438
 20
9.64267188
  0
VERTEX
  8
0
 62
7
 10
39.05762500
 20
9.75937500
  0
VERTEX
  8
0
 62
7
 10
39.09370313
 20
9.87664063
  0
VERTEX
  8
0
 62
7
 10
39.12800000
 20
9.99100000
  0
VERTEX
  8
0
 62
7
 10
39.16548438
 20
10.13420313
  0
VERTEX
  8
0
 62
7
 10
39.19837500
 20
10.27862500
  0
VERTEX
  8
0
 62
7
 10
39.22657813
 20
10.42398438
  0
VERTEX
  8
0
 62
7
 10
39.25000000
 20
10.57000000
  0
VERTEX
  8
0
 62
7
 10
39.21000000
 20
10.57400000
  0
VERTEX
  8
0
 62
7
 10
39.19876953
 20
10.50163477
  0
VERTEX
  8
0
 62
7
 10
39.18484375
 20
10.42932813
  0
VERTEX
  8
0
 62
7
 10
39.16862109
 20
10.35713867
  0
VERTEX
  8
0
 62
7
 10
39.15050000
 20
10.28512500
  0
VERTEX
  8
0
 62
7
 10
39.13087891
 20
10.21334570
  0
VERTEX
  8
0
 62
7
 10
39.11015625
 20
10.14185938
  0
VERTEX
  8
0
 62
7
 10
39.08873047
 20
10.07072461
  0
VERTEX
  8
0
 62
7
 10
39.06700000
 20
10.00000000
  0
VERTEX
  8
0
 62
7
 10
39.03132813
 20
9.88842188
  0
VERTEX
  8
0
 62
7
 10
38.99312500
 20
9.77412500
  0
VERTEX
  8
0
 62
7
 10
38.95660938
 20
9.65926563
  0
VERTEX
  8
0
 62
7
 10
38.92600000
 20
9.54600000
  0
VERTEX
  8
0
 62
7
 10
38.90068750
 20
9.43615625
  0
VERTEX
  8
0
 62
7
 10
38.87950000
 20
9.32950000
  0
VERTEX
  8
0
 62
7
 10
38.86356250
 20
9.22284375
  0
VERTEX
  8
0
 62
7
 10
38.85400000
 20
9.11300000
  0
VERTEX
  8
0
 62
7
 10
38.83143750
 20
9.12103125
  0
VERTEX
  8
0
 62
7
 10
38.80700000
 20
9.12700000
  0
VERTEX
  8
0
 62
7
 10
38.78031250
 20
9.13071875
  0
VERTEX
  8
0
 62
7
 10
38.75100000
 20
9.13200000
  0
VERTEX
  8
0
 62
7
 10
38.73100000
 20
9.13200000
  0
VERTEX
  8
0
 62
7
 10
38.71242969
 20
9.13487891
  0
VERTEX
  8
0
 62
7
 10
38.69831250
 20
9.14284375
  0
VERTEX
  8
0
 62
7
 10
38.68803906
 20
9.15488672
  0
VERTEX
  8
0
 62
7
 10
38.68100000
 20
9.17000000
  0
VERTEX
  8
0
 62
7
 10
38.67658594
 20
9.18717578
  0
VERTEX
  8
0
 62
7
 10
38.67418750
 20
9.20540625
  0
VERTEX
  8
0
 62
7
 10
38.67319531
 20
9.22368359
  0
VERTEX
  8
0
 62
7
 10
38.67300000
 20
9.24100000
  0
VERTEX
  8
0
 62
7
 10
38.67184961
 20
9.30704297
  0
VERTEX
  8
0
 62
7
 10
38.66848438
 20
9.37240625
  0
VERTEX
  8
0
 62
7
 10
38.66303320
 20
9.43706641
  0
VERTEX
  8
0
 62
7
 10
38.65562500
 20
9.50100000
  0
VERTEX
  8
0
 62
7
 10
38.64638867
 20
9.56418359
  0
VERTEX
  8
0
 62
7
 10
38.63545313
 20
9.62659375
  0
VERTEX
  8
0
 62
7
 10
38.62294727
 20
9.68820703
  0
VERTEX
  8
0
 62
7
 10
38.60900000
 20
9.74900000
  0
VERTEX
  8
0
 62
7
 10
38.60900000
 20
9.75100000
  0
VERTEX
  8
0
 62
7
 10
38.60900000
 20
9.75500000
  0
VERTEX
  8
0
 62
7
 10
38.62997852
 20
9.83052148
  0
VERTEX
  8
0
 62
7
 10
38.65664063
 20
9.90410938
  0
VERTEX
  8
0
 62
7
 10
38.68857617
 20
9.97579883
  0
VERTEX
  8
0
 62
7
 10
38.72537500
 20
10.04562500
  0
VERTEX
  8
0
 62
7
 10
38.76662695
 20
10.11362305
  0
VERTEX
  8
0
 62
7
 10
38.81192188
 20
10.17982813
  0
VERTEX
  8
0
 62
7
 10
38.86084961
 20
10.24427539
  0
VERTEX
  8
0
 62
7
 10
38.91300000
 20
10.30700000
  0
VERTEX
  8
0
 62
7
 10
38.93671143
 20
10.33644873
  0
VERTEX
  8
0
 62
7
 10
38.95976953
 20
10.36938672
  0
VERTEX
  8
0
 62
7
 10
38.98206006
 20
10.40538916
  0
VERTEX
  8
0
 62
7
 10
39.00346875
 20
10.44403125
  0
VERTEX
  8
0
 62
7
 10
39.02388135
 20
10.48488818
  0
VERTEX
  8
0
 62
7
 10
39.04318359
 20
10.52753516
  0
VERTEX
  8
0
 62
7
 10
39.06126123
 20
10.57154736
  0
VERTEX
  8
0
 62
7
 10
39.07800000
 20
10.61650000
  0
VERTEX
  8
0
 62
7
 10
39.09328564
 20
10.66196826
  0
VERTEX
  8
0
 62
7
 10
39.10700391
 20
10.70752734
  0
VERTEX
  8
0
 62
7
 10
39.11904053
 20
10.75275244
  0
VERTEX
  8
0
 62
7
 10
39.12928125
 20
10.79721875
  0
VERTEX
  8
0
 62
7
 10
39.13761182
 20
10.84050146
  0
VERTEX
  8
0
 62
7
 10
39.14391797
 20
10.88217578
  0
VERTEX
  8
0
 62
7
 10
39.14808545
 20
10.92181689
  0
VERTEX
  8
0
 62
7
 10
39.15000000
 20
10.95900000
  0
VERTEX
  8
0
 62
7
 10
39.15500000
 20
11.04800000
  0
VERTEX
  8
0
 62
7
 10
39.19214453
 20
10.99555591
  0
VERTEX
  8
0
 62
7
 10
39.22706250
 20
10.94105664
  0
VERTEX
  8
0
 62
7
 10
39.25973047
 20
10.88462671
  0
VERTEX
  8
0
 62
7
 10
39.29012500
 20
10.82639063
  0
VERTEX
  8
0
 62
7
 10
39.31822266
 20
10.76647290
  0
VERTEX
  8
0
 62
7
 10
39.34400000
 20
10.70499805
  0
VERTEX
  8
0
 62
7
 10
39.36743359
 20
10.64209058
  0
VERTEX
  8
0
 62
7
 10
39.38850000
 20
10.57787500
  0
VERTEX
  8
0
 62
7
 10
39.40717578
 20
10.51247583
  0
VERTEX
  8
0
 62
7
 10
39.42343750
 20
10.44601758
  0
VERTEX
  8
0
 62
7
 10
39.43726172
 20
10.37862476
  0
VERTEX
  8
0
 62
7
 10
39.44862500
 20
10.31042188
  0
VERTEX
  8
0
 62
7
 10
39.45750391
 20
10.24153345
  0
VERTEX
  8
0
 62
7
 10
39.46387500
 20
10.17208398
  0
VERTEX
  8
0
 62
7
 10
39.46771484
 20
10.10219800
  0
VERTEX
  8
0
 62
7
 10
39.46900000
 20
10.03200000
  0
VERTEX
  8
0
 62
7
 10
39.46675000
 20
9.91912500
  0
VERTEX
  8
0
 62
7
 10
39.46000000
 20
9.81000000
  0
VERTEX
  8
0
 62
7
 10
39.44760938
 20
9.70293555
  0
VERTEX
  8
0
 62
7
 10
39.42800000
 20
9.59098438
  0
VERTEX
  8
0
 62
7
 10
39.40164063
 20
9.47525977
  0
VERTEX
  8
0
 62
7
 10
39.36900000
 20
9.35687500
  0
VERTEX
  8
0
 62
7
 10
39.33054688
 20
9.23694336
  0
VERTEX
  8
0
 62
7
 10
39.28675000
 20
9.11657813
  0
VERTEX
  8
0
 62
7
 10
39.23807813
 20
8.99689258
  0
VERTEX
  8
0
 62
7
 10
39.18500000
 20
8.87900000
  0
VERTEX
  8
0
 62
7
 10
39.18200000
 20
8.87200000
  0
VERTEX
  8
0
 62
7
 10
39.15700000
 20
8.88500000
  0
VERTEX
  8
0
 62
7
 10
39.10800000
 20
8.90800000
  0
VERTEX
  8
0
 62
7
 10
39.08271875
 20
8.92106250
  0
VERTEX
  8
0
 62
7
 10
39.06025000
 20
8.93825000
  0
VERTEX
  8
0
 62
7
 10
39.03965625
 20
8.95806250
  0
VERTEX
  8
0
 62
7
 10
39.02000000
 20
8.97900000
  0
VERTEX
  8
0
 62
7
 10
38.97400000
 20
9.02800000
  0
VERTEX
  8
0
 62
7
 10
38.92300000
 20
9.07400000
  0
SEQEND
  0
POLYLINE
  8
0
 62
7
 66
1
 70
1
  0
VERTEX
  8
0
 62
7
 10
38.13600000
 20
8.92000000
  0
VERTEX
  8
0
 62
7
 10
38.17000000
 20
8.93700000
  0
VERTEX
  8
0
 62
7
 10
38.18200000
 20
8.94800000
  0
VERTEX
  8
0
 62
7
 10
38.21800000
 20
8.98700000
  0
VERTEX
  8
0
 62
7
 10
38.25300000
 20
9.02500000
  0
VERTEX
  8
0
 62
7
 10
38.23270313
 20
9.12441992
  0
VERTEX
  8
0
 62
7
 10
38.21006250
 20
9.22317188
  0
VERTEX
  8
0
 62
7
 10
38.18507813
 20
9.32124414
  0
VERTEX
  8
0
 62
7
 10
38.15775000
 20
9.41862500
  0
VERTEX
  8
0
 62
7
 10
38.12807813
 20
9.51530273
  0
VERTEX
  8
0
 62
7
 10
38.09606250
 20
9.61126563
  0
VERTEX
  8
0
 62
7
 10
38.06170313
 20
9.70650195
  0
VERTEX
  8
0
 62
7
 10
38.02500000
 20
9.80100000
  0
VERTEX
  8
0
 62
7
 10
37.98730469
 20
9.89281836
  0
VERTEX
  8
0
 62
7
 10
37.94768750
 20
9.98373437
  0
VERTEX
  8
0
 62
7
 10
37.90610156
 20
10.07368945
  0
VERTEX
  8
0
 62
7
 10
37.86250000
 20
10.16262500
  0
VERTEX
  8
0
 62
7
 10
37.81683594
 20
10.25048242
  0
VERTEX
  8
0
 62
7
 10
37.76906250
 20
10.33720313
  0
VERTEX
  8
0
 62
7
 10
37.71913281
 20
10.42272852
  0
VERTEX
  8
0
 62
7
 10
37.66700000
 20
10.50700000
  0
VERTEX
  8
0
 62
7
 10
37.65089648
 20
10.52820898
  0
VERTEX
  8
0
 62
7
 10
37.63210938
 20
10.54617188
  0
VERTEX
  8
0
 62
7
 10
37.61104883
 20
10.56101758
  0
VERTEX
  8
0
 62
7
 10
37.58812500
 20
10.57287500
  0
VERTEX
  8
0
 62
7
 10
37.56374805
 20
10.58187305
  0
VERTEX
  8
0
 62
7
 10
37.53832813
 20
10.58814063
  0
VERTEX
  8
0
 62
7
 10
37.51227539
 20
10.59180664
  0
VERTEX
  8
0
 62
7
 10
37.48600000
 20
10.59300000
  0
VERTEX
  8
0
 62
7
 10
37.43399023
 20
10.58964844
  0
VERTEX
  8
0
 62
7
 10
37.38398438
 20
10.57987500
  0
VERTEX
  8
0
 62
7
 10
37.33639258
 20
10.56410156
  0
VERTEX
  8
0
 62
7
 10
37.29162500
 20
10.54275000
  0
VERTEX
  8
0
 62
7
 10
37.25009180
 20
10.51624219
  0
VERTEX
  8
0
 62
7
 10
37.21220313
 20
10.48500000
  0
VERTEX
  8
0
 62
7
 10
37.17836914
 20
10.44944531
  0
VERTEX
  8
0
 62
7
 10
37.14900000
 20
10.41000000
  0
VERTEX
  8
0
 62
7
 10
37.13200000
 20
10.38200000
  0
VERTEX
  8
0
 62
7
 10
37.16231250
 20
10.39276563
  0
VERTEX
  8
0
 62
7
 10
37.19450000
 20
10.39987500
  0
VERTEX
  8
0
 62
7
 10
37.22818750
 20
10.40379688
  0
VERTEX
  8
0
 62
7
 10
37.26300000
 20
10.40500000
  0
VERTEX
  8
0
 62
7
 10
37.28337500
 20
10.40398438
  0
VERTEX
  8
0
 62
7
 10
37.30318750
 20
10.40100000
  0
VERTEX
  8
0
 62
7
 10
37.32234375
 20
10.39614063
  0
VERTEX
  8
0
 62
7
 10
37.34075000
 20
10.38950000
  0
VERTEX
  8
0
 62
7
 10
37.35831250
 20
10.38117188
  0
VERTEX
  8
0
 62
7
 10
37.37493750
 20
10.37125000
  0
VERTEX
  8
0
 62
7
 10
37.39053125
 20
10.35982813
  0
VERTEX
  8
0
 62
7
 10
37.40500000
 20
10.34700000
  0
VERTEX
  8
0
 62
7
 10
37.43518555
 20
10.30721289
  0
VERTEX
  8
0
 62
7
 10
37.46085938
 20
10.26176563
  0
VERTEX
  8
0
 62
7
 10
37.48257227
 20
10.21127930
  0
VERTEX
  8
0
 62
7
 10
37.50087500
 20
10.15637500
  0
VERTEX
  8
0
 62
7
 10
37.51631836
 20
10.09767383
  0
VERTEX
  8
0
 62
7
 10
37.52945313
 20
10.03579688
  0
VERTEX
  8
0
 62
7
 10
37.54083008
 20
9.97136523
  0
VERTEX
  8
0
 62
7
 10
37.55100000
 20
9.90500000
  0
VERTEX
  8
0
 62
7
 10
37.56684180
 20
9.81191992
  0
VERTEX
  8
0
 62
7
 10
37.58567188
 20
9.72454688
  0
VERTEX
  8
0
 62
7
 10
37.60719727
 20
9.64155664
  0
VERTEX
  8
0
 62
7
 10
37.63112500
 20
9.56162500
  0
VERTEX
  8
0
 62
7
 10
37.65716211
 20
9.48342773
  0
VERTEX
  8
0
 62
7
 10
37.68501563
 20
9.40564063
  0
VERTEX
  8
0
 62
7
 10
37.71439258
 20
9.32693945
  0
VERTEX
  8
0
 62
7
 10
37.74500000
 20
9.24600000
  0
VERTEX
  8
0
 62
7
 10
37.86459375
 20
9.16089063
  0
VERTEX
  8
0
 62
7
 10
37.97275000
 20
9.07512500
  0
VERTEX
  8
0
 62
7
 10
38.06478125
 20
8.99329688
  0
VERTEX
  8
0
 62
7
 10
38.13600000
 20
8.92000000
  0
SEQEND
  0
POLYLINE
  8
0
 62
7
 66
1
 70
1
  0
VERTEX
  8
0
 62
7
 10
38.61900000
 20
10.03200000
  0
VERTEX
  8
0
 62
7
 10
38.62000000
 20
10.09300000
  0
VERTEX
  8
0
 62
7
 10
38.63400000
 20
10.67200000
  0
VERTEX
  8
0
 62
7
 10
38.63787500
 20
10.79475000
  0
VERTEX
  8
0
 62
7
 10
38.64400000
 20
10.91900000
  0
VERTEX
  8
0
 62
7
 10
38.64971875
 20
11.01056250
  0
VERTEX
  8
0
 62
7
 10
38.65300000
 20
11.09500000
  0
VERTEX
  8
0
 62
7
 10
38.65328125
 20
11.17943750
  0
VERTEX
  8
0
 62
7
 10
38.65000000
 20
11.27100000
  0
VERTEX
  8
0
 62
7
 10
38.64339063
 20
11.37256250
  0
VERTEX
  8
0
 62
7
 10
38.63387500
 20
11.47525000
  0
VERTEX
  8
0
 62
7
 10
38.62117188
 20
11.57756250
  0
VERTEX
  8
0
 62
7
 10
38.60500000
 20
11.67800000
  0
VERTEX
  8
0
 62
7
 10
38.57100000
 20
11.67300000
  0
VERTEX
  8
0
 62
7
 10
38.58345313
 20
11.57348438
  0
VERTEX
  8
0
 62
7
 10
38.58962500
 20
11.47162500
  0
VERTEX
  8
0
 62
7
 10
38.59223438
 20
11.36995313
  0
VERTEX
  8
0
 62
7
 10
38.59400000
 20
11.27100000
  0
VERTEX
  8
0
 62
7
 10
38.59465625
 20
11.17935938
  0
VERTEX
  8
0
 62
7
 10
38.59250000
 20
11.08912500
  0
VERTEX
  8
0
 62
7
 10
38.58809375
 20
10.99832813
  0
VERTEX
  8
0
 62
7
 10
38.58200000
 20
10.90500000
  0
VERTEX
  8
0
 62
7
 10
38.57187500
 20
10.78950000
  0
VERTEX
  8
0
 62
7
 10
38.56400000
 20
10.67400000
  0
VERTEX
  8
0
 62
7
 10
38.55000000
 20
10.09400000
  0
VERTEX
  8
0
 62
7
 10
38.54700000
 20
9.95300000
  0
VERTEX
  8
0
 62
7
 10
38.51317383
 20
10.04054492
  0
VERTEX
  8
0
 62
7
 10
38.47551563
 20
10.12610938
  0
VERTEX
  8
0
 62
7
 10
38.43413086
 20
10.20958789
  0
VERTEX
  8
0
 62
7
 10
38.38912500
 20
10.29087500
  0
VERTEX
  8
0
 62
7
 10
38.34060352
 20
10.36986523
  0
VERTEX
  8
0
 62
7
 10
38.28867188
 20
10.44645313
  0
VERTEX
  8
0
 62
7
 10
38.23343555
 20
10.52053320
  0
VERTEX
  8
0
 62
7
 10
38.17500000
 20
10.59200000
  0
VERTEX
  8
0
 62
7
 10
38.17050000
 20
10.65450000
  0
VERTEX
  8
0
 62
7
 10
38.16900000
 20
10.72000000
  0
VERTEX
  8
0
 62
7
 10
38.16979883
 20
10.76519849
  0
VERTEX
  8
0
 62
7
 10
38.17215625
 20
10.81416602
  0
VERTEX
  8
0
 62
7
 10
38.17601367
 20
10.86633569
  0
VERTEX
  8
0
 62
7
 10
38.18131250
 20
10.92114063
  0
VERTEX
  8
0
 62
7
 10
38.18799414
 20
10.97801392
  0
VERTEX
  8
0
 62
7
 10
38.19600000
 20
11.03638867
  0
VERTEX
  8
0
 62
7
 10
38.20527148
 20
11.09569800
  0
VERTEX
  8
0
 62
7
 10
38.21575000
 20
11.15537500
  0
VERTEX
  8
0
 62
7
 10
38.22737695
 20
11.21485278
  0
VERTEX
  8
0
 62
7
 10
38.24009375
 20
11.27356445
  0
VERTEX
  8
0
 62
7
 10
38.25384180
 20
11.33094312
  0
VERTEX
  8
0
 62
7
 10
38.26856250
 20
11.38642188
  0
VERTEX
  8
0
 62
7
 10
38.28419727
 20
11.43943384
  0
VERTEX
  8
0
 62
7
 10
38.30068750
 20
11.48941211
  0
VERTEX
  8
0
 62
7
 10
38.31797461
 20
11.53578979
  0
VERTEX
  8
0
 62
7
 10
38.33600000
 20
11.57800000
  0
VERTEX
  8
0
 62
7
 10
38.36247266
 20
11.63833203
  0
VERTEX
  8
0
 62
7
 10
38.38746875
 20
11.70253125
  0
VERTEX
  8
0
 62
7
 10
38.41035547
 20
11.76977734
  0
VERTEX
  8
0
 62
7
 10
38.43050000
 20
11.83925000
  0
VERTEX
  8
0
 62
7
 10
38.44726953
 20
11.91012891
  0
VERTEX
  8
0
 62
7
 10
38.46003125
 20
11.98159375
  0
VERTEX
  8
0
 62
7
 10
38.46815234
 20
12.05282422
  0
VERTEX
  8
0
 62
7
 10
38.47100000
 20
12.12300000
  0
VERTEX
  8
0
 62
7
 10
38.46800000
 20
12.19200000
  0
VERTEX
  8
0
 62
7
 10
38.50969458
 20
12.15345703
  0
VERTEX
  8
0
 62
7
 10
38.54965039
 20
12.11221875
  0
VERTEX
  8
0
 62
7
 10
38.58786304
 20
12.06849609
  0
VERTEX
  8
0
 62
7
 10
38.62432813
 20
12.02250000
  0
VERTEX
  8
0
 62
7
 10
38.65904126
 20
11.97444141
  0
VERTEX
  8
0
 62
7
 10
38.69199805
 20
11.92453125
  0
VERTEX
  8
0
 62
7
 10
38.72319409
 20
11.87298047
  0
VERTEX
  8
0
 62
7
 10
38.75262500
 20
11.82000000
  0
VERTEX
  8
0
 62
7
 10
38.78028638
 20
11.76580078
  0
VERTEX
  8
0
 62
7
 10
38.80617383
 20
11.71059375
  0
VERTEX
  8
0
 62
7
 10
38.83028296
 20
11.65458984
  0
VERTEX
  8
0
 62
7
 10
38.85260938
 20
11.59800000
  0
VERTEX
  8
0
 62
7
 10
38.87314868
 20
11.54103516
  0
VERTEX
  8
0
 62
7
 10
38.89189648
 20
11.48390625
  0
VERTEX
  8
0
 62
7
 10
38.90884839
 20
11.42682422
  0
VERTEX
  8
0
 62
7
 10
38.92400000
 20
11.37000000
  0
VERTEX
  8
0
 62
7
 10
38.93766602
 20
11.30410742
  0
VERTEX
  8
0
 62
7
 10
38.95120313
 20
11.21804688
  0
VERTEX
  8
0
 62
7
 10
38.96391992
 20
11.11836914
  0
VERTEX
  8
0
 62
7
 10
38.97512500
 20
11.01162500
  0
VERTEX
  8
0
 62
7
 10
38.98412695
 20
10.90436523
  0
VERTEX
  8
0
 62
7
 10
38.99023438
 20
10.80314063
  0
VERTEX
  8
0
 62
7
 10
38.99275586
 20
10.71450195
  0
VERTEX
  8
0
 62
7
 10
38.99100000
 20
10.64500000
  0
VERTEX
  8
0
 62
7
 10
38.98078711
 20
10.59991211
  0
VERTEX
  8
0
 62
7
 10
38.96873438
 20
10.56048438
  0
VERTEX
  8
0
 62
7
 10
38.95459570
 20
10.52534570
  0
VERTEX
  8
0
 62
7
 10
38.93812500
 20
10.49312500
  0
VERTEX
  8
0
 62
7
 10
38.91907617
 20
10.46245117
  0
VERTEX
  8
0
 62
7
 10
38.89720313
 20
10.43195313
  0
VERTEX
  8
0
 62
7
 10
38.87225977
 20
10.40025977
  0
VERTEX
  8
0
 62
7
 10
38.84400000
 20
10.36600000
  0
VERTEX
  8
0
 62
7
 10
38.77917188
 20
10.28878125
  0
VERTEX
  8
0
 62
7
 10
38.71987500
 20
10.20725000
  0
VERTEX
  8
0
 62
7
 10
38.66639063
 20
10.12159375
  0
VERTEX
  8
0
 62
7
 10
38.61900000
 20
10.03200000
  0
SEQEND
  0
POLYLINE
  8
0
 62
7
 66
1
 70
1
  0
VERTEX
  8
0
 62
7
 10
38.79000000
 20
6.12900000
  0
VERTEX
  8
0
 62
7
 10
38.76012500
 20
6.12687500
  0
VERTEX
  8
0
 62
7
 10
38.72800000
 20
6.12700000
  0
VERTEX
  8
0
 62
7
 10
38.66800000
 20
6.13000000
  0
VERTEX
  8
0
 62
7
 10
38.65700000
 20
6.16100000
  0
VERTEX
  8
0
 62
7
 10
38.61505859
 20
6.07112305
  0
VERTEX
  8
0
 62
7
 10
38.57778125
 20
5.97935938
  0
VERTEX
  8
0
 62
7
 10
38.54523828
 20
5.88588477
  0
VERTEX
  8
0
 62
7
 10
38.51750000
 20
5.79087500
  0
VERTEX
  8
0
 62
7
 10
38.49463672
 20
5.69450586
  0
VERTEX
  8
0
 62
7
 10
38.47671875
 20
5.59695313
  0
VERTEX
  8
0
 62
7
 10
38.46381641
 20
5.49839258
  0
VERTEX
  8
0
 62
7
 10
38.45600000
 20
5.39900000
  0
VERTEX
  8
0
 62
7
 10
38.45300000
 20
5.29700000
  0
VERTEX
  8
0
 62
7
 10
38.45582813
 20
5.19204688
  0
VERTEX
  8
0
 62
7
 10
38.46437500
 20
5.08737500
  0
VERTEX
  8
0
 62
7
 10
38.47873438
 20
4.98326563
  0
VERTEX
  8
0
 62
7
 10
38.49900000
 20
4.88000000
  0
VERTEX
  8
0
 62
7
 10
38.44975000
 20
4.94675000
  0
VERTEX
  8
0
 62
7
 10
38.40800000
 20
5.01500000
  0
VERTEX
  8
0
 62
7
 10
38.36824023
 20
5.09457422
  0
VERTEX
  8
0
 62
7
 10
38.33910938
 20
5.16821875
  0
VERTEX
  8
0
 62
7
 10
38.31858008
 20
5.23694141
  0
VERTEX
  8
0
 62
7
 10
38.30462500
 20
5.30175000
  0
VERTEX
  8
0
 62
7
 10
38.29521680
 20
5.36365234
  0
VERTEX
  8
0
 62
7
 10
38.28832813
 20
5.42365625
  0
VERTEX
  8
0
 62
7
 10
38.28193164
 20
5.48276953
  0
VERTEX
  8
0
 62
7
 10
38.27400000
 20
5.54200000
  0
VERTEX
  8
0
 62
7
 10
38.26079883
 20
5.62337695
  0
VERTEX
  8
0
 62
7
 10
38.24751563
 20
5.69482813
  0
VERTEX
  8
0
 62
7
 10
38.23313086
 20
5.75945898
  0
VERTEX
  8
0
 62
7
 10
38.21662500
 20
5.82037500
  0
VERTEX
  8
0
 62
7
 10
38.19697852
 20
5.88068164
  0
VERTEX
  8
0
 62
7
 10
38.17317188
 20
5.94348438
  0
VERTEX
  8
0
 62
7
 10
38.14418555
 20
6.01188867
  0
VERTEX
  8
0
 62
7
 10
38.10900000
 20
6.08900000
  0
VERTEX
  8
0
 62
7
 10
38.08357520
 20
6.14298315
  0
VERTEX
  8
0
 62
7
 10
38.05780469
 20
6.19630273
  0
VERTEX
  8
0
 62
7
 10
38.03150684
 20
6.24857642
  0
VERTEX
  8
0
 62
7
 10
38.00450000
 20
6.29942188
  0
VERTEX
  8
0
 62
7
 10
37.97660254
 20
6.34845679
  0
VERTEX
  8
0
 62
7
 10
37.94763281
 20
6.39529883
  0
VERTEX
  8
0
 62
7
 10
37.91740918
 20
6.43956567
  0
VERTEX
  8
0
 62
7
 10
37.88575000
 20
6.48087500
  0
VERTEX
  8
0
 62
7
 10
37.85247363
 20
6.51884448
  0
VERTEX
  8
0
 62
7
 10
37.81739844
 20
6.55309180
  0
VERTEX
  8
0
 62
7
 10
37.78034277
 20
6.58323462
  0
VERTEX
  8
0
 62
7
 10
37.74112500
 20
6.60889063
  0
VERTEX
  8
0
 62
7
 10
37.69956348
 20
6.62967749
  0
VERTEX
  8
0
 62
7
 10
37.65547656
 20
6.64521289
  0
VERTEX
  8
0
 62
7
 10
37.60868262
 20
6.65511450
  0
VERTEX
  8
0
 62
7
 10
37.55900000
 20
6.65900000
  0
VERTEX
  8
0
 62
7
 10
37.51804297
 20
6.65621484
  0
VERTEX
  8
0
 62
7
 10
37.47809375
 20
6.64740625
  0
VERTEX
  8
0
 62
7
 10
37.43978516
 20
6.63301953
  0
VERTEX
  8
0
 62
7
 10
37.40375000
 20
6.61350000
  0
VERTEX
  8
0
 62
7
 10
37.37062109
 20
6.58929297
  0
VERTEX
  8
0
 62
7
 10
37.34103125
 20
6.56084375
  0
VERTEX
  8
0
 62
7
 10
37.31561328
 20
6.52859766
  0
VERTEX
  8
0
 62
7
 10
37.29500000
 20
6.49300000
  0
VERTEX
  8
0
 62
7
 10
37.35956250
 20
6.47114063
  0
VERTEX
  8
0
 62
7
 10
37.42075000
 20
6.44187500
  0
VERTEX
  8
0
 62
7
 10
37.47781250
 20
6.40567188
  0
VERTEX
  8
0
 62
7
 10
37.53000000
 20
6.36300000
  0
VERTEX
  8
0
 62
7
 10
37.57528125
 20
6.31467188
  0
VERTEX
  8
0
 62
7
 10
37.61325000
 20
6.26137500
  0
VERTEX
  8
0
 62
7
 10
37.64559375
 20
6.20564063
  0
VERTEX
  8
0
 62
7
 10
37.67400000
 20
6.15000000
  0
VERTEX
  8
0
 62
7
 10
37.70959375
 20
6.06609375
  0
VERTEX
  8
0
 62
7
 10
37.74050000
 20
5.98200000
  0
VERTEX
  8
0
 62
7
 10
37.76990625
 20
5.89940625
  0
VERTEX
  8
0
 62
7
 10
37.80100000
 20
5.82000000
  0
VERTEX
  8
0
 62
7
 10
37.86921875
 20
5.67715625
  0
VERTEX
  8
0
 62
7
 10
37.94475000
 20
5.53825000
  0
VERTEX
  8
0
 62
7
 10
38.02740625
 20
5.40346875
  0
VERTEX
  8
0
 62
7
 10
38.11700000
 20
5.27300000
  0
VERTEX
  8
0
 62
7
 10
38.12210938
 20
5.26179688
  0
VERTEX
  8
0
 62
7
 10
38.12262500
 20
5.25012500
  0
VERTEX
  8
0
 62
7
 10
38.11882813
 20
5.23939063
  0
VERTEX
  8
0
 62
7
 10
38.11100000
 20
5.23100000
  0
VERTEX
  8
0
 62
7
 10
38.09979688
 20
5.22589063
  0
VERTEX
  8
0
 62
7
 10
38.08812500
 20
5.22537500
  0
VERTEX
  8
0
 62
7
 10
38.07739063
 20
5.22917188
  0
VERTEX
  8
0
 62
7
 10
38.06900000
 20
5.23700000
  0
VERTEX
  8
0
 62
7
 10
38.02255664
 20
5.30318359
  0
VERTEX
  8
0
 62
7
 10
37.97776563
 20
5.37046875
  0
VERTEX
  8
0
 62
7
 10
37.93468555
 20
5.43883203
  0
VERTEX
  8
0
 62
7
 10
37.89337500
 20
5.50825000
  0
VERTEX
  8
0
 62
7
 10
37.85389258
 20
5.57869922
  0
VERTEX
  8
0
 62
7
 10
37.81629688
 20
5.65015625
  0
VERTEX
  8
0
 62
7
 10
37.78064648
 20
5.72259766
  0
VERTEX
  8
0
 62
7
 10
37.74700000
 20
5.79600000
  0
VERTEX
  8
0
 62
7
 10
37.71396875
 20
5.87892188
  0
VERTEX
  8
0
 62
7
 10
37.68525000
 20
5.96137500
  0
VERTEX
  8
0
 62
7
 10
37.65615625
 20
6.04364063
  0
VERTEX
  8
0
 62
7
 10
37.62200000
 20
6.12600000
  0
VERTEX
  8
0
 62
7
 10
37.60834570
 20
6.15412109
  0
VERTEX
  8
0
 62
7
 10
37.59489063
 20
6.18203125
  0
VERTEX
  8
0
 62
7
 10
37.58127148
 20
6.20942578
  0
VERTEX
  8
0
 62
7
 10
37.56712500
 20
6.23600000
  0
VERTEX
  8
0
 62
7
 10
37.55208789
 20
6.26144922
  0
VERTEX
  8
0
 62
7
 10
37.53579688
 20
6.28546875
  0
VERTEX
  8
0
 62
7
 10
37.51788867
 20
6.30775391
  0
VERTEX
  8
0
 62
7
 10
37.49800000
 20
6.32800000
  0
VERTEX
  8
0
 62
7
 10
37.45738672
 20
6.36271680
  0
VERTEX
  8
0
 62
7
 10
37.41440625
 20
6.39442188
  0
VERTEX
  8
0
 62
7
 10
37.36922266
 20
6.42244727
  0
VERTEX
  8
0
 62
7
 10
37.32200000
 20
6.44612500
  0
VERTEX
  8
0
 62
7
 10
37.27290234
 20
6.46478711
  0
VERTEX
  8
0
 62
7
 10
37.22209375
 20
6.47776563
  0
VERTEX
  8
0
 62
7
 10
37.16973828
 20
6.48439258
  0
VERTEX
  8
0
 62
7
 10
37.11600000
 20
6.48400000
  0
VERTEX
  8
0
 62
7
 10
37.08197681
 20
6.47981860
  0
VERTEX
  8
0
 62
7
 10
37.05034570
 20
6.47262695
  0
VERTEX
  8
0
 62
7
 10
37.02101440
 20
6.46257886
  0
VERTEX
  8
0
 62
7
 10
36.99389063
 20
6.44982813
  0
VERTEX
  8
0
 62
7
 10
36.96888208
 20
6.43452856
  0
VERTEX
  8
0
 62
7
 10
36.94589648
 20
6.41683398
  0
VERTEX
  8
0
 62
7
 10
36.92484155
 20
6.39689819
  0
VERTEX
  8
0
 62
7
 10
36.90562500
 20
6.37487500
  0
VERTEX
  8
0
 62
7
 10
36.88815454
 20
6.35091821
  0
VERTEX
  8
0
 62
7
 10
36.87233789
 20
6.32518164
  0
VERTEX
  8
0
 62
7
 10
36.85808276
 20
6.29781909
  0
VERTEX
  8
0
 62
7
 10
36.84529688
 20
6.26898438
  0
VERTEX
  8
0
 62
7
 10
36.83388794
 20
6.23883130
  0
VERTEX
  8
0
 62
7
 10
36.82376367
 20
6.20751367
  0
VERTEX
  8
0
 62
7
 10
36.81483179
 20
6.17518530
  0
VERTEX
  8
0
 62
7
 10
36.80700000
 20
6.14200000
  0
VERTEX
  8
0
 62
7
 10
36.86200000
 20
6.15662500
  0
VERTEX
  8
0
 62
7
 10
36.92300000
 20
6.16600000
  0
VERTEX
  8
0
 62
7
 10
36.95798438
 20
6.16748755
  0
VERTEX
  8
0
 62
7
 10
36.99095313
 20
6.16566602
  0
VERTEX
  8
0
 62
7
 10
37.02192969
 20
6.16067163
  0
VERTEX
  8
0
 62
7
 10
37.05093750
 20
6.15264063
  0
VERTEX
  8
0
 62
7
 10
37.07800000
 20
6.14170923
  0
VERTEX
  8
0
 62
7
 10
37.10314063
 20
6.12801367
  0
VERTEX
  8
0
 62
7
 10
37.12638281
 20
6.11169019
  0
VERTEX
  8
0
 62
7
 10
37.14775000
 20
6.09287500
  0
VERTEX
  8
0
 62
7
 10
37.16726563
 20
6.07170435
  0
VERTEX
  8
0
 62
7
 10
37.18495313
 20
6.04831445
  0
VERTEX
  8
0
 62
7
 10
37.20083594
 20
6.02284155
  0
VERTEX
  8
0
 62
7
 10
37.21493750
 20
5.99542188
  0
VERTEX
  8
0
 62
7
 10
37.22728125
 20
5.96619165
  0
VERTEX
  8
0
 62
7
 10
37.23789063
 20
5.93528711
  0
VERTEX
  8
0
 62
7
 10
37.24678906
 20
5.90284448
  0
VERTEX
  8
0
 62
7
 10
37.25400000
 20
5.86900000
  0
VERTEX
  8
0
 62
7
 10
37.27196118
 20
5.80881226
  0
VERTEX
  8
0
 62
7
 10
37.29208008
 20
5.75082617
  0
VERTEX
  8
0
 62
7
 10
37.31433472
 20
5.69496997
  0
VERTEX
  8
0
 62
7
 10
37.33870313
 20
5.64117188
  0
VERTEX
  8
0
 62
7
 10
37.36516333
 20
5.58936011
  0
VERTEX
  8
0
 62
7
 10
37.39369336
 20
5.53946289
  0
VERTEX
  8
0
 62
7
 10
37.42427124
 20
5.49140845
  0
VERTEX
  8
0
 62
7
 10
37.45687500
 20
5.44512500
  0
VERTEX
  8
0
 62
7
 10
37.49148267
 20
5.40054077
  0
VERTEX
  8
0
 62
7
 10
37.52807227
 20
5.35758398
  0
VERTEX
  8
0
 62
7
 10
37.56662183
 20
5.31618286
  0
VERTEX
  8
0
 62
7
 10
37.60710938
 20
5.27626563
  0
VERTEX
  8
0
 62
7
 10
37.64951294
 20
5.23776050
  0
VERTEX
  8
0
 62
7
 10
37.69381055
 20
5.20059570
  0
VERTEX
  8
0
 62
7
 10
37.73998022
 20
5.16469946
  0
VERTEX
  8
0
 62
7
 10
37.78800000
 20
5.13000000
  0
VERTEX
  8
0
 62
7
 10
37.81753149
 20
5.11115674
  0
VERTEX
  8
0
 62
7
 10
37.84729883
 20
5.09512891
  0
VERTEX
  8
0
 62
7
 10
37.87737378
 20
5.08135693
  0
VERTEX
  8
0
 62
7
 10
37.90782813
 20
5.06928125
  0
VERTEX
  8
0
 62
7
 10
37.93873364
 20
5.05834229
  0
VERTEX
  8
0
 62
7
 10
37.97016211
 20
5.04798047
  0
VERTEX
  8
0
 62
7
 10
38.00218530
 20
5.03763623
  0
VERTEX
  8
0
 62
7
 10
38.03487500
 20
5.02675000
  0
VERTEX
  8
0
 62
7
 10
38.06830298
 20
5.01476221
  0
VERTEX
  8
0
 62
7
 10
38.10254102
 20
5.00111328
  0
VERTEX
  8
0
 62
7
 10
38.13766089
 20
4.98524365
  0
VERTEX
  8
0
 62
7
 10
38.17373438
 20
4.96659375
  0
VERTEX
  8
0
 62
7
 10
38.21083325
 20
4.94460400
  0
VERTEX
  8
0
 62
7
 10
38.24902930
 20
4.91871484
  0
VERTEX
  8
0
 62
7
 10
38.28839429
 20
4.88836670
  0
VERTEX
  8
0
 62
7
 10
38.32900000
 20
4.85300000
  0
VERTEX
  8
0
 62
7
 10
38.44140625
 20
4.74573438
  0
VERTEX
  8
0
 62
7
 10
38.55475000
 20
4.63087500
  0
VERTEX
  8
0
 62
7
 10
38.66171875
 20
4.51507813
  0
VERTEX
  8
0
 62
7
 10
38.75500000
 20
4.40500000
  0
VERTEX
  8
0
 62
7
 10
38.84300000
 20
4.30900000
  0
VERTEX
  8
0
 62
7
 10
38.90070313
 20
4.24732813
  0
VERTEX
  8
0
 62
7
 10
38.96262500
 20
4.18537500
  0
VERTEX
  8
0
 62
7
 10
39.02848438
 20
4.12548438
  0
VERTEX
  8
0
 62
7
 10
39.09800000
 20
4.07000000
  0
VERTEX
  8
0
 62
7
 10
39.12328320
 20
4.05177734
  0
VERTEX
  8
0
 62
7
 10
39.14895313
 20
4.03484375
  0
VERTEX
  8
0
 62
7
 10
39.17511523
 20
4.01955078
  0
VERTEX
  8
0
 62
7
 10
39.20187500
 20
4.00625000
  0
VERTEX
  8
0
 62
7
 10
39.22933789
 20
3.99529297
  0
VERTEX
  8
0
 62
7
 10
39.25760938
 20
3.98703125
  0
VERTEX
  8
0
 62
7
 10
39.28679492
 20
3.98181641
  0
VERTEX
  8
0
 62
7
 10
39.31700000
 20
3.98000000
  0
VERTEX
  8
0
 62
7
 10
39.34397461
 20
3.98117188
  0
VERTEX
  8
0
 62
7
 10
39.37135938
 20
3.98487500
  0
VERTEX
  8
0
 62
7
 10
39.39872070
 20
3.99139063
  0
VERTEX
  8
0
 62
7
 10
39.42562500
 20
4.00100000
  0
VERTEX
  8
0
 62
7
 10
39.45163867
 20
4.01398438
  0
VERTEX
  8
0
 62
7
 10
39.47632813
 20
4.03062500
  0
VERTEX
  8
0
 62
7
 10
39.49925977
 20
4.05120313
  0
VERTEX
  8
0
 62
7
 10
39.52000000
 20
4.07600000
  0
VERTEX
  8
0
 62
7
 10
39.54026563
 20
4.10942188
  0
VERTEX
  8
0
 62
7
 10
39.55462500
 20
4.14462500
  0
VERTEX
  8
0
 62
7
 10
39.56317188
 20
4.18076563
  0
VERTEX
  8
0
 62
7
 10
39.56600000
 20
4.21700000
  0
VERTEX
  8
0
 62
7
 10
39.56332422
 20
4.25276367
  0
VERTEX
  8
0
 62
7
 10
39.55546875
 20
4.28767188
  0
VERTEX
  8
0
 62
7
 10
39.54269141
 20
4.32115039
  0
VERTEX
  8
0
 62
7
 10
39.52525000
 20
4.35262500
  0
VERTEX
  8
0
 62
7
 10
39.50340234
 20
4.38152148
  0
VERTEX
  8
0
 62
7
 10
39.47740625
 20
4.40726563
  0
VERTEX
  8
0
 62
7
 10
39.44751953
 20
4.42928320
  0
VERTEX
  8
0
 62
7
 10
39.41400000
 20
4.44700000
  0
VERTEX
  8
0
 62
7
 10
39.38950000
 20
4.45618750
  0
VERTEX
  8
0
 62
7
 10
39.36425000
 20
4.46275000
  0
VERTEX
  8
0
 62
7
 10
39.33862500
 20
4.46668750
  0
VERTEX
  8
0
 62
7
 10
39.31300000
 20
4.46800000
  0
VERTEX
  8
0
 62
7
 10
39.28097461
 20
4.46576172
  0
VERTEX
  8
0
 62
7
 10
39.25123438
 20
4.45928125
  0
VERTEX
  8
0
 62
7
 10
39.22428320
 20
4.44891016
  0
VERTEX
  8
0
 62
7
 10
39.20062500
 20
4.43500000
  0
VERTEX
  8
0
 62
7
 10
39.18076367
 20
4.41790234
  0
VERTEX
  8
0
 62
7
 10
39.16520313
 20
4.39796875
  0
VERTEX
  8
0
 62
7
 10
39.15444727
 20
4.37555078
  0
VERTEX
  8
0
 62
7
 10
39.14900000
 20
4.35100000
  0
VERTEX
  8
0
 62
7
 10
39.14825000
 20
4.32593750
  0
VERTEX
  8
0
 62
7
 10
39.15200000
 20
4.29975000
  0
VERTEX
  8
0
 62
7
 10
39.16250000
 20
4.27168750
  0
VERTEX
  8
0
 62
7
 10
39.18200000
 20
4.24100000
  0
VERTEX
  8
0
 62
7
 10
39.18345313
 20
4.24041602
  0
VERTEX
  8
0
 62
7
 10
39.18462500
 20
4.24364063
  0
VERTEX
  8
0
 62
7
 10
39.18635938
 20
4.25026367
  0
VERTEX
  8
0
 62
7
 10
39.18950000
 20
4.25987500
  0
VERTEX
  8
0
 62
7
 10
39.19489063
 20
4.27206445
  0
VERTEX
  8
0
 62
7
 10
39.20337500
 20
4.28642188
  0
VERTEX
  8
0
 62
7
 10
39.21579688
 20
4.30253711
  0
VERTEX
  8
0
 62
7
 10
39.23300000
 20
4.32000000
  0
VERTEX
  8
0
 62
7
 10
39.24494531
 20
4.32864648
  0
VERTEX
  8
0
 62
7
 10
39.25806250
 20
4.33517188
  0
VERTEX
  8
0
 62
7
 10
39.27202344
 20
4.33970508
  0
VERTEX
  8
0
 62
7
 10
39.28650000
 20
4.34237500
  0
VERTEX
  8
0
 62
7
 10
39.30116406
 20
4.34331055
  0
VERTEX
  8
0
 62
7
 10
39.31568750
 20
4.34264063
  0
VERTEX
  8
0
 62
7
 10
39.32974219
 20
4.34049414
  0
VERTEX
  8
0
 62
7
 10
39.34300000
 20
4.33700000
  0
VERTEX
  8
0
 62
7
 10
39.36797852
 20
4.32619141
  0
VERTEX
  8
0
 62
7
 10
39.38982813
 20
4.31015625
  0
VERTEX
  8
0
 62
7
 10
39.40766992
 20
4.28985547
  0
VERTEX
  8
0
 62
7
 10
39.42062500
 20
4.26625000
  0
VERTEX
  8
0
 62
7
 10
39.42781445
 20
4.24030078
  0
VERTEX
  8
0
 62
7
 10
39.42835938
 20
4.21296875
  0
VERTEX
  8
0
 62
7
 10
39.42138086
 20
4.18521484
  0
VERTEX
  8
0
 62
7
 10
39.40600000
 20
4.15800000
  0
VERTEX
  8
0
 62
7
 10
39.39082813
 20
4.14193750
  0
VERTEX
  8
0
 62
7
 10
39.37087500
 20
4.13000000
  0
VERTEX
  8
0
 62
7
 10
39.34623438
 20
4.12256250
  0
VERTEX
  8
0
 62
7
 10
39.31700000
 20
4.12000000
  0
VERTEX
  8
0
 62
7
 10
39.27684375
 20
4.12395313
  0
VERTEX
  8
0
 62
7
 10
39.23875000
 20
4.13512500
  0
VERTEX
  8
0
 62
7
 10
39.20253125
 20
4.15248438
  0
VERTEX
  8
0
 62
7
 10
39.16800000
 20
4.17500000
  0
VERTEX
  8
0
 62
7
 10
39.12894922
 20
4.20634766
  0
VERTEX
  8
0
 62
7
 10
39.09034375
 20
4.24146875
  0
VERTEX
  8
0
 62
7
 10
39.05187891
 20
4.27973047
  0
VERTEX
  8
0
 62
7
 10
39.01325000
 20
4.32050000
  0
VERTEX
  8
0
 62
7
 10
38.97415234
 20
4.36314453
  0
VERTEX
  8
0
 62
7
 10
38.93428125
 20
4.40703125
  0
VERTEX
  8
0
 62
7
 10
38.89333203
 20
4.45152734
  0
VERTEX
  8
0
 62
7
 10
38.85100000
 20
4.49600000
  0
VERTEX
  8
0
 62
7
 10
38.70500000
 20
4.65300000
  0
VERTEX
  8
0
 62
7
 10
38.73295313
 20
4.70918750
  0
VERTEX
  8
0
 62
7
 10
38.76587500
 20
4.76200000
  0
VERTEX
  8
0
 62
7
 10
38.80385938
 20
4.81106250
  0
VERTEX
  8
0
 62
7
 10
38.84700000
 20
4.85600000
  0
VERTEX
  8
0
 62
7
 10
38.93318945
 20
4.92906250
  0
VERTEX
  8
0
 62
7
 10
39.00851563
 20
4.98243750
  0
VERTEX
  8
0
 62
7
 10
39.07599023
 20
5.02165625
  0
VERTEX
  8
0
 62
7
 10
39.13862500
 20
5.05225000
  0
VERTEX
  8
0
 62
7
 10
39.19943164
 20
5.07975000
  0
VERTEX
  8
0
 62
7
 10
39.26142188
 20
5.10968750
  0
VERTEX
  8
0
 62
7
 10
39.32760742
 20
5.14759375
  0
VERTEX
  8
0
 62
7
 10
39.40100000
 20
5.19900000
  0
VERTEX
  8
0
 62
7
 10
39.45755176
 20
5.24537549
  0
VERTEX
  8
0
 62
7
 10
39.51099219
 20
5.29447266
  0
VERTEX
  8
0
 62
7
 10
39.56137402
 20
5.34624756
  0
VERTEX
  8
0
 62
7
 10
39.60875000
 20
5.40065625
  0
VERTEX
  8
0
 62
7
 10
39.65317285
 20
5.45765479
  0
VERTEX
  8
0
 62
7
 10
39.69469531
 20
5.51719922
  0
VERTEX
  8
0
 62
7
 10
39.73337012
 20
5.57924561
  0
VERTEX
  8
0
 62
7
 10
39.76925000
 20
5.64375000
  0
VERTEX
  8
0
 62
7
 10
39.80238770
 20
5.71066846
  0
VERTEX
  8
0
 62
7
 10
39.83283594
 20
5.77995703
  0
VERTEX
  8
0
 62
7
 10
39.86064746
 20
5.85157178
  0
VERTEX
  8
0
 62
7
 10
39.88587500
 20
5.92546875
  0
VERTEX
  8
0
 62
7
 10
39.90857129
 20
6.00160400
  0
VERTEX
  8
0
 62
7
 10
39.92878906
 20
6.07993359
  0
VERTEX
  8
0
 62
7
 10
39.94658105
 20
6.16041357
  0
VERTEX
  8
0
 62
7
 10
39.96200000
 20
6.24300000
  0
VERTEX
  8
0
 62
7
 10
39.97209570
 20
6.31618921
  0
VERTEX
  8
0
 62
7
 10
39.97760938
 20
6.38976367
  0
VERTEX
  8
0
 62
7
 10
39.97906836
 20
6.46298364
  0
VERTEX
  8
0
 62
7
 10
39.97700000
 20
6.53510938
  0
VERTEX
  8
0
 62
7
 10
39.97193164
 20
6.60540112
  0
VERTEX
  8
0
 62
7
 10
39.96439063
 20
6.67311914
  0
VERTEX
  8
0
 62
7
 10
39.95490430
 20
6.73752368
  0
VERTEX
  8
0
 62
7
 10
39.94400000
 20
6.79787500
  0
VERTEX
  8
0
 62
7
 10
39.93220508
 20
6.85343335
  0
VERTEX
  8
0
 62
7
 10
39.92004688
 20
6.90345898
  0
VERTEX
  8
0
 62
7
 10
39.90805273
 20
6.94721216
  0
VERTEX
  8
0
 62
7
 10
39.89675000
 20
6.98395313
  0
VERTEX
  8
0
 62
7
 10
39.88666602
 20
7.01294214
  0
VERTEX
  8
0
 62
7
 10
39.87832813
 20
7.03343945
  0
VERTEX
  8
0
 62
7
 10
39.87226367
 20
7.04470532
  0
VERTEX
  8
0
 62
7
 10
39.86900000
 20
7.04600000
  0
VERTEX
  8
0
 62
7
 10
39.84362695
 20
6.98475586
  0
VERTEX
  8
0
 62
7
 10
39.81676563
 20
6.92617188
  0
VERTEX
  8
0
 62
7
 10
39.78917773
 20
6.87122070
  0
VERTEX
  8
0
 62
7
 10
39.76162500
 20
6.82087500
  0
VERTEX
  8
0
 62
7
 10
39.73486914
 20
6.77610742
  0
VERTEX
  8
0
 62
7
 10
39.70967188
 20
6.73789063
  0
VERTEX
  8
0
 62
7
 10
39.68679492
 20
6.70719727
  0
VERTEX
  8
0
 62
7
 10
39.66700000
 20
6.68500000
  0
VERTEX
  8
0
 62
7
 10
39.60700342
 20
6.62750293
  0
VERTEX
  8
0
 62
7
 10
39.54683984
 20
6.57236719
  0
VERTEX
  8
0
 62
7
 10
39.48681104
 20
6.51900098
  0
VERTEX
  8
0
 62
7
 10
39.42721875
 20
6.46681250
  0
VERTEX
  8
0
 62
7
 10
39.36836475
 20
6.41520996
  0
VERTEX
  8
0
 62
7
 10
39.31055078
 20
6.36360156
  0
VERTEX
  8
0
 62
7
 10
39.25407861
 20
6.31139551
  0
VERTEX
  8
0
 62
7
 10
39.19925000
 20
6.25800000
  0
VERTEX
  8
0
 62
7
 10
39.14636670
 20
6.20282324
  0
VERTEX
  8
0
 62
7
 10
39.09573047
 20
6.14527344
  0
VERTEX
  8
0
 62
7
 10
39.04764307
 20
6.08475879
  0
VERTEX
  8
0
 62
7
 10
39.00240625
 20
6.02068750
  0
VERTEX
  8
0
 62
7
 10
38.96032178
 20
5.95246777
  0
VERTEX
  8
0
 62
7
 10
38.92169141
 20
5.87950781
  0
VERTEX
  8
0
 62
7
 10
38.88681689
 20
5.80121582
  0
VERTEX
  8
0
 62
7
 10
38.85600000
 20
5.71700000
  0
VERTEX
  8
0
 62
7
 10
38.84744727
 20
5.68345313
  0
VERTEX
  8
0
 62
7
 10
38.83914063
 20
5.64025000
  0
VERTEX
  8
0
 62
7
 10
38.83123242
 20
5.58917188
  0
VERTEX
  8
0
 62
7
 10
38.82387500
 20
5.53200000
  0
VERTEX
  8
0
 62
7
 10
38.81722070
 20
5.47051563
  0
VERTEX
  8
0
 62
7
 10
38.81142188
 20
5.40650000
  0
VERTEX
  8
0
 62
7
 10
38.80663086
 20
5.34173438
  0
VERTEX
  8
0
 62
7
 10
38.80300000
 20
5.27800000
  0
VERTEX
  8
0
 62
7
 10
38.80077539
 20
5.24635938
  0
VERTEX
  8
0
 62
7
 10
38.79682813
 20
5.21218750
  0
VERTEX
  8
0
 62
7
 10
38.79074805
 20
5.17548438
  0
VERTEX
  8
0
 62
7
 10
38.78212500
 20
5.13625000
  0
VERTEX
  8
0
 62
7
 10
38.77054883
 20
5.09448438
  0
VERTEX
  8
0
 62
7
 10
38.75560938
 20
5.05018750
  0
VERTEX
  8
0
 62
7
 10
38.73689648
 20
5.00335938
  0
VERTEX
  8
0
 62
7
 10
38.71400000
 20
4.95400000
  0
VERTEX
  8
0
 62
7
 10
38.68087500
 20
4.88912500
  0
VERTEX
  8
0
 62
7
 10
38.64700000
 20
4.82800000
  0
VERTEX
  8
0
 62
7
 10
38.62001563
 20
4.94360938
  0
VERTEX
  8
0
 62
7
 10
38.60062500
 20
5.06062500
  0
VERTEX
  8
0
 62
7
 10
38.58892188
 20
5.17857813
  0
VERTEX
  8
0
 62
7
 10
38.58500000
 20
5.29700000
  0
VERTEX
  8
0
 62
7
 10
38.58800000
 20
5.39300000
  0
VERTEX
  8
0
 62
7
 10
38.59549023
 20
5.48906055
  0
VERTEX
  8
0
 62
7
 10
38.60817188
 20
5.58435938
  0
VERTEX
  8
0
 62
7
 10
38.62598633
 20
5.67869727
  0
VERTEX
  8
0
 62
7
 10
38.64887500
 20
5.77187500
  0
VERTEX
  8
0
 62
7
 10
38.67677930
 20
5.86369336
  0
VERTEX
  8
0
 62
7
 10
38.70964063
 20
5.95395313
  0
VERTEX
  8
0
 62
7
 10
38.74740039
 20
6.04245508
  0
VERTEX
  8
0
 62
7
 10
38.79000000
 20
6.12900000
  0
SEQEND
  0
POLYLINE
  8
0
 62
7
 66
1
 70
1
  0
VERTEX
  8
0
 62
7
 10
37.44100000
 20
8.32700000
  0
VERTEX
  8
0
 62
7
 10
37.44500000
 20
8.33200000
  0
VERTEX
  8
0
 62
7
 10
37.47300000
 20
8.36500000
  0
VERTEX
  8
0
 62
7
 10
37.50201758
 20
8.38989453
  0
VERTEX
  8
0
 62
7
 10
37.53245313
 20
8.40946875
  0
VERTEX
  8
0
 62
7
 10
37.56375586
 20
8.42430859
  0
VERTEX
  8
0
 62
7
 10
37.59537500
 20
8.43500000
  0
VERTEX
  8
0
 62
7
 10
37.62675977
 20
8.44212891
  0
VERTEX
  8
0
 62
7
 10
37.65735938
 20
8.44628125
  0
VERTEX
  8
0
 62
7
 10
37.68662305
 20
8.44804297
  0
VERTEX
  8
0
 62
7
 10
37.71400000
 20
8.44800000
  0
VERTEX
  8
0
 62
7
 10
37.74650000
 20
8.44523438
  0
VERTEX
  8
0
 62
7
 10
37.77675000
 20
8.44012500
  0
VERTEX
  8
0
 62
7
 10
37.80512500
 20
8.43295312
  0
VERTEX
  8
0
 62
7
 10
37.83200000
 20
8.42400000
  0
VERTEX
  8
0
 62
7
 10
37.82320313
 20
8.45101563
  0
VERTEX
  8
0
 62
7
 10
37.81637500
 20
8.47962500
  0
VERTEX
  8
0
 62
7
 10
37.81160938
 20
8.50992188
  0
VERTEX
  8
0
 62
7
 10
37.80900000
 20
8.54200000
  0
VERTEX
  8
0
 62
7
 10
37.69737500
 20
8.65187500
  0
VERTEX
  8
0
 62
7
 10
37.58800000
 20
8.76400000
  0
VERTEX
  8
0
 62
7
 10
37.51400000
 20
8.84800000
  0
VERTEX
  8
0
 62
7
 10
37.48210938
 20
8.88598438
  0
VERTEX
  8
0
 62
7
 10
37.45012500
 20
8.92162500
  0
VERTEX
  8
0
 62
7
 10
37.41682813
 20
8.95445313
  0
VERTEX
  8
0
 62
7
 10
37.38100000
 20
8.98400000
  0
VERTEX
  8
0
 62
7
 10
37.34799805
 20
9.00731445
  0
VERTEX
  8
0
 62
7
 10
37.31423438
 20
9.02914063
  0
VERTEX
  8
0
 62
7
 10
37.27969727
 20
9.04930273
  0
VERTEX
  8
0
 62
7
 10
37.24437500
 20
9.06762500
  0
VERTEX
  8
0
 62
7
 10
37.20825586
 20
9.08393164
  0
VERTEX
  8
0
 62
7
 10
37.17132813
 20
9.09804688
  0
VERTEX
  8
0
 62
7
 10
37.13358008
 20
9.10979492
  0
VERTEX
  8
0
 62
7
 10
37.09500000
 20
9.11900000
  0
VERTEX
  8
0
 62
7
 10
37.02750000
 20
9.12887500
  0
VERTEX
  8
0
 62
7
 10
36.96000000
 20
9.13200000
  0
VERTEX
  8
0
 62
7
 10
36.91876563
 20
9.13075000
  0
VERTEX
  8
0
 62
7
 10
36.87762500
 20
9.12725000
  0
VERTEX
  8
0
 62
7
 10
36.83667188
 20
9.12187500
  0
VERTEX
  8
0
 62
7
 10
36.79600000
 20
9.11500000
  0
VERTEX
  8
0
 62
7
 10
36.75976563
 20
9.10706250
  0
VERTEX
  8
0
 62
7
 10
36.72512500
 20
9.09725000
  0
VERTEX
  8
0
 62
7
 10
36.69292188
 20
9.08406250
  0
VERTEX
  8
0
 62
7
 10
36.66400000
 20
9.06600000
  0
VERTEX
  8
0
 62
7
 10
36.64168286
 20
9.04606714
  0
VERTEX
  8
0
 62
7
 10
36.62158789
 20
9.02325586
  0
VERTEX
  8
0
 62
7
 10
36.60368726
 20
8.99792212
  0
VERTEX
  8
0
 62
7
 10
36.58795313
 20
8.97042188
  0
VERTEX
  8
0
 62
7
 10
36.57435767
 20
8.94111108
  0
VERTEX
  8
0
 62
7
 10
36.56287305
 20
8.91034570
  0
VERTEX
  8
0
 62
7
 10
36.55347144
 20
8.87848169
  0
VERTEX
  8
0
 62
7
 10
36.54612500
 20
8.84587500
  0
VERTEX
  8
0
 62
7
 10
36.54080591
 20
8.81288159
  0
VERTEX
  8
0
 62
7
 10
36.53748633
 20
8.77985742
  0
VERTEX
  8
0
 62
7
 10
36.53613843
 20
8.74715845
  0
VERTEX
  8
0
 62
7
 10
36.53673438
 20
8.71514063
  0
VERTEX
  8
0
 62
7
 10
36.53924634
 20
8.68415991
  0
VERTEX
  8
0
 62
7
 10
36.54364648
 20
8.65457227
  0
VERTEX
  8
0
 62
7
 10
36.54990698
 20
8.62673364
  0
VERTEX
  8
0
 62
7
 10
36.55800000
 20
8.60100000
  0
VERTEX
  8
0
 62
7
 10
36.56787500
 20
8.57437500
  0
VERTEX
  8
0
 62
7
 10
36.58000000
 20
8.55000000
  0
VERTEX
  8
0
 62
7
 10
36.59197461
 20
8.57705859
  0
VERTEX
  8
0
 62
7
 10
36.60679688
 20
8.60259375
  0
VERTEX
  8
0
 62
7
 10
36.62431445
 20
8.62639453
  0
VERTEX
  8
0
 62
7
 10
36.64437500
 20
8.64825000
  0
VERTEX
  8
0
 62
7
 10
36.66682617
 20
8.66794922
  0
VERTEX
  8
0
 62
7
 10
36.69151563
 20
8.68528125
  0
VERTEX
  8
0
 62
7
 10
36.71829102
 20
8.70003516
  0
VERTEX
  8
0
 62
7
 10
36.74700000
 20
8.71200000
  0
VERTEX
  8
0
 62
7
 10
36.76826343
 20
8.71916431
  0
VERTEX
  8
0
 62
7
 10
36.79035742
 20
8.72520508
  0
VERTEX
  8
0
 62
7
 10
36.81317505
 20
8.73000659
  0
VERTEX
  8
0
 62
7
 10
36.83660938
 20
8.73345313
  0
VERTEX
  8
0
 62
7
 10
36.86055347
 20
8.73542896
  0
VERTEX
  8
0
 62
7
 10
36.88490039
 20
8.73581836
  0
VERTEX
  8
0
 62
7
 10
36.90954321
 20
8.73450562
  0
VERTEX
  8
0
 62
7
 10
36.93437500
 20
8.73137500
  0
VERTEX
  8
0
 62
7
 10
36.95928882
 20
8.72631079
  0
VERTEX
  8
0
 62
7
 10
36.98417773
 20
8.71919727
  0
VERTEX
  8
0
 62
7
 10
37.00893481
 20
8.70991870
  0
VERTEX
  8
0
 62
7
 10
37.03345313
 20
8.69835938
  0
VERTEX
  8
0
 62
7
 10
37.05762573
 20
8.68440356
  0
VERTEX
  8
0
 62
7
 10
37.08134570
 20
8.66793555
  0
VERTEX
  8
0
 62
7
 10
37.10450610
 20
8.64883960
  0
VERTEX
  8
0
 62
7
 10
37.12700000
 20
8.62700000
  0
VERTEX
  8
0
 62
7
 10
37.22078125
 20
8.53034375
  0
VERTEX
  8
0
 62
7
 10
37.30350000
 20
8.44925000
  0
VERTEX
  8
0
 62
7
 10
37.37646875
 20
8.38203125
  0
VERTEX
  8
0
 62
7
 10
37.44100000
 20
8.32700000
  0
SEQEND
  0
POLYLINE
  8
0
 62
7
 66
1
 70
1
  0
VERTEX
  8
0
 62
7
 10
37.81600000
 20
8.63300000
  0
VERTEX
  8
0
 62
7
 10
37.82534375
 20
8.67073438
  0
VERTEX
  8
0
 62
7
 10
37.84050000
 20
8.70837500
  0
VERTEX
  8
0
 62
7
 10
37.86240625
 20
8.74507812
  0
VERTEX
  8
0
 62
7
 10
37.89200000
 20
8.78000000
  0
VERTEX
  8
0
 62
7
 10
37.92500000
 20
8.80900000
  0
VERTEX
  8
0
 62
7
 10
37.98062500
 20
8.84350000
  0
VERTEX
  8
0
 62
7
 10
38.03100000
 20
8.86900000
  0
VERTEX
  8
0
 62
7
 10
38.04200000
 20
8.87500000
  0
VERTEX
  8
0
 62
7
 10
38.00351050
 20
8.91387988
  0
VERTEX
  8
0
 62
7
 10
37.95870898
 20
8.95541406
  0
VERTEX
  8
0
 62
7
 10
37.90840845
 20
8.99888184
  0
VERTEX
  8
0
 62
7
 10
37.85342188
 20
9.04356250
  0
VERTEX
  8
0
 62
7
 10
37.79456226
 20
9.08873535
  0
VERTEX
  8
0
 62
7
 10
37.73264258
 20
9.13367969
  0
VERTEX
  8
0
 62
7
 10
37.66847583
 20
9.17767480
  0
VERTEX
  8
0
 62
7
 10
37.60287500
 20
9.22000000
  0
VERTEX
  8
0
 62
7
 10
37.53665308
 20
9.25993457
  0
VERTEX
  8
0
 62
7
 10
37.47062305
 20
9.29675781
  0
VERTEX
  8
0
 62
7
 10
37.40559790
 20
9.32974902
  0
VERTEX
  8
0
 62
7
 10
37.34239063
 20
9.35818750
  0
VERTEX
  8
0
 62
7
 10
37.28181421
 20
9.38135254
  0
VERTEX
  8
0
 62
7
 10
37.22468164
 20
9.39852344
  0
VERTEX
  8
0
 62
7
 10
37.17180591
 20
9.40897949
  0
VERTEX
  8
0
 62
7
 10
37.12400000
 20
9.41200000
  0
VERTEX
  8
0
 62
7
 10
37.08460278
 20
9.40996265
  0
VERTEX
  8
0
 62
7
 10
37.04844727
 20
9.40545117
  0
VERTEX
  8
0
 62
7
 10
37.01540015
 20
9.39861646
  0
VERTEX
  8
0
 62
7
 10
36.98532813
 20
9.38960937
  0
VERTEX
  8
0
 62
7
 10
36.95809790
 20
9.37858081
  0
VERTEX
  8
0
 62
7
 10
36.93357617
 20
9.36568164
  0
VERTEX
  8
0
 62
7
 10
36.91162964
 20
9.35106274
  0
VERTEX
  8
0
 62
7
 10
36.89212500
 20
9.33487500
  0
VERTEX
  8
0
 62
7
 10
36.87492896
 20
9.31726929
  0
VERTEX
  8
0
 62
7
 10
36.85990820
 20
9.29839648
  0
VERTEX
  8
0
 62
7
 10
36.84692944
 20
9.27840747
  0
VERTEX
  8
0
 62
7
 10
36.83585938
 20
9.25745313
  0
VERTEX
  8
0
 62
7
 10
36.82656470
 20
9.23568433
  0
VERTEX
  8
0
 62
7
 10
36.81891211
 20
9.21325195
  0
VERTEX
  8
0
 62
7
 10
36.81276831
 20
9.19030688
  0
VERTEX
  8
0
 62
7
 10
36.80800000
 20
9.16700000
  0
VERTEX
  8
0
 62
7
 10
36.84373438
 20
9.17334375
  0
VERTEX
  8
0
 62
7
 10
36.88462500
 20
9.17950000
  0
VERTEX
  8
0
 62
7
 10
36.92570313
 20
9.18415625
  0
VERTEX
  8
0
 62
7
 10
36.96200000
 20
9.18600000
  0
VERTEX
  8
0
 62
7
 10
36.99870313
 20
9.18584375
  0
VERTEX
  8
0
 62
7
 10
37.03437500
 20
9.18475000
  0
VERTEX
  8
0
 62
7
 10
37.06985938
 20
9.18178125
  0
VERTEX
  8
0
 62
7
 10
37.10600000
 20
9.17600000
  0
VERTEX
  8
0
 62
7
 10
37.14881055
 20
9.16599805
  0
VERTEX
  8
0
 62
7
 10
37.19029688
 20
9.15335938
  0
VERTEX
  8
0
 62
7
 10
37.23054102
 20
9.13825977
  0
VERTEX
  8
0
 62
7
 10
37.26962500
 20
9.12087500
  0
VERTEX
  8
0
 62
7
 10
37.30763086
 20
9.10138086
  0
VERTEX
  8
0
 62
7
 10
37.34464063
 20
9.07995312
  0
VERTEX
  8
0
 62
7
 10
37.38073633
 20
9.05676758
  0
VERTEX
  8
0
 62
7
 10
37.41600000
 20
9.03200000
  0
VERTEX
  8
0
 62
7
 10
37.45789063
 20
8.99959375
  0
VERTEX
  8
0
 62
7
 10
37.49762500
 20
8.96550000
  0
VERTEX
  8
0
 62
7
 10
37.53454688
 20
8.92990625
  0
VERTEX
  8
0
 62
7
 10
37.56800000
 20
8.89300000
  0
VERTEX
  8
0
 62
7
 10
37.63800000
 20
8.81200000
  0
VERTEX
  8
0
 62
7
 10
37.81600000
 20
8.63300000
  0
SEQEND
  0
POLYLINE
  8
0
 62
7
 66
1
 70
1
  0
VERTEX
  8
0
 62
7
 10
37.34300000
 20
10.32700000
  0
VERTEX
  8
0
 62
7
 10
37.31583984
 20
10.29693555
  0
VERTEX
  8
0
 62
7
 10
37.29146875
 20
10.26460938
  0
VERTEX
  8
0
 62
7
 10
37.27005078
 20
10.23019727
  0
VERTEX
  8
0
 62
7
 10
37.25175000
 20
10.19387500
  0
VERTEX
  8
0
 62
7
 10
37.23673047
 20
10.15581836
  0
VERTEX
  8
0
 62
7
 10
37.22515625
 20
10.11620313
  0
VERTEX
  8
0
 62
7
 10
37.21719141
 20
10.07520508
  0
VERTEX
  8
0
 62
7
 10
37.21300000
 20
10.03300000
  0
VERTEX
  8
0
 62
7
 10
37.19226758
 20
10.05574805
  0
VERTEX
  8
0
 62
7
 10
37.17370313
 20
10.08092188
  0
VERTEX
  8
0
 62
7
 10
37.15750586
 20
10.10804102
  0
VERTEX
  8
0
 62
7
 10
37.14387500
 20
10.13662500
  0
VERTEX
  8
0
 62
7
 10
37.13300977
 20
10.16619336
  0
VERTEX
  8
0
 62
7
 10
37.12510938
 20
10.19626563
  0
VERTEX
  8
0
 62
7
 10
37.12037305
 20
10.22636133
  0
VERTEX
  8
0
 62
7
 10
37.11900000
 20
10.25600000
  0
VERTEX
  8
0
 62
7
 10
37.12100000
 20
10.31000000
  0
VERTEX
  8
0
 62
7
 10
37.14807813
 20
10.32157813
  0
VERTEX
  8
0
 62
7
 10
37.17487500
 20
10.32987500
  0
VERTEX
  8
0
 62
7
 10
37.20298438
 20
10.33573438
  0
VERTEX
  8
0
 62
7
 10
37.23400000
 20
10.34000000
  0
VERTEX
  8
0
 62
7
 10
37.26073438
 20
10.34162500
  0
VERTEX
  8
0
 62
7
 10
37.28962500
 20
10.34100000
  0
VERTEX
  8
0
 62
7
 10
37.31795313
 20
10.33662500
  0
VERTEX
  8
0
 62
7
 10
37.34300000
 20
10.32700000
  0
SEQEND
  0
POLYLINE
  8
0
 62
7
 66
1
 70
1
  0
VERTEX
  8
0
 62
7
 10
36.85200000
 20
8.66000000
  0
VERTEX
  8
0
 62
7
 10
36.83009375
 20
8.66109375
  0
VERTEX
  8
0
 62
7
 10
36.80800000
 20
8.65975000
  0
VERTEX
  8
0
 62
7
 10
36.78590625
 20
8.65578125
  0
VERTEX
  8
0
 62
7
 10
36.76400000
 20
8.64900000
  0
VERTEX
  8
0
 62
7
 10
36.73820313
 20
8.63752539
  0
VERTEX
  8
0
 62
7
 10
36.71493750
 20
8.62282813
  0
VERTEX
  8
0
 62
7
 10
36.69439063
 20
8.60524805
  0
VERTEX
  8
0
 62
7
 10
36.67675000
 20
8.58512500
  0
VERTEX
  8
0
 62
7
 10
36.66220313
 20
8.56279883
  0
VERTEX
  8
0
 62
7
 10
36.65093750
 20
8.53860938
  0
VERTEX
  8
0
 62
7
 10
36.64314063
 20
8.51289648
  0
VERTEX
  8
0
 62
7
 10
36.63900000
 20
8.48600000
  0
VERTEX
  8
0
 62
7
 10
36.66557813
 20
8.46530273
  0
VERTEX
  8
0
 62
7
 10
36.69412500
 20
8.44754688
  0
VERTEX
  8
0
 62
7
 10
36.72435938
 20
8.43286133
  0
VERTEX
  8
0
 62
7
 10
36.75600000
 20
8.42137500
  0
VERTEX
  8
0
 62
7
 10
36.78876563
 20
8.41321680
  0
VERTEX
  8
0
 62
7
 10
36.82237500
 20
8.40851563
  0
VERTEX
  8
0
 62
7
 10
36.85654688
 20
8.40740039
  0
VERTEX
  8
0
 62
7
 10
36.89100000
 20
8.41000000
  0
VERTEX
  8
0
 62
7
 10
36.87264063
 20
8.42745313
  0
VERTEX
  8
0
 62
7
 10
36.85662500
 20
8.44687500
  0
VERTEX
  8
0
 62
7
 10
36.84304688
 20
8.46835938
  0
VERTEX
  8
0
 62
7
 10
36.83200000
 20
8.49200000
  0
VERTEX
  8
0
 62
7
 10
36.82584570
 20
8.51423047
  0
VERTEX
  8
0
 62
7
 10
36.82232813
 20
8.53653125
  0
VERTEX
  8
0
 62
7
 10
36.82136523
 20
8.55869141
  0
VERTEX
  8
0
 62
7
 10
36.82287500
 20
8.58050000
  0
VERTEX
  8
0
 62
7
 10
36.82677539
 20
8.60174609
  0
VERTEX
  8
0
 62
7
 10
36.83298438
 20
8.62221875
  0
VERTEX
  8
0
 62
7
 10
36.84141992
 20
8.64170703
  0
VERTEX
  8
0
 62
7
 10
36.85200000
 20
8.66000000
  0
SEQEND
  0
POLYLINE
  8
0
 62
7
 66
1
 70
1
  0
VERTEX
  8
0
 62
7
 10
38.85900000
 20
4.72200000
  0
VERTEX
  8
0
 62
7
 10
38.85900000
 20
4.59700000
  0
VERTEX
  8
0
 62
7
 10
38.92600000
 20
4.53000000
  0
VERTEX
  8
0
 62
7
 10
38.97162500
 20
4.48225000
  0
VERTEX
  8
0
 62
7
 10
39.01200000
 20
4.43600000
  0
VERTEX
  8
0
 62
7
 10
39.04600000
 20
4.40300000
  0
VERTEX
  8
0
 62
7
 10
39.04600000
 20
4.88700000
  0
VERTEX
  8
0
 62
7
 10
38.98462500
 20
4.84200000
  0
VERTEX
  8
0
 62
7
 10
38.91500000
 20
4.78200000
  0
VERTEX
  8
0
 62
7
 10
38.88550000
 20
4.75350000
  0
VERTEX
  8
0
 62
7
 10
38.85900000
 20
4.72200000
  0
SEQEND
  0
POLYLINE
  8
0
 62
7
 66
1
 70
1
  0
VERTEX
  8
0
 62
7
 10
38.68600000
 20
7.52003686
  0
VERTEX
  8
0
 62
7
 10
38.69671331
 20
7.50996314
  0
VERTEX
  8
0
 62
7
 10
38.70958484
 20
7.49447216
  0
VERTEX
  8
0
 62
7
 10
38.71890518
 20
7.47732847
  0
VERTEX
  8
0
 62
7
 10
38.72463848
 20
7.45908296
  0
VERTEX
  8
0
 62
7
 10
38.72674886
 20
7.44028655
  0
VERTEX
  8
0
 62
7
 10
38.72520045
 20
7.42149013
  0
VERTEX
  8
0
 62
7
 10
38.71995738
 20
7.40324463
  0
VERTEX
  8
0
 62
7
 10
38.71098378
 20
7.38610093
  0
VERTEX
  8
0
 62
7
 10
38.69824379
 20
7.37060996
  0
VERTEX
  8
0
 62
7
 10
38.68284340
 20
7.35790139
  0
VERTEX
  8
0
 62
7
 10
38.66572123
 20
7.34874421
  0
VERTEX
  8
0
 62
7
 10
38.64745120
 20
7.34314824
  0
VERTEX
  8
0
 62
7
 10
38.62860724
 20
7.34112333
  0
VERTEX
  8
0
 62
7
 10
38.60976329
 20
7.34267931
  0
VERTEX
  8
0
 62
7
 10
38.59149326
 20
7.34782603
  0
VERTEX
  8
0
 62
7
 10
38.57437109
 20
7.35657331
  0
VERTEX
  8
0
 62
7
 10
38.55897070
 20
7.36893100
  0
VERTEX
  8
0
 62
7
 10
38.54613057
 20
7.38445805
  0
VERTEX
  8
0
 62
7
 10
38.53688645
 20
7.40169684
  0
VERTEX
  8
0
 62
7
 10
38.53124731
 20
7.42007680
  0
VERTEX
  8
0
 62
7
 10
38.52922212
 20
7.43902733
  0
VERTEX
  8
0
 62
7
 10
38.53081985
 20
7.45797787
  0
VERTEX
  8
0
 62
7
 10
38.53604947
 20
7.47635782
  0
VERTEX
  8
0
 62
7
 10
38.54491994
 20
7.49359662
  0
VERTEX
  8
0
 62
7
 10
38.55744023
 20
7.50912366
  0
VERTEX
  8
0
 62
7
 10
38.56662307
 20
7.51667895
  0
VERTEX
  8
0
 62
7
 10
38.56420779
 20
7.52828735
  0
VERTEX
  8
0
 62
7
 10
38.55935332
 20
7.53903003
  0
VERTEX
  8
0
 62
7
 10
38.55220314
 20
7.54867090
  0
VERTEX
  8
0
 62
7
 10
38.54290073
 20
7.55697385
  0
VERTEX
  8
0
 62
7
 10
38.53491357
 20
7.56163032
  0
VERTEX
  8
0
 62
7
 10
38.52606552
 20
7.56526368
  0
VERTEX
  8
0
 62
7
 10
38.51664354
 20
7.56748043
  0
VERTEX
  8
0
 62
7
 10
38.50693460
 20
7.56788705
  0
VERTEX
  8
0
 62
7
 10
38.49775176
 20
7.55613437
  0
VERTEX
  8
0
 62
7
 10
38.48213166
 20
7.54342745
  0
VERTEX
  8
0
 62
7
 10
38.46490636
 20
7.53428174
  0
VERTEX
  8
0
 62
7
 10
38.44662289
 20
7.52871692
  0
VERTEX
  8
0
 62
7
 10
38.42782825
 20
7.52675268
  0
VERTEX
  8
0
 62
7
 10
38.40906949
 20
7.52840868
  0
VERTEX
  8
0
 62
7
 10
38.39089362
 20
7.53370460
  0
VERTEX
  8
0
 62
7
 10
38.37384768
 20
7.54266011
  0
VERTEX
  8
0
 62
7
 10
38.35847867
 20
7.55529490
  0
VERTEX
  8
0
 62
7
 10
38.34582686
 20
7.57078587
  0
VERTEX
  8
0
 62
7
 10
38.33660964
 20
7.58792956
  0
VERTEX
  8
0
 62
7
 10
38.33088980
 20
7.60617507
  0
VERTEX
  8
0
 62
7
 10
38.32873009
 20
7.62497149
  0
VERTEX
  8
0
 62
7
 10
38.33019331
 20
7.64376790
  0
VERTEX
  8
0
 62
7
 10
38.33534222
 20
7.66201341
  0
VERTEX
  8
0
 62
7
 10
38.34423959
 20
7.67915710
  0
VERTEX
  8
0
 62
7
 10
38.35694820
 20
7.69464808
  0
VERTEX
  8
0
 62
7
 10
38.37238147
 20
7.70735500
  0
VERTEX
  8
0
 62
7
 10
38.38959033
 20
7.71650071
  0
VERTEX
  8
0
 62
7
 10
38.40798291
 20
7.72206552
  0
VERTEX
  8
0
 62
7
 10
38.42696736
 20
7.72402977
  0
VERTEX
  8
0
 62
7
 10
38.44595181
 20
7.72237377
  0
VERTEX
  8
0
 62
7
 10
38.46434439
 20
7.71707785
  0
VERTEX
  8
0
 62
7
 10
38.48155325
 20
7.70812234
  0
VERTEX
  8
0
 62
7
 10
38.49698652
 20
7.69548755
  0
VERTEX
  8
0
 62
7
 10
38.50234318
 20
7.68877174
  0
VERTEX
  8
0
 62
7
 10
38.51147819
 20
7.68982108
  0
VERTEX
  8
0
 62
7
 10
38.52032624
 20
7.69275925
  0
VERTEX
  8
0
 62
7
 10
38.52860037
 20
7.69727144
  0
VERTEX
  8
0
 62
7
 10
38.53601360
 20
7.70304285
  0
VERTEX
  8
0
 62
7
 10
38.54461055
 20
7.71194917
  0
VERTEX
  8
0
 62
7
 10
38.55084006
 20
7.72203601
  0
VERTEX
  8
0
 62
7
 10
38.55463037
 20
7.73290986
  0
VERTEX
  8
0
 62
7
 10
38.55590975
 20
7.74417722
  0
VERTEX
  8
0
 62
7
 10
38.54366597
 20
7.75592990
  0
VERTEX
  8
0
 62
7
 10
38.53104703
 20
7.77142087
  0
VERTEX
  8
0
 62
7
 10
38.52191650
 20
7.78856456
  0
VERTEX
  8
0
 62
7
 10
38.51631921
 20
7.80681007
  0
VERTEX
  8
0
 62
7
 10
38.51430001
 20
7.82560649
  0
VERTEX
  8
0
 62
7
 10
38.51590371
 20
7.84440290
  0
VERTEX
  8
0
 62
7
 10
38.52117518
 20
7.86264841
  0
VERTEX
  8
0
 62
7
 10
38.53015924
 20
7.87979210
  0
VERTEX
  8
0
 62
7
 10
38.54290073
 20
7.89528308
  0
VERTEX
  8
0
 62
7
 10
38.55830112
 20
7.90799000
  0
VERTEX
  8
0
 62
7
 10
38.57542329
 20
7.91713571
  0
VERTEX
  8
0
 62
7
 10
38.59369332
 20
7.92270052
  0
VERTEX
  8
0
 62
7
 10
38.61253727
 20
7.92466477
  0
VERTEX
  8
0
 62
7
 10
38.63138123
 20
7.92300877
  0
VERTEX
  8
0
 62
7
 10
38.64965125
 20
7.91771285
  0
VERTEX
  8
0
 62
7
 10
38.66677343
 20
7.90875734
  0
VERTEX
  8
0
 62
7
 10
38.68217382
 20
7.89612255
  0
VERTEX
  8
0
 62
7
 10
38.69479275
 20
7.88087260
  0
VERTEX
  8
0
 62
7
 10
38.70392328
 20
7.86384204
  0
VERTEX
  8
0
 62
7
 10
38.70952057
 20
7.84561129
  0
VERTEX
  8
0
 62
7
 10
38.71153978
 20
7.82676077
  0
VERTEX
  8
0
 62
7
 10
38.70993607
 20
7.80787089
  0
VERTEX
  8
0
 62
7
 10
38.70466460
 20
7.78952209
  0
VERTEX
  8
0
 62
7
 10
38.69568054
 20
7.77229478
  0
VERTEX
  8
0
 62
7
 10
38.68293905
 20
7.75676937
  0
VERTEX
  8
0
 62
7
 10
38.67681716
 20
7.75089303
  0
VERTEX
  8
0
 62
7
 10
38.67767805
 20
7.74185554
  0
VERTEX
  8
0
 62
7
 10
38.68026072
 20
7.73273934
  0
VERTEX
  8
0
 62
7
 10
38.68456518
 20
7.72409535
  0
VERTEX
  8
0
 62
7
 10
38.69059142
 20
7.71647448
  0
VERTEX
  8
0
 62
7
 10
38.69896120
 20
7.70848633
  0
VERTEX
  8
0
 62
7
 10
38.70876579
 20
7.70230830
  0
VERTEX
  8
0
 62
7
 10
38.71943128
 20
7.69817650
  0
VERTEX
  8
0
 62
7
 10
38.73038373
 20
7.69632703
  0
VERTEX
  8
0
 62
7
 10
38.74186228
 20
7.71059814
  0
VERTEX
  8
0
 62
7
 10
38.75751526
 20
7.72330670
  0
VERTEX
  8
0
 62
7
 10
38.77482725
 20
7.73246389
  0
VERTEX
  8
0
 62
7
 10
38.79323328
 20
7.73805986
  0
VERTEX
  8
0
 62
7
 10
38.81216841
 20
7.74008477
  0
VERTEX
  8
0
 62
7
 10
38.83106766
 20
7.73852878
  0
VERTEX
  8
0
 62
7
 10
38.84936609
 20
7.73338207
  0
VERTEX
  8
0
 62
7
 10
38.86649872
 20
7.72463478
  0
VERTEX
  8
0
 62
7
 10
38.88190061
 20
7.71227709
  0
VERTEX
  8
0
 62
7
 10
38.89451954
 20
7.69675005
  0
VERTEX
  8
0
 62
7
 10
38.90365007
 20
7.67951126
  0
VERTEX
  8
0
 62
7
 10
38.90924736
 20
7.66113130
  0
VERTEX
  8
0
 62
7
 10
38.91126657
 20
7.64218076
  0
VERTEX
  8
0
 62
7
 10
38.90966286
 20
7.62323023
  0
VERTEX
  8
0
 62
7
 10
38.90439139
 20
7.60485027
  0
VERTEX
  8
0
 62
7
 10
38.89540733
 20
7.58761148
  0
VERTEX
  8
0
 62
7
 10
38.88266584
 20
7.57208444
  0
VERTEX
  8
0
 62
7
 10
38.86726545
 20
7.55937751
  0
VERTEX
  8
0
 62
7
 10
38.85014328
 20
7.55023180
  0
VERTEX
  8
0
 62
7
 10
38.83187325
 20
7.54466699
  0
VERTEX
  8
0
 62
7
 10
38.81302930
 20
7.54270274
  0
VERTEX
  8
0
 62
7
 10
38.79418534
 20
7.54435874
  0
VERTEX
  8
0
 62
7
 10
38.77591532
 20
7.54965466
  0
VERTEX
  8
0
 62
7
 10
38.75879315
 20
7.55861017
  0
VERTEX
  8
0
 62
7
 10
38.74339276
 20
7.57124496
  0
VERTEX
  8
0
 62
7
 10
38.73574039
 20
7.57880025
  0
VERTEX
  8
0
 62
7
 10
38.72436945
 20
7.57666221
  0
VERTEX
  8
0
 62
7
 10
38.71364418
 20
7.57176963
  0
VERTEX
  8
0
 62
7
 10
38.70421024
 20
7.56451603
  0
VERTEX
  8
0
 62
7
 10
38.69671331
 20
7.55529490
  0
VERTEX
  8
0
 62
7
 10
38.69138057
 20
7.54695259
  0
VERTEX
  8
0
 62
7
 10
38.68791309
 20
7.53829549
  0
VERTEX
  8
0
 62
7
 10
38.68616740
 20
7.52932358
  0
VERTEX
  8
0
 62
7
 10
38.68600000
 20
7.52003686
  0
SEQEND
  0
POLYLINE
  8
0
 62
7
 66
1
 70
1
  0
VERTEX
  8
0
 62
7
 10
36.94400000
 20
6.12200000
  0
VERTEX
  8
0
 62
7
 10
36.90879688
 20
6.11828125
  0
VERTEX
  8
0
 62
7
 10
36.87387500
 20
6.11175000
  0
VERTEX
  8
0
 62
7
 10
36.83951563
 20
6.10259375
  0
VERTEX
  8
0
 62
7
 10
36.80600000
 20
6.09100000
  0
VERTEX
  8
0
 62
7
 10
36.81590625
 20
6.06084375
  0
VERTEX
  8
0
 62
7
 10
36.82900000
 20
6.03200000
  0
VERTEX
  8
0
 62
7
 10
36.84509375
 20
6.00465625
  0
VERTEX
  8
0
 62
7
 10
36.86400000
 20
5.97900000
  0
VERTEX
  8
0
 62
7
 10
36.88962500
 20
5.95129688
  0
VERTEX
  8
0
 62
7
 10
36.91825000
 20
5.92687500
  0
VERTEX
  8
0
 62
7
 10
36.94950000
 20
5.90601563
  0
VERTEX
  8
0
 62
7
 10
36.98300000
 20
5.88900000
  0
VERTEX
  8
0
 62
7
 10
36.98073438
 20
5.91443750
  0
VERTEX
  8
0
 62
7
 10
36.98287500
 20
5.93950000
  0
VERTEX
  8
0
 62
7
 10
36.98932813
 20
5.96381250
  0
VERTEX
  8
0
 62
7
 10
37.00000000
 20
5.98700000
  0
VERTEX
  8
0
 62
7
 10
37.02042188
 20
6.01517188
  0
VERTEX
  8
0
 62
7
 10
37.04637500
 20
6.03762500
  0
VERTEX
  8
0
 62
7
 10
37.07664063
 20
6.05351563
  0
VERTEX
  8
0
 62
7
 10
37.11000000
 20
6.06200000
  0
VERTEX
  8
0
 62
7
 10
37.08812500
 20
6.08000000
  0
VERTEX
  8
0
 62
7
 10
37.06400000
 20
6.09500000
  0
VERTEX
  8
0
 62
7
 10
37.03554688
 20
6.10807813
  0
VERTEX
  8
0
 62
7
 10
37.00587500
 20
6.11712500
  0
VERTEX
  8
0
 62
7
 10
36.97526563
 20
6.12185938
  0
VERTEX
  8
0
 62
7
 10
36.94400000
 20
6.12200000
  0
SEQEND
  0
POLYLINE
  8
0
 62
7
 66
1
 70
1
  0
VERTEX
  8
0
 62
7
 10
38.90800000
 20
5.17600000
  0
VERTEX
  8
0
 62
7
 10
38.97695313
 20
5.31434375
  0
VERTEX
  8
0
 62
7
 10
39.05312500
 20
5.44875000
  0
VERTEX
  8
0
 62
7
 10
39.13623438
 20
5.57903125
  0
VERTEX
  8
0
 62
7
 10
39.22600000
 20
5.70500000
  0
VERTEX
  8
0
 62
7
 10
39.33700000
 20
5.84200000
  0
VERTEX
  8
0
 62
7
 10
39.41825000
 20
5.94125000
  0
VERTEX
  8
0
 62
7
 10
39.49500000
 20
6.04200000
  0
VERTEX
  8
0
 62
7
 10
39.53768750
 20
6.10292383
  0
VERTEX
  8
0
 62
7
 10
39.57793750
 20
6.16189063
  0
VERTEX
  8
0
 62
7
 10
39.61565625
 20
6.21994336
  0
VERTEX
  8
0
 62
7
 10
39.65075000
 20
6.27812500
  0
VERTEX
  8
0
 62
7
 10
39.68312500
 20
6.33747852
  0
VERTEX
  8
0
 62
7
 10
39.71268750
 20
6.39904688
  0
VERTEX
  8
0
 62
7
 10
39.73934375
 20
6.46387305
  0
VERTEX
  8
0
 62
7
 10
39.76300000
 20
6.53300000
  0
VERTEX
  8
0
 62
7
 10
39.79900000
 20
6.51300000
  0
VERTEX
  8
0
 62
7
 10
39.77450781
 20
6.43902148
  0
VERTEX
  8
0
 62
7
 10
39.74687500
 20
6.36760938
  0
VERTEX
  8
0
 62
7
 10
39.71624219
 20
6.29842383
  0
VERTEX
  8
0
 62
7
 10
39.68275000
 20
6.23112500
  0
VERTEX
  8
0
 62
7
 10
39.64653906
 20
6.16537305
  0
VERTEX
  8
0
 62
7
 10
39.60775000
 20
6.10082813
  0
VERTEX
  8
0
 62
7
 10
39.56652344
 20
6.03715039
  0
VERTEX
  8
0
 62
7
 10
39.52300000
 20
5.97400000
  0
VERTEX
  8
0
 62
7
 10
39.45800000
 20
5.88325000
  0
VERTEX
  8
0
 62
7
 10
39.39000000
 20
5.79700000
  0
VERTEX
  8
0
 62
7
 10
39.28200000
 20
5.66300000
  0
VERTEX
  8
0
 62
7
 10
39.19446875
 20
5.54003125
  0
VERTEX
  8
0
 62
7
 10
39.11350000
 20
5.41275000
  0
VERTEX
  8
0
 62
7
 10
39.03928125
 20
5.28134375
  0
VERTEX
  8
0
 62
7
 10
38.97200000
 20
5.14600000
  0
VERTEX
  8
0
 62
7
 10
38.96381250
 20
5.13504688
  0
VERTEX
  8
0
 62
7
 10
38.95225000
 20
5.12812500
  0
VERTEX
  8
0
 62
7
 10
38.93881250
 20
5.12589063
  0
VERTEX
  8
0
 62
7
 10
38.92500000
 20
5.12900000
  0
VERTEX
  8
0
 62
7
 10
38.91404688
 20
5.13718750
  0
VERTEX
  8
0
 62
7
 10
38.90712500
 20
5.14875000
  0
VERTEX
  8
0
 62
7
 10
38.90489063
 20
5.16218750
  0
VERTEX
  8
0
 62
7
 10
38.90800000
 20
5.17600000
  0
SEQEND
  0
POLYLINE
  8
0
 62
7
 66
1
 70
1
  0
VERTEX
  8
0
 62
7
 10
22.25000000
 20
1.37500000
  0
VERTEX
  8
0
 62
7
 10
22.25000000
 20
7.67500000
  0
VERTEX
  8
0
 62
7
 10
35.30000000
 20
7.67500000
  0
VERTEX
  8
0
 62
7
 10
35.30000000
 20
1.37500000
  0
VERTEX
  8
0
 62
7
 10
22.25000000
 20
1.37500000
  0
SEQEND
  0
POLYLINE
  8
0
 62
7
 66
1
 70
1
  0
VERTEX
  8
0
 62
7
 10
22.35000000
 20
1.47500000
  0
VERTEX
  8
0
 62
7
 10
22.35000000
 20
7.57500000
  0
VERTEX
  8
0
 62
7
 10
35.20000000
 20
7.57500000
  0
VERTEX
  8
0
 62
7
 10
35.20000000
 20
1.47500000
  0
VERTEX
  8
0
 62
7
 10
22.35000000
 20
1.47500000
  0
SEQEND
  0
POLYLINE
  8
0
 62
7
 66
1
 70
1
  0
VERTEX
  8
0
 62
7
 10
22.55000000
 20
1.67500000
  0
VERTEX
  8
0
 62
7
 10
22.55000000
 20
7.37500000
  0
VERTEX
  8
0
 62
7
 10
35.00000000
 20
7.37500000
  0
VERTEX
  8
0
 62
7
 10
35.00000000
 20
1.67500000
  0
VERTEX
  8
0
 62
7
 10
22.55000000
 20
1.67500000
  0
SEQEND
  0
POLYLINE
  8
0
 62
7
 66
1
 70
1
  0
VERTEX
  8
0
 62
7
 10
22.65000000
 20
1.77500000
  0
VERTEX
  8
0
 62
7
 10
22.65000000
 20
7.27511614
  0
VERTEX
  8
0
 62
7
 10
34.90000000
 20
7.27511614
  0
VERTEX
  8
0
 62
7
 10
34.90000000
 20
1.77500000
  0
VERTEX
  8
0
 62
7
 10
22.65000000
 20
1.77500000
  0
SEQEND
  0
POLYLINE
  8
0
 62
7
 66
1
 70
1
  0
VERTEX
  8
0
 62
7
 10
3.40030473
 20
6.59925826
  0
VERTEX
  8
0
 62
7
 10
3.40378550
 20
6.68744039
  0
VERTEX
  8
0
 62
7
 10
3.40519375
 20
6.77387031
  0
VERTEX
  8
0
 62
7
 10
3.40628315
 20
6.86197626
  0
VERTEX
  8
0
 62
7
 10
3.40880737
 20
6.95518648
  0
VERTEX
  8
0
 62
7
 10
3.41986079
 20
7.27860985
  0
VERTEX
  8
0
 62
7
 10
3.43642763
 20
7.28366334
  0
VERTEX
  8
0
 62
7
 10
3.45419016
 20
7.29100232
  0
VERTEX
  8
0
 62
7
 10
3.47115556
 20
7.29986498
  0
VERTEX
  8
0
 62
7
 10
3.48533104
 20
7.30948946
  0
VERTEX
  8
0
 62
7
 10
3.49135097
 20
7.31497625
  0
VERTEX
  8
0
 62
7
 10
3.49777942
 20
7.32230095
  0
VERTEX
  8
0
 62
7
 10
3.50438723
 20
7.33055890
  0
VERTEX
  8
0
 62
7
 10
3.51094521
 20
7.33884542
  0
VERTEX
  8
0
 62
7
 10
3.51722421
 20
7.34625583
  0
VERTEX
  8
0
 62
7
 10
3.52299504
 20
7.35188545
  0
VERTEX
  8
0
 62
7
 10
3.52802853
 20
7.35482962
  0
VERTEX
  8
0
 62
7
 10
3.53209551
 20
7.35418365
  0
VERTEX
  8
0
 62
7
 10
3.60128566
 20
7.30278534
  0
VERTEX
  8
0
 62
7
 10
3.66728733
 20
7.25016809
  0
VERTEX
  8
0
 62
7
 10
3.73882900
 20
7.18985634
  0
VERTEX
  8
0
 62
7
 10
3.81363886
 20
7.12421176
  0
VERTEX
  8
0
 62
7
 10
3.88669506
 20
7.05612931
  0
VERTEX
  8
0
 62
7
 10
3.95297572
 20
6.98850397
  0
VERTEX
  8
0
 62
7
 10
3.98116559
 20
6.95751960
  0
VERTEX
  8
0
 62
7
 10
4.00791068
 20
6.92743038
  0
VERTEX
  8
0
 62
7
 10
4.03256333
 20
6.89745544
  0
VERTEX
  8
0
 62
7
 10
4.05447587
 20
6.86681390
  0
VERTEX
  8
0
 62
7
 10
4.07300064
 20
6.83472487
  0
VERTEX
  8
0
 62
7
 10
4.08748999
 20
6.80040748
  0
VERTEX
  8
0
 62
7
 10
4.09729625
 20
6.76308085
  0
VERTEX
  8
0
 62
7
 10
4.10177175
 20
6.72196411
  0
VERTEX
  8
0
 62
7
 10
4.10161731
 20
6.69619195
  0
VERTEX
  8
0
 62
7
 10
4.09957967
 20
6.67028646
  0
VERTEX
  8
0
 62
7
 10
4.09521044
 20
6.64457143
  0
VERTEX
  8
0
 62
7
 10
4.08806126
 20
6.61937065
  0
VERTEX
  8
0
 62
7
 10
4.07768373
 20
6.59500787
  0
VERTEX
  8
0
 62
7
 10
4.06362948
 20
6.57180689
  0
VERTEX
  8
0
 62
7
 10
4.04545013
 20
6.55009149
  0
VERTEX
  8
0
 62
7
 10
4.02269729
 20
6.53018543
  0
VERTEX
  8
0
 62
7
 10
3.98657439
 20
6.50744473
  0
VERTEX
  8
0
 62
7
 10
3.94989351
 20
6.48782754
  0
VERTEX
  8
0
 62
7
 10
3.91305321
 20
6.46927691
  0
VERTEX
  8
0
 62
7
 10
3.87645204
 20
6.44973590
  0
VERTEX
  8
0
 62
7
 10
3.84946948
 20
6.43714027
  0
VERTEX
  8
0
 62
7
 10
3.82192892
 20
6.42576357
  0
VERTEX
  8
0
 62
7
 10
3.79550434
 20
6.41316794
  0
VERTEX
  8
0
 62
7
 10
3.77186969
 20
6.39691551
  0
VERTEX
  8
0
 62
7
 10
3.67664023
 20
6.29696306
  0
VERTEX
  8
0
 62
7
 10
3.65731169
 20
6.27873621
  0
VERTEX
  8
0
 62
7
 10
3.63839167
 20
6.26207112
  0
VERTEX
  8
0
 62
7
 10
3.61917274
 20
6.24731062
  0
VERTEX
  8
0
 62
7
 10
3.59894744
 20
6.23479751
  0
VERTEX
  8
0
 62
7
 10
3.57700833
 20
6.22487464
  0
VERTEX
  8
0
 62
7
 10
3.55264796
 20
6.21788483
  0
VERTEX
  8
0
 62
7
 10
3.52515889
 20
6.21417090
  0
VERTEX
  8
0
 62
7
 10
3.49383367
 20
6.21407567
  0
VERTEX
  8
0
 62
7
 10
3.49411931
 20
6.21700079
  0
VERTEX
  8
0
 62
7
 10
3.49452451
 20
6.22498257
  0
VERTEX
  8
0
 62
7
 10
3.49437173
 20
6.23683066
  0
VERTEX
  8
0
 62
7
 10
3.49298341
 20
6.25135468
  0
VERTEX
  8
0
 62
7
 10
3.48968200
 20
6.26736427
  0
VERTEX
  8
0
 62
7
 10
3.48378994
 20
6.28366908
  0
VERTEX
  8
0
 62
7
 10
3.47462968
 20
6.29907873
  0
VERTEX
  8
0
 62
7
 10
3.46152367
 20
6.31240287
  0
VERTEX
  8
0
 62
7
 10
3.44170192
 20
6.32452871
  0
VERTEX
  8
0
 62
7
 10
3.42156131
 20
6.33139790
  0
VERTEX
  8
0
 62
7
 10
3.40078301
 20
6.33445793
  0
VERTEX
  8
0
 62
7
 10
3.37904816
 20
6.33515627
  0
VERTEX
  8
0
 62
7
 10
3.35743288
 20
6.33445793
  0
VERTEX
  8
0
 62
7
 10
3.33685385
 20
6.33139790
  0
VERTEX
  8
0
 62
7
 10
3.31675310
 20
6.32452871
  0
VERTEX
  8
0
 62
7
 10
3.29657264
 20
6.31240287
  0
VERTEX
  8
0
 62
7
 10
3.28322252
 20
6.29907873
  0
VERTEX
  8
0
 62
7
 10
3.27394767
 20
6.28366908
  0
VERTEX
  8
0
 62
7
 10
3.26804067
 20
6.26736427
  0
VERTEX
  8
0
 62
7
 10
3.26479406
 20
6.25135468
  0
VERTEX
  8
0
 62
7
 10
3.26350040
 20
6.23683066
  0
VERTEX
  8
0
 62
7
 10
3.26345224
 20
6.22498257
  0
VERTEX
  8
0
 62
7
 10
3.26394214
 20
6.21700079
  0
VERTEX
  8
0
 62
7
 10
3.26426265
 20
6.21407567
  0
VERTEX
  8
0
 62
7
 10
3.23293577
 20
6.21416931
  0
VERTEX
  8
0
 62
7
 10
3.20543507
 20
6.21787213
  0
VERTEX
  8
0
 62
7
 10
3.18104315
 20
6.22483179
  0
VERTEX
  8
0
 62
7
 10
3.15904259
 20
6.23469594
  0
VERTEX
  8
0
 62
7
 10
3.13871599
 20
6.24711222
  0
VERTEX
  8
0
 62
7
 10
3.11934594
 20
6.26172830
  0
VERTEX
  8
0
 62
7
 10
3.10021502
 20
6.27819182
  0
VERTEX
  8
0
 62
7
 10
3.08060583
 20
6.29615044
  0
VERTEX
  8
0
 62
7
 10
3.05880455
 20
6.31943712
  0
VERTEX
  8
0
 62
7
 10
3.03501047
 20
6.34653297
  0
VERTEX
  8
0
 62
7
 10
3.01041927
 20
6.37362882
  0
VERTEX
  8
0
 62
7
 10
2.98622663
 20
6.39691551
  0
VERTEX
  8
0
 62
7
 10
2.96259197
 20
6.41318063
  0
VERTEX
  8
0
 62
7
 10
2.93616739
 20
6.42586515
  0
VERTEX
  8
0
 62
7
 10
2.90862684
 20
6.43748310
  0
VERTEX
  8
0
 62
7
 10
2.88164427
 20
6.45054853
  0
VERTEX
  8
0
 62
7
 10
2.84492354
 20
6.46973401
  0
VERTEX
  8
0
 62
7
 10
2.80788395
 20
6.48823385
  0
VERTEX
  8
0
 62
7
 10
2.77116322
 20
6.50780025
  0
VERTEX
  8
0
 62
7
 10
2.73539903
 20
6.53018543
  0
VERTEX
  8
0
 62
7
 10
2.71264453
 20
6.55009307
  0
VERTEX
  8
0
 62
7
 10
2.69445355
 20
6.57181959
  0
VERTEX
  8
0
 62
7
 10
2.68036775
 20
6.59505072
  0
VERTEX
  8
0
 62
7
 10
2.66992878
 20
6.61947222
  0
VERTEX
  8
0
 62
7
 10
2.66267829
 20
6.64476983
  0
VERTEX
  8
0
 62
7
 10
2.65815795
 20
6.67062929
  0
VERTEX
  8
0
 62
7
 10
2.65590940
 20
6.69673634
  0
VERTEX
  8
0
 62
7
 10
2.65547430
 20
6.72277673
  0
VERTEX
  8
0
 62
7
 10
2.66023046
 20
6.76315863
  0
VERTEX
  8
0
 62
7
 10
2.67024762
 20
6.80006466
  0
VERTEX
  8
0
 62
7
 10
2.68488809
 20
6.83420904
  0
VERTEX
  8
0
 62
7
 10
2.70351417
 20
6.86630601
  0
VERTEX
  8
0
 62
7
 10
2.72548815
 20
6.89706976
  0
VERTEX
  8
0
 62
7
 10
2.75017235
 20
6.92721453
  0
VERTEX
  8
0
 62
7
 10
2.77692907
 20
6.95745452
  0
VERTEX
  8
0
 62
7
 10
2.80512060
 20
6.98850397
  0
VERTEX
  8
0
 62
7
 10
2.87140126
 20
7.05601504
  0
VERTEX
  8
0
 62
7
 10
2.94445746
 20
7.12390703
  0
VERTEX
  8
0
 62
7
 10
3.01926732
 20
7.18951352
  0
VERTEX
  8
0
 62
7
 10
3.09080898
 20
7.25016809
  0
VERTEX
  8
0
 62
7
 10
3.15681065
 20
7.30339480
  0
VERTEX
  8
0
 62
7
 10
3.22600081
 20
7.35418365
  0
VERTEX
  8
0
 62
7
 10
3.23003292
 20
7.35486295
  0
VERTEX
  8
0
 62
7
 10
3.23498171
 20
7.35199973
  0
VERTEX
  8
0
 62
7
 10
3.24064792
 20
7.34647009
  0
VERTEX
  8
0
 62
7
 10
3.24683225
 20
7.33915015
  0
VERTEX
  8
0
 62
7
 10
3.25333544
 20
7.33091601
  0
VERTEX
  8
0
 62
7
 10
3.25995819
 20
7.32264377
  0
VERTEX
  8
0
 62
7
 10
3.26650123
 20
7.31520956
  0
VERTEX
  8
0
 62
7
 10
3.27276528
 20
7.30948946
  0
VERTEX
  8
0
 62
7
 10
3.28707361
 20
7.30048714
  0
VERTEX
  8
0
 62
7
 10
3.30433129
 20
7.29293230
  0
VERTEX
  8
0
 62
7
 10
3.32238610
 20
7.28674876
  0
VERTEX
  8
0
 62
7
 10
3.33908580
 20
7.28186033
  0
VERTEX
  8
0
 62
7
 10
3.34673816
 20
6.95193600
  0
VERTEX
  8
0
 62
7
 10
3.35864185
 20
6.60494661
  0
VERTEX
  8
0
 62
7
 10
3.36085054
 20
6.59020356
  0
VERTEX
  8
0
 62
7
 10
3.36562994
 20
6.57903161
  0
VERTEX
  8
0
 62
7
 10
3.37212316
 20
6.57164976
  0
VERTEX
  8
0
 62
7
 10
3.37947329
 20
6.56827707
  0
VERTEX
  8
0
 62
7
 10
3.38682342
 20
6.56913254
  0
VERTEX
  8
0
 62
7
 10
3.39331664
 20
6.57443522
  0
VERTEX
  8
0
 62
7
 10
3.39809604
 20
6.58440411
  0
VERTEX
  8
0
 62
7
 10
3.40030473
 20
6.59925826
  0
SEQEND
  0
POLYLINE
  8
0
 62
7
 66
1
 70
1
  0
VERTEX
  8
0
 62
7
 10
2.35126710
 20
7.65443981
  0
VERTEX
  8
0
 62
7
 10
2.43933575
 20
7.65776648
  0
VERTEX
  8
0
 62
7
 10
2.52588987
 20
7.65911238
  0
VERTEX
  8
0
 62
7
 10
2.61419766
 20
7.66015355
  0
VERTEX
  8
0
 62
7
 10
2.70752732
 20
7.66256602
  0
VERTEX
  8
0
 62
7
 10
3.03062727
 20
7.67394272
  0
VERTEX
  8
0
 62
7
 10
3.03576871
 20
7.69049989
  0
VERTEX
  8
0
 62
7
 10
3.04306237
 20
7.70827598
  0
VERTEX
  8
0
 62
7
 10
3.05179085
 20
7.72513788
  0
VERTEX
  8
0
 62
7
 10
3.06123674
 20
7.73895245
  0
VERTEX
  8
0
 62
7
 10
3.06686974
 20
7.74504393
  0
VERTEX
  8
0
 62
7
 10
3.07425640
 20
7.75157347
  0
VERTEX
  8
0
 62
7
 10
3.08251989
 20
7.75829347
  0
VERTEX
  8
0
 62
7
 10
3.09078339
 20
7.76495633
  0
VERTEX
  8
0
 62
7
 10
3.09817005
 20
7.77131446
  0
VERTEX
  8
0
 62
7
 10
3.10380304
 20
7.77712026
  0
VERTEX
  8
0
 62
7
 10
3.10680553
 20
7.78212614
  0
VERTEX
  8
0
 62
7
 10
3.10630069
 20
7.78608449
  0
VERTEX
  8
0
 62
7
 10
3.05507234
 20
7.85536048
  0
VERTEX
  8
0
 62
7
 10
3.00256859
 20
7.92097966
  0
VERTEX
  8
0
 62
7
 10
2.94216006
 20
7.99252845
  0
VERTEX
  8
0
 62
7
 10
2.87641081
 20
8.06735311
  0
VERTEX
  8
0
 62
7
 10
2.80827020
 20
8.14050175
  0
VERTEX
  8
0
 62
7
 10
2.74068758
 20
8.20702244
  0
VERTEX
  8
0
 62
7
 10
2.70954669
 20
8.23517691
  0
VERTEX
  8
0
 62
7
 10
2.67936235
 20
8.26191248
  0
VERTEX
  8
0
 62
7
 10
2.64933744
 20
8.28657205
  0
VERTEX
  8
0
 62
7
 10
2.61867483
 20
8.30849855
  0
VERTEX
  8
0
 62
7
 10
2.58657740
 20
8.32703489
  0
VERTEX
  8
0
 62
7
 10
2.55224803
 20
8.34152399
  0
VERTEX
  8
0
 62
7
 10
2.51488959
 20
8.35130878
  0
VERTEX
  8
0
 62
7
 10
2.47370498
 20
8.35573217
  0
VERTEX
  8
0
 62
7
 10
2.44801275
 20
8.35554489
  0
VERTEX
  8
0
 62
7
 10
2.42217107
 20
8.35347207
  0
VERTEX
  8
0
 62
7
 10
2.39650873
 20
8.34907566
  0
VERTEX
  8
0
 62
7
 10
2.37135456
 20
8.34191761
  0
VERTEX
  8
0
 62
7
 10
2.34703737
 20
8.33155986
  0
VERTEX
  8
0
 62
7
 10
2.32388597
 20
8.31756436
  0
VERTEX
  8
0
 62
7
 10
2.30222917
 20
8.29949305
  0
VERTEX
  8
0
 62
7
 10
2.28239579
 20
8.27690789
  0
VERTEX
  8
0
 62
7
 10
2.25973097
 20
8.24056847
  0
VERTEX
  8
0
 62
7
 10
2.24009520
 20
8.20377195
  0
VERTEX
  8
0
 62
7
 10
2.22141599
 20
8.16697543
  0
VERTEX
  8
0
 62
7
 10
2.20162080
 20
8.13063601
  0
VERTEX
  8
0
 62
7
 10
2.18907942
 20
8.10362905
  0
VERTEX
  8
0
 62
7
 10
2.17781344
 20
8.07608880
  0
VERTEX
  8
0
 62
7
 10
2.16527206
 20
8.04961511
  0
VERTEX
  8
0
 62
7
 10
2.14890449
 20
8.02580784
  0
VERTEX
  8
0
 62
7
 10
2.04857345
 20
7.93073112
  0
VERTEX
  8
0
 62
7
 10
2.03041735
 20
7.91137581
  0
VERTEX
  8
0
 62
7
 10
2.01380567
 20
7.89244903
  0
VERTEX
  8
0
 62
7
 10
1.99908715
 20
7.87323656
  0
VERTEX
  8
0
 62
7
 10
1.98661053
 20
7.85302419
  0
VERTEX
  8
0
 62
7
 10
1.97672456
 20
7.83109769
  0
VERTEX
  8
0
 62
7
 10
1.96977798
 20
7.80674286
  0
VERTEX
  8
0
 62
7
 10
1.96611953
 20
7.77924546
  0
VERTEX
  8
0
 62
7
 10
1.96609794
 20
7.74789128
  0
VERTEX
  8
0
 62
7
 10
1.96901075
 20
7.74816110
  0
VERTEX
  8
0
 62
7
 10
1.97696536
 20
7.74852614
  0
VERTEX
  8
0
 62
7
 10
1.98878601
 20
7.74831981
  0
VERTEX
  8
0
 62
7
 10
2.00329695
 20
7.74687551
  0
VERTEX
  8
0
 62
7
 10
2.01932241
 20
7.74352662
  0
VERTEX
  8
0
 62
7
 10
2.03568665
 20
7.73760654
  0
VERTEX
  8
0
 62
7
 10
2.05121392
 20
7.72844868
  0
VERTEX
  8
0
 62
7
 10
2.06472845
 20
7.71538642
  0
VERTEX
  8
0
 62
7
 10
2.07679156
 20
7.69570574
  0
VERTEX
  8
0
 62
7
 10
2.08343424
 20
7.67556797
  0
VERTEX
  8
0
 62
7
 10
2.08625073
 20
7.65482073
  0
VERTEX
  8
0
 62
7
 10
2.08683529
 20
7.63331165
  0
VERTEX
  8
0
 62
7
 10
2.08625073
 20
7.61156133
  0
VERTEX
  8
0
 62
7
 10
2.08343424
 20
7.59095375
  0
VERTEX
  8
0
 62
7
 10
2.07679156
 20
7.57080328
  0
VERTEX
  8
0
 62
7
 10
2.06472845
 20
7.55042426
  0
VERTEX
  8
0
 62
7
 10
2.05121392
 20
7.53712869
  0
VERTEX
  8
0
 62
7
 10
2.03568665
 20
7.52786131
  0
VERTEX
  8
0
 62
7
 10
2.01932241
 20
7.52192695
  0
VERTEX
  8
0
 62
7
 10
2.00329695
 20
7.51863044
  0
VERTEX
  8
0
 62
7
 10
1.98878601
 20
7.51727660
  0
VERTEX
  8
0
 62
7
 10
1.97696536
 20
7.51717026
  0
VERTEX
  8
0
 62
7
 10
1.96901075
 20
7.51761625
  0
VERTEX
  8
0
 62
7
 10
1.96609794
 20
7.51791939
  0
VERTEX
  8
0
 62
7
 10
1.96611953
 20
7.48679694
  0
VERTEX
  8
0
 62
7
 10
1.96977798
 20
7.45939795
  0
VERTEX
  8
0
 62
7
 10
1.97672456
 20
7.43502724
  0
VERTEX
  8
0
 62
7
 10
1.98661053
 20
7.41298964
  0
VERTEX
  8
0
 62
7
 10
1.99908715
 20
7.39258999
  0
VERTEX
  8
0
 62
7
 10
2.01380567
 20
7.37313310
  0
VERTEX
  8
0
 62
7
 10
2.03041735
 20
7.35392380
  0
VERTEX
  8
0
 62
7
 10
2.04857345
 20
7.33426693
  0
VERTEX
  8
0
 62
7
 10
2.14890449
 20
7.24000284
  0
VERTEX
  8
0
 62
7
 10
2.16528534
 20
7.21655109
  0
VERTEX
  8
0
 62
7
 10
2.17791972
 20
7.19012819
  0
VERTEX
  8
0
 62
7
 10
2.18943813
 20
7.16263873
  0
VERTEX
  8
0
 62
7
 10
2.20247106
 20
7.13598728
  0
VERTEX
  8
0
 62
7
 10
2.22189426
 20
7.09907649
  0
VERTEX
  8
0
 62
7
 10
2.24052034
 20
7.06193715
  0
VERTEX
  8
0
 62
7
 10
2.26010296
 20
7.02525491
  0
VERTEX
  8
0
 62
7
 10
2.28239579
 20
6.98971541
  0
VERTEX
  8
0
 62
7
 10
2.30223083
 20
6.96686043
  0
VERTEX
  8
0
 62
7
 10
2.32389926
 20
6.94857645
  0
VERTEX
  8
0
 62
7
 10
2.34708221
 20
6.93440636
  0
VERTEX
  8
0
 62
7
 10
2.37146085
 20
6.92389307
  0
VERTEX
  8
0
 62
7
 10
2.39671632
 20
6.91657948
  0
VERTEX
  8
0
 62
7
 10
2.42252977
 20
6.91200848
  0
VERTEX
  8
0
 62
7
 10
2.44858236
 20
6.90972298
  0
VERTEX
  8
0
 62
7
 10
2.47455524
 20
6.90926588
  0
VERTEX
  8
0
 62
7
 10
2.51497097
 20
6.91419081
  0
VERTEX
  8
0
 62
7
 10
2.55188932
 20
6.92428668
  0
VERTEX
  8
0
 62
7
 10
2.58603768
 20
6.93893450
  0
VERTEX
  8
0
 62
7
 10
2.61814341
 20
6.95751529
  0
VERTEX
  8
0
 62
7
 10
2.64893390
 20
6.97941004
  0
VERTEX
  8
0
 62
7
 10
2.67913650
 20
7.00399978
  0
VERTEX
  8
0
 62
7
 10
2.70947860
 20
7.03066551
  0
VERTEX
  8
0
 62
7
 10
2.74068758
 20
7.05878824
  0
VERTEX
  8
0
 62
7
 10
2.80815063
 20
7.12530893
  0
VERTEX
  8
0
 62
7
 10
2.87609197
 20
7.19845756
  0
VERTEX
  8
0
 62
7
 10
2.94180136
 20
7.27328223
  0
VERTEX
  8
0
 62
7
 10
3.00256859
 20
7.34483101
  0
VERTEX
  8
0
 62
7
 10
3.05571003
 20
7.41075493
  0
VERTEX
  8
0
 62
7
 10
3.10630069
 20
7.47972618
  0
VERTEX
  8
0
 62
7
 10
3.10684040
 20
7.48388452
  0
VERTEX
  8
0
 62
7
 10
3.10392261
 20
7.48891896
  0
VERTEX
  8
0
 62
7
 10
3.09839424
 20
7.49463906
  0
VERTEX
  8
0
 62
7
 10
3.09110223
 20
7.50085434
  0
VERTEX
  8
0
 62
7
 10
3.08289354
 20
7.50737436
  0
VERTEX
  8
0
 62
7
 10
3.07461510
 20
7.51400865
  0
VERTEX
  8
0
 62
7
 10
3.06711386
 20
7.52056676
  0
VERTEX
  8
0
 62
7
 10
3.06123674
 20
7.52685823
  0
VERTEX
  8
0
 62
7
 10
3.05232227
 20
7.54114259
  0
VERTEX
  8
0
 62
7
 10
3.04476290
 20
7.55824574
  0
VERTEX
  8
0
 62
7
 10
3.03863835
 20
7.57611071
  0
VERTEX
  8
0
 62
7
 10
3.03402833
 20
7.59268057
  0
VERTEX
  8
0
 62
7
 10
2.70412626
 20
7.60080679
  0
VERTEX
  8
0
 62
7
 10
2.35721894
 20
7.61299611
  0
VERTEX
  8
0
 62
7
 10
2.34238583
 20
7.61517686
  0
VERTEX
  8
0
 62
7
 10
2.33117963
 20
7.61992879
  0
VERTEX
  8
0
 62
7
 10
2.32379962
 20
7.62639484
  0
VERTEX
  8
0
 62
7
 10
2.32044506
 20
7.63371796
  0
VERTEX
  8
0
 62
7
 10
2.32131525
 20
7.64104108
  0
VERTEX
  8
0
 62
7
 10
2.32660947
 20
7.64750713
  0
VERTEX
  8
0
 62
7
 10
2.33652699
 20
7.65225906
  0
VERTEX
  8
0
 62
7
 10
2.35126710
 20
7.65443981
  0
SEQEND
  0
POLYLINE
  8
0
 62
7
 66
1
 70
1
  0
VERTEX
  8
0
 62
7
 10
4.41873290
 20
7.65543981
  0
VERTEX
  8
0
 62
7
 10
4.33066425
 20
7.65876648
  0
VERTEX
  8
0
 62
7
 10
4.24411013
 20
7.66011238
  0
VERTEX
  8
0
 62
7
 10
4.15580234
 20
7.66115355
  0
VERTEX
  8
0
 62
7
 10
4.06247268
 20
7.66356602
  0
VERTEX
  8
0
 62
7
 10
3.73937273
 20
7.67494272
  0
VERTEX
  8
0
 62
7
 10
3.73423129
 20
7.69149989
  0
VERTEX
  8
0
 62
7
 10
3.72693763
 20
7.70927598
  0
VERTEX
  8
0
 62
7
 10
3.71820915
 20
7.72613788
  0
VERTEX
  8
0
 62
7
 10
3.70876326
 20
7.73995245
  0
VERTEX
  8
0
 62
7
 10
3.70313026
 20
7.74604393
  0
VERTEX
  8
0
 62
7
 10
3.69574360
 20
7.75257347
  0
VERTEX
  8
0
 62
7
 10
3.68748011
 20
7.75929347
  0
VERTEX
  8
0
 62
7
 10
3.67921661
 20
7.76595633
  0
VERTEX
  8
0
 62
7
 10
3.67182995
 20
7.77231446
  0
VERTEX
  8
0
 62
7
 10
3.66619696
 20
7.77812026
  0
VERTEX
  8
0
 62
7
 10
3.66319447
 20
7.78312614
  0
VERTEX
  8
0
 62
7
 10
3.66369931
 20
7.78708449
  0
VERTEX
  8
0
 62
7
 10
3.71492766
 20
7.85636048
  0
VERTEX
  8
0
 62
7
 10
3.76743141
 20
7.92197966
  0
VERTEX
  8
0
 62
7
 10
3.82783994
 20
7.99352845
  0
VERTEX
  8
0
 62
7
 10
3.89358919
 20
8.06835311
  0
VERTEX
  8
0
 62
7
 10
3.96172980
 20
8.14150175
  0
VERTEX
  8
0
 62
7
 10
4.02931242
 20
8.20802244
  0
VERTEX
  8
0
 62
7
 10
4.06045331
 20
8.23617691
  0
VERTEX
  8
0
 62
7
 10
4.09063765
 20
8.26291248
  0
VERTEX
  8
0
 62
7
 10
4.12066256
 20
8.28757205
  0
VERTEX
  8
0
 62
7
 10
4.15132517
 20
8.30949855
  0
VERTEX
  8
0
 62
7
 10
4.18342260
 20
8.32803489
  0
VERTEX
  8
0
 62
7
 10
4.21775197
 20
8.34252399
  0
VERTEX
  8
0
 62
7
 10
4.25511041
 20
8.35230878
  0
VERTEX
  8
0
 62
7
 10
4.29629502
 20
8.35673217
  0
VERTEX
  8
0
 62
7
 10
4.32198725
 20
8.35654489
  0
VERTEX
  8
0
 62
7
 10
4.34782893
 20
8.35447207
  0
VERTEX
  8
0
 62
7
 10
4.37349127
 20
8.35007566
  0
VERTEX
  8
0
 62
7
 10
4.39864544
 20
8.34291761
  0
VERTEX
  8
0
 62
7
 10
4.42296263
 20
8.33255986
  0
VERTEX
  8
0
 62
7
 10
4.44611403
 20
8.31856436
  0
VERTEX
  8
0
 62
7
 10
4.46777083
 20
8.30049305
  0
VERTEX
  8
0
 62
7
 10
4.48760421
 20
8.27790789
  0
VERTEX
  8
0
 62
7
 10
4.51026903
 20
8.24156847
  0
VERTEX
  8
0
 62
7
 10
4.52990480
 20
8.20477195
  0
VERTEX
  8
0
 62
7
 10
4.54858401
 20
8.16797543
  0
VERTEX
  8
0
 62
7
 10
4.56837920
 20
8.13163601
  0
VERTEX
  8
0
 62
7
 10
4.58092058
 20
8.10462905
  0
VERTEX
  8
0
 62
7
 10
4.59218656
 20
8.07708880
  0
VERTEX
  8
0
 62
7
 10
4.60472794
 20
8.05061511
  0
VERTEX
  8
0
 62
7
 10
4.62109551
 20
8.02680784
  0
VERTEX
  8
0
 62
7
 10
4.72142655
 20
7.93173112
  0
VERTEX
  8
0
 62
7
 10
4.73958265
 20
7.91237581
  0
VERTEX
  8
0
 62
7
 10
4.75619433
 20
7.89344903
  0
VERTEX
  8
0
 62
7
 10
4.77091285
 20
7.87423656
  0
VERTEX
  8
0
 62
7
 10
4.78338947
 20
7.85402419
  0
VERTEX
  8
0
 62
7
 10
4.79327544
 20
7.83209769
  0
VERTEX
  8
0
 62
7
 10
4.80022202
 20
7.80774286
  0
VERTEX
  8
0
 62
7
 10
4.80388047
 20
7.78024546
  0
VERTEX
  8
0
 62
7
 10
4.80390206
 20
7.74889128
  0
VERTEX
  8
0
 62
7
 10
4.80098925
 20
7.74916110
  0
VERTEX
  8
0
 62
7
 10
4.79303464
 20
7.74952614
  0
VERTEX
  8
0
 62
7
 10
4.78121399
 20
7.74931981
  0
VERTEX
  8
0
 62
7
 10
4.76670305
 20
7.74787551
  0
VERTEX
  8
0
 62
7
 10
4.75067759
 20
7.74452662
  0
VERTEX
  8
0
 62
7
 10
4.73431335
 20
7.73860654
  0
VERTEX
  8
0
 62
7
 10
4.71878608
 20
7.72944868
  0
VERTEX
  8
0
 62
7
 10
4.70527155
 20
7.71638642
  0
VERTEX
  8
0
 62
7
 10
4.69320844
 20
7.69670574
  0
VERTEX
  8
0
 62
7
 10
4.68656576
 20
7.67656797
  0
VERTEX
  8
0
 62
7
 10
4.68374927
 20
7.65582073
  0
VERTEX
  8
0
 62
7
 10
4.68316471
 20
7.63431165
  0
VERTEX
  8
0
 62
7
 10
4.68374927
 20
7.61256133
  0
VERTEX
  8
0
 62
7
 10
4.68656576
 20
7.59195375
  0
VERTEX
  8
0
 62
7
 10
4.69320844
 20
7.57180328
  0
VERTEX
  8
0
 62
7
 10
4.70527155
 20
7.55142426
  0
VERTEX
  8
0
 62
7
 10
4.71878608
 20
7.53812869
  0
VERTEX
  8
0
 62
7
 10
4.73431335
 20
7.52886131
  0
VERTEX
  8
0
 62
7
 10
4.75067759
 20
7.52292695
  0
VERTEX
  8
0
 62
7
 10
4.76670305
 20
7.51963044
  0
VERTEX
  8
0
 62
7
 10
4.78121399
 20
7.51827660
  0
VERTEX
  8
0
 62
7
 10
4.79303464
 20
7.51817026
  0
VERTEX
  8
0
 62
7
 10
4.80098925
 20
7.51861625
  0
VERTEX
  8
0
 62
7
 10
4.80390206
 20
7.51891939
  0
VERTEX
  8
0
 62
7
 10
4.80388047
 20
7.48779694
  0
VERTEX
  8
0
 62
7
 10
4.80022202
 20
7.46039795
  0
VERTEX
  8
0
 62
7
 10
4.79327544
 20
7.43602724
  0
VERTEX
  8
0
 62
7
 10
4.78338947
 20
7.41398964
  0
VERTEX
  8
0
 62
7
 10
4.77091285
 20
7.39358999
  0
VERTEX
  8
0
 62
7
 10
4.75619433
 20
7.37413310
  0
VERTEX
  8
0
 62
7
 10
4.73958265
 20
7.35492380
  0
VERTEX
  8
0
 62
7
 10
4.72142655
 20
7.33526693
  0
VERTEX
  8
0
 62
7
 10
4.62109551
 20
7.24100284
  0
VERTEX
  8
0
 62
7
 10
4.60471466
 20
7.21755109
  0
VERTEX
  8
0
 62
7
 10
4.59208028
 20
7.19112819
  0
VERTEX
  8
0
 62
7
 10
4.58056187
 20
7.16363873
  0
VERTEX
  8
0
 62
7
 10
4.56752894
 20
7.13698728
  0
VERTEX
  8
0
 62
7
 10
4.54810574
 20
7.10007649
  0
VERTEX
  8
0
 62
7
 10
4.52947966
 20
7.06293715
  0
VERTEX
  8
0
 62
7
 10
4.50989704
 20
7.02625491
  0
VERTEX
  8
0
 62
7
 10
4.48760421
 20
6.99071541
  0
VERTEX
  8
0
 62
7
 10
4.46776917
 20
6.96786043
  0
VERTEX
  8
0
 62
7
 10
4.44610074
 20
6.94957645
  0
VERTEX
  8
0
 62
7
 10
4.42291779
 20
6.93540636
  0
VERTEX
  8
0
 62
7
 10
4.39853915
 20
6.92489307
  0
VERTEX
  8
0
 62
7
 10
4.37328368
 20
6.91757948
  0
VERTEX
  8
0
 62
7
 10
4.34747023
 20
6.91300848
  0
VERTEX
  8
0
 62
7
 10
4.32141764
 20
6.91072298
  0
VERTEX
  8
0
 62
7
 10
4.29544476
 20
6.91026588
  0
VERTEX
  8
0
 62
7
 10
4.25502903
 20
6.91519081
  0
VERTEX
  8
0
 62
7
 10
4.21811068
 20
6.92528668
  0
VERTEX
  8
0
 62
7
 10
4.18396232
 20
6.93993450
  0
VERTEX
  8
0
 62
7
 10
4.15185659
 20
6.95851529
  0
VERTEX
  8
0
 62
7
 10
4.12106610
 20
6.98041004
  0
VERTEX
  8
0
 62
7
 10
4.09086350
 20
7.00499978
  0
VERTEX
  8
0
 62
7
 10
4.06052140
 20
7.03166551
  0
VERTEX
  8
0
 62
7
 10
4.02931242
 20
7.05978824
  0
VERTEX
  8
0
 62
7
 10
3.96184937
 20
7.12630893
  0
VERTEX
  8
0
 62
7
 10
3.89390803
 20
7.19945756
  0
VERTEX
  8
0
 62
7
 10
3.82819864
 20
7.27428223
  0
VERTEX
  8
0
 62
7
 10
3.76743141
 20
7.34583101
  0
VERTEX
  8
0
 62
7
 10
3.71428997
 20
7.41175493
  0
VERTEX
  8
0
 62
7
 10
3.66369931
 20
7.48072618
  0
VERTEX
  8
0
 62
7
 10
3.66315960
 20
7.48488452
  0
VERTEX
  8
0
 62
7
 10
3.66607739
 20
7.48991896
  0
VERTEX
  8
0
 62
7
 10
3.67160576
 20
7.49563906
  0
VERTEX
  8
0
 62
7
 10
3.67889777
 20
7.50185434
  0
VERTEX
  8
0
 62
7
 10
3.68710646
 20
7.50837436
  0
VERTEX
  8
0
 62
7
 10
3.69538490
 20
7.51500865
  0
VERTEX
  8
0
 62
7
 10
3.70288614
 20
7.52156676
  0
VERTEX
  8
0
 62
7
 10
3.70876326
 20
7.52785823
  0
VERTEX
  8
0
 62
7
 10
3.71767773
 20
7.54214259
  0
VERTEX
  8
0
 62
7
 10
3.72523710
 20
7.55924574
  0
VERTEX
  8
0
 62
7
 10
3.73136165
 20
7.57711071
  0
VERTEX
  8
0
 62
7
 10
3.73597167
 20
7.59368057
  0
VERTEX
  8
0
 62
7
 10
4.06587374
 20
7.60180679
  0
VERTEX
  8
0
 62
7
 10
4.41278106
 20
7.61399611
  0
VERTEX
  8
0
 62
7
 10
4.42761417
 20
7.61617686
  0
VERTEX
  8
0
 62
7
 10
4.43882037
 20
7.62092879
  0
VERTEX
  8
0
 62
7
 10
4.44620038
 20
7.62739484
  0
VERTEX
  8
0
 62
7
 10
4.44955494
 20
7.63471796
  0
VERTEX
  8
0
 62
7
 10
4.44868475
 20
7.64204108
  0
VERTEX
  8
0
 62
7
 10
4.44339053
 20
7.64850713
  0
VERTEX
  8
0
 62
7
 10
4.43347301
 20
7.65325906
  0
VERTEX
  8
0
 62
7
 10
4.41873290
 20
7.65543981
  0
SEQEND
  0
POLYLINE
  8
0
 62
7
 66
1
 70
1
  0
VERTEX
  8
0
 62
7
 10
38.59969527
 20
8.66674174
  0
VERTEX
  8
0
 62
7
 10
38.59621450
 20
8.57855961
  0
VERTEX
  8
0
 62
7
 10
38.59480625
 20
8.49212969
  0
VERTEX
  8
0
 62
7
 10
38.59371685
 20
8.40402374
  0
VERTEX
  8
0
 62
7
 10
38.59119263
 20
8.31081352
  0
VERTEX
  8
0
 62
7
 10
38.58013921
 20
7.98739015
  0
VERTEX
  8
0
 62
7
 10
38.56357237
 20
7.98233666
  0
VERTEX
  8
0
 62
7
 10
38.54580984
 20
7.97499768
  0
VERTEX
  8
0
 62
7
 10
38.52884444
 20
7.96613502
  0
VERTEX
  8
0
 62
7
 10
38.51466896
 20
7.95651054
  0
VERTEX
  8
0
 62
7
 10
38.50864903
 20
7.95102375
  0
VERTEX
  8
0
 62
7
 10
38.50222058
 20
7.94369905
  0
VERTEX
  8
0
 62
7
 10
38.49561277
 20
7.93544110
  0
VERTEX
  8
0
 62
7
 10
38.48905479
 20
7.92715458
  0
VERTEX
  8
0
 62
7
 10
38.48277579
 20
7.91974417
  0
VERTEX
  8
0
 62
7
 10
38.47700496
 20
7.91411455
  0
VERTEX
  8
0
 62
7
 10
38.47197147
 20
7.91117038
  0
VERTEX
  8
0
 62
7
 10
38.46790449
 20
7.91181635
  0
VERTEX
  8
0
 62
7
 10
38.39871434
 20
7.96321466
  0
VERTEX
  8
0
 62
7
 10
38.33271267
 20
8.01583191
  0
VERTEX
  8
0
 62
7
 10
38.26117100
 20
8.07614366
  0
VERTEX
  8
0
 62
7
 10
38.18636114
 20
8.14178824
  0
VERTEX
  8
0
 62
7
 10
38.11330494
 20
8.20987069
  0
VERTEX
  8
0
 62
7
 10
38.04702428
 20
8.27749603
  0
VERTEX
  8
0
 62
7
 10
38.01883441
 20
8.30848040
  0
VERTEX
  8
0
 62
7
 10
37.99208932
 20
8.33856962
  0
VERTEX
  8
0
 62
7
 10
37.96743667
 20
8.36854456
  0
VERTEX
  8
0
 62
7
 10
37.94552413
 20
8.39918610
  0
VERTEX
  8
0
 62
7
 10
37.92699936
 20
8.43127513
  0
VERTEX
  8
0
 62
7
 10
37.91251001
 20
8.46559252
  0
VERTEX
  8
0
 62
7
 10
37.90270375
 20
8.50291915
  0
VERTEX
  8
0
 62
7
 10
37.89822825
 20
8.54403589
  0
VERTEX
  8
0
 62
7
 10
37.89838269
 20
8.56980805
  0
VERTEX
  8
0
 62
7
 10
37.90042033
 20
8.59571354
  0
VERTEX
  8
0
 62
7
 10
37.90478956
 20
8.62142857
  0
VERTEX
  8
0
 62
7
 10
37.91193874
 20
8.64662935
  0
VERTEX
  8
0
 62
7
 10
37.92231627
 20
8.67099213
  0
VERTEX
  8
0
 62
7
 10
37.93637052
 20
8.69419311
  0
VERTEX
  8
0
 62
7
 10
37.95454987
 20
8.71590851
  0
VERTEX
  8
0
 62
7
 10
37.97730271
 20
8.73581457
  0
VERTEX
  8
0
 62
7
 10
38.01342561
 20
8.75855527
  0
VERTEX
  8
0
 62
7
 10
38.05010649
 20
8.77817246
  0
VERTEX
  8
0
 62
7
 10
38.08694679
 20
8.79672309
  0
VERTEX
  8
0
 62
7
 10
38.12354796
 20
8.81626410
  0
VERTEX
  8
0
 62
7
 10
38.15053052
 20
8.82885973
  0
VERTEX
  8
0
 62
7
 10
38.17807108
 20
8.84023643
  0
VERTEX
  8
0
 62
7
 10
38.20449566
 20
8.85283206
  0
VERTEX
  8
0
 62
7
 10
38.22813031
 20
8.86908449
  0
VERTEX
  8
0
 62
7
 10
38.32335977
 20
8.96903694
  0
VERTEX
  8
0
 62
7
 10
38.34268831
 20
8.98726379
  0
VERTEX
  8
0
 62
7
 10
38.36160833
 20
9.00392888
  0
VERTEX
  8
0
 62
7
 10
38.38082726
 20
9.01868938
  0
VERTEX
  8
0
 62
7
 10
38.40105256
 20
9.03120249
  0
VERTEX
  8
0
 62
7
 10
38.42299167
 20
9.04112536
  0
VERTEX
  8
0
 62
7
 10
38.44735204
 20
9.04811517
  0
VERTEX
  8
0
 62
7
 10
38.47484111
 20
9.05182910
  0
VERTEX
  8
0
 62
7
 10
38.50616633
 20
9.05192433
  0
VERTEX
  8
0
 62
7
 10
38.50588069
 20
9.04899921
  0
VERTEX
  8
0
 62
7
 10
38.50547549
 20
9.04101743
  0
VERTEX
  8
0
 62
7
 10
38.50562827
 20
9.02916934
  0
VERTEX
  8
0
 62
7
 10
38.50701659
 20
9.01464532
  0
VERTEX
  8
0
 62
7
 10
38.51031800
 20
8.99863573
  0
VERTEX
  8
0
 62
7
 10
38.51621006
 20
8.98233092
  0
VERTEX
  8
0
 62
7
 10
38.52537032
 20
8.96692127
  0
VERTEX
  8
0
 62
7
 10
38.53847633
 20
8.95359713
  0
VERTEX
  8
0
 62
7
 10
38.55829808
 20
8.94147129
  0
VERTEX
  8
0
 62
7
 10
38.57843869
 20
8.93460210
  0
VERTEX
  8
0
 62
7
 10
38.59921699
 20
8.93154207
  0
VERTEX
  8
0
 62
7
 10
38.62095184
 20
8.93084373
  0
VERTEX
  8
0
 62
7
 10
38.64256712
 20
8.93154207
  0
VERTEX
  8
0
 62
7
 10
38.66314615
 20
8.93460210
  0
VERTEX
  8
0
 62
7
 10
38.68324690
 20
8.94147129
  0
VERTEX
  8
0
 62
7
 10
38.70342736
 20
8.95359713
  0
VERTEX
  8
0
 62
7
 10
38.71677748
 20
8.96692127
  0
VERTEX
  8
0
 62
7
 10
38.72605233
 20
8.98233092
  0
VERTEX
  8
0
 62
7
 10
38.73195933
 20
8.99863573
  0
VERTEX
  8
0
 62
7
 10
38.73520594
 20
9.01464532
  0
VERTEX
  8
0
 62
7
 10
38.73649960
 20
9.02916934
  0
VERTEX
  8
0
 62
7
 10
38.73654776
 20
9.04101743
  0
VERTEX
  8
0
 62
7
 10
38.73605786
 20
9.04899921
  0
VERTEX
  8
0
 62
7
 10
38.73573735
 20
9.05192433
  0
VERTEX
  8
0
 62
7
 10
38.76706423
 20
9.05183069
  0
VERTEX
  8
0
 62
7
 10
38.79456493
 20
9.04812787
  0
VERTEX
  8
0
 62
7
 10
38.81895685
 20
9.04116821
  0
VERTEX
  8
0
 62
7
 10
38.84095741
 20
9.03130406
  0
VERTEX
  8
0
 62
7
 10
38.86128401
 20
9.01888778
  0
VERTEX
  8
0
 62
7
 10
38.88065406
 20
9.00427170
  0
VERTEX
  8
0
 62
7
 10
38.89978498
 20
8.98780818
  0
VERTEX
  8
0
 62
7
 10
38.91939417
 20
8.96984956
  0
VERTEX
  8
0
 62
7
 10
38.94119545
 20
8.94656288
  0
VERTEX
  8
0
 62
7
 10
38.96498953
 20
8.91946703
  0
VERTEX
  8
0
 62
7
 10
38.98958073
 20
8.89237118
  0
VERTEX
  8
0
 62
7
 10
39.01377337
 20
8.86908449
  0
VERTEX
  8
0
 62
7
 10
39.03740803
 20
8.85281937
  0
VERTEX
  8
0
 62
7
 10
39.06383261
 20
8.84013485
  0
VERTEX
  8
0
 62
7
 10
39.09137316
 20
8.82851690
  0
VERTEX
  8
0
 62
7
 10
39.11835573
 20
8.81545147
  0
VERTEX
  8
0
 62
7
 10
39.15507646
 20
8.79626599
  0
VERTEX
  8
0
 62
7
 10
39.19211605
 20
8.77776615
  0
VERTEX
  8
0
 62
7
 10
39.22883678
 20
8.75819975
  0
VERTEX
  8
0
 62
7
 10
39.26460097
 20
8.73581457
  0
VERTEX
  8
0
 62
7
 10
39.28735547
 20
8.71590693
  0
VERTEX
  8
0
 62
7
 10
39.30554645
 20
8.69418041
  0
VERTEX
  8
0
 62
7
 10
39.31963225
 20
8.67094928
  0
VERTEX
  8
0
 62
7
 10
39.33007122
 20
8.64652778
  0
VERTEX
  8
0
 62
7
 10
39.33732171
 20
8.62123017
  0
VERTEX
  8
0
 62
7
 10
39.34184205
 20
8.59537071
  0
VERTEX
  8
0
 62
7
 10
39.34409060
 20
8.56926366
  0
VERTEX
  8
0
 62
7
 10
39.34452570
 20
8.54322327
  0
VERTEX
  8
0
 62
7
 10
39.33976954
 20
8.50284137
  0
VERTEX
  8
0
 62
7
 10
39.32975238
 20
8.46593534
  0
VERTEX
  8
0
 62
7
 10
39.31511191
 20
8.43179096
  0
VERTEX
  8
0
 62
7
 10
39.29648583
 20
8.39969399
  0
VERTEX
  8
0
 62
7
 10
39.27451185
 20
8.36893024
  0
VERTEX
  8
0
 62
7
 10
39.24982765
 20
8.33878547
  0
VERTEX
  8
0
 62
7
 10
39.22307093
 20
8.30854548
  0
VERTEX
  8
0
 62
7
 10
39.19487940
 20
8.27749603
  0
VERTEX
  8
0
 62
7
 10
39.12859874
 20
8.20998496
  0
VERTEX
  8
0
 62
7
 10
39.05554254
 20
8.14209297
  0
VERTEX
  8
0
 62
7
 10
38.98073268
 20
8.07648648
  0
VERTEX
  8
0
 62
7
 10
38.90919102
 20
8.01583191
  0
VERTEX
  8
0
 62
7
 10
38.84318935
 20
7.96260520
  0
VERTEX
  8
0
 62
7
 10
38.77399919
 20
7.91181635
  0
VERTEX
  8
0
 62
7
 10
38.76996708
 20
7.91113705
  0
VERTEX
  8
0
 62
7
 10
38.76501829
 20
7.91400027
  0
VERTEX
  8
0
 62
7
 10
38.75935208
 20
7.91952991
  0
VERTEX
  8
0
 62
7
 10
38.75316775
 20
7.92684985
  0
VERTEX
  8
0
 62
7
 10
38.74666456
 20
7.93508399
  0
VERTEX
  8
0
 62
7
 10
38.74004181
 20
7.94335623
  0
VERTEX
  8
0
 62
7
 10
38.73349877
 20
7.95079044
  0
VERTEX
  8
0
 62
7
 10
38.72723472
 20
7.95651054
  0
VERTEX
  8
0
 62
7
 10
38.71292639
 20
7.96551286
  0
VERTEX
  8
0
 62
7
 10
38.69566871
 20
7.97306770
  0
VERTEX
  8
0
 62
7
 10
38.67761390
 20
7.97925124
  0
VERTEX
  8
0
 62
7
 10
38.66091420
 20
7.98413967
  0
VERTEX
  8
0
 62
7
 10
38.65326184
 20
8.31406400
  0
VERTEX
  8
0
 62
7
 10
38.64135815
 20
8.66105339
  0
VERTEX
  8
0
 62
7
 10
38.63914946
 20
8.67579644
  0
VERTEX
  8
0
 62
7
 10
38.63437006
 20
8.68696839
  0
VERTEX
  8
0
 62
7
 10
38.62787684
 20
8.69435024
  0
VERTEX
  8
0
 62
7
 10
38.62052671
 20
8.69772293
  0
VERTEX
  8
0
 62
7
 10
38.61317658
 20
8.69686746
  0
VERTEX
  8
0
 62
7
 10
38.60668336
 20
8.69156478
  0
VERTEX
  8
0
 62
7
 10
38.60190396
 20
8.68159589
  0
VERTEX
  8
0
 62
7
 10
38.59969527
 20
8.66674174
  0
SEQEND
  0
POLYLINE
  8
0
 62
7
 66
1
 70
1
  0
VERTEX
  8
0
 62
7
 10
38.59969527
 20
6.59925826
  0
VERTEX
  8
0
 62
7
 10
38.59621450
 20
6.68744039
  0
VERTEX
  8
0
 62
7
 10
38.59480625
 20
6.77387031
  0
VERTEX
  8
0
 62
7
 10
38.59371685
 20
6.86197626
  0
VERTEX
  8
0
 62
7
 10
38.59119263
 20
6.95518648
  0
VERTEX
  8
0
 62
7
 10
38.58013921
 20
7.27860985
  0
VERTEX
  8
0
 62
7
 10
38.56357237
 20
7.28366334
  0
VERTEX
  8
0
 62
7
 10
38.54580984
 20
7.29100232
  0
VERTEX
  8
0
 62
7
 10
38.52884444
 20
7.29986498
  0
VERTEX
  8
0
 62
7
 10
38.51466896
 20
7.30948946
  0
VERTEX
  8
0
 62
7
 10
38.50864903
 20
7.31497625
  0
VERTEX
  8
0
 62
7
 10
38.50222058
 20
7.32230095
  0
VERTEX
  8
0
 62
7
 10
38.49561277
 20
7.33055890
  0
VERTEX
  8
0
 62
7
 10
38.48905479
 20
7.33884542
  0
VERTEX
  8
0
 62
7
 10
38.48277579
 20
7.34625583
  0
VERTEX
  8
0
 62
7
 10
38.47700496
 20
7.35188545
  0
VERTEX
  8
0
 62
7
 10
38.47197147
 20
7.35482962
  0
VERTEX
  8
0
 62
7
 10
38.46790449
 20
7.35418365
  0
VERTEX
  8
0
 62
7
 10
38.39871434
 20
7.30278534
  0
VERTEX
  8
0
 62
7
 10
38.33271267
 20
7.25016809
  0
VERTEX
  8
0
 62
7
 10
38.26117100
 20
7.18985634
  0
VERTEX
  8
0
 62
7
 10
38.18636114
 20
7.12421176
  0
VERTEX
  8
0
 62
7
 10
38.11330494
 20
7.05612931
  0
VERTEX
  8
0
 62
7
 10
38.04702428
 20
6.98850397
  0
VERTEX
  8
0
 62
7
 10
38.01883441
 20
6.95751960
  0
VERTEX
  8
0
 62
7
 10
37.99208932
 20
6.92743038
  0
VERTEX
  8
0
 62
7
 10
37.96743667
 20
6.89745544
  0
VERTEX
  8
0
 62
7
 10
37.94552413
 20
6.86681390
  0
VERTEX
  8
0
 62
7
 10
37.92699936
 20
6.83472487
  0
VERTEX
  8
0
 62
7
 10
37.91251001
 20
6.80040748
  0
VERTEX
  8
0
 62
7
 10
37.90270375
 20
6.76308085
  0
VERTEX
  8
0
 62
7
 10
37.89822825
 20
6.72196411
  0
VERTEX
  8
0
 62
7
 10
37.89838269
 20
6.69619195
  0
VERTEX
  8
0
 62
7
 10
37.90042033
 20
6.67028646
  0
VERTEX
  8
0
 62
7
 10
37.90478956
 20
6.64457143
  0
VERTEX
  8
0
 62
7
 10
37.91193874
 20
6.61937065
  0
VERTEX
  8
0
 62
7
 10
37.92231627
 20
6.59500787
  0
VERTEX
  8
0
 62
7
 10
37.93637052
 20
6.57180689
  0
VERTEX
  8
0
 62
7
 10
37.95454987
 20
6.55009149
  0
VERTEX
  8
0
 62
7
 10
37.97730271
 20
6.53018543
  0
VERTEX
  8
0
 62
7
 10
38.01342561
 20
6.50744473
  0
VERTEX
  8
0
 62
7
 10
38.05010649
 20
6.48782754
  0
VERTEX
  8
0
 62
7
 10
38.08694679
 20
6.46927691
  0
VERTEX
  8
0
 62
7
 10
38.12354796
 20
6.44973590
  0
VERTEX
  8
0
 62
7
 10
38.15053052
 20
6.43714027
  0
VERTEX
  8
0
 62
7
 10
38.17807108
 20
6.42576357
  0
VERTEX
  8
0
 62
7
 10
38.20449566
 20
6.41316794
  0
VERTEX
  8
0
 62
7
 10
38.22813031
 20
6.39691551
  0
VERTEX
  8
0
 62
7
 10
38.32335977
 20
6.29696306
  0
VERTEX
  8
0
 62
7
 10
38.34268831
 20
6.27873621
  0
VERTEX
  8
0
 62
7
 10
38.36160833
 20
6.26207112
  0
VERTEX
  8
0
 62
7
 10
38.38082726
 20
6.24731062
  0
VERTEX
  8
0
 62
7
 10
38.40105256
 20
6.23479751
  0
VERTEX
  8
0
 62
7
 10
38.42299167
 20
6.22487464
  0
VERTEX
  8
0
 62
7
 10
38.44735204
 20
6.21788483
  0
VERTEX
  8
0
 62
7
 10
38.47484111
 20
6.21417090
  0
VERTEX
  8
0
 62
7
 10
38.50616633
 20
6.21407567
  0
VERTEX
  8
0
 62
7
 10
38.50588069
 20
6.21700079
  0
VERTEX
  8
0
 62
7
 10
38.50547549
 20
6.22498257
  0
VERTEX
  8
0
 62
7
 10
38.50562827
 20
6.23683066
  0
VERTEX
  8
0
 62
7
 10
38.50701659
 20
6.25135468
  0
VERTEX
  8
0
 62
7
 10
38.51031800
 20
6.26736427
  0
VERTEX
  8
0
 62
7
 10
38.51621006
 20
6.28366908
  0
VERTEX
  8
0
 62
7
 10
38.52537032
 20
6.29907873
  0
VERTEX
  8
0
 62
7
 10
38.53847633
 20
6.31240287
  0
VERTEX
  8
0
 62
7
 10
38.55829808
 20
6.32452871
  0
VERTEX
  8
0
 62
7
 10
38.57843869
 20
6.33139790
  0
VERTEX
  8
0
 62
7
 10
38.59921699
 20
6.33445793
  0
VERTEX
  8
0
 62
7
 10
38.62095184
 20
6.33515627
  0
VERTEX
  8
0
 62
7
 10
38.64256712
 20
6.33445793
  0
VERTEX
  8
0
 62
7
 10
38.66314615
 20
6.33139790
  0
VERTEX
  8
0
 62
7
 10
38.68324690
 20
6.32452871
  0
VERTEX
  8
0
 62
7
 10
38.70342736
 20
6.31240287
  0
VERTEX
  8
0
 62
7
 10
38.71677748
 20
6.29907873
  0
VERTEX
  8
0
 62
7
 10
38.72605233
 20
6.28366908
  0
VERTEX
  8
0
 62
7
 10
38.73195933
 20
6.26736427
  0
VERTEX
  8
0
 62
7
 10
38.73520594
 20
6.25135468
  0
VERTEX
  8
0
 62
7
 10
38.73649960
 20
6.23683066
  0
VERTEX
  8
0
 62
7
 10
38.73654776
 20
6.22498257
  0
VERTEX
  8
0
 62
7
 10
38.73605786
 20
6.21700079
  0
VERTEX
  8
0
 62
7
 10
38.73573735
 20
6.21407567
  0
VERTEX
  8
0
 62
7
 10
38.76706423
 20
6.21416931
  0
VERTEX
  8
0
 62
7
 10
38.79456493
 20
6.21787213
  0
VERTEX
  8
0
 62
7
 10
38.81895685
 20
6.22483179
  0
VERTEX
  8
0
 62
7
 10
38.84095741
 20
6.23469594
  0
VERTEX
  8
0
 62
7
 10
38.86128401
 20
6.24711222
  0
VERTEX
  8
0
 62
7
 10
38.88065406
 20
6.26172830
  0
VERTEX
  8
0
 62
7
 10
38.89978498
 20
6.27819182
  0
VERTEX
  8
0
 62
7
 10
38.91939417
 20
6.29615044
  0
VERTEX
  8
0
 62
7
 10
38.94119545
 20
6.31943712
  0
VERTEX
  8
0
 62
7
 10
38.96498953
 20
6.34653297
  0
VERTEX
  8
0
 62
7
 10
38.98958073
 20
6.37362882
  0
VERTEX
  8
0
 62
7
 10
39.01377337
 20
6.39691551
  0
VERTEX
  8
0
 62
7
 10
39.03740803
 20
6.41318063
  0
VERTEX
  8
0
 62
7
 10
39.06383261
 20
6.42586515
  0
VERTEX
  8
0
 62
7
 10
39.09137316
 20
6.43748310
  0
VERTEX
  8
0
 62
7
 10
39.11835573
 20
6.45054853
  0
VERTEX
  8
0
 62
7
 10
39.15507646
 20
6.46973401
  0
VERTEX
  8
0
 62
7
 10
39.19211605
 20
6.48823385
  0
VERTEX
  8
0
 62
7
 10
39.22883678
 20
6.50780025
  0
VERTEX
  8
0
 62
7
 10
39.26460097
 20
6.53018543
  0
VERTEX
  8
0
 62
7
 10
39.28735547
 20
6.55009307
  0
VERTEX
  8
0
 62
7
 10
39.30554645
 20
6.57181959
  0
VERTEX
  8
0
 62
7
 10
39.31963225
 20
6.59505072
  0
VERTEX
  8
0
 62
7
 10
39.33007122
 20
6.61947222
  0
VERTEX
  8
0
 62
7
 10
39.33732171
 20
6.64476983
  0
VERTEX
  8
0
 62
7
 10
39.34184205
 20
6.67062929
  0
VERTEX
  8
0
 62
7
 10
39.34409060
 20
6.69673634
  0
VERTEX
  8
0
 62
7
 10
39.34452570
 20
6.72277673
  0
VERTEX
  8
0
 62
7
 10
39.33976954
 20
6.76315863
  0
VERTEX
  8
0
 62
7
 10
39.32975238
 20
6.80006466
  0
VERTEX
  8
0
 62
7
 10
39.31511191
 20
6.83420904
  0
VERTEX
  8
0
 62
7
 10
39.29648583
 20
6.86630601
  0
VERTEX
  8
0
 62
7
 10
39.27451185
 20
6.89706976
  0
VERTEX
  8
0
 62
7
 10
39.24982765
 20
6.92721453
  0
VERTEX
  8
0
 62
7
 10
39.22307093
 20
6.95745452
  0
VERTEX
  8
0
 62
7
 10
39.19487940
 20
6.98850397
  0
VERTEX
  8
0
 62
7
 10
39.12859874
 20
7.05601504
  0
VERTEX
  8
0
 62
7
 10
39.05554254
 20
7.12390703
  0
VERTEX
  8
0
 62
7
 10
38.98073268
 20
7.18951352
  0
VERTEX
  8
0
 62
7
 10
38.90919102
 20
7.25016809
  0
VERTEX
  8
0
 62
7
 10
38.84318935
 20
7.30339480
  0
VERTEX
  8
0
 62
7
 10
38.77399919
 20
7.35418365
  0
VERTEX
  8
0
 62
7
 10
38.76996708
 20
7.35486295
  0
VERTEX
  8
0
 62
7
 10
38.76501829
 20
7.35199973
  0
VERTEX
  8
0
 62
7
 10
38.75935208
 20
7.34647009
  0
VERTEX
  8
0
 62
7
 10
38.75316775
 20
7.33915015
  0
VERTEX
  8
0
 62
7
 10
38.74666456
 20
7.33091601
  0
VERTEX
  8
0
 62
7
 10
38.74004181
 20
7.32264377
  0
VERTEX
  8
0
 62
7
 10
38.73349877
 20
7.31520956
  0
VERTEX
  8
0
 62
7
 10
38.72723472
 20
7.30948946
  0
VERTEX
  8
0
 62
7
 10
38.71292639
 20
7.30048714
  0
VERTEX
  8
0
 62
7
 10
38.69566871
 20
7.29293230
  0
VERTEX
  8
0
 62
7
 10
38.67761390
 20
7.28674876
  0
VERTEX
  8
0
 62
7
 10
38.66091420
 20
7.28186033
  0
VERTEX
  8
0
 62
7
 10
38.65326184
 20
6.95193600
  0
VERTEX
  8
0
 62
7
 10
38.64135815
 20
6.60494661
  0
VERTEX
  8
0
 62
7
 10
38.63914946
 20
6.59020356
  0
VERTEX
  8
0
 62
7
 10
38.63437006
 20
6.57903161
  0
VERTEX
  8
0
 62
7
 10
38.62787684
 20
6.57164976
  0
VERTEX
  8
0
 62
7
 10
38.62052671
 20
6.56827707
  0
VERTEX
  8
0
 62
7
 10
38.61317658
 20
6.56913254
  0
VERTEX
  8
0
 62
7
 10
38.60668336
 20
6.57443522
  0
VERTEX
  8
0
 62
7
 10
38.60190396
 20
6.58440411
  0
VERTEX
  8
0
 62
7
 10
38.59969527
 20
6.59925826
  0
SEQEND
  0
POLYLINE
  8
0
 62
7
 66
1
 70
1
  0
VERTEX
  8
0
 62
7
 10
39.64873290
 20
7.65443981
  0
VERTEX
  8
0
 62
7
 10
39.56066425
 20
7.65776648
  0
VERTEX
  8
0
 62
7
 10
39.47411013
 20
7.65911238
  0
VERTEX
  8
0
 62
7
 10
39.38580234
 20
7.66015355
  0
VERTEX
  8
0
 62
7
 10
39.29247268
 20
7.66256602
  0
VERTEX
  8
0
 62
7
 10
38.96937273
 20
7.67394272
  0
VERTEX
  8
0
 62
7
 10
38.96423129
 20
7.69049989
  0
VERTEX
  8
0
 62
7
 10
38.95693763
 20
7.70827598
  0
VERTEX
  8
0
 62
7
 10
38.94820915
 20
7.72513788
  0
VERTEX
  8
0
 62
7
 10
38.93876326
 20
7.73895245
  0
VERTEX
  8
0
 62
7
 10
38.93313026
 20
7.74504393
  0
VERTEX
  8
0
 62
7
 10
38.92574360
 20
7.75157347
  0
VERTEX
  8
0
 62
7
 10
38.91748011
 20
7.75829347
  0
VERTEX
  8
0
 62
7
 10
38.90921661
 20
7.76495633
  0
VERTEX
  8
0
 62
7
 10
38.90182995
 20
7.77131446
  0
VERTEX
  8
0
 62
7
 10
38.89619696
 20
7.77712026
  0
VERTEX
  8
0
 62
7
 10
38.89319447
 20
7.78212614
  0
VERTEX
  8
0
 62
7
 10
38.89369931
 20
7.78608449
  0
VERTEX
  8
0
 62
7
 10
38.94492766
 20
7.85536048
  0
VERTEX
  8
0
 62
7
 10
38.99743141
 20
7.92097966
  0
VERTEX
  8
0
 62
7
 10
39.05783994
 20
7.99252845
  0
VERTEX
  8
0
 62
7
 10
39.12358919
 20
8.06735311
  0
VERTEX
  8
0
 62
7
 10
39.19172980
 20
8.14050175
  0
VERTEX
  8
0
 62
7
 10
39.25931242
 20
8.20702244
  0
VERTEX
  8
0
 62
7
 10
39.29045331
 20
8.23517691
  0
VERTEX
  8
0
 62
7
 10
39.32063765
 20
8.26191248
  0
VERTEX
  8
0
 62
7
 10
39.35066256
 20
8.28657205
  0
VERTEX
  8
0
 62
7
 10
39.38132517
 20
8.30849855
  0
VERTEX
  8
0
 62
7
 10
39.41342260
 20
8.32703489
  0
VERTEX
  8
0
 62
7
 10
39.44775197
 20
8.34152399
  0
VERTEX
  8
0
 62
7
 10
39.48511041
 20
8.35130878
  0
VERTEX
  8
0
 62
7
 10
39.52629502
 20
8.35573217
  0
VERTEX
  8
0
 62
7
 10
39.55198725
 20
8.35554489
  0
VERTEX
  8
0
 62
7
 10
39.57782893
 20
8.35347207
  0
VERTEX
  8
0
 62
7
 10
39.60349127
 20
8.34907566
  0
VERTEX
  8
0
 62
7
 10
39.62864544
 20
8.34191761
  0
VERTEX
  8
0
 62
7
 10
39.65296263
 20
8.33155986
  0
VERTEX
  8
0
 62
7
 10
39.67611403
 20
8.31756436
  0
VERTEX
  8
0
 62
7
 10
39.69777083
 20
8.29949305
  0
VERTEX
  8
0
 62
7
 10
39.71760421
 20
8.27690789
  0
VERTEX
  8
0
 62
7
 10
39.74026903
 20
8.24056847
  0
VERTEX
  8
0
 62
7
 10
39.75990480
 20
8.20377195
  0
VERTEX
  8
0
 62
7
 10
39.77858401
 20
8.16697543
  0
VERTEX
  8
0
 62
7
 10
39.79837920
 20
8.13063601
  0
VERTEX
  8
0
 62
7
 10
39.81092058
 20
8.10362905
  0
VERTEX
  8
0
 62
7
 10
39.82218656
 20
8.07608880
  0
VERTEX
  8
0
 62
7
 10
39.83472794
 20
8.04961511
  0
VERTEX
  8
0
 62
7
 10
39.85109551
 20
8.02580784
  0
VERTEX
  8
0
 62
7
 10
39.95142655
 20
7.93073112
  0
VERTEX
  8
0
 62
7
 10
39.96958265
 20
7.91137581
  0
VERTEX
  8
0
 62
7
 10
39.98619433
 20
7.89244903
  0
VERTEX
  8
0
 62
7
 10
40.00091285
 20
7.87323656
  0
VERTEX
  8
0
 62
7
 10
40.01338947
 20
7.85302419
  0
VERTEX
  8
0
 62
7
 10
40.02327544
 20
7.83109769
  0
VERTEX
  8
0
 62
7
 10
40.03022202
 20
7.80674286
  0
VERTEX
  8
0
 62
7
 10
40.03388047
 20
7.77924546
  0
VERTEX
  8
0
 62
7
 10
40.03390206
 20
7.74789128
  0
VERTEX
  8
0
 62
7
 10
40.03098925
 20
7.74816110
  0
VERTEX
  8
0
 62
7
 10
40.02303464
 20
7.74852614
  0
VERTEX
  8
0
 62
7
 10
40.01121399
 20
7.74831981
  0
VERTEX
  8
0
 62
7
 10
39.99670305
 20
7.74687551
  0
VERTEX
  8
0
 62
7
 10
39.98067759
 20
7.74352662
  0
VERTEX
  8
0
 62
7
 10
39.96431335
 20
7.73760654
  0
VERTEX
  8
0
 62
7
 10
39.94878608
 20
7.72844868
  0
VERTEX
  8
0
 62
7
 10
39.93527155
 20
7.71538642
  0
VERTEX
  8
0
 62
7
 10
39.92320844
 20
7.69570574
  0
VERTEX
  8
0
 62
7
 10
39.91656576
 20
7.67556797
  0
VERTEX
  8
0
 62
7
 10
39.91374927
 20
7.65482073
  0
VERTEX
  8
0
 62
7
 10
39.91316471
 20
7.63331165
  0
VERTEX
  8
0
 62
7
 10
39.91374927
 20
7.61156133
  0
VERTEX
  8
0
 62
7
 10
39.91656576
 20
7.59095375
  0
VERTEX
  8
0
 62
7
 10
39.92320844
 20
7.57080328
  0
VERTEX
  8
0
 62
7
 10
39.93527155
 20
7.55042426
  0
VERTEX
  8
0
 62
7
 10
39.94878608
 20
7.53712869
  0
VERTEX
  8
0
 62
7
 10
39.96431335
 20
7.52786131
  0
VERTEX
  8
0
 62
7
 10
39.98067759
 20
7.52192695
  0
VERTEX
  8
0
 62
7
 10
39.99670305
 20
7.51863044
  0
VERTEX
  8
0
 62
7
 10
40.01121399
 20
7.51727660
  0
VERTEX
  8
0
 62
7
 10
40.02303464
 20
7.51717026
  0
VERTEX
  8
0
 62
7
 10
40.03098925
 20
7.51761625
  0
VERTEX
  8
0
 62
7
 10
40.03390206
 20
7.51791939
  0
VERTEX
  8
0
 62
7
 10
40.03388047
 20
7.48679694
  0
VERTEX
  8
0
 62
7
 10
40.03022202
 20
7.45939795
  0
VERTEX
  8
0
 62
7
 10
40.02327544
 20
7.43502724
  0
VERTEX
  8
0
 62
7
 10
40.01338947
 20
7.41298964
  0
VERTEX
  8
0
 62
7
 10
40.00091285
 20
7.39258999
  0
VERTEX
  8
0
 62
7
 10
39.98619433
 20
7.37313310
  0
VERTEX
  8
0
 62
7
 10
39.96958265
 20
7.35392380
  0
VERTEX
  8
0
 62
7
 10
39.95142655
 20
7.33426693
  0
VERTEX
  8
0
 62
7
 10
39.85109551
 20
7.24000284
  0
VERTEX
  8
0
 62
7
 10
39.83471466
 20
7.21655109
  0
VERTEX
  8
0
 62
7
 10
39.82208028
 20
7.19012819
  0
VERTEX
  8
0
 62
7
 10
39.81056187
 20
7.16263873
  0
VERTEX
  8
0
 62
7
 10
39.79752894
 20
7.13598728
  0
VERTEX
  8
0
 62
7
 10
39.77810574
 20
7.09907649
  0
VERTEX
  8
0
 62
7
 10
39.75947966
 20
7.06193715
  0
VERTEX
  8
0
 62
7
 10
39.73989704
 20
7.02525491
  0
VERTEX
  8
0
 62
7
 10
39.71760421
 20
6.98971541
  0
VERTEX
  8
0
 62
7
 10
39.69776917
 20
6.96686043
  0
VERTEX
  8
0
 62
7
 10
39.67610074
 20
6.94857645
  0
VERTEX
  8
0
 62
7
 10
39.65291779
 20
6.93440636
  0
VERTEX
  8
0
 62
7
 10
39.62853915
 20
6.92389307
  0
VERTEX
  8
0
 62
7
 10
39.60328368
 20
6.91657948
  0
VERTEX
  8
0
 62
7
 10
39.57747023
 20
6.91200848
  0
VERTEX
  8
0
 62
7
 10
39.55141764
 20
6.90972298
  0
VERTEX
  8
0
 62
7
 10
39.52544476
 20
6.90926588
  0
VERTEX
  8
0
 62
7
 10
39.48502903
 20
6.91419081
  0
VERTEX
  8
0
 62
7
 10
39.44811068
 20
6.92428668
  0
VERTEX
  8
0
 62
7
 10
39.41396232
 20
6.93893450
  0
VERTEX
  8
0
 62
7
 10
39.38185659
 20
6.95751529
  0
VERTEX
  8
0
 62
7
 10
39.35106610
 20
6.97941004
  0
VERTEX
  8
0
 62
7
 10
39.32086350
 20
7.00399978
  0
VERTEX
  8
0
 62
7
 10
39.29052140
 20
7.03066551
  0
VERTEX
  8
0
 62
7
 10
39.25931242
 20
7.05878824
  0
VERTEX
  8
0
 62
7
 10
39.19184937
 20
7.12530893
  0
VERTEX
  8
0
 62
7
 10
39.12390803
 20
7.19845756
  0
VERTEX
  8
0
 62
7
 10
39.05819864
 20
7.27328223
  0
VERTEX
  8
0
 62
7
 10
38.99743141
 20
7.34483101
  0
VERTEX
  8
0
 62
7
 10
38.94428997
 20
7.41075493
  0
VERTEX
  8
0
 62
7
 10
38.89369931
 20
7.47972618
  0
VERTEX
  8
0
 62
7
 10
38.89315960
 20
7.48388452
  0
VERTEX
  8
0
 62
7
 10
38.89607739
 20
7.48891896
  0
VERTEX
  8
0
 62
7
 10
38.90160576
 20
7.49463906
  0
VERTEX
  8
0
 62
7
 10
38.90889777
 20
7.50085434
  0
VERTEX
  8
0
 62
7
 10
38.91710646
 20
7.50737436
  0
VERTEX
  8
0
 62
7
 10
38.92538490
 20
7.51400865
  0
VERTEX
  8
0
 62
7
 10
38.93288614
 20
7.52056676
  0
VERTEX
  8
0
 62
7
 10
38.93876326
 20
7.52685823
  0
VERTEX
  8
0
 62
7
 10
38.94767773
 20
7.54114259
  0
VERTEX
  8
0
 62
7
 10
38.95523710
 20
7.55824574
  0
VERTEX
  8
0
 62
7
 10
38.96136165
 20
7.57611071
  0
VERTEX
  8
0
 62
7
 10
38.96597167
 20
7.59268057
  0
VERTEX
  8
0
 62
7
 10
39.29587374
 20
7.60080679
  0
VERTEX
  8
0
 62
7
 10
39.64278106
 20
7.61299611
  0
VERTEX
  8
0
 62
7
 10
39.65761417
 20
7.61517686
  0
VERTEX
  8
0
 62
7
 10
39.66882037
 20
7.61992879
  0
VERTEX
  8
0
 62
7
 10
39.67620038
 20
7.62639484
  0
VERTEX
  8
0
 62
7
 10
39.67955494
 20
7.63371796
  0
VERTEX
  8
0
 62
7
 10
39.67868475
 20
7.64104108
  0
VERTEX
  8
0
 62
7
 10
39.67339053
 20
7.64750713
  0
VERTEX
  8
0
 62
7
 10
39.66347301
 20
7.65225906
  0
VERTEX
  8
0
 62
7
 10
39.64873290
 20
7.65443981
  0
SEQEND
  0
POLYLINE
  8
0
 62
7
 66
1
 70
1
  0
VERTEX
  8
0
 62
7
 10
37.58126710
 20
7.65543981
  0
VERTEX
  8
0
 62
7
 10
37.66933575
 20
7.65876648
  0
VERTEX
  8
0
 62
7
 10
37.75588987
 20
7.66011238
  0
VERTEX
  8
0
 62
7
 10
37.84419766
 20
7.66115355
  0
VERTEX
  8
0
 62
7
 10
37.93752732
 20
7.66356602
  0
VERTEX
  8
0
 62
7
 10
38.26062727
 20
7.67494272
  0
VERTEX
  8
0
 62
7
 10
38.26576871
 20
7.69149989
  0
VERTEX
  8
0
 62
7
 10
38.27306237
 20
7.70927598
  0
VERTEX
  8
0
 62
7
 10
38.28179085
 20
7.72613788
  0
VERTEX
  8
0
 62
7
 10
38.29123674
 20
7.73995245
  0
VERTEX
  8
0
 62
7
 10
38.29686974
 20
7.74604393
  0
VERTEX
  8
0
 62
7
 10
38.30425640
 20
7.75257347
  0
VERTEX
  8
0
 62
7
 10
38.31251989
 20
7.75929347
  0
VERTEX
  8
0
 62
7
 10
38.32078339
 20
7.76595633
  0
VERTEX
  8
0
 62
7
 10
38.32817005
 20
7.77231446
  0
VERTEX
  8
0
 62
7
 10
38.33380304
 20
7.77812026
  0
VERTEX
  8
0
 62
7
 10
38.33680553
 20
7.78312614
  0
VERTEX
  8
0
 62
7
 10
38.33630069
 20
7.78708449
  0
VERTEX
  8
0
 62
7
 10
38.28507234
 20
7.85636048
  0
VERTEX
  8
0
 62
7
 10
38.23256859
 20
7.92197966
  0
VERTEX
  8
0
 62
7
 10
38.17216006
 20
7.99352845
  0
VERTEX
  8
0
 62
7
 10
38.10641081
 20
8.06835311
  0
VERTEX
  8
0
 62
7
 10
38.03827020
 20
8.14150175
  0
VERTEX
  8
0
 62
7
 10
37.97068758
 20
8.20802244
  0
VERTEX
  8
0
 62
7
 10
37.93954669
 20
8.23617691
  0
VERTEX
  8
0
 62
7
 10
37.90936235
 20
8.26291248
  0
VERTEX
  8
0
 62
7
 10
37.87933744
 20
8.28757205
  0
VERTEX
  8
0
 62
7
 10
37.84867483
 20
8.30949855
  0
VERTEX
  8
0
 62
7
 10
37.81657740
 20
8.32803489
  0
VERTEX
  8
0
 62
7
 10
37.78224803
 20
8.34252399
  0
VERTEX
  8
0
 62
7
 10
37.74488959
 20
8.35230878
  0
VERTEX
  8
0
 62
7
 10
37.70370498
 20
8.35673217
  0
VERTEX
  8
0
 62
7
 10
37.67801275
 20
8.35654489
  0
VERTEX
  8
0
 62
7
 10
37.65217107
 20
8.35447207
  0
VERTEX
  8
0
 62
7
 10
37.62650873
 20
8.35007566
  0
VERTEX
  8
0
 62
7
 10
37.60135456
 20
8.34291761
  0
VERTEX
  8
0
 62
7
 10
37.57703737
 20
8.33255986
  0
VERTEX
  8
0
 62
7
 10
37.55388597
 20
8.31856436
  0
VERTEX
  8
0
 62
7
 10
37.53222917
 20
8.30049305
  0
VERTEX
  8
0
 62
7
 10
37.51239579
 20
8.27790789
  0
VERTEX
  8
0
 62
7
 10
37.48973097
 20
8.24156847
  0
VERTEX
  8
0
 62
7
 10
37.47009520
 20
8.20477195
  0
VERTEX
  8
0
 62
7
 10
37.45141599
 20
8.16797543
  0
VERTEX
  8
0
 62
7
 10
37.43162080
 20
8.13163601
  0
VERTEX
  8
0
 62
7
 10
37.41907942
 20
8.10462905
  0
VERTEX
  8
0
 62
7
 10
37.40781344
 20
8.07708880
  0
VERTEX
  8
0
 62
7
 10
37.39527206
 20
8.05061511
  0
VERTEX
  8
0
 62
7
 10
37.37890449
 20
8.02680784
  0
VERTEX
  8
0
 62
7
 10
37.27857345
 20
7.93173112
  0
VERTEX
  8
0
 62
7
 10
37.26041735
 20
7.91237581
  0
VERTEX
  8
0
 62
7
 10
37.24380567
 20
7.89344903
  0
VERTEX
  8
0
 62
7
 10
37.22908715
 20
7.87423656
  0
VERTEX
  8
0
 62
7
 10
37.21661053
 20
7.85402419
  0
VERTEX
  8
0
 62
7
 10
37.20672456
 20
7.83209769
  0
VERTEX
  8
0
 62
7
 10
37.19977798
 20
7.80774286
  0
VERTEX
  8
0
 62
7
 10
37.19611953
 20
7.78024546
  0
VERTEX
  8
0
 62
7
 10
37.19609794
 20
7.74889128
  0
VERTEX
  8
0
 62
7
 10
37.19901075
 20
7.74916110
  0
VERTEX
  8
0
 62
7
 10
37.20696536
 20
7.74952614
  0
VERTEX
  8
0
 62
7
 10
37.21878601
 20
7.74931981
  0
VERTEX
  8
0
 62
7
 10
37.23329695
 20
7.74787551
  0
VERTEX
  8
0
 62
7
 10
37.24932241
 20
7.74452662
  0
VERTEX
  8
0
 62
7
 10
37.26568665
 20
7.73860654
  0
VERTEX
  8
0
 62
7
 10
37.28121392
 20
7.72944868
  0
VERTEX
  8
0
 62
7
 10
37.29472845
 20
7.71638642
  0
VERTEX
  8
0
 62
7
 10
37.30679156
 20
7.69670574
  0
VERTEX
  8
0
 62
7
 10
37.31343424
 20
7.67656797
  0
VERTEX
  8
0
 62
7
 10
37.31625073
 20
7.65582073
  0
VERTEX
  8
0
 62
7
 10
37.31683529
 20
7.63431165
  0
VERTEX
  8
0
 62
7
 10
37.31625073
 20
7.61256133
  0
VERTEX
  8
0
 62
7
 10
37.31343424
 20
7.59195375
  0
VERTEX
  8
0
 62
7
 10
37.30679156
 20
7.57180328
  0
VERTEX
  8
0
 62
7
 10
37.29472845
 20
7.55142426
  0
VERTEX
  8
0
 62
7
 10
37.28121392
 20
7.53812869
  0
VERTEX
  8
0
 62
7
 10
37.26568665
 20
7.52886131
  0
VERTEX
  8
0
 62
7
 10
37.24932241
 20
7.52292695
  0
VERTEX
  8
0
 62
7
 10
37.23329695
 20
7.51963044
  0
VERTEX
  8
0
 62
7
 10
37.21878601
 20
7.51827660
  0
VERTEX
  8
0
 62
7
 10
37.20696536
 20
7.51817026
  0
VERTEX
  8
0
 62
7
 10
37.19901075
 20
7.51861625
  0
VERTEX
  8
0
 62
7
 10
37.19609794
 20
7.51891939
  0
VERTEX
  8
0
 62
7
 10
37.19611953
 20
7.48779694
  0
VERTEX
  8
0
 62
7
 10
37.19977798
 20
7.46039795
  0
VERTEX
  8
0
 62
7
 10
37.20672456
 20
7.43602724
  0
VERTEX
  8
0
 62
7
 10
37.21661053
 20
7.41398964
  0
VERTEX
  8
0
 62
7
 10
37.22908715
 20
7.39358999
  0
VERTEX
  8
0
 62
7
 10
37.24380567
 20
7.37413310
  0
VERTEX
  8
0
 62
7
 10
37.26041735
 20
7.35492380
  0
VERTEX
  8
0
 62
7
 10
37.27857345
 20
7.33526693
  0
VERTEX
  8
0
 62
7
 10
37.37890449
 20
7.24100284
  0
VERTEX
  8
0
 62
7
 10
37.39528534
 20
7.21755109
  0
VERTEX
  8
0
 62
7
 10
37.40791972
 20
7.19112819
  0
VERTEX
  8
0
 62
7
 10
37.41943813
 20
7.16363873
  0
VERTEX
  8
0
 62
7
 10
37.43247106
 20
7.13698728
  0
VERTEX
  8
0
 62
7
 10
37.45189426
 20
7.10007649
  0
VERTEX
  8
0
 62
7
 10
37.47052034
 20
7.06293715
  0
VERTEX
  8
0
 62
7
 10
37.49010296
 20
7.02625491
  0
VERTEX
  8
0
 62
7
 10
37.51239579
 20
6.99071541
  0
VERTEX
  8
0
 62
7
 10
37.53223083
 20
6.96786043
  0
VERTEX
  8
0
 62
7
 10
37.55389926
 20
6.94957645
  0
VERTEX
  8
0
 62
7
 10
37.57708221
 20
6.93540636
  0
VERTEX
  8
0
 62
7
 10
37.60146085
 20
6.92489307
  0
VERTEX
  8
0
 62
7
 10
37.62671632
 20
6.91757948
  0
VERTEX
  8
0
 62
7
 10
37.65252977
 20
6.91300848
  0
VERTEX
  8
0
 62
7
 10
37.67858236
 20
6.91072298
  0
VERTEX
  8
0
 62
7
 10
37.70455524
 20
6.91026588
  0
VERTEX
  8
0
 62
7
 10
37.74497097
 20
6.91519081
  0
VERTEX
  8
0
 62
7
 10
37.78188932
 20
6.92528668
  0
VERTEX
  8
0
 62
7
 10
37.81603768
 20
6.93993450
  0
VERTEX
  8
0
 62
7
 10
37.84814341
 20
6.95851529
  0
VERTEX
  8
0
 62
7
 10
37.87893390
 20
6.98041004
  0
VERTEX
  8
0
 62
7
 10
37.90913650
 20
7.00499978
  0
VERTEX
  8
0
 62
7
 10
37.93947860
 20
7.03166551
  0
VERTEX
  8
0
 62
7
 10
37.97068758
 20
7.05978824
  0
VERTEX
  8
0
 62
7
 10
38.03815063
 20
7.12630893
  0
VERTEX
  8
0
 62
7
 10
38.10609197
 20
7.19945756
  0
VERTEX
  8
0
 62
7
 10
38.17180136
 20
7.27428223
  0
VERTEX
  8
0
 62
7
 10
38.23256859
 20
7.34583101
  0
VERTEX
  8
0
 62
7
 10
38.28571003
 20
7.41175493
  0
VERTEX
  8
0
 62
7
 10
38.33630069
 20
7.48072618
  0
VERTEX
  8
0
 62
7
 10
38.33684040
 20
7.48488452
  0
VERTEX
  8
0
 62
7
 10
38.33392261
 20
7.48991896
  0
VERTEX
  8
0
 62
7
 10
38.32839424
 20
7.49563906
  0
VERTEX
  8
0
 62
7
 10
38.32110223
 20
7.50185434
  0
VERTEX
  8
0
 62
7
 10
38.31289354
 20
7.50837436
  0
VERTEX
  8
0
 62
7
 10
38.30461510
 20
7.51500865
  0
VERTEX
  8
0
 62
7
 10
38.29711386
 20
7.52156676
  0
VERTEX
  8
0
 62
7
 10
38.29123674
 20
7.52785823
  0
VERTEX
  8
0
 62
7
 10
38.28232227
 20
7.54214259
  0
VERTEX
  8
0
 62
7
 10
38.27476290
 20
7.55924574
  0
VERTEX
  8
0
 62
7
 10
38.26863835
 20
7.57711071
  0
VERTEX
  8
0
 62
7
 10
38.26402833
 20
7.59368057
  0
VERTEX
  8
0
 62
7
 10
37.93412626
 20
7.60180679
  0
VERTEX
  8
0
 62
7
 10
37.58721894
 20
7.61399611
  0
VERTEX
  8
0
 62
7
 10
37.57238583
 20
7.61617686
  0
VERTEX
  8
0
 62
7
 10
37.56117963
 20
7.62092879
  0
VERTEX
  8
0
 62
7
 10
37.55379962
 20
7.62739484
  0
VERTEX
  8
0
 62
7
 10
37.55044506
 20
7.63471796
  0
VERTEX
  8
0
 62
7
 10
37.55131525
 20
7.64204108
  0
VERTEX
  8
0
 62
7
 10
37.55660947
 20
7.64850713
  0
VERTEX
  8
0
 62
7
 10
37.56652699
 20
7.65325906
  0
VERTEX
  8
0
 62
7
 10
37.58126710
 20
7.65543981
  0
SEQEND
  0
ENDSEC
  0
EOF
