  0
SECTION
  2
ENTITIES
  0
POLYLINE
  8
0
 62
7
 66
1
 70
1
  0
VERTEX
  8
0
 62
7
 10
42.00000000
 20
15.72848310
  0
VERTEX
  8
0
 62
7
 10
41.36262360
 20
15.82176209
  0
VERTEX
  8
0
 62
7
 10
40.72399658
 20
15.91211253
  0
VERTEX
  8
0
 62
7
 10
40.08412225
 20
15.99953227
  0
VERTEX
  8
0
 62
7
 10
39.44300391
 20
16.08401917
  0
VERTEX
  8
0
 62
7
 10
38.80064484
 20
16.16557108
  0
VERTEX
  8
0
 62
7
 10
38.15704834
 20
16.24418586
  0
VERTEX
  8
0
 62
7
 10
37.51221771
 20
16.31986138
  0
VERTEX
  8
0
 62
7
 10
36.86615625
 20
16.39259548
  0
VERTEX
  8
0
 62
7
 10
36.21886725
 20
16.46238602
  0
VERTEX
  8
0
 62
7
 10
35.57035400
 20
16.52923086
  0
VERTEX
  8
0
 62
7
 10
34.92061981
 20
16.59312786
  0
VERTEX
  8
0
 62
7
 10
34.26966797
 20
16.65407486
  0
VERTEX
  8
0
 62
7
 10
33.61750177
 20
16.71206974
  0
VERTEX
  8
0
 62
7
 10
32.96412451
 20
16.76711034
  0
VERTEX
  8
0
 62
7
 10
32.30953949
 20
16.81919453
  0
VERTEX
  8
0
 62
7
 10
31.65375000
 20
16.86832015
  0
VERTEX
  8
0
 62
7
 10
30.99675934
 20
16.91448507
  0
VERTEX
  8
0
 62
7
 10
30.33857080
 20
16.95768714
  0
VERTEX
  8
0
 62
7
 10
29.67918768
 20
16.99792421
  0
VERTEX
  8
0
 62
7
 10
29.01861328
 20
17.03519416
  0
VERTEX
  8
0
 62
7
 10
28.35685089
 20
17.06949482
  0
VERTEX
  8
0
 62
7
 10
27.69390381
 20
17.10082407
  0
VERTEX
  8
0
 62
7
 10
27.02977533
 20
17.12917974
  0
VERTEX
  8
0
 62
7
 10
26.36446875
 20
17.15455971
  0
VERTEX
  8
0
 62
7
 10
25.69798737
 20
17.17696183
  0
VERTEX
  8
0
 62
7
 10
25.03033447
 20
17.19638396
  0
VERTEX
  8
0
 62
7
 10
24.36151337
 20
17.21282394
  0
VERTEX
  8
0
 62
7
 10
23.69152734
 20
17.22627964
  0
VERTEX
  8
0
 62
7
 10
23.02037970
 20
17.23674892
  0
VERTEX
  8
0
 62
7
 10
22.34807373
 20
17.24422963
  0
VERTEX
  8
0
 62
7
 10
21.67461273
 20
17.24871963
  0
VERTEX
  8
0
 62
7
 10
21.00000000
 20
17.25021677
  0
VERTEX
  8
0
 62
7
 10
20.33307861
 20
17.24864580
  0
VERTEX
  8
0
 62
7
 10
19.66587891
 20
17.24394385
  0
VERTEX
  8
0
 62
7
 10
18.99849756
 20
17.23612735
  0
VERTEX
  8
0
 62
7
 10
18.33103125
 20
17.22521272
  0
VERTEX
  8
0
 62
7
 10
17.66357666
 20
17.21121642
  0
VERTEX
  8
0
 62
7
 10
16.99623047
 20
17.19415485
  0
VERTEX
  8
0
 62
7
 10
16.32908936
 20
17.17404447
  0
VERTEX
  8
0
 62
7
 10
15.66225000
 20
17.15090170
  0
VERTEX
  8
0
 62
7
 10
14.99580908
 20
17.12474297
  0
VERTEX
  8
0
 62
7
 10
14.32986328
 20
17.09558472
  0
VERTEX
  8
0
 62
7
 10
13.66450928
 20
17.06344338
  0
VERTEX
  8
0
 62
7
 10
12.99984375
 20
17.02833538
  0
VERTEX
  8
0
 62
7
 10
12.33596338
 20
16.99027716
  0
VERTEX
  8
0
 62
7
 10
11.67296484
 20
16.94928514
  0
VERTEX
  8
0
 62
7
 10
11.01094482
 20
16.90537576
  0
VERTEX
  8
0
 62
7
 10
10.35000000
 20
16.85856545
  0
VERTEX
  8
0
 62
7
 10
9.69022705
 20
16.80887064
  0
VERTEX
  8
0
 62
7
 10
9.03172266
 20
16.75630777
  0
VERTEX
  8
0
 62
7
 10
8.37458350
 20
16.70089327
  0
VERTEX
  8
0
 62
7
 10
7.71890625
 20
16.64264357
  0
VERTEX
  8
0
 62
7
 10
7.06478760
 20
16.58157511
  0
VERTEX
  8
0
 62
7
 10
6.41232422
 20
16.51770431
  0
VERTEX
  8
0
 62
7
 10
5.76161279
 20
16.45104761
  0
VERTEX
  8
0
 62
7
 10
5.11275000
 20
16.38162144
  0
VERTEX
  8
0
 62
7
 10
4.46583252
 20
16.30944223
  0
VERTEX
  8
0
 62
7
 10
3.82095703
 20
16.23452642
  0
VERTEX
  8
0
 62
7
 10
3.17822021
 20
16.15689044
  0
VERTEX
  8
0
 62
7
 10
2.53771875
 20
16.07655072
  0
VERTEX
  8
0
 62
7
 10
1.89954932
 20
15.99352370
  0
VERTEX
  8
0
 62
7
 10
1.26380859
 20
15.90782580
  0
VERTEX
  8
0
 62
7
 10
.63059326
 20
15.81947345
  0
VERTEX
  8
0
 62
7
 10
.00000000
 20
15.72848310
  0
VERTEX
  8
0
 62
7
 10
.00000000
 20
.00000000
  0
VERTEX
  8
0
 62
7
 10
42.00000000
 20
.00000000
  0
VERTEX
  8
0
 62
7
 10
42.00000000
 20
15.72848310
  0
SEQEND
  0
POLYLINE
  8
0
 62
7
 66
1
 70
1
  0
VERTEX
  8
0
 62
7
 10
38.00013333
 20
9.75000000
  0
VERTEX
  8
0
 62
7
 10
38.00013333
 20
14.24200000
  0
VERTEX
  8
0
 62
7
 10
37.48200528
 20
14.30269589
  0
VERTEX
  8
0
 62
7
 10
36.96248236
 20
14.36159058
  0
VERTEX
  8
0
 62
7
 10
36.44161890
 20
14.41867581
  0
VERTEX
  8
0
 62
7
 10
35.91946927
 20
14.47394336
  0
VERTEX
  8
0
 62
7
 10
35.39608780
 20
14.52738498
  0
VERTEX
  8
0
 62
7
 10
34.87152884
 20
14.57899243
  0
VERTEX
  8
0
 62
7
 10
34.34584674
 20
14.62875748
  0
VERTEX
  8
0
 62
7
 10
33.81909583
 20
14.67667188
  0
VERTEX
  8
0
 62
7
 10
33.29133048
 20
14.72272739
  0
VERTEX
  8
0
 62
7
 10
32.76260501
 20
14.76691577
  0
VERTEX
  8
0
 62
7
 10
32.23297379
 20
14.80922879
  0
VERTEX
  8
0
 62
7
 10
31.70249115
 20
14.84965820
  0
VERTEX
  8
0
 62
7
 10
31.17121143
 20
14.88819577
  0
VERTEX
  8
0
 62
7
 10
30.63918900
 20
14.92483325
  0
VERTEX
  8
0
 62
7
 10
30.10647818
 20
14.95956241
  0
VERTEX
  8
0
 62
7
 10
29.57313333
 20
14.99237500
  0
VERTEX
  8
0
 62
7
 10
29.03920880
 20
15.02326279
  0
VERTEX
  8
0
 62
7
 10
28.50475892
 20
15.05221753
  0
VERTEX
  8
0
 62
7
 10
27.96983805
 20
15.07923099
  0
VERTEX
  8
0
 62
7
 10
27.43450052
 20
15.10429492
  0
VERTEX
  8
0
 62
7
 10
26.89880069
 20
15.12740109
  0
VERTEX
  8
0
 62
7
 10
26.36279290
 20
15.14854126
  0
VERTEX
  8
0
 62
7
 10
25.82653150
 20
15.16770718
  0
VERTEX
  8
0
 62
7
 10
25.29007083
 20
15.18489063
  0
VERTEX
  8
0
 62
7
 10
24.75346524
 20
15.20008334
  0
VERTEX
  8
0
 62
7
 10
24.21676908
 20
15.21327710
  0
VERTEX
  8
0
 62
7
 10
23.68003668
 20
15.22446365
  0
VERTEX
  8
0
 62
7
 10
23.14332240
 20
15.23363477
  0
VERTEX
  8
0
 62
7
 10
22.60668057
 20
15.24078220
  0
VERTEX
  8
0
 62
7
 10
22.07016556
 20
15.24589771
  0
VERTEX
  8
0
 62
7
 10
21.53383170
 20
15.24897305
  0
VERTEX
  8
0
 62
7
 10
20.99773333
 20
15.25000000
  0
VERTEX
  8
0
 62
7
 10
20.46164510
 20
15.24897305
  0
VERTEX
  8
0
 62
7
 10
19.92534079
 20
15.24589771
  0
VERTEX
  8
0
 62
7
 10
19.38887343
 20
15.24078220
  0
VERTEX
  8
0
 62
7
 10
18.85229609
 20
15.23363477
  0
VERTEX
  8
0
 62
7
 10
18.31566182
 20
15.22446365
  0
VERTEX
  8
0
 62
7
 10
17.77902367
 20
15.21327710
  0
VERTEX
  8
0
 62
7
 10
17.24243468
 20
15.20008334
  0
VERTEX
  8
0
 62
7
 10
16.70594792
 20
15.18489063
  0
VERTEX
  8
0
 62
7
 10
16.16961643
 20
15.16770718
  0
VERTEX
  8
0
 62
7
 10
15.63349326
 20
15.14854126
  0
VERTEX
  8
0
 62
7
 10
15.09763147
 20
15.12740109
  0
VERTEX
  8
0
 62
7
 10
14.56208411
 20
15.10429492
  0
VERTEX
  8
0
 62
7
 10
14.02690424
 20
15.07923099
  0
VERTEX
  8
0
 62
7
 10
13.49214489
 20
15.05221753
  0
VERTEX
  8
0
 62
7
 10
12.95785913
 20
15.02326279
  0
VERTEX
  8
0
 62
7
 10
12.42410000
 20
14.99237500
  0
VERTEX
  8
0
 62
7
 10
11.89092056
 20
14.95956241
  0
VERTEX
  8
0
 62
7
 10
11.35837386
 20
14.92483325
  0
VERTEX
  8
0
 62
7
 10
10.82651295
 20
14.88819577
  0
VERTEX
  8
0
 62
7
 10
10.29539089
 20
14.84965820
  0
VERTEX
  8
0
 62
7
 10
9.76506071
 20
14.80922879
  0
VERTEX
  8
0
 62
7
 10
9.23557549
 20
14.76691577
  0
VERTEX
  8
0
 62
7
 10
8.70698826
 20
14.72272739
  0
VERTEX
  8
0
 62
7
 10
8.17935208
 20
14.67667188
  0
VERTEX
  8
0
 62
7
 10
7.65272001
 20
14.62875748
  0
VERTEX
  8
0
 62
7
 10
7.12714508
 20
14.57899243
  0
VERTEX
  8
0
 62
7
 10
6.60268037
 20
14.52738498
  0
VERTEX
  8
0
 62
7
 10
6.07937891
 20
14.47394336
  0
VERTEX
  8
0
 62
7
 10
5.55729375
 20
14.41867581
  0
VERTEX
  8
0
 62
7
 10
5.03647796
 20
14.36159058
  0
VERTEX
  8
0
 62
7
 10
4.51698458
 20
14.30269589
  0
VERTEX
  8
0
 62
7
 10
3.99886667
 20
14.24200000
  0
VERTEX
  8
0
 62
7
 10
3.99886667
 20
9.75000000
  0
VERTEX
  8
0
 62
7
 10
38.00013333
 20
9.75000000
  0
SEQEND
  0
POLYLINE
  8
0
 62
7
 66
1
 70
1
  0
VERTEX
  8
0
 62
7
 10
37.65100173
 20
9.85000000
  0
VERTEX
  8
0
 62
7
 10
37.90151867
 20
9.85000000
  0
VERTEX
  8
0
 62
7
 10
37.90151867
 20
14.15300000
  0
VERTEX
  8
0
 62
7
 10
37.65100173
 20
14.18300000
  0
VERTEX
  8
0
 62
7
 10
37.65100173
 20
9.85000000
  0
SEQEND
  0
POLYLINE
  8
0
 62
7
 66
1
 70
1
  0
VERTEX
  8
0
 62
7
 10
37.55014427
 20
9.85000000
  0
VERTEX
  8
0
 62
7
 10
37.55014427
 20
14.19500000
  0
VERTEX
  8
0
 62
7
 10
36.53795314
 20
14.30839233
  0
VERTEX
  8
0
 62
7
 10
35.52083891
 20
14.41490430
  0
VERTEX
  8
0
 62
7
 10
34.49921623
 20
14.51447583
  0
VERTEX
  8
0
 62
7
 10
33.47349970
 20
14.60704688
  0
VERTEX
  8
0
 62
7
 10
32.44410396
 20
14.69255737
  0
VERTEX
  8
0
 62
7
 10
31.41144363
 20
14.77094727
  0
VERTEX
  8
0
 62
7
 10
30.37593334
 20
14.84215649
  0
VERTEX
  8
0
 62
7
 10
29.33798772
 20
14.90612500
  0
VERTEX
  8
0
 62
7
 10
28.29802139
 20
14.96279272
  0
VERTEX
  8
0
 62
7
 10
27.25644897
 20
15.01209961
  0
VERTEX
  8
0
 62
7
 10
26.21368511
 20
15.05398560
  0
VERTEX
  8
0
 62
7
 10
25.17014441
 20
15.08839063
  0
VERTEX
  8
0
 62
7
 10
24.12624151
 20
15.11525464
  0
VERTEX
  8
0
 62
7
 10
23.08239104
 20
15.13451758
  0
VERTEX
  8
0
 62
7
 10
22.03900761
 20
15.14611938
  0
VERTEX
  8
0
 62
7
 10
20.99650587
 20
15.15000000
  0
VERTEX
  8
0
 62
7
 10
19.95407720
 20
15.14611938
  0
VERTEX
  8
0
 62
7
 10
18.91090029
 20
15.13451758
  0
VERTEX
  8
0
 62
7
 10
17.86737071
 20
15.11525464
  0
VERTEX
  8
0
 62
7
 10
16.82388403
 20
15.08839063
  0
VERTEX
  8
0
 62
7
 10
15.78083580
 20
15.05398560
  0
VERTEX
  8
0
 62
7
 10
14.73862159
 20
15.01209961
  0
VERTEX
  8
0
 62
7
 10
13.69763697
 20
14.96279272
  0
VERTEX
  8
0
 62
7
 10
12.65827748
 20
14.90612500
  0
VERTEX
  8
0
 62
7
 10
11.62093871
 20
14.84215649
  0
VERTEX
  8
0
 62
7
 10
10.58601620
 20
14.77094727
  0
VERTEX
  8
0
 62
7
 10
9.55390553
 20
14.69255737
  0
VERTEX
  8
0
 62
7
 10
8.52500226
 20
14.60704688
  0
VERTEX
  8
0
 62
7
 10
7.49970195
 20
14.51447583
  0
VERTEX
  8
0
 62
7
 10
6.47840016
 20
14.41490430
  0
VERTEX
  8
0
 62
7
 10
5.46149245
 20
14.30839233
  0
VERTEX
  8
0
 62
7
 10
4.44937440
 20
14.19500000
  0
VERTEX
  8
0
 62
7
 10
4.44937440
 20
9.85000000
  0
VERTEX
  8
0
 62
7
 10
37.55014427
 20
9.85000000
  0
SEQEND
  0
POLYLINE
  8
0
 62
7
 66
1
 70
1
  0
VERTEX
  8
0
 62
7
 10
5.97400000
 20
2.94600000
  0
VERTEX
  8
0
 62
7
 10
5.93204688
 20
2.97725000
  0
VERTEX
  8
0
 62
7
 10
5.87912500
 20
3.01000000
  0
VERTEX
  8
0
 62
7
 10
5.82789063
 20
3.03825000
  0
VERTEX
  8
0
 62
7
 10
5.79100000
 20
3.05600000
  0
VERTEX
  8
0
 62
7
 10
5.74223438
 20
3.07505664
  0
VERTEX
  8
0
 62
7
 10
5.69206250
 20
3.09107813
  0
VERTEX
  8
0
 62
7
 10
5.64067188
 20
3.10421680
  0
VERTEX
  8
0
 62
7
 10
5.58825000
 20
3.11462500
  0
VERTEX
  8
0
 62
7
 10
5.53498438
 20
3.12245508
  0
VERTEX
  8
0
 62
7
 10
5.48106250
 20
3.12785938
  0
VERTEX
  8
0
 62
7
 10
5.42667188
 20
3.13099023
  0
VERTEX
  8
0
 62
7
 10
5.37200000
 20
3.13200000
  0
VERTEX
  8
0
 62
7
 10
5.27185938
 20
3.12873438
  0
VERTEX
  8
0
 62
7
 10
5.17162500
 20
3.11937500
  0
VERTEX
  8
0
 62
7
 10
5.07232813
 20
3.10457813
  0
VERTEX
  8
0
 62
7
 10
4.97500000
 20
3.08500000
  0
VERTEX
  8
0
 62
7
 10
4.92574023
 20
3.07159961
  0
VERTEX
  8
0
 62
7
 10
4.87248438
 20
3.05373438
  0
VERTEX
  8
0
 62
7
 10
4.81639258
 20
3.03228320
  0
VERTEX
  8
0
 62
7
 10
4.75862500
 20
3.00812500
  0
VERTEX
  8
0
 62
7
 10
4.70034180
 20
2.98213867
  0
VERTEX
  8
0
 62
7
 10
4.64270313
 20
2.95520313
  0
VERTEX
  8
0
 62
7
 10
4.58686914
 20
2.92819727
  0
VERTEX
  8
0
 62
7
 10
4.53400000
 20
2.90200000
  0
VERTEX
  8
0
 62
7
 10
4.60937500
 20
3.02425000
  0
VERTEX
  8
0
 62
7
 10
4.68400000
 20
3.15100000
  0
VERTEX
  8
0
 62
7
 10
4.74812109
 20
3.26749023
  0
VERTEX
  8
0
 62
7
 10
4.81203125
 20
3.39610938
  0
VERTEX
  8
0
 62
7
 10
4.87542578
 20
3.53520508
  0
VERTEX
  8
0
 62
7
 10
4.93800000
 20
3.68312500
  0
VERTEX
  8
0
 62
7
 10
4.99944922
 20
3.83821680
  0
VERTEX
  8
0
 62
7
 10
5.05946875
 20
3.99882813
  0
VERTEX
  8
0
 62
7
 10
5.11775391
 20
4.16330664
  0
VERTEX
  8
0
 62
7
 10
5.17400000
 20
4.33000000
  0
VERTEX
  8
0
 62
7
 10
5.27073438
 20
4.62751563
  0
VERTEX
  8
0
 62
7
 10
5.36362500
 20
4.92212500
  0
VERTEX
  8
0
 62
7
 10
5.44920313
 20
5.20117188
  0
VERTEX
  8
0
 62
7
 10
5.52400000
 20
5.45200000
  0
VERTEX
  8
0
 62
7
 10
5.58471875
 20
5.67085938
  0
VERTEX
  8
0
 62
7
 10
5.63925000
 20
5.89037500
  0
VERTEX
  8
0
 62
7
 10
5.68965625
 20
6.11195313
  0
VERTEX
  8
0
 62
7
 10
5.73800000
 20
6.33700000
  0
VERTEX
  8
0
 62
7
 10
5.75359204
 20
6.41000415
  0
VERTEX
  8
0
 62
7
 10
5.76926758
 20
6.48186133
  0
VERTEX
  8
0
 62
7
 10
5.78506323
 20
6.55233862
  0
VERTEX
  8
0
 62
7
 10
5.80101563
 20
6.62120313
  0
VERTEX
  8
0
 62
7
 10
5.81716138
 20
6.68822192
  0
VERTEX
  8
0
 62
7
 10
5.83353711
 20
6.75316211
  0
VERTEX
  8
0
 62
7
 10
5.85017944
 20
6.81579077
  0
VERTEX
  8
0
 62
7
 10
5.86712500
 20
6.87587500
  0
VERTEX
  8
0
 62
7
 10
5.88441040
 20
6.93318188
  0
VERTEX
  8
0
 62
7
 10
5.90207227
 20
6.98747852
  0
VERTEX
  8
0
 62
7
 10
5.92014722
 20
7.03853198
  0
VERTEX
  8
0
 62
7
 10
5.93867188
 20
7.08610938
  0
VERTEX
  8
0
 62
7
 10
5.95768286
 20
7.12997778
  0
VERTEX
  8
0
 62
7
 10
5.97721680
 20
7.16990430
  0
VERTEX
  8
0
 62
7
 10
5.99731030
 20
7.20565601
  0
VERTEX
  8
0
 62
7
 10
6.01800000
 20
7.23700000
  0
VERTEX
  8
0
 62
7
 10
6.04315625
 20
7.26743750
  0
VERTEX
  8
0
 62
7
 10
6.07150000
 20
7.29300000
  0
VERTEX
  8
0
 62
7
 10
6.10209375
 20
7.31406250
  0
VERTEX
  8
0
 62
7
 10
6.13400000
 20
7.33100000
  0
VERTEX
  8
0
 62
7
 10
6.14900000
 20
7.31100000
  0
VERTEX
  8
0
 62
7
 10
6.15594141
 20
7.29937305
  0
VERTEX
  8
0
 62
7
 10
6.15971875
 20
7.28717188
  0
VERTEX
  8
0
 62
7
 10
6.16063672
 20
7.27466602
  0
VERTEX
  8
0
 62
7
 10
6.15900000
 20
7.26212500
  0
VERTEX
  8
0
 62
7
 10
6.15511328
 20
7.24981836
  0
VERTEX
  8
0
 62
7
 10
6.14928125
 20
7.23801563
  0
VERTEX
  8
0
 62
7
 10
6.14180859
 20
7.22698633
  0
VERTEX
  8
0
 62
7
 10
6.13300000
 20
7.21700000
  0
VERTEX
  8
0
 62
7
 10
6.11737500
 20
7.20400000
  0
VERTEX
  8
0
 62
7
 10
6.09800000
 20
7.19400000
  0
VERTEX
  8
0
 62
7
 10
6.07604492
 20
7.18271094
  0
VERTEX
  8
0
 62
7
 10
6.05904688
 20
7.16687500
  0
VERTEX
  8
0
 62
7
 10
6.04718164
 20
7.14766406
  0
VERTEX
  8
0
 62
7
 10
6.04062500
 20
7.12625000
  0
VERTEX
  8
0
 62
7
 10
6.03955273
 20
7.10380469
  0
VERTEX
  8
0
 62
7
 10
6.04414063
 20
7.08150000
  0
VERTEX
  8
0
 62
7
 10
6.05456445
 20
7.06050781
  0
VERTEX
  8
0
 62
7
 10
6.07100000
 20
7.04200000
  0
VERTEX
  8
0
 62
7
 10
6.09061914
 20
7.02657422
  0
VERTEX
  8
0
 62
7
 10
6.11114063
 20
7.01328125
  0
VERTEX
  8
0
 62
7
 10
6.13243555
 20
7.00209766
  0
VERTEX
  8
0
 62
7
 10
6.15437500
 20
6.99300000
  0
VERTEX
  8
0
 62
7
 10
6.17683008
 20
6.98596484
  0
VERTEX
  8
0
 62
7
 10
6.19967188
 20
6.98096875
  0
VERTEX
  8
0
 62
7
 10
6.22277148
 20
6.97798828
  0
VERTEX
  8
0
 62
7
 10
6.24600000
 20
6.97700000
  0
VERTEX
  8
0
 62
7
 10
6.29196875
 20
6.98089063
  0
VERTEX
  8
0
 62
7
 10
6.33625000
 20
6.99237500
  0
VERTEX
  8
0
 62
7
 10
6.37790625
 20
7.01117188
  0
VERTEX
  8
0
 62
7
 10
6.41600000
 20
7.03700000
  0
VERTEX
  8
0
 62
7
 10
6.44905273
 20
7.06501172
  0
VERTEX
  8
0
 62
7
 10
6.48110938
 20
7.09440625
  0
VERTEX
  8
0
 62
7
 10
6.51164258
 20
7.12534766
  0
VERTEX
  8
0
 62
7
 10
6.54012500
 20
7.15800000
  0
VERTEX
  8
0
 62
7
 10
6.56602930
 20
7.19252734
  0
VERTEX
  8
0
 62
7
 10
6.58882813
 20
7.22909375
  0
VERTEX
  8
0
 62
7
 10
6.60799414
 20
7.26786328
  0
VERTEX
  8
0
 62
7
 10
6.62300000
 20
7.30900000
  0
VERTEX
  8
0
 62
7
 10
6.63039648
 20
7.34067578
  0
VERTEX
  8
0
 62
7
 10
6.63435938
 20
7.37265625
  0
VERTEX
  8
0
 62
7
 10
6.63567383
 20
7.40487109
  0
VERTEX
  8
0
 62
7
 10
6.63512500
 20
7.43725000
  0
VERTEX
  8
0
 62
7
 10
6.63349805
 20
7.46972266
  0
VERTEX
  8
0
 62
7
 10
6.63157813
 20
7.50221875
  0
VERTEX
  8
0
 62
7
 10
6.63015039
 20
7.53466797
  0
VERTEX
  8
0
 62
7
 10
6.63000000
 20
7.56700000
  0
VERTEX
  8
0
 62
7
 10
6.63400000
 20
7.59700000
  0
VERTEX
  8
0
 62
7
 10
19.82000000
 20
7.59700000
  0
VERTEX
  8
0
 62
7
 10
19.82000000
 20
2.09700000
  0
VERTEX
  8
0
 62
7
 10
5.97900000
 20
2.09700000
  0
VERTEX
  8
0
 62
7
 10
6.00364648
 20
2.11503125
  0
VERTEX
  8
0
 62
7
 10
6.02860938
 20
2.13550000
  0
VERTEX
  8
0
 62
7
 10
6.05354883
 20
2.15859375
  0
VERTEX
  8
0
 62
7
 10
6.07812500
 20
2.18450000
  0
VERTEX
  8
0
 62
7
 10
6.10199805
 20
2.21340625
  0
VERTEX
  8
0
 62
7
 10
6.12482813
 20
2.24550000
  0
VERTEX
  8
0
 62
7
 10
6.14627539
 20
2.28096875
  0
VERTEX
  8
0
 62
7
 10
6.16600000
 20
2.32000000
  0
VERTEX
  8
0
 62
7
 10
6.18421875
 20
2.36667188
  0
VERTEX
  8
0
 62
7
 10
6.19700000
 20
2.41362500
  0
VERTEX
  8
0
 62
7
 10
6.20453125
 20
2.46076563
  0
VERTEX
  8
0
 62
7
 10
6.20700000
 20
2.50800000
  0
VERTEX
  8
0
 62
7
 10
6.20566870
 20
2.54041772
  0
VERTEX
  8
0
 62
7
 10
6.20178711
 20
2.57238867
  0
VERTEX
  8
0
 62
7
 10
6.19552368
 20
2.60386450
  0
VERTEX
  8
0
 62
7
 10
6.18704688
 20
2.63479688
  0
VERTEX
  8
0
 62
7
 10
6.17652515
 20
2.66513745
  0
VERTEX
  8
0
 62
7
 10
6.16412695
 20
2.69483789
  0
VERTEX
  8
0
 62
7
 10
6.15002075
 20
2.72384985
  0
VERTEX
  8
0
 62
7
 10
6.13437500
 20
2.75212500
  0
VERTEX
  8
0
 62
7
 10
6.11735815
 20
2.77961499
  0
VERTEX
  8
0
 62
7
 10
6.09913867
 20
2.80627148
  0
VERTEX
  8
0
 62
7
 10
6.07988501
 20
2.83204614
  0
VERTEX
  8
0
 62
7
 10
6.05976563
 20
2.85689063
  0
VERTEX
  8
0
 62
7
 10
6.03894897
 20
2.88075659
  0
VERTEX
  8
0
 62
7
 10
6.01760352
 20
2.90359570
  0
VERTEX
  8
0
 62
7
 10
5.99589771
 20
2.92535962
  0
VERTEX
  8
0
 62
7
 10
5.97400000
 20
2.94600000
  0
SEQEND
  0
POLYLINE
  8
0
 62
7
 66
1
 70
1
  0
VERTEX
  8
0
 62
7
 10
20.16000000
 20
2.09700000
  0
VERTEX
  8
0
 62
7
 10
19.91000000
 20
2.09700000
  0
VERTEX
  8
0
 62
7
 10
19.91000000
 20
7.59700000
  0
VERTEX
  8
0
 62
7
 10
20.16000000
 20
7.59700000
  0
VERTEX
  8
0
 62
7
 10
20.16000000
 20
2.09700000
  0
SEQEND
  0
POLYLINE
  8
0
 62
7
 66
1
 70
1
  0
VERTEX
  8
0
 62
7
 10
2.92100000
 20
6.87700000
  0
VERTEX
  8
0
 62
7
 10
2.92500000
 20
6.82725000
  0
VERTEX
  8
0
 62
7
 10
2.93500000
 20
6.77900000
  0
VERTEX
  8
0
 62
7
 10
2.88811523
 20
6.80597021
  0
VERTEX
  8
0
 62
7
 10
2.83878125
 20
6.82990234
  0
VERTEX
  8
0
 62
7
 10
2.78729102
 20
6.85082861
  0
VERTEX
  8
0
 62
7
 10
2.73393750
 20
6.86878125
  0
VERTEX
  8
0
 62
7
 10
2.67901367
 20
6.88379248
  0
VERTEX
  8
0
 62
7
 10
2.62281250
 20
6.89589453
  0
VERTEX
  8
0
 62
7
 10
2.56562695
 20
6.90511963
  0
VERTEX
  8
0
 62
7
 10
2.50775000
 20
6.91150000
  0
VERTEX
  8
0
 62
7
 10
2.44947461
 20
6.91506787
  0
VERTEX
  8
0
 62
7
 10
2.39109375
 20
6.91585547
  0
VERTEX
  8
0
 62
7
 10
2.33290039
 20
6.91389502
  0
VERTEX
  8
0
 62
7
 10
2.27518750
 20
6.90921875
  0
VERTEX
  8
0
 62
7
 10
2.21824805
 20
6.90185889
  0
VERTEX
  8
0
 62
7
 10
2.16237500
 20
6.89184766
  0
VERTEX
  8
0
 62
7
 10
2.10786133
 20
6.87921729
  0
VERTEX
  8
0
 62
7
 10
2.05500000
 20
6.86400000
  0
VERTEX
  8
0
 62
7
 10
2.01170898
 20
6.84905859
  0
VERTEX
  8
0
 62
7
 10
1.97079688
 20
6.82996875
  0
VERTEX
  8
0
 62
7
 10
1.93295508
 20
6.80708203
  0
VERTEX
  8
0
 62
7
 10
1.89887500
 20
6.78075000
  0
VERTEX
  8
0
 62
7
 10
1.86924805
 20
6.75132422
  0
VERTEX
  8
0
 62
7
 10
1.84476563
 20
6.71915625
  0
VERTEX
  8
0
 62
7
 10
1.82611914
 20
6.68459766
  0
VERTEX
  8
0
 62
7
 10
1.81400000
 20
6.64800000
  0
VERTEX
  8
0
 62
7
 10
1.80844531
 20
6.61402344
  0
VERTEX
  8
0
 62
7
 10
1.80762500
 20
6.58206250
  0
VERTEX
  8
0
 62
7
 10
1.81055469
 20
6.55244531
  0
VERTEX
  8
0
 62
7
 10
1.81625000
 20
6.52550000
  0
VERTEX
  8
0
 62
7
 10
1.82372656
 20
6.50155469
  0
VERTEX
  8
0
 62
7
 10
1.83200000
 20
6.48093750
  0
VERTEX
  8
0
 62
7
 10
1.84008594
 20
6.46397656
  0
VERTEX
  8
0
 62
7
 10
1.84700000
 20
6.45100000
  0
VERTEX
  8
0
 62
7
 10
1.83200000
 20
6.44000000
  0
VERTEX
  8
0
 62
7
 10
1.79791113
 20
6.44738599
  0
VERTEX
  8
0
 62
7
 10
1.76474219
 20
6.46050977
  0
VERTEX
  8
0
 62
7
 10
1.73263965
 20
6.47875757
  0
VERTEX
  8
0
 62
7
 10
1.70175000
 20
6.50151563
  0
VERTEX
  8
0
 62
7
 10
1.67221973
 20
6.52817017
  0
VERTEX
  8
0
 62
7
 10
1.64419531
 20
6.55810742
  0
VERTEX
  8
0
 62
7
 10
1.61782324
 20
6.59071362
  0
VERTEX
  8
0
 62
7
 10
1.59325000
 20
6.62537500
  0
VERTEX
  8
0
 62
7
 10
1.57062207
 20
6.66147778
  0
VERTEX
  8
0
 62
7
 10
1.55008594
 20
6.69840820
  0
VERTEX
  8
0
 62
7
 10
1.53178809
 20
6.73555249
  0
VERTEX
  8
0
 62
7
 10
1.51587500
 20
6.77229688
  0
VERTEX
  8
0
 62
7
 10
1.50249316
 20
6.80802759
  0
VERTEX
  8
0
 62
7
 10
1.49178906
 20
6.84213086
  0
VERTEX
  8
0
 62
7
 10
1.48390918
 20
6.87399292
  0
VERTEX
  8
0
 62
7
 10
1.47900000
 20
6.90300000
  0
VERTEX
  8
0
 62
7
 10
1.47589795
 20
6.94325537
  0
VERTEX
  8
0
 62
7
 10
1.47663672
 20
6.98499609
  0
VERTEX
  8
0
 62
7
 10
1.48109619
 20
7.02780908
  0
VERTEX
  8
0
 62
7
 10
1.48915625
 20
7.07128125
  0
VERTEX
  8
0
 62
7
 10
1.50069678
 20
7.11499951
  0
VERTEX
  8
0
 62
7
 10
1.51559766
 20
7.15855078
  0
VERTEX
  8
0
 62
7
 10
1.53373877
 20
7.20152197
  0
VERTEX
  8
0
 62
7
 10
1.55500000
 20
7.24350000
  0
VERTEX
  8
0
 62
7
 10
1.57926123
 20
7.28407178
  0
VERTEX
  8
0
 62
7
 10
1.60640234
 20
7.32282422
  0
VERTEX
  8
0
 62
7
 10
1.63630322
 20
7.35934424
  0
VERTEX
  8
0
 62
7
 10
1.66884375
 20
7.39321875
  0
VERTEX
  8
0
 62
7
 10
1.70390381
 20
7.42403467
  0
VERTEX
  8
0
 62
7
 10
1.74136328
 20
7.45137891
  0
VERTEX
  8
0
 62
7
 10
1.78110205
 20
7.47483838
  0
VERTEX
  8
0
 62
7
 10
1.82300000
 20
7.49400000
  0
VERTEX
  8
0
 62
7
 10
1.88989063
 20
7.52359375
  0
VERTEX
  8
0
 62
7
 10
1.95987500
 20
7.54775000
  0
VERTEX
  8
0
 62
7
 10
2.03267188
 20
7.56628125
  0
VERTEX
  8
0
 62
7
 10
2.10800000
 20
7.57900000
  0
VERTEX
  8
0
 62
7
 10
2.18707617
 20
7.58618945
  0
VERTEX
  8
0
 62
7
 10
2.26698438
 20
7.58814063
  0
VERTEX
  8
0
 62
7
 10
2.34686914
 20
7.58467773
  0
VERTEX
  8
0
 62
7
 10
2.42587500
 20
7.57562500
  0
VERTEX
  8
0
 62
7
 10
2.50314648
 20
7.56080664
  0
VERTEX
  8
0
 62
7
 10
2.57782813
 20
7.54004688
  0
VERTEX
  8
0
 62
7
 10
2.64906445
 20
7.51316992
  0
VERTEX
  8
0
 62
7
 10
2.71600000
 20
7.48000000
  0
VERTEX
  8
0
 62
7
 10
2.66887500
 20
7.46087500
  0
VERTEX
  8
0
 62
7
 10
2.62700000
 20
7.44100000
  0
VERTEX
  8
0
 62
7
 10
2.60121875
 20
7.42671875
  0
VERTEX
  8
0
 62
7
 10
2.57300000
 20
7.40775000
  0
VERTEX
  8
0
 62
7
 10
2.54628125
 20
7.38390625
  0
VERTEX
  8
0
 62
7
 10
2.52500000
 20
7.35500000
  0
VERTEX
  8
0
 62
7
 10
2.51687500
 20
7.33490625
  0
VERTEX
  8
0
 62
7
 10
2.51400000
 20
7.31575000
  0
VERTEX
  8
0
 62
7
 10
2.51487500
 20
7.29846875
  0
VERTEX
  8
0
 62
7
 10
2.51800000
 20
7.28400000
  0
VERTEX
  8
0
 62
7
 10
2.52637500
 20
7.26612500
  0
VERTEX
  8
0
 62
7
 10
2.53400000
 20
7.25500000
  0
VERTEX
  8
0
 62
7
 10
2.55000000
 20
7.23900000
  0
VERTEX
  8
0
 62
7
 10
2.56400000
 20
7.23000000
  0
VERTEX
  8
0
 62
7
 10
2.58600000
 20
7.21700000
  0
VERTEX
  8
0
 62
7
 10
2.60430811
 20
7.20680957
  0
VERTEX
  8
0
 62
7
 10
2.62483984
 20
7.19500781
  0
VERTEX
  8
0
 62
7
 10
2.64719385
 20
7.18162402
  0
VERTEX
  8
0
 62
7
 10
2.67096875
 20
7.16668750
  0
VERTEX
  8
0
 62
7
 10
2.69576318
 20
7.15022754
  0
VERTEX
  8
0
 62
7
 10
2.72117578
 20
7.13227344
  0
VERTEX
  8
0
 62
7
 10
2.74680518
 20
7.11285449
  0
VERTEX
  8
0
 62
7
 10
2.77225000
 20
7.09200000
  0
VERTEX
  8
0
 62
7
 10
2.79710889
 20
7.06973926
  0
VERTEX
  8
0
 62
7
 10
2.82098047
 20
7.04610156
  0
VERTEX
  8
0
 62
7
 10
2.84346338
 20
7.02111621
  0
VERTEX
  8
0
 62
7
 10
2.86415625
 20
6.99481250
  0
VERTEX
  8
0
 62
7
 10
2.88265771
 20
6.96721973
  0
VERTEX
  8
0
 62
7
 10
2.89856641
 20
6.93836719
  0
VERTEX
  8
0
 62
7
 10
2.91148096
 20
6.90828418
  0
VERTEX
  8
0
 62
7
 10
2.92100000
 20
6.87700000
  0
SEQEND
  0
POLYLINE
  8
0
 62
7
 66
1
 70
1
  0
VERTEX
  8
0
 62
7
 10
6.67300000
 20
7.68700000
  0
VERTEX
  8
0
 62
7
 10
6.69000000
 20
7.72200000
  0
VERTEX
  8
0
 62
7
 10
6.69400000
 20
7.73200000
  0
VERTEX
  8
0
 62
7
 10
6.70112500
 20
7.75050000
  0
VERTEX
  8
0
 62
7
 10
6.70900000
 20
7.77500000
  0
VERTEX
  8
0
 62
7
 10
6.71537500
 20
7.80400000
  0
VERTEX
  8
0
 62
7
 10
6.71800000
 20
7.83600000
  0
VERTEX
  8
0
 62
7
 10
6.71637500
 20
7.86062500
  0
VERTEX
  8
0
 62
7
 10
6.71100000
 20
7.88600000
  0
VERTEX
  8
0
 62
7
 10
6.70629102
 20
7.90060938
  0
VERTEX
  8
0
 62
7
 10
6.70032813
 20
7.91568750
  0
VERTEX
  8
0
 62
7
 10
6.69298242
 20
7.93085938
  0
VERTEX
  8
0
 62
7
 10
6.68412500
 20
7.94575000
  0
VERTEX
  8
0
 62
7
 10
6.67362695
 20
7.95998438
  0
VERTEX
  8
0
 62
7
 10
6.66135938
 20
7.97318750
  0
VERTEX
  8
0
 62
7
 10
6.64719336
 20
7.98498438
  0
VERTEX
  8
0
 62
7
 10
6.63100000
 20
7.99500000
  0
VERTEX
  8
0
 62
7
 10
6.57811133
 20
8.02041943
  0
VERTEX
  8
0
 62
7
 10
6.52453125
 20
8.04273047
  0
VERTEX
  8
0
 62
7
 10
6.47038867
 20
8.06201221
  0
VERTEX
  8
0
 62
7
 10
6.41581250
 20
8.07834375
  0
VERTEX
  8
0
 62
7
 10
6.36093164
 20
8.09180420
  0
VERTEX
  8
0
 62
7
 10
6.30587500
 20
8.10247266
  0
VERTEX
  8
0
 62
7
 10
6.25077148
 20
8.11042822
  0
VERTEX
  8
0
 62
7
 10
6.19575000
 20
8.11575000
  0
VERTEX
  8
0
 62
7
 10
6.14093945
 20
8.11851709
  0
VERTEX
  8
0
 62
7
 10
6.08646875
 20
8.11880859
  0
VERTEX
  8
0
 62
7
 10
6.03246680
 20
8.11670361
  0
VERTEX
  8
0
 62
7
 10
5.97906250
 20
8.11228125
  0
VERTEX
  8
0
 62
7
 10
5.92638477
 20
8.10562061
  0
VERTEX
  8
0
 62
7
 10
5.87456250
 20
8.09680078
  0
VERTEX
  8
0
 62
7
 10
5.82372461
 20
8.08590088
  0
VERTEX
  8
0
 62
7
 10
5.77400000
 20
8.07300000
  0
VERTEX
  8
0
 62
7
 10
5.73816211
 20
8.06160498
  0
VERTEX
  8
0
 62
7
 10
5.70062500
 20
8.04732422
  0
VERTEX
  8
0
 62
7
 10
5.66172852
 20
8.03020166
  0
VERTEX
  8
0
 62
7
 10
5.62181250
 20
8.01028125
  0
VERTEX
  8
0
 62
7
 10
5.58121680
 20
7.98760693
  0
VERTEX
  8
0
 62
7
 10
5.54028125
 20
7.96222266
  0
VERTEX
  8
0
 62
7
 10
5.49934570
 20
7.93417236
  0
VERTEX
  8
0
 62
7
 10
5.45875000
 20
7.90350000
  0
VERTEX
  8
0
 62
7
 10
5.41883398
 20
7.87024951
  0
VERTEX
  8
0
 62
7
 10
5.37993750
 20
7.83446484
  0
VERTEX
  8
0
 62
7
 10
5.34240039
 20
7.79618994
  0
VERTEX
  8
0
 62
7
 10
5.30656250
 20
7.75546875
  0
VERTEX
  8
0
 62
7
 10
5.27276367
 20
7.71234521
  0
VERTEX
  8
0
 62
7
 10
5.24134375
 20
7.66686328
  0
VERTEX
  8
0
 62
7
 10
5.21264258
 20
7.61906689
  0
VERTEX
  8
0
 62
7
 10
5.18700000
 20
7.56900000
  0
VERTEX
  8
0
 62
7
 10
5.16700000
 20
7.52500000
  0
VERTEX
  8
0
 62
7
 10
5.11567188
 20
7.53746875
  0
VERTEX
  8
0
 62
7
 10
5.06612500
 20
7.54750000
  0
VERTEX
  8
0
 62
7
 10
5.01976563
 20
7.55453125
  0
VERTEX
  8
0
 62
7
 10
4.97800000
 20
7.55800000
  0
VERTEX
  8
0
 62
7
 10
4.94400000
 20
7.55900000
  0
VERTEX
  8
0
 62
7
 10
4.86522461
 20
7.55145703
  0
VERTEX
  8
0
 62
7
 10
4.79379688
 20
7.54028125
  0
VERTEX
  8
0
 62
7
 10
4.73068945
 20
7.52690234
  0
VERTEX
  8
0
 62
7
 10
4.67687500
 20
7.51275000
  0
VERTEX
  8
0
 62
7
 10
4.63332617
 20
7.49925391
  0
VERTEX
  8
0
 62
7
 10
4.60101563
 20
7.48784375
  0
VERTEX
  8
0
 62
7
 10
4.58091602
 20
7.47994922
  0
VERTEX
  8
0
 62
7
 10
4.57400000
 20
7.47700000
  0
VERTEX
  8
0
 62
7
 10
4.57310425
 20
7.49866309
  0
VERTEX
  8
0
 62
7
 10
4.57503711
 20
7.51947656
  0
VERTEX
  8
0
 62
7
 10
4.57941626
 20
7.53955176
  0
VERTEX
  8
0
 62
7
 10
4.58585938
 20
7.55900000
  0
VERTEX
  8
0
 62
7
 10
4.59398413
 20
7.57793262
  0
VERTEX
  8
0
 62
7
 10
4.60340820
 20
7.59646094
  0
VERTEX
  8
0
 62
7
 10
4.61374927
 20
7.61469629
  0
VERTEX
  8
0
 62
7
 10
4.62462500
 20
7.63275000
  0
VERTEX
  8
0
 62
7
 10
4.63565308
 20
7.65073340
  0
VERTEX
  8
0
 62
7
 10
4.64645117
 20
7.66875781
  0
VERTEX
  8
0
 62
7
 10
4.65663696
 20
7.68693457
  0
VERTEX
  8
0
 62
7
 10
4.66582813
 20
7.70537500
  0
VERTEX
  8
0
 62
7
 10
4.67364233
 20
7.72419043
  0
VERTEX
  8
0
 62
7
 10
4.67969727
 20
7.74349219
  0
VERTEX
  8
0
 62
7
 10
4.68361060
 20
7.76339160
  0
VERTEX
  8
0
 62
7
 10
4.68500000
 20
7.78400000
  0
VERTEX
  8
0
 62
7
 10
4.68390796
 20
7.81282935
  0
VERTEX
  8
0
 62
7
 10
4.68066992
 20
7.84077539
  0
VERTEX
  8
0
 62
7
 10
4.67534302
 20
7.86777515
  0
VERTEX
  8
0
 62
7
 10
4.66798438
 20
7.89376563
  0
VERTEX
  8
0
 62
7
 10
4.65865112
 20
7.91868384
  0
VERTEX
  8
0
 62
7
 10
4.64740039
 20
7.94246680
  0
VERTEX
  8
0
 62
7
 10
4.63428931
 20
7.96505151
  0
VERTEX
  8
0
 62
7
 10
4.61937500
 20
7.98637500
  0
VERTEX
  8
0
 62
7
 10
4.60271460
 20
8.00637427
  0
VERTEX
  8
0
 62
7
 10
4.58436523
 20
8.02498633
  0
VERTEX
  8
0
 62
7
 10
4.56438403
 20
8.04214819
  0
VERTEX
  8
0
 62
7
 10
4.54282813
 20
8.05779687
  0
VERTEX
  8
0
 62
7
 10
4.51975464
 20
8.07186938
  0
VERTEX
  8
0
 62
7
 10
4.49522070
 20
8.08430273
  0
VERTEX
  8
0
 62
7
 10
4.46928345
 20
8.09503394
  0
VERTEX
  8
0
 62
7
 10
4.44200000
 20
8.10400000
  0
VERTEX
  8
0
 62
7
 10
4.39500781
 20
8.11578125
  0
VERTEX
  8
0
 62
7
 10
4.34468750
 20
8.12568750
  0
VERTEX
  8
0
 62
7
 10
4.29202344
 20
8.13381250
  0
VERTEX
  8
0
 62
7
 10
4.23800000
 20
8.14025000
  0
VERTEX
  8
0
 62
7
 10
4.18360156
 20
8.14509375
  0
VERTEX
  8
0
 62
7
 10
4.12981250
 20
8.14843750
  0
VERTEX
  8
0
 62
7
 10
4.07761719
 20
8.15037500
  0
VERTEX
  8
0
 62
7
 10
4.02800000
 20
8.15100000
  0
VERTEX
  8
0
 62
7
 10
3.97862500
 20
8.15037500
  0
VERTEX
  8
0
 62
7
 10
3.92643750
 20
8.14843750
  0
VERTEX
  8
0
 62
7
 10
3.87246875
 20
8.14509375
  0
VERTEX
  8
0
 62
7
 10
3.81775000
 20
8.14025000
  0
VERTEX
  8
0
 62
7
 10
3.76331250
 20
8.13381250
  0
VERTEX
  8
0
 62
7
 10
3.71018750
 20
8.12568750
  0
VERTEX
  8
0
 62
7
 10
3.65940625
 20
8.11578125
  0
VERTEX
  8
0
 62
7
 10
3.61200000
 20
8.10400000
  0
VERTEX
  8
0
 62
7
 10
3.57507813
 20
8.09125000
  0
VERTEX
  8
0
 62
7
 10
3.54087500
 20
8.07550000
  0
VERTEX
  8
0
 62
7
 10
3.50948438
 20
8.05675000
  0
VERTEX
  8
0
 62
7
 10
3.48100000
 20
8.03500000
  0
VERTEX
  8
0
 62
7
 10
3.42687500
 20
8.11812500
  0
VERTEX
  8
0
 62
7
 10
3.37200000
 20
8.19600000
  0
VERTEX
  8
0
 62
7
 10
3.31400000
 20
8.27700000
  0
VERTEX
  8
0
 62
7
 10
3.27925586
 20
8.32520703
  0
VERTEX
  8
0
 62
7
 10
3.24210938
 20
8.37165625
  0
VERTEX
  8
0
 62
7
 10
3.20306445
 20
8.41646484
  0
VERTEX
  8
0
 62
7
 10
3.16262500
 20
8.45975000
  0
VERTEX
  8
0
 62
7
 10
3.12129492
 20
8.50162891
  0
VERTEX
  8
0
 62
7
 10
3.07957813
 20
8.54221875
  0
VERTEX
  8
0
 62
7
 10
3.03797852
 20
8.58163672
  0
VERTEX
  8
0
 62
7
 10
2.99700000
 20
8.62000000
  0
VERTEX
  8
0
 62
7
 10
2.96200000
 20
8.65300000
  0
VERTEX
  8
0
 62
7
 10
2.90804688
 20
8.70934375
  0
VERTEX
  8
0
 62
7
 10
2.86037500
 20
8.77150000
  0
VERTEX
  8
0
 62
7
 10
2.81926563
 20
8.83890625
  0
VERTEX
  8
0
 62
7
 10
2.78500000
 20
8.91100000
  0
VERTEX
  8
0
 62
7
 10
2.75562500
 20
8.99400000
  0
VERTEX
  8
0
 62
7
 10
2.73300000
 20
9.08000000
  0
VERTEX
  8
0
 62
7
 10
2.72807983
 20
9.09571265
  0
VERTEX
  8
0
 62
7
 10
2.72101367
 20
9.10946680
  0
VERTEX
  8
0
 62
7
 10
2.71209302
 20
9.12124927
  0
VERTEX
  8
0
 62
7
 10
2.70160938
 20
9.13104687
  0
VERTEX
  8
0
 62
7
 10
2.68985425
 20
9.13884644
  0
VERTEX
  8
0
 62
7
 10
2.67711914
 20
9.14463477
  0
VERTEX
  8
0
 62
7
 10
2.66369556
 20
9.14839868
  0
VERTEX
  8
0
 62
7
 10
2.64987500
 20
9.15012500
  0
VERTEX
  8
0
 62
7
 10
2.63594897
 20
9.14980054
  0
VERTEX
  8
0
 62
7
 10
2.62220898
 20
9.14741211
  0
VERTEX
  8
0
 62
7
 10
2.60894653
 20
9.14294653
  0
VERTEX
  8
0
 62
7
 10
2.59645313
 20
9.13639063
  0
VERTEX
  8
0
 62
7
 10
2.58502026
 20
9.12773120
  0
VERTEX
  8
0
 62
7
 10
2.57493945
 20
9.11695508
  0
VERTEX
  8
0
 62
7
 10
2.56650220
 20
9.10404907
  0
VERTEX
  8
0
 62
7
 10
2.56000000
 20
9.08900000
  0
VERTEX
  8
0
 62
7
 10
2.53501758
 20
9.01129883
  0
VERTEX
  8
0
 62
7
 10
2.51332813
 20
8.93276563
  0
VERTEX
  8
0
 62
7
 10
2.49494336
 20
8.85350586
  0
VERTEX
  8
0
 62
7
 10
2.47987500
 20
8.77362500
  0
VERTEX
  8
0
 62
7
 10
2.46813477
 20
8.69322852
  0
VERTEX
  8
0
 62
7
 10
2.45973438
 20
8.61242188
  0
VERTEX
  8
0
 62
7
 10
2.45468555
 20
8.53131055
  0
VERTEX
  8
0
 62
7
 10
2.45300000
 20
8.45000000
  0
VERTEX
  8
0
 62
7
 10
2.45560938
 20
8.35012500
  0
VERTEX
  8
0
 62
7
 10
2.46337500
 20
8.25025000
  0
VERTEX
  8
0
 62
7
 10
2.47620313
 20
8.15075000
  0
VERTEX
  8
0
 62
7
 10
2.49400000
 20
8.05200000
  0
VERTEX
  8
0
 62
7
 10
2.52043750
 20
7.93956250
  0
VERTEX
  8
0
 62
7
 10
2.55325000
 20
7.82900000
  0
VERTEX
  8
0
 62
7
 10
2.59243750
 20
7.72068750
  0
VERTEX
  8
0
 62
7
 10
2.63800000
 20
7.61500000
  0
VERTEX
  8
0
 62
7
 10
2.59246680
 20
7.63033984
  0
VERTEX
  8
0
 62
7
 10
2.54598438
 20
7.64340625
  0
VERTEX
  8
0
 62
7
 10
2.49872852
 20
7.65426953
  0
VERTEX
  8
0
 62
7
 10
2.45087500
 20
7.66300000
  0
VERTEX
  8
0
 62
7
 10
2.40259961
 20
7.66966797
  0
VERTEX
  8
0
 62
7
 10
2.35407813
 20
7.67434375
  0
VERTEX
  8
0
 62
7
 10
2.30548633
 20
7.67709766
  0
VERTEX
  8
0
 62
7
 10
2.25700000
 20
7.67800000
  0
VERTEX
  8
0
 62
7
 10
2.17625000
 20
7.67562500
  0
VERTEX
  8
0
 62
7
 10
2.09700000
 20
7.66800000
  0
VERTEX
  8
0
 62
7
 10
2.05443750
 20
7.66162891
  0
VERTEX
  8
0
 62
7
 10
2.01300000
 20
7.65321875
  0
VERTEX
  8
0
 62
7
 10
1.97268750
 20
7.64307422
  0
VERTEX
  8
0
 62
7
 10
1.93350000
 20
7.63150000
  0
VERTEX
  8
0
 62
7
 10
1.89543750
 20
7.61880078
  0
VERTEX
  8
0
 62
7
 10
1.85850000
 20
7.60528125
  0
VERTEX
  8
0
 62
7
 10
1.82268750
 20
7.59124609
  0
VERTEX
  8
0
 62
7
 10
1.78800000
 20
7.57700000
  0
VERTEX
  8
0
 62
7
 10
1.74294580
 20
7.55544678
  0
VERTEX
  8
0
 62
7
 10
1.70009766
 20
7.53001172
  0
VERTEX
  8
0
 62
7
 10
1.65955225
 20
7.50103174
  0
VERTEX
  8
0
 62
7
 10
1.62140625
 20
7.46884375
  0
VERTEX
  8
0
 62
7
 10
1.58575635
 20
7.43378467
  0
VERTEX
  8
0
 62
7
 10
1.55269922
 20
7.39619141
  0
VERTEX
  8
0
 62
7
 10
1.52233154
 20
7.35640088
  0
VERTEX
  8
0
 62
7
 10
1.49475000
 20
7.31475000
  0
VERTEX
  8
0
 62
7
 10
1.47005127
 20
7.27157568
  0
VERTEX
  8
0
 62
7
 10
1.44833203
 20
7.22721484
  0
VERTEX
  8
0
 62
7
 10
1.42968896
 20
7.18200439
  0
VERTEX
  8
0
 62
7
 10
1.41421875
 20
7.13628125
  0
VERTEX
  8
0
 62
7
 10
1.40201807
 20
7.09038232
  0
VERTEX
  8
0
 62
7
 10
1.39318359
 20
7.04464453
  0
VERTEX
  8
0
 62
7
 10
1.38781201
 20
6.99940479
  0
VERTEX
  8
0
 62
7
 10
1.38600000
 20
6.95500000
  0
VERTEX
  8
0
 62
7
 10
1.38687500
 20
6.92275000
  0
VERTEX
  8
0
 62
7
 10
1.39000000
 20
6.89200000
  0
VERTEX
  8
0
 62
7
 10
1.39632813
 20
6.85406250
  0
VERTEX
  8
0
 62
7
 10
1.40612500
 20
6.81425000
  0
VERTEX
  8
0
 62
7
 10
1.41910938
 20
6.77331250
  0
VERTEX
  8
0
 62
7
 10
1.43500000
 20
6.73200000
  0
VERTEX
  8
0
 62
7
 10
1.44522778
 20
6.70848853
  0
VERTEX
  8
0
 62
7
 10
1.45677539
 20
6.68387695
  0
VERTEX
  8
0
 62
7
 10
1.46962671
 20
6.65842456
  0
VERTEX
  8
0
 62
7
 10
1.48376563
 20
6.63239063
  0
VERTEX
  8
0
 62
7
 10
1.49917603
 20
6.60603442
  0
VERTEX
  8
0
 62
7
 10
1.51584180
 20
6.57961523
  0
VERTEX
  8
0
 62
7
 10
1.53374683
 20
6.55339233
  0
VERTEX
  8
0
 62
7
 10
1.55287500
 20
6.52762500
  0
VERTEX
  8
0
 62
7
 10
1.57321021
 20
6.50257251
  0
VERTEX
  8
0
 62
7
 10
1.59473633
 20
6.47849414
  0
VERTEX
  8
0
 62
7
 10
1.61743726
 20
6.45564917
  0
VERTEX
  8
0
 62
7
 10
1.64129688
 20
6.43429688
  0
VERTEX
  8
0
 62
7
 10
1.66629907
 20
6.41469653
  0
VERTEX
  8
0
 62
7
 10
1.69242773
 20
6.39710742
  0
VERTEX
  8
0
 62
7
 10
1.71966675
 20
6.38178882
  0
VERTEX
  8
0
 62
7
 10
1.74800000
 20
6.36900000
  0
VERTEX
  8
0
 62
7
 10
1.71700000
 20
6.33700000
  0
VERTEX
  8
0
 62
7
 10
1.68079688
 20
6.29273047
  0
VERTEX
  8
0
 62
7
 10
1.64881250
 20
6.24496875
  0
VERTEX
  8
0
 62
7
 10
1.62123438
 20
6.19416016
  0
VERTEX
  8
0
 62
7
 10
1.59825000
 20
6.14075000
  0
VERTEX
  8
0
 62
7
 10
1.58004688
 20
6.08518359
  0
VERTEX
  8
0
 62
7
 10
1.56681250
 20
6.02790625
  0
VERTEX
  8
0
 62
7
 10
1.55873438
 20
5.96936328
  0
VERTEX
  8
0
 62
7
 10
1.55600000
 20
5.91000000
  0
VERTEX
  8
0
 62
7
 10
1.55737500
 20
5.87237500
  0
VERTEX
  8
0
 62
7
 10
1.56100000
 20
5.83400000
  0
VERTEX
  8
0
 62
7
 10
1.56706860
 20
5.79307642
  0
VERTEX
  8
0
 62
7
 10
1.57547070
 20
5.75322070
  0
VERTEX
  8
0
 62
7
 10
1.58612573
 20
5.71449292
  0
VERTEX
  8
0
 62
7
 10
1.59895313
 20
5.67695313
  0
VERTEX
  8
0
 62
7
 10
1.61387231
 20
5.64066138
  0
VERTEX
  8
0
 62
7
 10
1.63080273
 20
5.60567773
  0
VERTEX
  8
0
 62
7
 10
1.64966382
 20
5.57206226
  0
VERTEX
  8
0
 62
7
 10
1.67037500
 20
5.53987500
  0
VERTEX
  8
0
 62
7
 10
1.69285571
 20
5.50917603
  0
VERTEX
  8
0
 62
7
 10
1.71702539
 20
5.48002539
  0
VERTEX
  8
0
 62
7
 10
1.74280347
 20
5.45248315
  0
VERTEX
  8
0
 62
7
 10
1.77010938
 20
5.42660938
  0
VERTEX
  8
0
 62
7
 10
1.79886255
 20
5.40246411
  0
VERTEX
  8
0
 62
7
 10
1.82898242
 20
5.38010742
  0
VERTEX
  8
0
 62
7
 10
1.86038843
 20
5.35959937
  0
VERTEX
  8
0
 62
7
 10
1.89300000
 20
5.34100000
  0
VERTEX
  8
0
 62
7
 10
2.01500000
 20
5.27700000
  0
VERTEX
  8
0
 62
7
 10
2.02500000
 20
5.41500000
  0
VERTEX
  8
0
 62
7
 10
2.02803223
 20
5.44097339
  0
VERTEX
  8
0
 62
7
 10
2.03332031
 20
5.46631836
  0
VERTEX
  8
0
 62
7
 10
2.04077637
 20
5.49092212
  0
VERTEX
  8
0
 62
7
 10
2.05031250
 20
5.51467188
  0
VERTEX
  8
0
 62
7
 10
2.06184082
 20
5.53745483
  0
VERTEX
  8
0
 62
7
 10
2.07527344
 20
5.55915820
  0
VERTEX
  8
0
 62
7
 10
2.09052246
 20
5.57966919
  0
VERTEX
  8
0
 62
7
 10
2.10750000
 20
5.59887500
  0
VERTEX
  8
0
 62
7
 10
2.12611816
 20
5.61666284
  0
VERTEX
  8
0
 62
7
 10
2.14628906
 20
5.63291992
  0
VERTEX
  8
0
 62
7
 10
2.16792480
 20
5.64753345
  0
VERTEX
  8
0
 62
7
 10
2.19093750
 20
5.66039063
  0
VERTEX
  8
0
 62
7
 10
2.21523926
 20
5.67137866
  0
VERTEX
  8
0
 62
7
 10
2.24074219
 20
5.68038477
  0
VERTEX
  8
0
 62
7
 10
2.26735840
 20
5.68729614
  0
VERTEX
  8
0
 62
7
 10
2.29500000
 20
5.69200000
  0
VERTEX
  8
0
 62
7
 10
2.35600000
 20
5.69500000
  0
VERTEX
  8
0
 62
7
 10
2.40926367
 20
5.69182056
  0
VERTEX
  8
0
 62
7
 10
2.46003125
 20
5.68250195
  0
VERTEX
  8
0
 62
7
 10
2.50845508
 20
5.66737378
  0
VERTEX
  8
0
 62
7
 10
2.55468750
 20
5.64676563
  0
VERTEX
  8
0
 62
7
 10
2.59888086
 20
5.62100708
  0
VERTEX
  8
0
 62
7
 10
2.64118750
 20
5.59042773
  0
VERTEX
  8
0
 62
7
 10
2.68175977
 20
5.55535718
  0
VERTEX
  8
0
 62
7
 10
2.72075000
 20
5.51612500
  0
VERTEX
  8
0
 62
7
 10
2.75831055
 20
5.47306079
  0
VERTEX
  8
0
 62
7
 10
2.79459375
 20
5.42649414
  0
VERTEX
  8
0
 62
7
 10
2.82975195
 20
5.37675464
  0
VERTEX
  8
0
 62
7
 10
2.86393750
 20
5.32417188
  0
VERTEX
  8
0
 62
7
 10
2.89730273
 20
5.26907544
  0
VERTEX
  8
0
 62
7
 10
2.93000000
 20
5.21179492
  0
VERTEX
  8
0
 62
7
 10
2.96218164
 20
5.15265991
  0
VERTEX
  8
0
 62
7
 10
2.99400000
 20
5.09200000
  0
VERTEX
  8
0
 62
7
 10
3.04753320
 20
4.98223438
  0
VERTEX
  8
0
 62
7
 10
3.09695313
 20
4.86843750
  0
VERTEX
  8
0
 62
7
 10
3.14199023
 20
4.75098438
  0
VERTEX
  8
0
 62
7
 10
3.18237500
 20
4.63025000
  0
VERTEX
  8
0
 62
7
 10
3.21783789
 20
4.50660938
  0
VERTEX
  8
0
 62
7
 10
3.24810938
 20
4.38043750
  0
VERTEX
  8
0
 62
7
 10
3.27291992
 20
4.25210938
  0
VERTEX
  8
0
 62
7
 10
3.29200000
 20
4.12200000
  0
VERTEX
  8
0
 62
7
 10
3.30029688
 20
4.04340625
  0
VERTEX
  8
0
 62
7
 10
3.30587500
 20
3.96500000
  0
VERTEX
  8
0
 62
7
 10
3.30901563
 20
3.88659375
  0
VERTEX
  8
0
 62
7
 10
3.31000000
 20
3.80800000
  0
VERTEX
  8
0
 62
7
 10
3.30673438
 20
3.66642188
  0
VERTEX
  8
0
 62
7
 10
3.29737500
 20
3.52512500
  0
VERTEX
  8
0
 62
7
 10
3.28257813
 20
3.38401563
  0
VERTEX
  8
0
 62
7
 10
3.26300000
 20
3.24300000
  0
VERTEX
  8
0
 62
7
 10
3.25421011
 20
3.18866702
  0
VERTEX
  8
0
 62
7
 10
3.24431372
 20
3.13411743
  0
VERTEX
  8
0
 62
7
 10
3.23327072
 20
3.07946274
  0
VERTEX
  8
0
 62
7
 10
3.22104102
 20
3.02481445
  0
VERTEX
  8
0
 62
7
 10
3.20758450
 20
2.97028409
  0
VERTEX
  8
0
 62
7
 10
3.19286108
 20
2.91598315
  0
VERTEX
  8
0
 62
7
 10
3.17683066
 20
2.86202316
  0
VERTEX
  8
0
 62
7
 10
3.15945313
 20
2.80851563
  0
VERTEX
  8
0
 62
7
 10
3.14068839
 20
2.75557205
  0
VERTEX
  8
0
 62
7
 10
3.12049634
 20
2.70330396
  0
VERTEX
  8
0
 62
7
 10
3.09883688
 20
2.65182285
  0
VERTEX
  8
0
 62
7
 10
3.07566992
 20
2.60124023
  0
VERTEX
  8
0
 62
7
 10
3.05095535
 20
2.55166763
  0
VERTEX
  8
0
 62
7
 10
3.02465308
 20
2.50321655
  0
VERTEX
  8
0
 62
7
 10
2.99672299
 20
2.45599850
  0
VERTEX
  8
0
 62
7
 10
2.96712500
 20
2.41012500
  0
VERTEX
  8
0
 62
7
 10
2.93581900
 20
2.36570755
  0
VERTEX
  8
0
 62
7
 10
2.90276489
 20
2.32285767
  0
VERTEX
  8
0
 62
7
 10
2.86792258
 20
2.28168686
  0
VERTEX
  8
0
 62
7
 10
2.83125195
 20
2.24230664
  0
VERTEX
  8
0
 62
7
 10
2.79271292
 20
2.20482852
  0
VERTEX
  8
0
 62
7
 10
2.75226538
 20
2.16936401
  0
VERTEX
  8
0
 62
7
 10
2.70986923
 20
2.13602463
  0
VERTEX
  8
0
 62
7
 10
2.66548438
 20
2.10492188
  0
VERTEX
  8
0
 62
7
 10
2.61907071
 20
2.07616727
  0
VERTEX
  8
0
 62
7
 10
2.57058813
 20
2.04987231
  0
VERTEX
  8
0
 62
7
 10
2.51999655
 20
2.02614853
  0
VERTEX
  8
0
 62
7
 10
2.46725586
 20
2.00510742
  0
VERTEX
  8
0
 62
7
 10
2.41232596
 20
1.98686050
  0
VERTEX
  8
0
 62
7
 10
2.35516675
 20
1.97151929
  0
VERTEX
  8
0
 62
7
 10
2.29573813
 20
1.95919528
  0
VERTEX
  8
0
 62
7
 10
2.23400000
 20
1.95000000
  0
VERTEX
  8
0
 62
7
 10
2.17575000
 20
1.94500000
  0
VERTEX
  8
0
 62
7
 10
2.11900000
 20
1.94300000
  0
VERTEX
  8
0
 62
7
 10
2.07208960
 20
1.94415259
  0
VERTEX
  8
0
 62
7
 10
2.02627930
 20
1.94753320
  0
VERTEX
  8
0
 62
7
 10
1.98163794
 20
1.95302612
  0
VERTEX
  8
0
 62
7
 10
1.93823438
 20
1.96051563
  0
VERTEX
  8
0
 62
7
 10
1.89613745
 20
1.96988599
  0
VERTEX
  8
0
 62
7
 10
1.85541602
 20
1.98102148
  0
VERTEX
  8
0
 62
7
 10
1.81613892
 20
1.99380640
  0
VERTEX
  8
0
 62
7
 10
1.77837500
 20
2.00812500
  0
VERTEX
  8
0
 62
7
 10
1.74219312
 20
2.02386157
  0
VERTEX
  8
0
 62
7
 10
1.70766211
 20
2.04090039
  0
VERTEX
  8
0
 62
7
 10
1.67485083
 20
2.05912573
  0
VERTEX
  8
0
 62
7
 10
1.64382813
 20
2.07842188
  0
VERTEX
  8
0
 62
7
 10
1.61466284
 20
2.09867310
  0
VERTEX
  8
0
 62
7
 10
1.58742383
 20
2.11976367
  0
VERTEX
  8
0
 62
7
 10
1.56217993
 20
2.14157788
  0
VERTEX
  8
0
 62
7
 10
1.53900000
 20
2.16400000
  0
VERTEX
  8
0
 62
7
 10
1.50799023
 20
2.19820703
  0
VERTEX
  8
0
 62
7
 10
1.48160938
 20
2.23234375
  0
VERTEX
  8
0
 62
7
 10
1.45970508
 20
2.26605859
  0
VERTEX
  8
0
 62
7
 10
1.44212500
 20
2.29900000
  0
VERTEX
  8
0
 62
7
 10
1.42871680
 20
2.33081641
  0
VERTEX
  8
0
 62
7
 10
1.41932813
 20
2.36115625
  0
VERTEX
  8
0
 62
7
 10
1.41380664
 20
2.38966797
  0
VERTEX
  8
0
 62
7
 10
1.41200000
 20
2.41600000
  0
VERTEX
  8
0
 62
7
 10
1.41400000
 20
2.44600000
  0
VERTEX
  8
0
 62
7
 10
1.43770313
 20
2.43523438
  0
VERTEX
  8
0
 62
7
 10
1.46187500
 20
2.42812500
  0
VERTEX
  8
0
 62
7
 10
1.48585938
 20
2.42420313
  0
VERTEX
  8
0
 62
7
 10
1.50900000
 20
2.42300000
  0
VERTEX
  8
0
 62
7
 10
1.52731567
 20
2.42377808
  0
VERTEX
  8
0
 62
7
 10
1.54611914
 20
2.42613086
  0
VERTEX
  8
0
 62
7
 10
1.56519507
 20
2.43008618
  0
VERTEX
  8
0
 62
7
 10
1.58432813
 20
2.43567188
  0
VERTEX
  8
0
 62
7
 10
1.60330298
 20
2.44291577
  0
VERTEX
  8
0
 62
7
 10
1.62190430
 20
2.45184570
  0
VERTEX
  8
0
 62
7
 10
1.63991675
 20
2.46248950
  0
VERTEX
  8
0
 62
7
 10
1.65712500
 20
2.47487500
  0
VERTEX
  8
0
 62
7
 10
1.67331372
 20
2.48903003
  0
VERTEX
  8
0
 62
7
 10
1.68826758
 20
2.50498242
  0
VERTEX
  8
0
 62
7
 10
1.70177124
 20
2.52276001
  0
VERTEX
  8
0
 62
7
 10
1.71360938
 20
2.54239063
  0
VERTEX
  8
0
 62
7
 10
1.72356665
 20
2.56390210
  0
VERTEX
  8
0
 62
7
 10
1.73142773
 20
2.58732227
  0
VERTEX
  8
0
 62
7
 10
1.73697729
 20
2.61267896
  0
VERTEX
  8
0
 62
7
 10
1.74000000
 20
2.64000000
  0
VERTEX
  8
0
 62
7
 10
1.74000000
 20
2.66100000
  0
VERTEX
  8
0
 62
7
 10
1.73849561
 20
2.69300244
  0
VERTEX
  8
0
 62
7
 10
1.73410547
 20
2.72300391
  0
VERTEX
  8
0
 62
7
 10
1.72701416
 20
2.75099561
  0
VERTEX
  8
0
 62
7
 10
1.71740625
 20
2.77696875
  0
VERTEX
  8
0
 62
7
 10
1.70546631
 20
2.80091455
  0
VERTEX
  8
0
 62
7
 10
1.69137891
 20
2.82282422
  0
VERTEX
  8
0
 62
7
 10
1.67532861
 20
2.84268896
  0
VERTEX
  8
0
 62
7
 10
1.65750000
 20
2.86050000
  0
VERTEX
  8
0
 62
7
 10
1.63807764
 20
2.87624854
  0
VERTEX
  8
0
 62
7
 10
1.61724609
 20
2.88992578
  0
VERTEX
  8
0
 62
7
 10
1.59518994
 20
2.90152295
  0
VERTEX
  8
0
 62
7
 10
1.57209375
 20
2.91103125
  0
VERTEX
  8
0
 62
7
 10
1.54814209
 20
2.91844189
  0
VERTEX
  8
0
 62
7
 10
1.52351953
 20
2.92374609
  0
VERTEX
  8
0
 62
7
 10
1.49841064
 20
2.92693506
  0
VERTEX
  8
0
 62
7
 10
1.47300000
 20
2.92800000
  0
VERTEX
  8
0
 62
7
 10
1.43459570
 20
2.92575195
  0
VERTEX
  8
0
 62
7
 10
1.39620313
 20
2.91901563
  0
VERTEX
  8
0
 62
7
 10
1.35830273
 20
2.90780273
  0
VERTEX
  8
0
 62
7
 10
1.32137500
 20
2.89212500
  0
VERTEX
  8
0
 62
7
 10
1.28590039
 20
2.87199414
  0
VERTEX
  8
0
 62
7
 10
1.25235938
 20
2.84742188
  0
VERTEX
  8
0
 62
7
 10
1.22123242
 20
2.81841992
  0
VERTEX
  8
0
 62
7
 10
1.19300000
 20
2.78500000
  0
VERTEX
  8
0
 62
7
 10
1.16415234
 20
2.74451172
  0
VERTEX
  8
0
 62
7
 10
1.13846875
 20
2.70390625
  0
VERTEX
  8
0
 62
7
 10
1.11611328
 20
2.66297266
  0
VERTEX
  8
0
 62
7
 10
1.09725000
 20
2.62150000
  0
VERTEX
  8
0
 62
7
 10
1.08204297
 20
2.57927734
  0
VERTEX
  8
0
 62
7
 10
1.07065625
 20
2.53609375
  0
VERTEX
  8
0
 62
7
 10
1.06325391
 20
2.49173828
  0
VERTEX
  8
0
 62
7
 10
1.06000000
 20
2.44600000
  0
VERTEX
  8
0
 62
7
 10
1.06000000
 20
2.42200000
  0
VERTEX
  8
0
 62
7
 10
1.06194385
 20
2.36039404
  0
VERTEX
  8
0
 62
7
 10
1.06772266
 20
2.29979297
  0
VERTEX
  8
0
 62
7
 10
1.07725732
 20
2.24033447
  0
VERTEX
  8
0
 62
7
 10
1.09046875
 20
2.18215625
  0
VERTEX
  8
0
 62
7
 10
1.10727783
 20
2.12539600
  0
VERTEX
  8
0
 62
7
 10
1.12760547
 20
2.07019141
  0
VERTEX
  8
0
 62
7
 10
1.15137256
 20
2.01668018
  0
VERTEX
  8
0
 62
7
 10
1.17850000
 20
1.96500000
  0
VERTEX
  8
0
 62
7
 10
1.20890869
 20
1.91528857
  0
VERTEX
  8
0
 62
7
 10
1.24251953
 20
1.86768359
  0
VERTEX
  8
0
 62
7
 10
1.27925342
 20
1.82232275
  0
VERTEX
  8
0
 62
7
 10
1.31903125
 20
1.77934375
  0
VERTEX
  8
0
 62
7
 10
1.36177393
 20
1.73888428
  0
VERTEX
  8
0
 62
7
 10
1.40740234
 20
1.70108203
  0
VERTEX
  8
0
 62
7
 10
1.45583740
 20
1.66607471
  0
VERTEX
  8
0
 62
7
 10
1.50700000
 20
1.63400000
  0
VERTEX
  8
0
 62
7
 10
1.59597656
 20
1.58671875
  0
VERTEX
  8
0
 62
7
 10
1.68893750
 20
1.54543750
  0
VERTEX
  8
0
 62
7
 10
1.78480469
 20
1.51025000
  0
VERTEX
  8
0
 62
7
 10
1.88250000
 20
1.48125000
  0
VERTEX
  8
0
 62
7
 10
1.98094531
 20
1.45853125
  0
VERTEX
  8
0
 62
7
 10
2.07906250
 20
1.44218750
  0
VERTEX
  8
0
 62
7
 10
2.17577344
 20
1.43231250
  0
VERTEX
  8
0
 62
7
 10
2.27000000
 20
1.42900000
  0
VERTEX
  8
0
 62
7
 10
2.31909375
 20
1.42993750
  0
VERTEX
  8
0
 62
7
 10
2.36725000
 20
1.43275000
  0
VERTEX
  8
0
 62
7
 10
2.41428125
 20
1.43743750
  0
VERTEX
  8
0
 62
7
 10
2.46000000
 20
1.44400000
  0
VERTEX
  8
0
 62
7
 10
2.64594922
 20
1.47885156
  0
VERTEX
  8
0
 62
7
 10
2.83084375
 20
1.51675000
  0
VERTEX
  8
0
 62
7
 10
3.01437891
 20
1.55783594
  0
VERTEX
  8
0
 62
7
 10
3.19625000
 20
1.60225000
  0
VERTEX
  8
0
 62
7
 10
3.37615234
 20
1.65013281
  0
VERTEX
  8
0
 62
7
 10
3.55378125
 20
1.70162500
  0
VERTEX
  8
0
 62
7
 10
3.72883203
 20
1.75686719
  0
VERTEX
  8
0
 62
7
 10
3.90100000
 20
1.81600000
  0
VERTEX
  8
0
 62
7
 10
4.47700000
 20
2.02700000
  0
VERTEX
  8
0
 62
7
 10
4.77950000
 20
2.13900000
  0
VERTEX
  8
0
 62
7
 10
5.08500000
 20
2.24800000
  0
VERTEX
  8
0
 62
7
 10
5.14923438
 20
2.26692188
  0
VERTEX
  8
0
 62
7
 10
5.23437500
 20
2.28762500
  0
VERTEX
  8
0
 62
7
 10
5.31857813
 20
2.30551563
  0
VERTEX
  8
0
 62
7
 10
5.38000000
 20
2.31600000
  0
VERTEX
  8
0
 62
7
 10
5.41650000
 20
2.31912500
  0
VERTEX
  8
0
 62
7
 10
5.45000000
 20
2.32000000
  0
VERTEX
  8
0
 62
7
 10
5.48042578
 20
2.31906567
  0
VERTEX
  8
0
 62
7
 10
5.50871875
 20
2.31627539
  0
VERTEX
  8
0
 62
7
 10
5.53490234
 20
2.31164819
  0
VERTEX
  8
0
 62
7
 10
5.55900000
 20
2.30520313
  0
VERTEX
  8
0
 62
7
 10
5.58103516
 20
2.29695923
  0
VERTEX
  8
0
 62
7
 10
5.60103125
 20
2.28693555
  0
VERTEX
  8
0
 62
7
 10
5.61901172
 20
2.27515112
  0
VERTEX
  8
0
 62
7
 10
5.63500000
 20
2.26162500
  0
VERTEX
  8
0
 62
7
 10
5.64901953
 20
2.24637622
  0
VERTEX
  8
0
 62
7
 10
5.66109375
 20
2.22942383
  0
VERTEX
  8
0
 62
7
 10
5.67124609
 20
2.21078687
  0
VERTEX
  8
0
 62
7
 10
5.67950000
 20
2.19048438
  0
VERTEX
  8
0
 62
7
 10
5.68587891
 20
2.16853540
  0
VERTEX
  8
0
 62
7
 10
5.69040625
 20
2.14495898
  0
VERTEX
  8
0
 62
7
 10
5.69310547
 20
2.11977417
  0
VERTEX
  8
0
 62
7
 10
5.69400000
 20
2.09300000
  0
VERTEX
  8
0
 62
7
 10
5.69724609
 20
2.07035547
  0
VERTEX
  8
0
 62
7
 10
5.70628125
 20
2.05171875
  0
VERTEX
  8
0
 62
7
 10
5.72005078
 20
2.03678516
  0
VERTEX
  8
0
 62
7
 10
5.73750000
 20
2.02525000
  0
VERTEX
  8
0
 62
7
 10
5.75757422
 20
2.01680859
  0
VERTEX
  8
0
 62
7
 10
5.77921875
 20
2.01115625
  0
VERTEX
  8
0
 62
7
 10
5.80137891
 20
2.00798828
  0
VERTEX
  8
0
 62
7
 10
5.82300000
 20
2.00700000
  0
VERTEX
  8
0
 62
7
 10
19.82000000
 20
2.00700000
  0
VERTEX
  8
0
 62
7
 10
19.91000000
 20
2.00700000
  0
VERTEX
  8
0
 62
7
 10
20.25000000
 20
2.00700000
  0
VERTEX
  8
0
 62
7
 10
20.25000000
 20
7.68700000
  0
VERTEX
  8
0
 62
7
 10
19.91000000
 20
7.68700000
  0
VERTEX
  8
0
 62
7
 10
19.82000000
 20
7.68700000
  0
VERTEX
  8
0
 62
7
 10
6.67300000
 20
7.68700000
  0
SEQEND
  0
POLYLINE
  8
0
 62
7
 66
1
 70
1
  0
VERTEX
  8
0
 62
7
 10
2.76900000
 20
7.55400000
  0
VERTEX
  8
0
 62
7
 10
2.73750391
 20
7.61530078
  0
VERTEX
  8
0
 62
7
 10
2.70828125
 20
7.67765625
  0
VERTEX
  8
0
 62
7
 10
2.68135547
 20
7.74099609
  0
VERTEX
  8
0
 62
7
 10
2.65675000
 20
7.80525000
  0
VERTEX
  8
0
 62
7
 10
2.63448828
 20
7.87034766
  0
VERTEX
  8
0
 62
7
 10
2.61459375
 20
7.93621875
  0
VERTEX
  8
0
 62
7
 10
2.59708984
 20
8.00279297
  0
VERTEX
  8
0
 62
7
 10
2.58200000
 20
8.07000000
  0
VERTEX
  8
0
 62
7
 10
2.57030396
 20
8.13200684
  0
VERTEX
  8
0
 62
7
 10
2.56071289
 20
8.19424219
  0
VERTEX
  8
0
 62
7
 10
2.55322241
 20
8.25665332
  0
VERTEX
  8
0
 62
7
 10
2.54782813
 20
8.31918750
  0
VERTEX
  8
0
 62
7
 10
2.54452563
 20
8.38179199
  0
VERTEX
  8
0
 62
7
 10
2.54331055
 20
8.44441406
  0
VERTEX
  8
0
 62
7
 10
2.54417847
 20
8.50700098
  0
VERTEX
  8
0
 62
7
 10
2.54712500
 20
8.56950000
  0
VERTEX
  8
0
 62
7
 10
2.55214575
 20
8.63185840
  0
VERTEX
  8
0
 62
7
 10
2.55923633
 20
8.69402344
  0
VERTEX
  8
0
 62
7
 10
2.56839233
 20
8.75594238
  0
VERTEX
  8
0
 62
7
 10
2.57960938
 20
8.81756250
  0
VERTEX
  8
0
 62
7
 10
2.59288306
 20
8.87883105
  0
VERTEX
  8
0
 62
7
 10
2.60820898
 20
8.93969531
  0
VERTEX
  8
0
 62
7
 10
2.62558276
 20
9.00010254
  0
VERTEX
  8
0
 62
7
 10
2.64500000
 20
9.06000000
  0
VERTEX
  8
0
 62
7
 10
2.66975000
 20
8.96737500
  0
VERTEX
  8
0
 62
7
 10
2.70200000
 20
8.87700000
  0
VERTEX
  8
0
 62
7
 10
2.71990039
 20
8.83595117
  0
VERTEX
  8
0
 62
7
 10
2.73982813
 20
8.79610938
  0
VERTEX
  8
0
 62
7
 10
2.76174805
 20
8.75755664
  0
VERTEX
  8
0
 62
7
 10
2.78562500
 20
8.72037500
  0
VERTEX
  8
0
 62
7
 10
2.81142383
 20
8.68464648
  0
VERTEX
  8
0
 62
7
 10
2.83910938
 20
8.65045313
  0
VERTEX
  8
0
 62
7
 10
2.86864648
 20
8.61787695
  0
VERTEX
  8
0
 62
7
 10
2.90000000
 20
8.58700000
  0
VERTEX
  8
0
 62
7
 10
2.94528906
 20
8.54454102
  0
VERTEX
  8
0
 62
7
 10
2.99081250
 20
8.50176563
  0
VERTEX
  8
0
 62
7
 10
3.03605469
 20
8.45845117
  0
VERTEX
  8
0
 62
7
 10
3.08050000
 20
8.41437500
  0
VERTEX
  8
0
 62
7
 10
3.12363281
 20
8.36931445
  0
VERTEX
  8
0
 62
7
 10
3.16493750
 20
8.32304687
  0
VERTEX
  8
0
 62
7
 10
3.20389844
 20
8.27534961
  0
VERTEX
  8
0
 62
7
 10
3.24000000
 20
8.22600000
  0
VERTEX
  8
0
 62
7
 10
3.28609375
 20
8.16029688
  0
VERTEX
  8
0
 62
7
 10
3.33275000
 20
8.09487500
  0
VERTEX
  8
0
 62
7
 10
3.37753125
 20
8.02926563
  0
VERTEX
  8
0
 62
7
 10
3.41800000
 20
7.96300000
  0
VERTEX
  8
0
 62
7
 10
3.39684375
 20
7.92293750
  0
VERTEX
  8
0
 62
7
 10
3.38150000
 20
7.87950000
  0
VERTEX
  8
0
 62
7
 10
3.37215625
 20
7.83306250
  0
VERTEX
  8
0
 62
7
 10
3.36900000
 20
7.78400000
  0
VERTEX
  8
0
 62
7
 10
3.37155469
 20
7.74246094
  0
VERTEX
  8
0
 62
7
 10
3.37893750
 20
7.70781250
  0
VERTEX
  8
0
 62
7
 10
3.39072656
 20
7.67663281
  0
VERTEX
  8
0
 62
7
 10
3.40650000
 20
7.64550000
  0
VERTEX
  8
0
 62
7
 10
3.42583594
 20
7.61099219
  0
VERTEX
  8
0
 62
7
 10
3.44831250
 20
7.56968750
  0
VERTEX
  8
0
 62
7
 10
3.47350781
 20
7.51816406
  0
VERTEX
  8
0
 62
7
 10
3.50100000
 20
7.45300000
  0
VERTEX
  8
0
 62
7
 10
3.49863379
 20
7.45420142
  0
VERTEX
  8
0
 62
7
 10
3.49172656
 20
7.45759570
  0
VERTEX
  8
0
 62
7
 10
3.48056543
 20
7.46286792
  0
VERTEX
  8
0
 62
7
 10
3.46543750
 20
7.46970313
  0
VERTEX
  8
0
 62
7
 10
3.44662988
 20
7.47778638
  0
VERTEX
  8
0
 62
7
 10
3.42442969
 20
7.48680273
  0
VERTEX
  8
0
 62
7
 10
3.39912402
 20
7.49643726
  0
VERTEX
  8
0
 62
7
 10
3.37100000
 20
7.50637500
  0
VERTEX
  8
0
 62
7
 10
3.34034473
 20
7.51630103
  0
VERTEX
  8
0
 62
7
 10
3.30744531
 20
7.52590039
  0
VERTEX
  8
0
 62
7
 10
3.27258887
 20
7.53485815
  0
VERTEX
  8
0
 62
7
 10
3.23606250
 20
7.54285938
  0
VERTEX
  8
0
 62
7
 10
3.19815332
 20
7.54958911
  0
VERTEX
  8
0
 62
7
 10
3.15914844
 20
7.55473242
  0
VERTEX
  8
0
 62
7
 10
3.11933496
 20
7.55797437
  0
VERTEX
  8
0
 62
7
 10
3.07900000
 20
7.55900000
  0
VERTEX
  8
0
 62
7
 10
3.04400000
 20
7.55800000
  0
VERTEX
  8
0
 62
7
 10
2.99617188
 20
7.55356250
  0
VERTEX
  8
0
 62
7
 10
2.94262500
 20
7.54500000
  0
VERTEX
  8
0
 62
7
 10
2.88551563
 20
7.53268750
  0
VERTEX
  8
0
 62
7
 10
2.82700000
 20
7.51700000
  0
VERTEX
  8
0
 62
7
 10
2.82400000
 20
7.51900000
  0
VERTEX
  8
0
 62
7
 10
2.76900000
 20
7.55400000
  0
SEQEND
  0
POLYLINE
  8
0
 62
7
 66
1
 70
1
  0
VERTEX
  8
0
 62
7
 10
4.03000000
 20
5.39100000
  0
VERTEX
  8
0
 62
7
 10
4.08200000
 20
5.32975000
  0
VERTEX
  8
0
 62
7
 10
4.12500000
 20
5.26700000
  0
VERTEX
  8
0
 62
7
 10
4.12945947
 20
5.25096484
  0
VERTEX
  8
0
 62
7
 10
4.13545703
 20
5.21606250
  0
VERTEX
  8
0
 62
7
 10
4.14260889
 20
5.16409766
  0
VERTEX
  8
0
 62
7
 10
4.15053125
 20
5.09687500
  0
VERTEX
  8
0
 62
7
 10
4.15884033
 20
5.01619922
  0
VERTEX
  8
0
 62
7
 10
4.16715234
 20
4.92387500
  0
VERTEX
  8
0
 62
7
 10
4.17508350
 20
4.82170703
  0
VERTEX
  8
0
 62
7
 10
4.18225000
 20
4.71150000
  0
VERTEX
  8
0
 62
7
 10
4.18826807
 20
4.59505859
  0
VERTEX
  8
0
 62
7
 10
4.19275391
 20
4.47418750
  0
VERTEX
  8
0
 62
7
 10
4.19532373
 20
4.35069141
  0
VERTEX
  8
0
 62
7
 10
4.19559375
 20
4.22637500
  0
VERTEX
  8
0
 62
7
 10
4.19318018
 20
4.10304297
  0
VERTEX
  8
0
 62
7
 10
4.18769922
 20
3.98250000
  0
VERTEX
  8
0
 62
7
 10
4.17876709
 20
3.86655078
  0
VERTEX
  8
0
 62
7
 10
4.16600000
 20
3.75700000
  0
VERTEX
  8
0
 62
7
 10
4.15240161
 20
3.67014697
  0
VERTEX
  8
0
 62
7
 10
4.13638477
 20
3.58436328
  0
VERTEX
  8
0
 62
7
 10
4.11799194
 20
3.49968701
  0
VERTEX
  8
0
 62
7
 10
4.09726563
 20
3.41615625
  0
VERTEX
  8
0
 62
7
 10
4.07424829
 20
3.33380908
  0
VERTEX
  8
0
 62
7
 10
4.04898242
 20
3.25268359
  0
VERTEX
  8
0
 62
7
 10
4.02151050
 20
3.17281787
  0
VERTEX
  8
0
 62
7
 10
3.99187500
 20
3.09425000
  0
VERTEX
  8
0
 62
7
 10
3.96011841
 20
3.01701807
  0
VERTEX
  8
0
 62
7
 10
3.92628320
 20
2.94116016
  0
VERTEX
  8
0
 62
7
 10
3.89041187
 20
2.86671436
  0
VERTEX
  8
0
 62
7
 10
3.85254688
 20
2.79371875
  0
VERTEX
  8
0
 62
7
 10
3.81273071
 20
2.72221143
  0
VERTEX
  8
0
 62
7
 10
3.77100586
 20
2.65223047
  0
VERTEX
  8
0
 62
7
 10
3.72741479
 20
2.58381396
  0
VERTEX
  8
0
 62
7
 10
3.68200000
 20
2.51700000
  0
VERTEX
  8
0
 62
7
 10
3.73300000
 20
2.47700000
  0
VERTEX
  8
0
 62
7
 10
3.79073120
 20
2.54179736
  0
VERTEX
  8
0
 62
7
 10
3.84450586
 20
2.61001953
  0
VERTEX
  8
0
 62
7
 10
3.89463306
 20
2.68141162
  0
VERTEX
  8
0
 62
7
 10
3.94142188
 20
2.75571875
  0
VERTEX
  8
0
 62
7
 10
3.98518140
 20
2.83268604
  0
VERTEX
  8
0
 62
7
 10
4.02622070
 20
2.91205859
  0
VERTEX
  8
0
 62
7
 10
4.06484888
 20
2.99358154
  0
VERTEX
  8
0
 62
7
 10
4.10137500
 20
3.07700000
  0
VERTEX
  8
0
 62
7
 10
4.13610815
 20
3.16205908
  0
VERTEX
  8
0
 62
7
 10
4.16935742
 20
3.24850391
  0
VERTEX
  8
0
 62
7
 10
4.20143188
 20
3.33607959
  0
VERTEX
  8
0
 62
7
 10
4.23264063
 20
3.42453125
  0
VERTEX
  8
0
 62
7
 10
4.26329272
 20
3.51360400
  0
VERTEX
  8
0
 62
7
 10
4.29369727
 20
3.60304297
  0
VERTEX
  8
0
 62
7
 10
4.32416333
 20
3.69259326
  0
VERTEX
  8
0
 62
7
 10
4.35500000
 20
3.78200000
  0
VERTEX
  8
0
 62
7
 10
4.39279224
 20
3.89472754
  0
VERTEX
  8
0
 62
7
 10
4.43065039
 20
4.01519531
  0
VERTEX
  8
0
 62
7
 10
4.46835913
 20
4.14195605
  0
VERTEX
  8
0
 62
7
 10
4.50570313
 20
4.27356250
  0
VERTEX
  8
0
 62
7
 10
4.54246704
 20
4.40856738
  0
VERTEX
  8
0
 62
7
 10
4.57843555
 20
4.54552344
  0
VERTEX
  8
0
 62
7
 10
4.61339331
 20
4.68298340
  0
VERTEX
  8
0
 62
7
 10
4.64712500
 20
4.81950000
  0
VERTEX
  8
0
 62
7
 10
4.67941528
 20
4.95362598
  0
VERTEX
  8
0
 62
7
 10
4.71004883
 20
5.08391406
  0
VERTEX
  8
0
 62
7
 10
4.73881030
 20
5.20891699
  0
VERTEX
  8
0
 62
7
 10
4.76548438
 20
5.32718750
  0
VERTEX
  8
0
 62
7
 10
4.78985571
 20
5.43727832
  0
VERTEX
  8
0
 62
7
 10
4.81170898
 20
5.53774219
  0
VERTEX
  8
0
 62
7
 10
4.83082886
 20
5.62713184
  0
VERTEX
  8
0
 62
7
 10
4.84700000
 20
5.70400000
  0
VERTEX
  8
0
 62
7
 10
4.85000000
 20
5.72300000
  0
VERTEX
  8
0
 62
7
 10
4.92300000
 20
5.71312500
  0
VERTEX
  8
0
 62
7
 10
4.99600000
 20
5.71000000
  0
VERTEX
  8
0
 62
7
 10
5.07225000
 20
5.71356250
  0
VERTEX
  8
0
 62
7
 10
5.14775000
 20
5.72425000
  0
VERTEX
  8
0
 62
7
 10
5.22212500
 20
5.74206250
  0
VERTEX
  8
0
 62
7
 10
5.29500000
 20
5.76700000
  0
VERTEX
  8
0
 62
7
 10
5.31965234
 20
5.78151758
  0
VERTEX
  8
0
 62
7
 10
5.33734375
 20
5.80139063
  0
VERTEX
  8
0
 62
7
 10
5.34805078
 20
5.82484961
  0
VERTEX
  8
0
 62
7
 10
5.35175000
 20
5.85012500
  0
VERTEX
  8
0
 62
7
 10
5.34841797
 20
5.87544727
  0
VERTEX
  8
0
 62
7
 10
5.33803125
 20
5.89904688
  0
VERTEX
  8
0
 62
7
 10
5.32056641
 20
5.91915430
  0
VERTEX
  8
0
 62
7
 10
5.29600000
 20
5.93400000
  0
VERTEX
  8
0
 62
7
 10
5.27984961
 20
5.94210156
  0
VERTEX
  8
0
 62
7
 10
5.26429688
 20
5.95287500
  0
VERTEX
  8
0
 62
7
 10
5.24918945
 20
5.96627344
  0
VERTEX
  8
0
 62
7
 10
5.23437500
 20
5.98225000
  0
VERTEX
  8
0
 62
7
 10
5.21970117
 20
6.00075781
  0
VERTEX
  8
0
 62
7
 10
5.20501563
 20
6.02175000
  0
VERTEX
  8
0
 62
7
 10
5.19016602
 20
6.04517969
  0
VERTEX
  8
0
 62
7
 10
5.17500000
 20
6.07100000
  0
VERTEX
  8
0
 62
7
 10
5.16178125
 20
6.09951563
  0
VERTEX
  8
0
 62
7
 10
5.15250000
 20
6.13187500
  0
VERTEX
  8
0
 62
7
 10
5.14546875
 20
6.16929688
  0
VERTEX
  8
0
 62
7
 10
5.13900000
 20
6.21300000
  0
VERTEX
  8
0
 62
7
 10
5.13360938
 20
6.25503125
  0
VERTEX
  8
0
 62
7
 10
5.12512500
 20
6.30175000
  0
VERTEX
  8
0
 62
7
 10
5.11157813
 20
6.35109375
  0
VERTEX
  8
0
 62
7
 10
5.09100000
 20
6.40100000
  0
VERTEX
  8
0
 62
7
 10
5.07070313
 20
6.43623438
  0
VERTEX
  8
0
 62
7
 10
5.04637500
 20
6.46837500
  0
VERTEX
  8
0
 62
7
 10
5.01885938
 20
6.49732813
  0
VERTEX
  8
0
 62
7
 10
4.98900000
 20
6.52300000
  0
VERTEX
  8
0
 62
7
 10
5.00000000
 20
6.58200000
  0
VERTEX
  8
0
 62
7
 10
5.03426563
 20
6.64426563
  0
VERTEX
  8
0
 62
7
 10
5.06187500
 20
6.71037500
  0
VERTEX
  8
0
 62
7
 10
5.08254688
 20
6.77929688
  0
VERTEX
  8
0
 62
7
 10
5.09600000
 20
6.85000000
  0
VERTEX
  8
0
 62
7
 10
5.10288354
 20
6.88402637
  0
VERTEX
  8
0
 62
7
 10
5.11384961
 20
6.91671094
  0
VERTEX
  8
0
 62
7
 10
5.12843384
 20
6.94802441
  0
VERTEX
  8
0
 62
7
 10
5.14617188
 20
6.97793750
  0
VERTEX
  8
0
 62
7
 10
5.16659937
 20
7.00642090
  0
VERTEX
  8
0
 62
7
 10
5.18925195
 20
7.03344531
  0
VERTEX
  8
0
 62
7
 10
5.21366528
 20
7.05898145
  0
VERTEX
  8
0
 62
7
 10
5.23937500
 20
7.08300000
  0
VERTEX
  8
0
 62
7
 10
5.26591675
 20
7.10547168
  0
VERTEX
  8
0
 62
7
 10
5.29282617
 20
7.12636719
  0
VERTEX
  8
0
 62
7
 10
5.31963892
 20
7.14565723
  0
VERTEX
  8
0
 62
7
 10
5.34589063
 20
7.16331250
  0
VERTEX
  8
0
 62
7
 10
5.37111694
 20
7.17930371
  0
VERTEX
  8
0
 62
7
 10
5.39485352
 20
7.19360156
  0
VERTEX
  8
0
 62
7
 10
5.41663599
 20
7.20617676
  0
VERTEX
  8
0
 62
7
 10
5.43600000
 20
7.21700000
  0
VERTEX
  8
0
 62
7
 10
5.45800000
 20
7.23000000
  0
VERTEX
  8
0
 62
7
 10
5.47200000
 20
7.23900000
  0
VERTEX
  8
0
 62
7
 10
5.48800000
 20
7.25500000
  0
VERTEX
  8
0
 62
7
 10
5.49562500
 20
7.26612500
  0
VERTEX
  8
0
 62
7
 10
5.50400000
 20
7.28400000
  0
VERTEX
  8
0
 62
7
 10
5.50712500
 20
7.29846875
  0
VERTEX
  8
0
 62
7
 10
5.50800000
 20
7.31575000
  0
VERTEX
  8
0
 62
7
 10
5.50512500
 20
7.33490625
  0
VERTEX
  8
0
 62
7
 10
5.49700000
 20
7.35500000
  0
VERTEX
  8
0
 62
7
 10
5.47571875
 20
7.38390625
  0
VERTEX
  8
0
 62
7
 10
5.44900000
 20
7.40775000
  0
VERTEX
  8
0
 62
7
 10
5.42078125
 20
7.42671875
  0
VERTEX
  8
0
 62
7
 10
5.39500000
 20
7.44100000
  0
VERTEX
  8
0
 62
7
 10
5.32975000
 20
7.47075000
  0
VERTEX
  8
0
 62
7
 10
5.25400000
 20
7.49900000
  0
VERTEX
  8
0
 62
7
 10
5.26900000
 20
7.53100000
  0
VERTEX
  8
0
 62
7
 10
5.29180664
 20
7.57550732
  0
VERTEX
  8
0
 62
7
 10
5.31762500
 20
7.61790234
  0
VERTEX
  8
0
 62
7
 10
5.34611523
 20
7.65818213
  0
VERTEX
  8
0
 62
7
 10
5.37693750
 20
7.69634375
  0
VERTEX
  8
0
 62
7
 10
5.40975195
 20
7.73238428
  0
VERTEX
  8
0
 62
7
 10
5.44421875
 20
7.76630078
  0
VERTEX
  8
0
 62
7
 10
5.47999805
 20
7.79809033
  0
VERTEX
  8
0
 62
7
 10
5.51675000
 20
7.82775000
  0
VERTEX
  8
0
 62
7
 10
5.55413477
 20
7.85527686
  0
VERTEX
  8
0
 62
7
 10
5.59181250
 20
7.88066797
  0
VERTEX
  8
0
 62
7
 10
5.62944336
 20
7.90392041
  0
VERTEX
  8
0
 62
7
 10
5.66668750
 20
7.92503125
  0
VERTEX
  8
0
 62
7
 10
5.70320508
 20
7.94399756
  0
VERTEX
  8
0
 62
7
 10
5.73865625
 20
7.96081641
  0
VERTEX
  8
0
 62
7
 10
5.77270117
 20
7.97548486
  0
VERTEX
  8
0
 62
7
 10
5.80500000
 20
7.98800000
  0
VERTEX
  8
0
 62
7
 10
5.84360938
 20
8.00013477
  0
VERTEX
  8
0
 62
7
 10
5.88456250
 20
8.00970313
  0
VERTEX
  8
0
 62
7
 10
5.92692188
 20
8.01695117
  0
VERTEX
  8
0
 62
7
 10
5.96975000
 20
8.02212500
  0
VERTEX
  8
0
 62
7
 10
6.01210938
 20
8.02547070
  0
VERTEX
  8
0
 62
7
 10
6.05306250
 20
8.02723438
  0
VERTEX
  8
0
 62
7
 10
6.09167188
 20
8.02766211
  0
VERTEX
  8
0
 62
7
 10
6.12700000
 20
8.02700000
  0
VERTEX
  8
0
 62
7
 10
6.18338477
 20
8.02404102
  0
VERTEX
  8
0
 62
7
 10
6.24226563
 20
8.01870313
  0
VERTEX
  8
0
 62
7
 10
6.30248242
 20
8.01066992
  0
VERTEX
  8
0
 62
7
 10
6.36287500
 20
7.99962500
  0
VERTEX
  8
0
 62
7
 10
6.42228320
 20
7.98525195
  0
VERTEX
  8
0
 62
7
 10
6.47954688
 20
7.96723438
  0
VERTEX
  8
0
 62
7
 10
6.53350586
 20
7.94525586
  0
VERTEX
  8
0
 62
7
 10
6.58300000
 20
7.91900000
  0
VERTEX
  8
0
 62
7
 10
6.59701563
 20
7.90682813
  0
VERTEX
  8
0
 62
7
 10
6.60887500
 20
7.89287500
  0
VERTEX
  8
0
 62
7
 10
6.61829688
 20
7.87723438
  0
VERTEX
  8
0
 62
7
 10
6.62500000
 20
7.86000000
  0
VERTEX
  8
0
 62
7
 10
6.62787500
 20
7.84650391
  0
VERTEX
  8
0
 62
7
 10
6.62850000
 20
7.83303125
  0
VERTEX
  8
0
 62
7
 10
6.62725000
 20
7.81960547
  0
VERTEX
  8
0
 62
7
 10
6.62450000
 20
7.80625000
  0
VERTEX
  8
0
 62
7
 10
6.62062500
 20
7.79298828
  0
VERTEX
  8
0
 62
7
 10
6.61600000
 20
7.77984375
  0
VERTEX
  8
0
 62
7
 10
6.61100000
 20
7.76683984
  0
VERTEX
  8
0
 62
7
 10
6.60600000
 20
7.75400000
  0
VERTEX
  8
0
 62
7
 10
6.57000000
 20
7.68600000
  0
VERTEX
  8
0
 62
7
 10
6.55926563
 20
7.65804688
  0
VERTEX
  8
0
 62
7
 10
6.55012500
 20
7.62962500
  0
VERTEX
  8
0
 62
7
 10
6.54342188
 20
7.60064063
  0
VERTEX
  8
0
 62
7
 10
6.54000000
 20
7.57100000
  0
VERTEX
  8
0
 62
7
 10
6.54700000
 20
7.48900000
  0
VERTEX
  8
0
 62
7
 10
6.54839063
 20
7.44987500
  0
VERTEX
  8
0
 62
7
 10
6.54837500
 20
7.41075000
  0
VERTEX
  8
0
 62
7
 10
6.54517188
 20
7.37200000
  0
VERTEX
  8
0
 62
7
 10
6.53700000
 20
7.33400000
  0
VERTEX
  8
0
 62
7
 10
6.52840625
 20
7.30814063
  0
VERTEX
  8
0
 62
7
 10
6.51775000
 20
7.28312500
  0
VERTEX
  8
0
 62
7
 10
6.50521875
 20
7.25904688
  0
VERTEX
  8
0
 62
7
 10
6.49100000
 20
7.23600000
  0
VERTEX
  8
0
 62
7
 10
6.48787305
 20
7.26010938
  0
VERTEX
  8
0
 62
7
 10
6.48229688
 20
7.28356250
  0
VERTEX
  8
0
 62
7
 10
6.47435352
 20
7.30617188
  0
VERTEX
  8
0
 62
7
 10
6.46412500
 20
7.32775000
  0
VERTEX
  8
0
 62
7
 10
6.45169336
 20
7.34810938
  0
VERTEX
  8
0
 62
7
 10
6.43714063
 20
7.36706250
  0
VERTEX
  8
0
 62
7
 10
6.42054883
 20
7.38442188
  0
VERTEX
  8
0
 62
7
 10
6.40200000
 20
7.40000000
  0
VERTEX
  8
0
 62
7
 10
6.37285938
 20
7.41829688
  0
VERTEX
  8
0
 62
7
 10
6.34137500
 20
7.43162500
  0
VERTEX
  8
0
 62
7
 10
6.30820313
 20
7.44064063
  0
VERTEX
  8
0
 62
7
 10
6.27400000
 20
7.44600000
  0
VERTEX
  8
0
 62
7
 10
6.23738672
 20
7.44721289
  0
VERTEX
  8
0
 62
7
 10
6.19671875
 20
7.44314063
  0
VERTEX
  8
0
 62
7
 10
6.15337891
 20
7.43346680
  0
VERTEX
  8
0
 62
7
 10
6.10875000
 20
7.41787500
  0
VERTEX
  8
0
 62
7
 10
6.06421484
 20
7.39604883
  0
VERTEX
  8
0
 62
7
 10
6.02115625
 20
7.36767188
  0
VERTEX
  8
0
 62
7
 10
5.98095703
 20
7.33242773
  0
VERTEX
  8
0
 62
7
 10
5.94500000
 20
7.29000000
  0
VERTEX
  8
0
 62
7
 10
5.92181274
 20
7.25487939
  0
VERTEX
  8
0
 62
7
 10
5.89947070
 20
7.21533203
  0
VERTEX
  8
0
 62
7
 10
5.87792847
 20
7.17164209
  0
VERTEX
  8
0
 62
7
 10
5.85714063
 20
7.12409375
  0
VERTEX
  8
0
 62
7
 10
5.83706177
 20
7.07297119
  0
VERTEX
  8
0
 62
7
 10
5.81764648
 20
7.01855859
  0
VERTEX
  8
0
 62
7
 10
5.79884937
 20
6.96114014
  0
VERTEX
  8
0
 62
7
 10
5.78062500
 20
6.90100000
  0
VERTEX
  8
0
 62
7
 10
5.76292798
 20
6.83842236
  0
VERTEX
  8
0
 62
7
 10
5.74571289
 20
6.77369141
  0
VERTEX
  8
0
 62
7
 10
5.72893433
 20
6.70709131
  0
VERTEX
  8
0
 62
7
 10
5.71254688
 20
6.63890625
  0
VERTEX
  8
0
 62
7
 10
5.69650513
 20
6.56942041
  0
VERTEX
  8
0
 62
7
 10
5.68076367
 20
6.49891797
  0
VERTEX
  8
0
 62
7
 10
5.66527710
 20
6.42768311
  0
VERTEX
  8
0
 62
7
 10
5.65000000
 20
6.35600000
  0
VERTEX
  8
0
 62
7
 10
5.60140625
 20
6.13146875
  0
VERTEX
  8
0
 62
7
 10
5.55150000
 20
5.91125000
  0
VERTEX
  8
0
 62
7
 10
5.49784375
 20
5.69365625
  0
VERTEX
  8
0
 62
7
 10
5.43800000
 20
5.47700000
  0
VERTEX
  8
0
 62
7
 10
5.36321875
 20
5.22692188
  0
VERTEX
  8
0
 62
7
 10
5.27775000
 20
4.94862500
  0
VERTEX
  8
0
 62
7
 10
5.18515625
 20
4.65476563
  0
VERTEX
  8
0
 62
7
 10
5.08900000
 20
4.35800000
  0
VERTEX
  8
0
 62
7
 10
5.03284961
 20
4.19228320
  0
VERTEX
  8
0
 62
7
 10
4.97485938
 20
4.02920313
  0
VERTEX
  8
0
 62
7
 10
4.91534570
 20
3.87036523
  0
VERTEX
  8
0
 62
7
 10
4.85462500
 20
3.71737500
  0
VERTEX
  8
0
 62
7
 10
4.79301367
 20
3.57183789
  0
VERTEX
  8
0
 62
7
 10
4.73082813
 20
3.43535938
  0
VERTEX
  8
0
 62
7
 10
4.66838477
 20
3.30954492
  0
VERTEX
  8
0
 62
7
 10
4.60600000
 20
3.19600000
  0
VERTEX
  8
0
 62
7
 10
4.54976172
 20
3.10033789
  0
VERTEX
  8
0
 62
7
 10
4.49378125
 20
3.00764063
  0
VERTEX
  8
0
 62
7
 10
4.43728516
 20
2.91796680
  0
VERTEX
  8
0
 62
7
 10
4.37950000
 20
2.83137500
  0
VERTEX
  8
0
 62
7
 10
4.31965234
 20
2.74792383
  0
VERTEX
  8
0
 62
7
 10
4.25696875
 20
2.66767188
  0
VERTEX
  8
0
 62
7
 10
4.19067578
 20
2.59067773
  0
VERTEX
  8
0
 62
7
 10
4.12000000
 20
2.51700000
  0
VERTEX
  8
0
 62
7
 10
4.04444336
 20
2.44421875
  0
VERTEX
  8
0
 62
7
 10
3.96779688
 20
2.37575000
  0
VERTEX
  8
0
 62
7
 10
3.89009570
 20
2.31140625
  0
VERTEX
  8
0
 62
7
 10
3.81137500
 20
2.25100000
  0
VERTEX
  8
0
 62
7
 10
3.73166992
 20
2.19434375
  0
VERTEX
  8
0
 62
7
 10
3.65101563
 20
2.14125000
  0
VERTEX
  8
0
 62
7
 10
3.56944727
 20
2.09153125
  0
VERTEX
  8
0
 62
7
 10
3.48700000
 20
2.04500000
  0
VERTEX
  8
0
 62
7
 10
3.38364648
 20
1.99243750
  0
VERTEX
  8
0
 62
7
 10
3.28660938
 20
1.94850000
  0
VERTEX
  8
0
 62
7
 10
3.19817383
 20
1.91281250
  0
VERTEX
  8
0
 62
7
 10
3.12062500
 20
1.88500000
  0
VERTEX
  8
0
 62
7
 10
3.05624805
 20
1.86468750
  0
VERTEX
  8
0
 62
7
 10
3.00732813
 20
1.85150000
  0
VERTEX
  8
0
 62
7
 10
2.97615039
 20
1.84506250
  0
VERTEX
  8
0
 62
7
 10
2.96500000
 20
1.84500000
  0
VERTEX
  8
0
 62
7
 10
2.97200000
 20
1.78900000
  0
VERTEX
  8
0
 62
7
 10
3.06946094
 20
1.81940234
  0
VERTEX
  8
0
 62
7
 10
3.16354688
 20
1.85071875
  0
VERTEX
  8
0
 62
7
 10
3.25437500
 20
1.88311328
  0
VERTEX
  8
0
 62
7
 10
3.34206250
 20
1.91675000
  0
VERTEX
  8
0
 62
7
 10
3.42672656
 20
1.95179297
  0
VERTEX
  8
0
 62
7
 10
3.50848438
 20
1.98840625
  0
VERTEX
  8
0
 62
7
 10
3.58745313
 20
2.02675391
  0
VERTEX
  8
0
 62
7
 10
3.66375000
 20
2.06700000
  0
VERTEX
  8
0
 62
7
 10
3.73749219
 20
2.10930859
  0
VERTEX
  8
0
 62
7
 10
3.80879688
 20
2.15384375
  0
VERTEX
  8
0
 62
7
 10
3.87778125
 20
2.20076953
  0
VERTEX
  8
0
 62
7
 10
3.94456250
 20
2.25025000
  0
VERTEX
  8
0
 62
7
 10
4.00925781
 20
2.30244922
  0
VERTEX
  8
0
 62
7
 10
4.07198438
 20
2.35753125
  0
VERTEX
  8
0
 62
7
 10
4.13285938
 20
2.41566016
  0
VERTEX
  8
0
 62
7
 10
4.19200000
 20
2.47700000
  0
VERTEX
  8
0
 62
7
 10
4.25221875
 20
2.53862500
  0
VERTEX
  8
0
 62
7
 10
4.31375000
 20
2.60400000
  0
VERTEX
  8
0
 62
7
 10
4.37340625
 20
2.67387500
  0
VERTEX
  8
0
 62
7
 10
4.42800000
 20
2.74900000
  0
VERTEX
  8
0
 62
7
 10
4.48402734
 20
2.77639063
  0
VERTEX
  8
0
 62
7
 10
4.55034375
 20
2.80912500
  0
VERTEX
  8
0
 62
7
 10
4.62392578
 20
2.84504688
  0
VERTEX
  8
0
 62
7
 10
4.70175000
 20
2.88200000
  0
VERTEX
  8
0
 62
7
 10
4.78079297
 20
2.91782813
  0
VERTEX
  8
0
 62
7
 10
4.85803125
 20
2.95037500
  0
VERTEX
  8
0
 62
7
 10
4.93044141
 20
2.97748438
  0
VERTEX
  8
0
 62
7
 10
4.99500000
 20
2.99700000
  0
VERTEX
  8
0
 62
7
 10
5.04367944
 20
3.00701367
  0
VERTEX
  8
0
 62
7
 10
5.09287305
 20
3.01598438
  0
VERTEX
  8
0
 62
7
 10
5.14243872
 20
3.02380664
  0
VERTEX
  8
0
 62
7
 10
5.19223438
 20
3.03037500
  0
VERTEX
  8
0
 62
7
 10
5.24211792
 20
3.03558398
  0
VERTEX
  8
0
 62
7
 10
5.29194727
 20
3.03932813
  0
VERTEX
  8
0
 62
7
 10
5.34158032
 20
3.04150195
  0
VERTEX
  8
0
 62
7
 10
5.39087500
 20
3.04200000
  0
VERTEX
  8
0
 62
7
 10
5.43968921
 20
3.04071680
  0
VERTEX
  8
0
 62
7
 10
5.48788086
 20
3.03754688
  0
VERTEX
  8
0
 62
7
 10
5.53530786
 20
3.03238477
  0
VERTEX
  8
0
 62
7
 10
5.58182813
 20
3.02512500
  0
VERTEX
  8
0
 62
7
 10
5.62729956
 20
3.01566211
  0
VERTEX
  8
0
 62
7
 10
5.67158008
 20
3.00389063
  0
VERTEX
  8
0
 62
7
 10
5.71452759
 20
2.98970508
  0
VERTEX
  8
0
 62
7
 10
5.75600000
 20
2.97300000
  0
VERTEX
  8
0
 62
7
 10
5.80231055
 20
2.95166797
  0
VERTEX
  8
0
 62
7
 10
5.84687500
 20
2.92684375
  0
VERTEX
  8
0
 62
7
 10
5.88933008
 20
2.89878516
  0
VERTEX
  8
0
 62
7
 10
5.92931250
 20
2.86775000
  0
VERTEX
  8
0
 62
7
 10
5.96645898
 20
2.83399609
  0
VERTEX
  8
0
 62
7
 10
6.00040625
 20
2.79778125
  0
VERTEX
  8
0
 62
7
 10
6.03079102
 20
2.75936328
  0
VERTEX
  8
0
 62
7
 10
6.05725000
 20
2.71900000
  0
VERTEX
  8
0
 62
7
 10
6.07941992
 20
2.67694922
  0
VERTEX
  8
0
 62
7
 10
6.09693750
 20
2.63346875
  0
VERTEX
  8
0
 62
7
 10
6.10943945
 20
2.58881641
  0
VERTEX
  8
0
 62
7
 10
6.11656250
 20
2.54325000
  0
VERTEX
  8
0
 62
7
 10
6.11794336
 20
2.49702734
  0
VERTEX
  8
0
 62
7
 10
6.11321875
 20
2.45040625
  0
VERTEX
  8
0
 62
7
 10
6.10202539
 20
2.40364453
  0
VERTEX
  8
0
 62
7
 10
6.08400000
 20
2.35700000
  0
VERTEX
  8
0
 62
7
 10
6.06612891
 20
2.32107617
  0
VERTEX
  8
0
 62
7
 10
6.04584375
 20
2.28823438
  0
VERTEX
  8
0
 62
7
 10
6.02363672
 20
2.25836914
  0
VERTEX
  8
0
 62
7
 10
6.00000000
 20
2.23137500
  0
VERTEX
  8
0
 62
7
 10
5.97542578
 20
2.20714648
  0
VERTEX
  8
0
 62
7
 10
5.95040625
 20
2.18557813
  0
VERTEX
  8
0
 62
7
 10
5.92543359
 20
2.16656445
  0
VERTEX
  8
0
 62
7
 10
5.90100000
 20
2.15000000
  0
VERTEX
  8
0
 62
7
 10
5.87759766
 20
2.13577930
  0
VERTEX
  8
0
 62
7
 10
5.85571875
 20
2.12379688
  0
VERTEX
  8
0
 62
7
 10
5.83585547
 20
2.11394727
  0
VERTEX
  8
0
 62
7
 10
5.81850000
 20
2.10612500
  0
VERTEX
  8
0
 62
7
 10
5.80414453
 20
2.10022461
  0
VERTEX
  8
0
 62
7
 10
5.79328125
 20
2.09614063
  0
VERTEX
  8
0
 62
7
 10
5.78640234
 20
2.09376758
  0
VERTEX
  8
0
 62
7
 10
5.78400000
 20
2.09300000
  0
VERTEX
  8
0
 62
7
 10
5.78223975
 20
2.13376953
  0
VERTEX
  8
0
 62
7
 10
5.77699609
 20
2.17203125
  0
VERTEX
  8
0
 62
7
 10
5.76832471
 20
2.20771484
  0
VERTEX
  8
0
 62
7
 10
5.75628125
 20
2.24075000
  0
VERTEX
  8
0
 62
7
 10
5.74092139
 20
2.27106641
  0
VERTEX
  8
0
 62
7
 10
5.72230078
 20
2.29859375
  0
VERTEX
  8
0
 62
7
 10
5.70047510
 20
2.32326172
  0
VERTEX
  8
0
 62
7
 10
5.67550000
 20
2.34500000
  0
VERTEX
  8
0
 62
7
 10
5.64743115
 20
2.36373828
  0
VERTEX
  8
0
 62
7
 10
5.61632422
 20
2.37940625
  0
VERTEX
  8
0
 62
7
 10
5.58223486
 20
2.39193359
  0
VERTEX
  8
0
 62
7
 10
5.54521875
 20
2.40125000
  0
VERTEX
  8
0
 62
7
 10
5.50533154
 20
2.40728516
  0
VERTEX
  8
0
 62
7
 10
5.46262891
 20
2.40996875
  0
VERTEX
  8
0
 62
7
 10
5.41716650
 20
2.40923047
  0
VERTEX
  8
0
 62
7
 10
5.36900000
 20
2.40500000
  0
VERTEX
  8
0
 62
7
 10
5.30348438
 20
2.39375000
  0
VERTEX
  8
0
 62
7
 10
5.21462500
 20
2.37500000
  0
VERTEX
  8
0
 62
7
 10
5.12445313
 20
2.35325000
  0
VERTEX
  8
0
 62
7
 10
5.05500000
 20
2.33300000
  0
VERTEX
  8
0
 62
7
 10
4.91155273
 20
2.28162500
  0
VERTEX
  8
0
 62
7
 10
4.77198438
 20
2.22950000
  0
VERTEX
  8
0
 62
7
 10
4.63370508
 20
2.17662500
  0
VERTEX
  8
0
 62
7
 10
4.49412500
 20
2.12300000
  0
VERTEX
  8
0
 62
7
 10
4.35065430
 20
2.06862500
  0
VERTEX
  8
0
 62
7
 10
4.20070313
 20
2.01350000
  0
VERTEX
  8
0
 62
7
 10
4.04168164
 20
1.95762500
  0
VERTEX
  8
0
 62
7
 10
3.87100000
 20
1.90100000
  0
VERTEX
  8
0
 62
7
 10
3.70246875
 20
1.83826563
  0
VERTEX
  8
0
 62
7
 10
3.53018750
 20
1.78162500
  0
VERTEX
  8
0
 62
7
 10
3.35462500
 20
1.73042188
  0
VERTEX
  8
0
 62
7
 10
3.17625000
 20
1.68400000
  0
VERTEX
  8
0
 62
7
 10
2.99553125
 20
1.64170313
  0
VERTEX
  8
0
 62
7
 10
2.81293750
 20
1.60287500
  0
VERTEX
  8
0
 62
7
 10
2.62893750
 20
1.56685938
  0
VERTEX
  8
0
 62
7
 10
2.44400000
 20
1.53300000
  0
VERTEX
  8
0
 62
7
 10
2.39447559
 20
1.52567188
  0
VERTEX
  8
0
 62
7
 10
2.34283594
 20
1.52092188
  0
VERTEX
  8
0
 62
7
 10
2.28935645
 20
1.51872656
  0
VERTEX
  8
0
 62
7
 10
2.23431250
 20
1.51906250
  0
VERTEX
  8
0
 62
7
 10
2.17797949
 20
1.52190625
  0
VERTEX
  8
0
 62
7
 10
2.12063281
 20
1.52723438
  0
VERTEX
  8
0
 62
7
 10
2.06254785
 20
1.53502344
  0
VERTEX
  8
0
 62
7
 10
2.00400000
 20
1.54525000
  0
VERTEX
  8
0
 62
7
 10
1.94526465
 20
1.55789063
  0
VERTEX
  8
0
 62
7
 10
1.88661719
 20
1.57292188
  0
VERTEX
  8
0
 62
7
 10
1.82833301
 20
1.59032031
  0
VERTEX
  8
0
 62
7
 10
1.77068750
 20
1.61006250
  0
VERTEX
  8
0
 62
7
 10
1.71395605
 20
1.63212500
  0
VERTEX
  8
0
 62
7
 10
1.65841406
 20
1.65648438
  0
VERTEX
  8
0
 62
7
 10
1.60433691
 20
1.68311719
  0
VERTEX
  8
0
 62
7
 10
1.55200000
 20
1.71200000
  0
VERTEX
  8
0
 62
7
 10
1.50488037
 20
1.74154517
  0
VERTEX
  8
0
 62
7
 10
1.46032422
 20
1.77384570
  0
VERTEX
  8
0
 62
7
 10
1.41841064
 20
1.80877417
  0
VERTEX
  8
0
 62
7
 10
1.37921875
 20
1.84620313
  0
VERTEX
  8
0
 62
7
 10
1.34282764
 20
1.88600513
  0
VERTEX
  8
0
 62
7
 10
1.30931641
 20
1.92805273
  0
VERTEX
  8
0
 62
7
 10
1.27876416
 20
1.97221851
  0
VERTEX
  8
0
 62
7
 10
1.25125000
 20
2.01837500
  0
VERTEX
  8
0
 62
7
 10
1.22685303
 20
2.06639478
  0
VERTEX
  8
0
 62
7
 10
1.20565234
 20
2.11615039
  0
VERTEX
  8
0
 62
7
 10
1.18772705
 20
2.16751440
  0
VERTEX
  8
0
 62
7
 10
1.17315625
 20
2.22035938
  0
VERTEX
  8
0
 62
7
 10
1.16201904
 20
2.27455786
  0
VERTEX
  8
0
 62
7
 10
1.15439453
 20
2.32998242
  0
VERTEX
  8
0
 62
7
 10
1.15036182
 20
2.38650562
  0
VERTEX
  8
0
 62
7
 10
1.15000000
 20
2.44400000
  0
VERTEX
  8
0
 62
7
 10
1.15248047
 20
2.48069531
  0
VERTEX
  8
0
 62
7
 10
1.15840625
 20
2.51668750
  0
VERTEX
  8
0
 62
7
 10
1.16775391
 20
2.55221094
  0
VERTEX
  8
0
 62
7
 10
1.18050000
 20
2.58750000
  0
VERTEX
  8
0
 62
7
 10
1.19662109
 20
2.62278906
  0
VERTEX
  8
0
 62
7
 10
1.21609375
 20
2.65831250
  0
VERTEX
  8
0
 62
7
 10
1.23889453
 20
2.69430469
  0
VERTEX
  8
0
 62
7
 10
1.26500000
 20
2.73100000
  0
VERTEX
  8
0
 62
7
 10
1.29039551
 20
2.76018066
  0
VERTEX
  8
0
 62
7
 10
1.31853906
 20
2.78472656
  0
VERTEX
  8
0
 62
7
 10
1.34880371
 20
2.80464355
  0
VERTEX
  8
0
 62
7
 10
1.38056250
 20
2.81993750
  0
VERTEX
  8
0
 62
7
 10
1.41318848
 20
2.83061426
  0
VERTEX
  8
0
 62
7
 10
1.44605469
 20
2.83667969
  0
VERTEX
  8
0
 62
7
 10
1.47853418
 20
2.83813965
  0
VERTEX
  8
0
 62
7
 10
1.51000000
 20
2.83500000
  0
VERTEX
  8
0
 62
7
 10
1.53982520
 20
2.82726660
  0
VERTEX
  8
0
 62
7
 10
1.56738281
 20
2.81494531
  0
VERTEX
  8
0
 62
7
 10
1.59204590
 20
2.79804199
  0
VERTEX
  8
0
 62
7
 10
1.61318750
 20
2.77656250
  0
VERTEX
  8
0
 62
7
 10
1.63018066
 20
2.75051270
  0
VERTEX
  8
0
 62
7
 10
1.64239844
 20
2.71989844
  0
VERTEX
  8
0
 62
7
 10
1.64921387
 20
2.68472559
  0
VERTEX
  8
0
 62
7
 10
1.65000000
 20
2.64500000
  0
VERTEX
  8
0
 62
7
 10
1.64695068
 20
2.62212109
  0
VERTEX
  8
0
 62
7
 10
1.64102734
 20
2.60146875
  0
VERTEX
  8
0
 62
7
 10
1.63256689
 20
2.58301953
  0
VERTEX
  8
0
 62
7
 10
1.62190625
 20
2.56675000
  0
VERTEX
  8
0
 62
7
 10
1.60938232
 20
2.55263672
  0
VERTEX
  8
0
 62
7
 10
1.59533203
 20
2.54065625
  0
VERTEX
  8
0
 62
7
 10
1.58009229
 20
2.53078516
  0
VERTEX
  8
0
 62
7
 10
1.56400000
 20
2.52300000
  0
VERTEX
  8
0
 62
7
 10
1.54739209
 20
2.51727734
  0
VERTEX
  8
0
 62
7
 10
1.53060547
 20
2.51359375
  0
VERTEX
  8
0
 62
7
 10
1.51397705
 20
2.51192578
  0
VERTEX
  8
0
 62
7
 10
1.49784375
 20
2.51225000
  0
VERTEX
  8
0
 62
7
 10
1.48254248
 20
2.51454297
  0
VERTEX
  8
0
 62
7
 10
1.46841016
 20
2.51878125
  0
VERTEX
  8
0
 62
7
 10
1.45578369
 20
2.52494141
  0
VERTEX
  8
0
 62
7
 10
1.44500000
 20
2.53300000
  0
VERTEX
  8
0
 62
7
 10
1.42998438
 20
2.54850000
  0
VERTEX
  8
0
 62
7
 10
1.41937500
 20
2.56700000
  0
VERTEX
  8
0
 62
7
 10
1.41307813
 20
2.58250000
  0
VERTEX
  8
0
 62
7
 10
1.41100000
 20
2.58900000
  0
VERTEX
  8
0
 62
7
 10
1.38708740
 20
2.56831445
  0
VERTEX
  8
0
 62
7
 10
1.36707422
 20
2.54539063
  0
VERTEX
  8
0
 62
7
 10
1.35092236
 20
2.52042773
  0
VERTEX
  8
0
 62
7
 10
1.33859375
 20
2.49362500
  0
VERTEX
  8
0
 62
7
 10
1.33005029
 20
2.46518164
  0
VERTEX
  8
0
 62
7
 10
1.32525391
 20
2.43529688
  0
VERTEX
  8
0
 62
7
 10
1.32416650
 20
2.40416992
  0
VERTEX
  8
0
 62
7
 10
1.32675000
 20
2.37200000
  0
VERTEX
  8
0
 62
7
 10
1.33296631
 20
2.33898633
  0
VERTEX
  8
0
 62
7
 10
1.34277734
 20
2.30532813
  0
VERTEX
  8
0
 62
7
 10
1.35614502
 20
2.27122461
  0
VERTEX
  8
0
 62
7
 10
1.37303125
 20
2.23687500
  0
VERTEX
  8
0
 62
7
 10
1.39339795
 20
2.20247852
  0
VERTEX
  8
0
 62
7
 10
1.41720703
 20
2.16823438
  0
VERTEX
  8
0
 62
7
 10
1.44442041
 20
2.13434180
  0
VERTEX
  8
0
 62
7
 10
1.47500000
 20
2.10100000
  0
VERTEX
  8
0
 62
7
 10
1.50574097
 20
2.07149805
  0
VERTEX
  8
0
 62
7
 10
1.53938086
 20
2.04310938
  0
VERTEX
  8
0
 62
7
 10
1.57579517
 20
2.01600977
  0
VERTEX
  8
0
 62
7
 10
1.61485938
 20
1.99037500
  0
VERTEX
  8
0
 62
7
 10
1.65644897
 20
1.96638086
  0
VERTEX
  8
0
 62
7
 10
1.70043945
 20
1.94420313
  0
VERTEX
  8
0
 62
7
 10
1.74670630
 20
1.92401758
  0
VERTEX
  8
0
 62
7
 10
1.79512500
 20
1.90600000
  0
VERTEX
  8
0
 62
7
 10
1.84557104
 20
1.89032617
  0
VERTEX
  8
0
 62
7
 10
1.89791992
 20
1.87717188
  0
VERTEX
  8
0
 62
7
 10
1.95204712
 20
1.86671289
  0
VERTEX
  8
0
 62
7
 10
2.00782813
 20
1.85912500
  0
VERTEX
  8
0
 62
7
 10
2.06513843
 20
1.85458398
  0
VERTEX
  8
0
 62
7
 10
2.12385352
 20
1.85326563
  0
VERTEX
  8
0
 62
7
 10
2.18384888
 20
1.85534570
  0
VERTEX
  8
0
 62
7
 10
2.24500000
 20
1.86100000
  0
VERTEX
  8
0
 62
7
 10
2.31288223
 20
1.87100928
  0
VERTEX
  8
0
 62
7
 10
2.37818286
 20
1.88444922
  0
VERTEX
  8
0
 62
7
 10
2.44094528
 20
1.90118799
  0
VERTEX
  8
0
 62
7
 10
2.50121289
 20
1.92109375
  0
VERTEX
  8
0
 62
7
 10
2.55902908
 20
1.94403467
  0
VERTEX
  8
0
 62
7
 10
2.61443726
 20
1.96987891
  0
VERTEX
  8
0
 62
7
 10
2.66748080
 20
1.99849463
  0
VERTEX
  8
0
 62
7
 10
2.71820313
 20
2.02975000
  0
VERTEX
  8
0
 62
7
 10
2.76664761
 20
2.06351318
  0
VERTEX
  8
0
 62
7
 10
2.81285767
 20
2.09965234
  0
VERTEX
  8
0
 62
7
 10
2.85687668
 20
2.13803564
  0
VERTEX
  8
0
 62
7
 10
2.89874805
 20
2.17853125
  0
VERTEX
  8
0
 62
7
 10
2.93851517
 20
2.22100732
  0
VERTEX
  8
0
 62
7
 10
2.97622144
 20
2.26533203
  0
VERTEX
  8
0
 62
7
 10
3.01191025
 20
2.31137354
  0
VERTEX
  8
0
 62
7
 10
3.04562500
 20
2.35900000
  0
VERTEX
  8
0
 62
7
 10
3.07740909
 20
2.40807959
  0
VERTEX
  8
0
 62
7
 10
3.10730591
 20
2.45848047
  0
VERTEX
  8
0
 62
7
 10
3.13535886
 20
2.51007080
  0
VERTEX
  8
0
 62
7
 10
3.16161133
 20
2.56271875
  0
VERTEX
  8
0
 62
7
 10
3.18610672
 20
2.61629248
  0
VERTEX
  8
0
 62
7
 10
3.20888843
 20
2.67066016
  0
VERTEX
  8
0
 62
7
 10
3.22999985
 20
2.72568994
  0
VERTEX
  8
0
 62
7
 10
3.24948438
 20
2.78125000
  0
VERTEX
  8
0
 62
7
 10
3.26738541
 20
2.83720850
  0
VERTEX
  8
0
 62
7
 10
3.28374634
 20
2.89343359
  0
VERTEX
  8
0
 62
7
 10
3.29861057
 20
2.94979346
  0
VERTEX
  8
0
 62
7
 10
3.31202148
 20
3.00615625
  0
VERTEX
  8
0
 62
7
 10
3.32402249
 20
3.06239014
  0
VERTEX
  8
0
 62
7
 10
3.33465698
 20
3.11836328
  0
VERTEX
  8
0
 62
7
 10
3.34396835
 20
3.17394385
  0
VERTEX
  8
0
 62
7
 10
3.35200000
 20
3.22900000
  0
VERTEX
  8
0
 62
7
 10
3.37059570
 20
3.34035938
  0
VERTEX
  8
0
 62
7
 10
3.38507813
 20
3.45237500
  0
VERTEX
  8
0
 62
7
 10
3.39536523
 20
3.56495313
  0
VERTEX
  8
0
 62
7
 10
3.40137500
 20
3.67800000
  0
VERTEX
  8
0
 62
7
 10
3.40302539
 20
3.79142188
  0
VERTEX
  8
0
 62
7
 10
3.40023438
 20
3.90512500
  0
VERTEX
  8
0
 62
7
 10
3.39291992
 20
4.01901563
  0
VERTEX
  8
0
 62
7
 10
3.38100000
 20
4.13300000
  0
VERTEX
  8
0
 62
7
 10
3.36145117
 20
4.26718750
  0
VERTEX
  8
0
 62
7
 10
3.33598438
 20
4.39950000
  0
VERTEX
  8
0
 62
7
 10
3.30486914
 20
4.52956250
  0
VERTEX
  8
0
 62
7
 10
3.26837500
 20
4.65700000
  0
VERTEX
  8
0
 62
7
 10
3.22677148
 20
4.78143750
  0
VERTEX
  8
0
 62
7
 10
3.18032813
 20
4.90250000
  0
VERTEX
  8
0
 62
7
 10
3.12931445
 20
5.01981250
  0
VERTEX
  8
0
 62
7
 10
3.07400000
 20
5.13300000
  0
VERTEX
  8
0
 62
7
 10
3.05756012
 20
5.16455713
  0
VERTEX
  8
0
 62
7
 10
3.04084814
 20
5.19617578
  0
VERTEX
  8
0
 62
7
 10
3.02383807
 20
5.22777686
  0
VERTEX
  8
0
 62
7
 10
3.00650391
 20
5.25928125
  0
VERTEX
  8
0
 62
7
 10
2.98881964
 20
5.29060986
  0
VERTEX
  8
0
 62
7
 10
2.97075928
 20
5.32168359
  0
VERTEX
  8
0
 62
7
 10
2.95229681
 20
5.35242334
  0
VERTEX
  8
0
 62
7
 10
2.93340625
 20
5.38275000
  0
VERTEX
  8
0
 62
7
 10
2.91406158
 20
5.41258447
  0
VERTEX
  8
0
 62
7
 10
2.89423682
 20
5.44184766
  0
VERTEX
  8
0
 62
7
 10
2.87390594
 20
5.47046045
  0
VERTEX
  8
0
 62
7
 10
2.85304297
 20
5.49834375
  0
VERTEX
  8
0
 62
7
 10
2.83162189
 20
5.52541846
  0
VERTEX
  8
0
 62
7
 10
2.80961670
 20
5.55160547
  0
VERTEX
  8
0
 62
7
 10
2.78700140
 20
5.57682568
  0
VERTEX
  8
0
 62
7
 10
2.76375000
 20
5.60100000
  0
VERTEX
  8
0
 62
7
 10
2.73983649
 20
5.62404932
  0
VERTEX
  8
0
 62
7
 10
2.71523486
 20
5.64589453
  0
VERTEX
  8
0
 62
7
 10
2.68991913
 20
5.66645654
  0
VERTEX
  8
0
 62
7
 10
2.66386328
 20
5.68565625
  0
VERTEX
  8
0
 62
7
 10
2.63704132
 20
5.70341455
  0
VERTEX
  8
0
 62
7
 10
2.60942725
 20
5.71965234
  0
VERTEX
  8
0
 62
7
 10
2.58099506
 20
5.73429053
  0
VERTEX
  8
0
 62
7
 10
2.55171875
 20
5.74725000
  0
VERTEX
  8
0
 62
7
 10
2.52157233
 20
5.75845166
  0
VERTEX
  8
0
 62
7
 10
2.49052979
 20
5.76781641
  0
VERTEX
  8
0
 62
7
 10
2.45856512
 20
5.77526514
  0
VERTEX
  8
0
 62
7
 10
2.42565234
 20
5.78071875
  0
VERTEX
  8
0
 62
7
 10
2.39176544
 20
5.78409814
  0
VERTEX
  8
0
 62
7
 10
2.35687842
 20
5.78532422
  0
VERTEX
  8
0
 62
7
 10
2.32096527
 20
5.78431787
  0
VERTEX
  8
0
 62
7
 10
2.28400000
 20
5.78100000
  0
VERTEX
  8
0
 62
7
 10
2.24858276
 20
5.77502344
  0
VERTEX
  8
0
 62
7
 10
2.21441211
 20
5.76618750
  0
VERTEX
  8
0
 62
7
 10
2.18160962
 20
5.75463281
  0
VERTEX
  8
0
 62
7
 10
2.15029688
 20
5.74050000
  0
VERTEX
  8
0
 62
7
 10
2.12059546
 20
5.72392969
  0
VERTEX
  8
0
 62
7
 10
2.09262695
 20
5.70506250
  0
VERTEX
  8
0
 62
7
 10
2.06651294
 20
5.68403906
  0
VERTEX
  8
0
 62
7
 10
2.04237500
 20
5.66100000
  0
VERTEX
  8
0
 62
7
 10
2.02033472
 20
5.63608594
  0
VERTEX
  8
0
 62
7
 10
2.00051367
 20
5.60943750
  0
VERTEX
  8
0
 62
7
 10
1.98303345
 20
5.58119531
  0
VERTEX
  8
0
 62
7
 10
1.96801563
 20
5.55150000
  0
VERTEX
  8
0
 62
7
 10
1.95558179
 20
5.52049219
  0
VERTEX
  8
0
 62
7
 10
1.94585352
 20
5.48831250
  0
VERTEX
  8
0
 62
7
 10
1.93895239
 20
5.45510156
  0
VERTEX
  8
0
 62
7
 10
1.93500000
 20
5.42100000
  0
VERTEX
  8
0
 62
7
 10
1.90716797
 20
5.43683594
  0
VERTEX
  8
0
 62
7
 10
1.88034375
 20
5.45431250
  0
VERTEX
  8
0
 62
7
 10
1.85459766
 20
5.47338281
  0
VERTEX
  8
0
 62
7
 10
1.83000000
 20
5.49400000
  0
VERTEX
  8
0
 62
7
 10
1.80662109
 20
5.51611719
  0
VERTEX
  8
0
 62
7
 10
1.78453125
 20
5.53968750
  0
VERTEX
  8
0
 62
7
 10
1.76380078
 20
5.56466406
  0
VERTEX
  8
0
 62
7
 10
1.74450000
 20
5.59100000
  0
VERTEX
  8
0
 62
7
 10
1.72669922
 20
5.61864844
  0
VERTEX
  8
0
 62
7
 10
1.71046875
 20
5.64756250
  0
VERTEX
  8
0
 62
7
 10
1.69587891
 20
5.67769531
  0
VERTEX
  8
0
 62
7
 10
1.68300000
 20
5.70900000
  0
VERTEX
  8
0
 62
7
 10
1.67190234
 20
5.74142969
  0
VERTEX
  8
0
 62
7
 10
1.66265625
 20
5.77493750
  0
VERTEX
  8
0
 62
7
 10
1.65533203
 20
5.80947656
  0
VERTEX
  8
0
 62
7
 10
1.65000000
 20
5.84500000
  0
VERTEX
  8
0
 62
7
 10
1.64620117
 20
5.90490625
  0
VERTEX
  8
0
 62
7
 10
1.64885938
 20
5.96425000
  0
VERTEX
  8
0
 62
7
 10
1.65768164
 20
6.02246875
  0
VERTEX
  8
0
 62
7
 10
1.67237500
 20
6.07900000
  0
VERTEX
  8
0
 62
7
 10
1.69264648
 20
6.13328125
  0
VERTEX
  8
0
 62
7
 10
1.71820313
 20
6.18475000
  0
VERTEX
  8
0
 62
7
 10
1.74875195
 20
6.23284375
  0
VERTEX
  8
0
 62
7
 10
1.78400000
 20
6.27700000
  0
VERTEX
  8
0
 62
7
 10
1.82620996
 20
6.31957422
  0
VERTEX
  8
0
 62
7
 10
1.87127344
 20
6.35734375
  0
VERTEX
  8
0
 62
7
 10
1.91890332
 20
6.39037891
  0
VERTEX
  8
0
 62
7
 10
1.96881250
 20
6.41875000
  0
VERTEX
  8
0
 62
7
 10
2.02071387
 20
6.44252734
  0
VERTEX
  8
0
 62
7
 10
2.07432031
 20
6.46178125
  0
VERTEX
  8
0
 62
7
 10
2.12934473
 20
6.47658203
  0
VERTEX
  8
0
 62
7
 10
2.18550000
 20
6.48700000
  0
VERTEX
  8
0
 62
7
 10
2.24249902
 20
6.49310547
  0
VERTEX
  8
0
 62
7
 10
2.30005469
 20
6.49496875
  0
VERTEX
  8
0
 62
7
 10
2.35787988
 20
6.49266016
  0
VERTEX
  8
0
 62
7
 10
2.41568750
 20
6.48625000
  0
VERTEX
  8
0
 62
7
 10
2.47319043
 20
6.47580859
  0
VERTEX
  8
0
 62
7
 10
2.53010156
 20
6.46140625
  0
VERTEX
  8
0
 62
7
 10
2.58613379
 20
6.44311328
  0
VERTEX
  8
0
 62
7
 10
2.64100000
 20
6.42100000
  0
VERTEX
  8
0
 62
7
 10
2.71632813
 20
6.38545313
  0
VERTEX
  8
0
 62
7
 10
2.78912500
 20
6.34512500
  0
VERTEX
  8
0
 62
7
 10
2.85910938
 20
6.30048438
  0
VERTEX
  8
0
 62
7
 10
2.92600000
 20
6.25200000
  0
VERTEX
  8
0
 62
7
 10
2.92100000
 20
6.21200000
  0
VERTEX
  8
0
 62
7
 10
2.91510938
 20
6.16845313
  0
VERTEX
  8
0
 62
7
 10
2.90837500
 20
6.13137500
  0
VERTEX
  8
0
 62
7
 10
2.89920313
 20
6.09935938
  0
VERTEX
  8
0
 62
7
 10
2.88600000
 20
6.07100000
  0
VERTEX
  8
0
 62
7
 10
2.87083398
 20
6.04517969
  0
VERTEX
  8
0
 62
7
 10
2.85598438
 20
6.02175000
  0
VERTEX
  8
0
 62
7
 10
2.84129883
 20
6.00075781
  0
VERTEX
  8
0
 62
7
 10
2.82662500
 20
5.98225000
  0
VERTEX
  8
0
 62
7
 10
2.81181055
 20
5.96627344
  0
VERTEX
  8
0
 62
7
 10
2.79670313
 20
5.95287500
  0
VERTEX
  8
0
 62
7
 10
2.78115039
 20
5.94210156
  0
VERTEX
  8
0
 62
7
 10
2.76500000
 20
5.93400000
  0
VERTEX
  8
0
 62
7
 10
2.74043359
 20
5.91915430
  0
VERTEX
  8
0
 62
7
 10
2.72296875
 20
5.89904688
  0
VERTEX
  8
0
 62
7
 10
2.71258203
 20
5.87544727
  0
VERTEX
  8
0
 62
7
 10
2.70925000
 20
5.85012500
  0
VERTEX
  8
0
 62
7
 10
2.71294922
 20
5.82484961
  0
VERTEX
  8
0
 62
7
 10
2.72365625
 20
5.80139063
  0
VERTEX
  8
0
 62
7
 10
2.74134766
 20
5.78151758
  0
VERTEX
  8
0
 62
7
 10
2.76600000
 20
5.76700000
  0
VERTEX
  8
0
 62
7
 10
2.83887500
 20
5.74206250
  0
VERTEX
  8
0
 62
7
 10
2.91325000
 20
5.72425000
  0
VERTEX
  8
0
 62
7
 10
2.98875000
 20
5.71356250
  0
VERTEX
  8
0
 62
7
 10
3.06500000
 20
5.71000000
  0
VERTEX
  8
0
 62
7
 10
3.12721875
 20
5.71228125
  0
VERTEX
  8
0
 62
7
 10
3.18925000
 20
5.71925000
  0
VERTEX
  8
0
 62
7
 10
3.25090625
 20
5.73109375
  0
VERTEX
  8
0
 62
7
 10
3.31200000
 20
5.74800000
  0
VERTEX
  8
0
 62
7
 10
3.33900000
 20
5.75700000
  0
VERTEX
  8
0
 62
7
 10
3.37995190
 20
5.68720874
  0
VERTEX
  8
0
 62
7
 10
3.41916211
 20
5.61623242
  0
VERTEX
  8
0
 62
7
 10
3.45659985
 20
5.54410474
  0
VERTEX
  8
0
 62
7
 10
3.49223438
 20
5.47085938
  0
VERTEX
  8
0
 62
7
 10
3.52603491
 20
5.39653003
  0
VERTEX
  8
0
 62
7
 10
3.55797070
 20
5.32115039
  0
VERTEX
  8
0
 62
7
 10
3.58801099
 20
5.24475415
  0
VERTEX
  8
0
 62
7
 10
3.61612500
 20
5.16737500
  0
VERTEX
  8
0
 62
7
 10
3.64228198
 20
5.08904663
  0
VERTEX
  8
0
 62
7
 10
3.66645117
 20
5.00980273
  0
VERTEX
  8
0
 62
7
 10
3.68860181
 20
4.92967700
  0
VERTEX
  8
0
 62
7
 10
3.70870313
 20
4.84870313
  0
VERTEX
  8
0
 62
7
 10
3.72672437
 20
4.76691479
  0
VERTEX
  8
0
 62
7
 10
3.74263477
 20
4.68434570
  0
VERTEX
  8
0
 62
7
 10
3.75640356
 20
4.60102954
  0
VERTEX
  8
0
 62
7
 10
3.76800000
 20
4.51700000
  0
VERTEX
  8
0
 62
7
 10
3.77650024
 20
4.43345313
  0
VERTEX
  8
0
 62
7
 10
3.78190820
 20
4.34812500
  0
VERTEX
  8
0
 62
7
 10
3.78445972
 20
4.26148438
  0
VERTEX
  8
0
 62
7
 10
3.78439063
 20
4.17400000
  0
VERTEX
  8
0
 62
7
 10
3.78193677
 20
4.08614063
  0
VERTEX
  8
0
 62
7
 10
3.77733398
 20
3.99837500
  0
VERTEX
  8
0
 62
7
 10
3.77081812
 20
3.91117188
  0
VERTEX
  8
0
 62
7
 10
3.76262500
 20
3.82500000
  0
VERTEX
  8
0
 62
7
 10
3.75299048
 20
3.74032813
  0
VERTEX
  8
0
 62
7
 10
3.74215039
 20
3.65762500
  0
VERTEX
  8
0
 62
7
 10
3.73034058
 20
3.57735938
  0
VERTEX
  8
0
 62
7
 10
3.71779688
 20
3.50000000
  0
VERTEX
  8
0
 62
7
 10
3.70475513
 20
3.42601563
  0
VERTEX
  8
0
 62
7
 10
3.69145117
 20
3.35587500
  0
VERTEX
  8
0
 62
7
 10
3.67812085
 20
3.29004688
  0
VERTEX
  8
0
 62
7
 10
3.66500000
 20
3.22900000
  0
VERTEX
  8
0
 62
7
 10
3.65305298
 20
3.17838867
  0
VERTEX
  8
0
 62
7
 10
3.63861133
 20
3.12298438
  0
VERTEX
  8
0
 62
7
 10
3.62171167
 20
3.06343164
  0
VERTEX
  8
0
 62
7
 10
3.60239063
 20
3.00037500
  0
VERTEX
  8
0
 62
7
 10
3.58068481
 20
2.93445898
  0
VERTEX
  8
0
 62
7
 10
3.55663086
 20
2.86632813
  0
VERTEX
  8
0
 62
7
 10
3.53026538
 20
2.79662695
  0
VERTEX
  8
0
 62
7
 10
3.50162500
 20
2.72600000
  0
VERTEX
  8
0
 62
7
 10
3.47074634
 20
2.65509180
  0
VERTEX
  8
0
 62
7
 10
3.43766602
 20
2.58454688
  0
VERTEX
  8
0
 62
7
 10
3.40242065
 20
2.51500977
  0
VERTEX
  8
0
 62
7
 10
3.36504688
 20
2.44712500
  0
VERTEX
  8
0
 62
7
 10
3.32558130
 20
2.38153711
  0
VERTEX
  8
0
 62
7
 10
3.28406055
 20
2.31889063
  0
VERTEX
  8
0
 62
7
 10
3.24052124
 20
2.25983008
  0
VERTEX
  8
0
 62
7
 10
3.19500000
 20
2.20500000
  0
VERTEX
  8
0
 62
7
 10
3.22900000
 20
2.16500000
  0
VERTEX
  8
0
 62
7
 10
3.27701440
 20
2.21859766
  0
VERTEX
  8
0
 62
7
 10
3.32249023
 20
2.27428125
  0
VERTEX
  8
0
 62
7
 10
3.36551392
 20
2.33188672
  0
VERTEX
  8
0
 62
7
 10
3.40617188
 20
2.39125000
  0
VERTEX
  8
0
 62
7
 10
3.44455054
 20
2.45220703
  0
VERTEX
  8
0
 62
7
 10
3.48073633
 20
2.51459375
  0
VERTEX
  8
0
 62
7
 10
3.51481567
 20
2.57824609
  0
VERTEX
  8
0
 62
7
 10
3.54687500
 20
2.64300000
  0
VERTEX
  8
0
 62
7
 10
3.57700073
 20
2.70869141
  0
VERTEX
  8
0
 62
7
 10
3.60527930
 20
2.77515625
  0
VERTEX
  8
0
 62
7
 10
3.63179712
 20
2.84223047
  0
VERTEX
  8
0
 62
7
 10
3.65664063
 20
2.90975000
  0
VERTEX
  8
0
 62
7
 10
3.67989624
 20
2.97755078
  0
VERTEX
  8
0
 62
7
 10
3.70165039
 20
3.04546875
  0
VERTEX
  8
0
 62
7
 10
3.72198950
 20
3.11333984
  0
VERTEX
  8
0
 62
7
 10
3.74100000
 20
3.18100000
  0
VERTEX
  8
0
 62
7
 10
3.78101172
 20
3.34375000
  0
VERTEX
  8
0
 62
7
 10
3.81340625
 20
3.50800000
  0
VERTEX
  8
0
 62
7
 10
3.83834766
 20
3.67375000
  0
VERTEX
  8
0
 62
7
 10
3.85600000
 20
3.84100000
  0
VERTEX
  8
0
 62
7
 10
3.86652734
 20
4.00975000
  0
VERTEX
  8
0
 62
7
 10
3.87009375
 20
4.18000000
  0
VERTEX
  8
0
 62
7
 10
3.86686328
 20
4.35175000
  0
VERTEX
  8
0
 62
7
 10
3.85700000
 20
4.52500000
  0
VERTEX
  8
0
 62
7
 10
3.84571680
 20
4.65506250
  0
VERTEX
  8
0
 62
7
 10
3.83292188
 20
4.77650000
  0
VERTEX
  8
0
 62
7
 10
3.81869727
 20
4.89118750
  0
VERTEX
  8
0
 62
7
 10
3.80312500
 20
5.00100000
  0
VERTEX
  8
0
 62
7
 10
3.78628711
 20
5.10781250
  0
VERTEX
  8
0
 62
7
 10
3.76826563
 20
5.21350000
  0
VERTEX
  8
0
 62
7
 10
3.74914258
 20
5.31993750
  0
VERTEX
  8
0
 62
7
 10
3.72900000
 20
5.42900000
  0
VERTEX
  8
0
 62
7
 10
3.71579688
 20
5.50887500
  0
VERTEX
  8
0
 62
7
 10
3.70737500
 20
5.57900000
  0
VERTEX
  8
0
 62
7
 10
3.70326563
 20
5.63487500
  0
VERTEX
  8
0
 62
7
 10
3.70300000
 20
5.67200000
  0
VERTEX
  8
0
 62
7
 10
3.73839063
 20
5.62905664
  0
VERTEX
  8
0
 62
7
 10
3.77537500
 20
5.58814063
  0
VERTEX
  8
0
 62
7
 10
3.81367188
 20
5.54949805
  0
VERTEX
  8
0
 62
7
 10
3.85300000
 20
5.51337500
  0
VERTEX
  8
0
 62
7
 10
3.89307813
 20
5.48001758
  0
VERTEX
  8
0
 62
7
 10
3.93362500
 20
5.44967188
  0
VERTEX
  8
0
 62
7
 10
3.97435938
 20
5.42258398
  0
VERTEX
  8
0
 62
7
 10
4.01500000
 20
5.39900000
  0
VERTEX
  8
0
 62
7
 10
4.03000000
 20
5.39100000
  0
SEQEND
  0
POLYLINE
  8
0
 62
7
 66
1
 70
1
  0
VERTEX
  8
0
 62
7
 10
4.39000000
 20
4.19300000
  0
VERTEX
  8
0
 62
7
 10
4.40670313
 20
4.34632813
  0
VERTEX
  8
0
 62
7
 10
4.41937500
 20
4.50012500
  0
VERTEX
  8
0
 62
7
 10
4.42810938
 20
4.65410938
  0
VERTEX
  8
0
 62
7
 10
4.43300000
 20
4.80800000
  0
VERTEX
  8
0
 62
7
 10
4.43400000
 20
4.90300000
  0
VERTEX
  8
0
 62
7
 10
4.43028125
 20
5.10470313
  0
VERTEX
  8
0
 62
7
 10
4.41925000
 20
5.30612500
  0
VERTEX
  8
0
 62
7
 10
4.40109375
 20
5.50698438
  0
VERTEX
  8
0
 62
7
 10
4.37600000
 20
5.70700000
  0
VERTEX
  8
0
 62
7
 10
4.37400000
 20
5.71700000
  0
VERTEX
  8
0
 62
7
 10
4.32000000
 20
5.65800000
  0
VERTEX
  8
0
 62
7
 10
4.27200000
 20
5.61000000
  0
VERTEX
  8
0
 62
7
 10
4.25100000
 20
5.59000000
  0
VERTEX
  8
0
 62
7
 10
4.26953125
 20
5.41867188
  0
VERTEX
  8
0
 62
7
 10
4.28300000
 20
5.24687500
  0
VERTEX
  8
0
 62
7
 10
4.29121875
 20
5.07489063
  0
VERTEX
  8
0
 62
7
 10
4.29400000
 20
4.90300000
  0
VERTEX
  8
0
 62
7
 10
4.29300000
 20
4.81000000
  0
VERTEX
  8
0
 62
7
 10
4.28850000
 20
4.66950000
  0
VERTEX
  8
0
 62
7
 10
4.28100000
 20
4.52900000
  0
VERTEX
  8
0
 62
7
 10
4.28462500
 20
4.40275000
  0
VERTEX
  8
0
 62
7
 10
4.28600000
 20
4.27500000
  0
VERTEX
  8
0
 62
7
 10
4.28403125
 20
4.16993750
  0
VERTEX
  8
0
 62
7
 10
4.27925000
 20
4.06600000
  0
VERTEX
  8
0
 62
7
 10
4.27334375
 20
3.96281250
  0
VERTEX
  8
0
 62
7
 10
4.26800000
 20
3.86000000
  0
VERTEX
  8
0
 62
7
 10
4.26807617
 20
3.85241016
  0
VERTEX
  8
0
 62
7
 10
4.26954688
 20
3.84803125
  0
VERTEX
  8
0
 62
7
 10
4.27202539
 20
3.84632422
  0
VERTEX
  8
0
 62
7
 10
4.27512500
 20
3.84675000
  0
VERTEX
  8
0
 62
7
 10
4.27845898
 20
3.84876953
  0
VERTEX
  8
0
 62
7
 10
4.28164063
 20
3.85184375
  0
VERTEX
  8
0
 62
7
 10
4.28428320
 20
3.85543359
  0
VERTEX
  8
0
 62
7
 10
4.28600000
 20
3.85900000
  0
VERTEX
  8
0
 62
7
 10
4.33800000
 20
4.01962500
  0
VERTEX
  8
0
 62
7
 10
4.39000000
 20
4.19300000
  0
SEQEND
  0
POLYLINE
  8
0
 62
7
 66
1
 70
1
  0
VERTEX
  8
0
 62
7
 10
3.51500000
 20
6.26200000
  0
VERTEX
  8
0
 62
7
 10
3.48387500
 20
6.24875000
  0
VERTEX
  8
0
 62
7
 10
3.45500000
 20
6.23400000
  0
VERTEX
  8
0
 62
7
 10
3.41584375
 20
6.21084375
  0
VERTEX
  8
0
 62
7
 10
3.37950000
 20
6.18525000
  0
VERTEX
  8
0
 62
7
 10
3.34390625
 20
6.15778125
  0
VERTEX
  8
0
 62
7
 10
3.30700000
 20
6.12900000
  0
VERTEX
  8
0
 62
7
 10
3.29935938
 20
6.12585938
  0
VERTEX
  8
0
 62
7
 10
3.29087500
 20
6.12562500
  0
VERTEX
  8
0
 62
7
 10
3.28295313
 20
6.12857813
  0
VERTEX
  8
0
 62
7
 10
3.27700000
 20
6.13500000
  0
VERTEX
  8
0
 62
7
 10
3.27281250
 20
6.14193750
  0
VERTEX
  8
0
 62
7
 10
3.27200000
 20
6.15000000
  0
VERTEX
  8
0
 62
7
 10
3.27418750
 20
6.15806250
  0
VERTEX
  8
0
 62
7
 10
3.27900000
 20
6.16500000
  0
VERTEX
  8
0
 62
7
 10
3.31617188
 20
6.19384375
  0
VERTEX
  8
0
 62
7
 10
3.35137500
 20
6.22175000
  0
VERTEX
  8
0
 62
7
 10
3.38489063
 20
6.25078125
  0
VERTEX
  8
0
 62
7
 10
3.41700000
 20
6.28300000
  0
VERTEX
  8
0
 62
7
 10
3.44400000
 20
6.31600000
  0
VERTEX
  8
0
 62
7
 10
3.40103516
 20
6.32276367
  0
VERTEX
  8
0
 62
7
 10
3.35921875
 20
6.33317188
  0
VERTEX
  8
0
 62
7
 10
3.31866797
 20
6.34702539
  0
VERTEX
  8
0
 62
7
 10
3.27950000
 20
6.36412500
  0
VERTEX
  8
0
 62
7
 10
3.24183203
 20
6.38427148
  0
VERTEX
  8
0
 62
7
 10
3.20578125
 20
6.40726563
  0
VERTEX
  8
0
 62
7
 10
3.17146484
 20
6.43290820
  0
VERTEX
  8
0
 62
7
 10
3.13900000
 20
6.46100000
  0
VERTEX
  8
0
 62
7
 10
3.11243750
 20
6.43945313
  0
VERTEX
  8
0
 62
7
 10
3.08850000
 20
6.41537500
  0
VERTEX
  8
0
 62
7
 10
3.06756250
 20
6.38885938
  0
VERTEX
  8
0
 62
7
 10
3.05000000
 20
6.36000000
  0
VERTEX
  8
0
 62
7
 10
3.03383594
 20
6.32034180
  0
VERTEX
  8
0
 62
7
 10
3.02306250
 20
6.27898438
  0
VERTEX
  8
0
 62
7
 10
3.01575781
 20
6.23647852
  0
VERTEX
  8
0
 62
7
 10
3.01000000
 20
6.19337500
  0
VERTEX
  8
0
 62
7
 10
3.00386719
 20
6.15022461
  0
VERTEX
  8
0
 62
7
 10
2.99543750
 20
6.10757813
  0
VERTEX
  8
0
 62
7
 10
2.98278906
 20
6.06598633
  0
VERTEX
  8
0
 62
7
 10
2.96400000
 20
6.02600000
  0
VERTEX
  8
0
 62
7
 10
2.94854297
 20
5.99936719
  0
VERTEX
  8
0
 62
7
 10
2.93203125
 20
5.97306250
  0
VERTEX
  8
0
 62
7
 10
2.91425391
 20
5.94760156
  0
VERTEX
  8
0
 62
7
 10
2.89500000
 20
5.92350000
  0
VERTEX
  8
0
 62
7
 10
2.87405859
 20
5.90127344
  0
VERTEX
  8
0
 62
7
 10
2.85121875
 20
5.88143750
  0
VERTEX
  8
0
 62
7
 10
2.82626953
 20
5.86450781
  0
VERTEX
  8
0
 62
7
 10
2.79900000
 20
5.85100000
  0
VERTEX
  8
0
 62
7
 10
2.85782031
 20
5.83037695
  0
VERTEX
  8
0
 62
7
 10
2.91781250
 20
5.81501563
  0
VERTEX
  8
0
 62
7
 10
2.97864844
 20
5.80492773
  0
VERTEX
  8
0
 62
7
 10
3.04000000
 20
5.80012500
  0
VERTEX
  8
0
 62
7
 10
3.10153906
 20
5.80061914
  0
VERTEX
  8
0
 62
7
 10
3.16293750
 20
5.80642188
  0
VERTEX
  8
0
 62
7
 10
3.22386719
 20
5.81754492
  0
VERTEX
  8
0
 62
7
 10
3.28400000
 20
5.83400000
  0
VERTEX
  8
0
 62
7
 10
3.35442188
 20
5.86095313
  0
VERTEX
  8
0
 62
7
 10
3.42137500
 20
5.89512500
  0
VERTEX
  8
0
 62
7
 10
3.48439063
 20
5.93623438
  0
VERTEX
  8
0
 62
7
 10
3.54300000
 20
5.98400000
  0
VERTEX
  8
0
 62
7
 10
3.52512500
 20
6.04750000
  0
VERTEX
  8
0
 62
7
 10
3.51400000
 20
6.11100000
  0
VERTEX
  8
0
 62
7
 10
3.51037500
 20
6.14737500
  0
VERTEX
  8
0
 62
7
 10
3.50900000
 20
6.18300000
  0
VERTEX
  8
0
 62
7
 10
3.51050000
 20
6.22362500
  0
VERTEX
  8
0
 62
7
 10
3.51500000
 20
6.26200000
  0
SEQEND
  0
POLYLINE
  8
0
 62
7
 66
1
 70
1
  0
VERTEX
  8
0
 62
7
 10
4.60800000
 20
6.33100000
  0
VERTEX
  8
0
 62
7
 10
4.64700000
 20
6.28300000
  0
VERTEX
  8
0
 62
7
 10
4.67910938
 20
6.25078125
  0
VERTEX
  8
0
 62
7
 10
4.71262500
 20
6.22175000
  0
VERTEX
  8
0
 62
7
 10
4.74782813
 20
6.19384375
  0
VERTEX
  8
0
 62
7
 10
4.78500000
 20
6.16500000
  0
VERTEX
  8
0
 62
7
 10
4.78981250
 20
6.15806250
  0
VERTEX
  8
0
 62
7
 10
4.79200000
 20
6.15000000
  0
VERTEX
  8
0
 62
7
 10
4.79118750
 20
6.14193750
  0
VERTEX
  8
0
 62
7
 10
4.78700000
 20
6.13500000
  0
VERTEX
  8
0
 62
7
 10
4.78104688
 20
6.12857813
  0
VERTEX
  8
0
 62
7
 10
4.77312500
 20
6.12562500
  0
VERTEX
  8
0
 62
7
 10
4.76464063
 20
6.12585938
  0
VERTEX
  8
0
 62
7
 10
4.75700000
 20
6.12900000
  0
VERTEX
  8
0
 62
7
 10
4.72009375
 20
6.15778125
  0
VERTEX
  8
0
 62
7
 10
4.68450000
 20
6.18525000
  0
VERTEX
  8
0
 62
7
 10
4.64815625
 20
6.21084375
  0
VERTEX
  8
0
 62
7
 10
4.60900000
 20
6.23400000
  0
VERTEX
  8
0
 62
7
 10
4.57562500
 20
6.25075000
  0
VERTEX
  8
0
 62
7
 10
4.54000000
 20
6.26600000
  0
VERTEX
  8
0
 62
7
 10
4.54500000
 20
6.23000000
  0
VERTEX
  8
0
 62
7
 10
4.54812500
 20
6.19762500
  0
VERTEX
  8
0
 62
7
 10
4.54900000
 20
6.16600000
  0
VERTEX
  8
0
 62
7
 10
4.54696875
 20
6.11856250
  0
VERTEX
  8
0
 62
7
 10
4.54100000
 20
6.07225000
  0
VERTEX
  8
0
 62
7
 10
4.53128125
 20
6.02706250
  0
VERTEX
  8
0
 62
7
 10
4.51800000
 20
5.98300000
  0
VERTEX
  8
0
 62
7
 10
4.57660938
 20
5.93581250
  0
VERTEX
  8
0
 62
7
 10
4.63962500
 20
5.89500000
  0
VERTEX
  8
0
 62
7
 10
4.70657813
 20
5.86093750
  0
VERTEX
  8
0
 62
7
 10
4.77700000
 20
5.83400000
  0
VERTEX
  8
0
 62
7
 10
4.83713281
 20
5.81754492
  0
VERTEX
  8
0
 62
7
 10
4.89806250
 20
5.80642188
  0
VERTEX
  8
0
 62
7
 10
4.95946094
 20
5.80061914
  0
VERTEX
  8
0
 62
7
 10
5.02100000
 20
5.80012500
  0
VERTEX
  8
0
 62
7
 10
5.08235156
 20
5.80492773
  0
VERTEX
  8
0
 62
7
 10
5.14318750
 20
5.81501563
  0
VERTEX
  8
0
 62
7
 10
5.20317969
 20
5.83037695
  0
VERTEX
  8
0
 62
7
 10
5.26200000
 20
5.85100000
  0
VERTEX
  8
0
 62
7
 10
5.23473047
 20
5.86450781
  0
VERTEX
  8
0
 62
7
 10
5.20978125
 20
5.88143750
  0
VERTEX
  8
0
 62
7
 10
5.18694141
 20
5.90127344
  0
VERTEX
  8
0
 62
7
 10
5.16600000
 20
5.92350000
  0
VERTEX
  8
0
 62
7
 10
5.14674609
 20
5.94760156
  0
VERTEX
  8
0
 62
7
 10
5.12896875
 20
5.97306250
  0
VERTEX
  8
0
 62
7
 10
5.11245703
 20
5.99936719
  0
VERTEX
  8
0
 62
7
 10
5.09700000
 20
6.02600000
  0
VERTEX
  8
0
 62
7
 10
5.07821094
 20
6.06598633
  0
VERTEX
  8
0
 62
7
 10
5.06556250
 20
6.10757813
  0
VERTEX
  8
0
 62
7
 10
5.05713281
 20
6.15022461
  0
VERTEX
  8
0
 62
7
 10
5.05100000
 20
6.19337500
  0
VERTEX
  8
0
 62
7
 10
5.04524219
 20
6.23647852
  0
VERTEX
  8
0
 62
7
 10
5.03793750
 20
6.27898438
  0
VERTEX
  8
0
 62
7
 10
5.02716406
 20
6.32034180
  0
VERTEX
  8
0
 62
7
 10
5.01100000
 20
6.36000000
  0
VERTEX
  8
0
 62
7
 10
4.99031250
 20
6.39370313
  0
VERTEX
  8
0
 62
7
 10
4.96475000
 20
6.42412500
  0
VERTEX
  8
0
 62
7
 10
4.93506250
 20
6.45098438
  0
VERTEX
  8
0
 62
7
 10
4.90200000
 20
6.47400000
  0
VERTEX
  8
0
 62
7
 10
4.87140234
 20
6.44628125
  0
VERTEX
  8
0
 62
7
 10
4.83890625
 20
6.42100000
  0
VERTEX
  8
0
 62
7
 10
4.80458203
 20
6.39834375
  0
VERTEX
  8
0
 62
7
 10
4.76850000
 20
6.37850000
  0
VERTEX
  8
0
 62
7
 10
4.73073047
 20
6.36165625
  0
VERTEX
  8
0
 62
7
 10
4.69134375
 20
6.34800000
  0
VERTEX
  8
0
 62
7
 10
4.65041016
 20
6.33771875
  0
VERTEX
  8
0
 62
7
 10
4.60800000
 20
6.33100000
  0
SEQEND
  0
POLYLINE
  8
0
 62
7
 66
1
 70
1
  0
VERTEX
  8
0
 62
7
 10
4.05900000
 20
6.45200000
  0
VERTEX
  8
0
 62
7
 10
4.04600000
 20
6.39400000
  0
VERTEX
  8
0
 62
7
 10
4.04010938
 20
6.34954688
  0
VERTEX
  8
0
 62
7
 10
4.03787500
 20
6.30537500
  0
VERTEX
  8
0
 62
7
 10
4.03770313
 20
6.26026563
  0
VERTEX
  8
0
 62
7
 10
4.03800000
 20
6.21300000
  0
VERTEX
  8
0
 62
7
 10
4.03567188
 20
6.20465625
  0
VERTEX
  8
0
 62
7
 10
4.03062500
 20
6.19800000
  0
VERTEX
  8
0
 62
7
 10
4.02351563
 20
6.19359375
  0
VERTEX
  8
0
 62
7
 10
4.01500000
 20
6.19200000
  0
VERTEX
  8
0
 62
7
 10
4.00662500
 20
6.19373438
  0
VERTEX
  8
0
 62
7
 10
3.99975000
 20
6.19837500
  0
VERTEX
  8
0
 62
7
 10
3.99475000
 20
6.20507813
  0
VERTEX
  8
0
 62
7
 10
3.99200000
 20
6.21300000
  0
VERTEX
  8
0
 62
7
 10
3.99229688
 20
6.26026563
  0
VERTEX
  8
0
 62
7
 10
3.99212500
 20
6.30537500
  0
VERTEX
  8
0
 62
7
 10
3.98989063
 20
6.34954688
  0
VERTEX
  8
0
 62
7
 10
3.98400000
 20
6.39400000
  0
VERTEX
  8
0
 62
7
 10
3.97000000
 20
6.45500000
  0
VERTEX
  8
0
 62
7
 10
3.88664063
 20
6.46646875
  0
VERTEX
  8
0
 62
7
 10
3.81537500
 20
6.48000000
  0
VERTEX
  8
0
 62
7
 10
3.76567188
 20
6.49128125
  0
VERTEX
  8
0
 62
7
 10
3.74700000
 20
6.49600000
  0
VERTEX
  8
0
 62
7
 10
3.70515039
 20
6.45568750
  0
VERTEX
  8
0
 62
7
 10
3.66964063
 20
6.41462500
  0
VERTEX
  8
0
 62
7
 10
3.64052930
 20
6.37225000
  0
VERTEX
  8
0
 62
7
 10
3.61787500
 20
6.32800000
  0
VERTEX
  8
0
 62
7
 10
3.60173633
 20
6.28131250
  0
VERTEX
  8
0
 62
7
 10
3.59217188
 20
6.23162500
  0
VERTEX
  8
0
 62
7
 10
3.58924023
 20
6.17837500
  0
VERTEX
  8
0
 62
7
 10
3.59300000
 20
6.12100000
  0
VERTEX
  8
0
 62
7
 10
3.60119946
 20
6.07348096
  0
VERTEX
  8
0
 62
7
 10
3.61359570
 20
6.02561328
  0
VERTEX
  8
0
 62
7
 10
3.62988550
 20
5.97768115
  0
VERTEX
  8
0
 62
7
 10
3.64976563
 20
5.92996875
  0
VERTEX
  8
0
 62
7
 10
3.67293286
 20
5.88276025
  0
VERTEX
  8
0
 62
7
 10
3.69908398
 20
5.83633984
  0
VERTEX
  8
0
 62
7
 10
3.72791577
 20
5.79099170
  0
VERTEX
  8
0
 62
7
 10
3.75912500
 20
5.74700000
  0
VERTEX
  8
0
 62
7
 10
3.79240845
 20
5.70464893
  0
VERTEX
  8
0
 62
7
 10
3.82746289
 20
5.66422266
  0
VERTEX
  8
0
 62
7
 10
3.86398511
 20
5.62600537
  0
VERTEX
  8
0
 62
7
 10
3.90167188
 20
5.59028125
  0
VERTEX
  8
0
 62
7
 10
3.94021997
 20
5.55733447
  0
VERTEX
  8
0
 62
7
 10
3.97932617
 20
5.52744922
  0
VERTEX
  8
0
 62
7
 10
4.01868726
 20
5.50090967
  0
VERTEX
  8
0
 62
7
 10
4.05800000
 20
5.47800000
  0
VERTEX
  8
0
 62
7
 10
4.07446484
 20
5.51354297
  0
VERTEX
  8
0
 62
7
 10
4.09428125
 20
5.54634375
  0
VERTEX
  8
0
 62
7
 10
4.11695703
 20
5.57703516
  0
VERTEX
  8
0
 62
7
 10
4.14200000
 20
5.60625000
  0
VERTEX
  8
0
 62
7
 10
4.16891797
 20
5.63462109
  0
VERTEX
  8
0
 62
7
 10
4.19721875
 20
5.66278125
  0
VERTEX
  8
0
 62
7
 10
4.22641016
 20
5.69136328
  0
VERTEX
  8
0
 62
7
 10
4.25600000
 20
5.72100000
  0
VERTEX
  8
0
 62
7
 10
4.27873804
 20
5.74501709
  0
VERTEX
  8
0
 62
7
 10
4.30107617
 20
5.77016797
  0
VERTEX
  8
0
 62
7
 10
4.32282544
 20
5.79641455
  0
VERTEX
  8
0
 62
7
 10
4.34379688
 20
5.82371875
  0
VERTEX
  8
0
 62
7
 10
4.36380151
 20
5.85204248
  0
VERTEX
  8
0
 62
7
 10
4.38265039
 20
5.88134766
  0
VERTEX
  8
0
 62
7
 10
4.40015454
 20
5.91159619
  0
VERTEX
  8
0
 62
7
 10
4.41612500
 20
5.94275000
  0
VERTEX
  8
0
 62
7
 10
4.43037280
 20
5.97477100
  0
VERTEX
  8
0
 62
7
 10
4.44270898
 20
6.00762109
  0
VERTEX
  8
0
 62
7
 10
4.45294458
 20
6.04126221
  0
VERTEX
  8
0
 62
7
 10
4.46089063
 20
6.07565625
  0
VERTEX
  8
0
 62
7
 10
4.46635815
 20
6.11076514
  0
VERTEX
  8
0
 62
7
 10
4.46915820
 20
6.14655078
  0
VERTEX
  8
0
 62
7
 10
4.46910181
 20
6.18297510
  0
VERTEX
  8
0
 62
7
 10
4.46600000
 20
6.22000000
  0
VERTEX
  8
0
 62
7
 10
4.45881445
 20
6.26573242
  0
VERTEX
  8
0
 62
7
 10
4.44789063
 20
6.30985938
  0
VERTEX
  8
0
 62
7
 10
4.43342773
 20
6.35227539
  0
VERTEX
  8
0
 62
7
 10
4.41562500
 20
6.39287500
  0
VERTEX
  8
0
 62
7
 10
4.39468164
 20
6.43155273
  0
VERTEX
  8
0
 62
7
 10
4.37079688
 20
6.46820313
  0
VERTEX
  8
0
 62
7
 10
4.34416992
 20
6.50272070
  0
VERTEX
  8
0
 62
7
 10
4.31500000
 20
6.53500000
  0
VERTEX
  8
0
 62
7
 10
4.28250000
 20
6.51462500
  0
VERTEX
  8
0
 62
7
 10
4.24700000
 20
6.49800000
  0
VERTEX
  8
0
 62
7
 10
4.20707813
 20
6.48335938
  0
VERTEX
  8
0
 62
7
 10
4.15862500
 20
6.46937500
  0
VERTEX
  8
0
 62
7
 10
4.10735938
 20
6.45820313
  0
VERTEX
  8
0
 62
7
 10
4.05900000
 20
6.45200000
  0
SEQEND
  0
POLYLINE
  8
0
 62
7
 66
1
 70
1
  0
VERTEX
  8
0
 62
7
 10
3.57400000
 20
6.90000000
  0
VERTEX
  8
0
 62
7
 10
3.58700000
 20
6.95000000
  0
VERTEX
  8
0
 62
7
 10
3.59825391
 20
7.01466406
  0
VERTEX
  8
0
 62
7
 10
3.60390625
 20
7.07037500
  0
VERTEX
  8
0
 62
7
 10
3.60454297
 20
7.11896094
  0
VERTEX
  8
0
 62
7
 10
3.60075000
 20
7.16225000
  0
VERTEX
  8
0
 62
7
 10
3.59311328
 20
7.20207031
  0
VERTEX
  8
0
 62
7
 10
3.58221875
 20
7.24025000
  0
VERTEX
  8
0
 62
7
 10
3.56865234
 20
7.27861719
  0
VERTEX
  8
0
 62
7
 10
3.55300000
 20
7.31900000
  0
VERTEX
  8
0
 62
7
 10
3.50008789
 20
7.35497461
  0
VERTEX
  8
0
 62
7
 10
3.44189063
 20
7.38629688
  0
VERTEX
  8
0
 62
7
 10
3.37959180
 20
7.41281445
  0
VERTEX
  8
0
 62
7
 10
3.31437500
 20
7.43437500
  0
VERTEX
  8
0
 62
7
 10
3.24742383
 20
7.45082617
  0
VERTEX
  8
0
 62
7
 10
3.17992188
 20
7.46201563
  0
VERTEX
  8
0
 62
7
 10
3.11305273
 20
7.46779102
  0
VERTEX
  8
0
 62
7
 10
3.04800000
 20
7.46800000
  0
VERTEX
  8
0
 62
7
 10
3.02130469
 20
7.46592944
  0
VERTEX
  8
0
 62
7
 10
2.99184375
 20
7.46207617
  0
VERTEX
  8
0
 62
7
 10
2.96017969
 20
7.45660278
  0
VERTEX
  8
0
 62
7
 10
2.92687500
 20
7.44967188
  0
VERTEX
  8
0
 62
7
 10
2.89249219
 20
7.44144604
  0
VERTEX
  8
0
 62
7
 10
2.85759375
 20
7.43208789
  0
VERTEX
  8
0
 62
7
 10
2.82274219
 20
7.42176001
  0
VERTEX
  8
0
 62
7
 10
2.78850000
 20
7.41062500
  0
VERTEX
  8
0
 62
7
 10
2.75542969
 20
7.39884546
  0
VERTEX
  8
0
 62
7
 10
2.72409375
 20
7.38658398
  0
VERTEX
  8
0
 62
7
 10
2.69505469
 20
7.37400317
  0
VERTEX
  8
0
 62
7
 10
2.66887500
 20
7.36126563
  0
VERTEX
  8
0
 62
7
 10
2.64611719
 20
7.34853394
  0
VERTEX
  8
0
 62
7
 10
2.62734375
 20
7.33597070
  0
VERTEX
  8
0
 62
7
 10
2.61311719
 20
7.32373853
  0
VERTEX
  8
0
 62
7
 10
2.60400000
 20
7.31200000
  0
VERTEX
  8
0
 62
7
 10
2.60753906
 20
7.30874805
  0
VERTEX
  8
0
 62
7
 10
2.61895313
 20
7.30201563
  0
VERTEX
  8
0
 62
7
 10
2.63718750
 20
7.29183789
  0
VERTEX
  8
0
 62
7
 10
2.66118750
 20
7.27825000
  0
VERTEX
  8
0
 62
7
 10
2.68989844
 20
7.26128711
  0
VERTEX
  8
0
 62
7
 10
2.72226563
 20
7.24098438
  0
VERTEX
  8
0
 62
7
 10
2.75723438
 20
7.21737695
  0
VERTEX
  8
0
 62
7
 10
2.79375000
 20
7.19050000
  0
VERTEX
  8
0
 62
7
 10
2.83075781
 20
7.16038867
  0
VERTEX
  8
0
 62
7
 10
2.86720313
 20
7.12707813
  0
VERTEX
  8
0
 62
7
 10
2.90203125
 20
7.09060352
  0
VERTEX
  8
0
 62
7
 10
2.93418750
 20
7.05100000
  0
VERTEX
  8
0
 62
7
 10
2.96261719
 20
7.00830273
  0
VERTEX
  8
0
 62
7
 10
2.98626563
 20
6.96254688
  0
VERTEX
  8
0
 62
7
 10
3.00407813
 20
6.91376758
  0
VERTEX
  8
0
 62
7
 10
3.01500000
 20
6.86200000
  0
VERTEX
  8
0
 62
7
 10
3.02378467
 20
6.81322754
  0
VERTEX
  8
0
 62
7
 10
3.03685547
 20
6.76572656
  0
VERTEX
  8
0
 62
7
 10
3.05397510
 20
6.71978418
  0
VERTEX
  8
0
 62
7
 10
3.07490625
 20
6.67568750
  0
VERTEX
  8
0
 62
7
 10
3.09941162
 20
6.63372363
  0
VERTEX
  8
0
 62
7
 10
3.12725391
 20
6.59417969
  0
VERTEX
  8
0
 62
7
 10
3.15819580
 20
6.55734277
  0
VERTEX
  8
0
 62
7
 10
3.19200000
 20
6.52350000
  0
VERTEX
  8
0
 62
7
 10
3.22842920
 20
6.49293848
  0
VERTEX
  8
0
 62
7
 10
3.26724609
 20
6.46594531
  0
VERTEX
  8
0
 62
7
 10
3.30821338
 20
6.44280762
  0
VERTEX
  8
0
 62
7
 10
3.35109375
 20
6.42381250
  0
VERTEX
  8
0
 62
7
 10
3.39564990
 20
6.40924707
  0
VERTEX
  8
0
 62
7
 10
3.44164453
 20
6.39939844
  0
VERTEX
  8
0
 62
7
 10
3.48884033
 20
6.39455371
  0
VERTEX
  8
0
 62
7
 10
3.53700000
 20
6.39500000
  0
VERTEX
  8
0
 62
7
 10
3.55425000
 20
6.42150000
  0
VERTEX
  8
0
 62
7
 10
3.59400000
 20
6.47500000
  0
VERTEX
  8
0
 62
7
 10
3.61440625
 20
6.49520313
  0
VERTEX
  8
0
 62
7
 10
3.63575000
 20
6.51287500
  0
VERTEX
  8
0
 62
7
 10
3.65446875
 20
6.52885938
  0
VERTEX
  8
0
 62
7
 10
3.66700000
 20
6.54400000
  0
VERTEX
  8
0
 62
7
 10
3.64433789
 20
6.56566016
  0
VERTEX
  8
0
 62
7
 10
3.62370313
 20
6.59053125
  0
VERTEX
  8
0
 62
7
 10
3.60524805
 20
6.61807422
  0
VERTEX
  8
0
 62
7
 10
3.58912500
 20
6.64775000
  0
VERTEX
  8
0
 62
7
 10
3.57548633
 20
6.67901953
  0
VERTEX
  8
0
 62
7
 10
3.56448438
 20
6.71134375
  0
VERTEX
  8
0
 62
7
 10
3.55627148
 20
6.74418359
  0
VERTEX
  8
0
 62
7
 10
3.55100000
 20
6.77700000
  0
VERTEX
  8
0
 62
7
 10
3.51915625
 20
6.83206250
  0
VERTEX
  8
0
 62
7
 10
3.49275000
 20
6.86950000
  0
VERTEX
  8
0
 62
7
 10
3.46746875
 20
6.90018750
  0
VERTEX
  8
0
 62
7
 10
3.43900000
 20
6.93500000
  0
VERTEX
  8
0
 62
7
 10
3.39260938
 20
6.99329688
  0
VERTEX
  8
0
 62
7
 10
3.34462500
 20
7.04962500
  0
VERTEX
  8
0
 62
7
 10
3.29457813
 20
7.10389063
  0
VERTEX
  8
0
 62
7
 10
3.24200000
 20
7.15600000
  0
VERTEX
  8
0
 62
7
 10
3.25100000
 20
7.17900000
  0
VERTEX
  8
0
 62
7
 10
3.39900000
 20
7.04000000
  0
VERTEX
  8
0
 62
7
 10
3.43857813
 20
7.00462500
  0
VERTEX
  8
0
 62
7
 10
3.47712500
 20
6.97150000
  0
VERTEX
  8
0
 62
7
 10
3.52035938
 20
6.93762500
  0
VERTEX
  8
0
 62
7
 10
3.57400000
 20
6.90000000
  0
SEQEND
  0
POLYLINE
  8
0
 62
7
 66
1
 70
1
  0
VERTEX
  8
0
 62
7
 10
3.57700000
 20
7.49700000
  0
VERTEX
  8
0
 62
7
 10
3.62000000
 20
7.48400000
  0
VERTEX
  8
0
 62
7
 10
3.71850000
 20
7.46593750
  0
VERTEX
  8
0
 62
7
 10
3.82225000
 20
7.45350000
  0
VERTEX
  8
0
 62
7
 10
3.92712500
 20
7.44631250
  0
VERTEX
  8
0
 62
7
 10
4.02900000
 20
7.44400000
  0
VERTEX
  8
0
 62
7
 10
4.13123438
 20
7.44631250
  0
VERTEX
  8
0
 62
7
 10
4.23487500
 20
7.45350000
  0
VERTEX
  8
0
 62
7
 10
4.33682813
 20
7.46593750
  0
VERTEX
  8
0
 62
7
 10
4.43400000
 20
7.48400000
  0
VERTEX
  8
0
 62
7
 10
4.48500000
 20
7.50000000
  0
VERTEX
  8
0
 62
7
 10
4.48600000
 20
7.49900000
  0
VERTEX
  8
0
 62
7
 10
4.43635938
 20
7.40789844
  0
VERTEX
  8
0
 62
7
 10
4.39656250
 20
7.32350000
  0
VERTEX
  8
0
 62
7
 10
4.36604688
 20
7.24453906
  0
VERTEX
  8
0
 62
7
 10
4.34425000
 20
7.16975000
  0
VERTEX
  8
0
 62
7
 10
4.33060938
 20
7.09786719
  0
VERTEX
  8
0
 62
7
 10
4.32456250
 20
7.02762500
  0
VERTEX
  8
0
 62
7
 10
4.32554688
 20
6.95775781
  0
VERTEX
  8
0
 62
7
 10
4.33300000
 20
6.88700000
  0
VERTEX
  8
0
 62
7
 10
4.33717627
 20
6.84511304
  0
VERTEX
  8
0
 62
7
 10
4.33739453
 20
6.80606055
  0
VERTEX
  8
0
 62
7
 10
4.33375146
 20
6.76981763
  0
VERTEX
  8
0
 62
7
 10
4.32634375
 20
6.73635938
  0
VERTEX
  8
0
 62
7
 10
4.31526807
 20
6.70566089
  0
VERTEX
  8
0
 62
7
 10
4.30062109
 20
6.67769727
  0
VERTEX
  8
0
 62
7
 10
4.28249951
 20
6.65244360
  0
VERTEX
  8
0
 62
7
 10
4.26100000
 20
6.62987500
  0
VERTEX
  8
0
 62
7
 10
4.23621924
 20
6.60996655
  0
VERTEX
  8
0
 62
7
 10
4.20825391
 20
6.59269336
  0
VERTEX
  8
0
 62
7
 10
4.17720068
 20
6.57803052
  0
VERTEX
  8
0
 62
7
 10
4.14315625
 20
6.56595313
  0
VERTEX
  8
0
 62
7
 10
4.10621729
 20
6.55643628
  0
VERTEX
  8
0
 62
7
 10
4.06648047
 20
6.54945508
  0
VERTEX
  8
0
 62
7
 10
4.02404248
 20
6.54498462
  0
VERTEX
  8
0
 62
7
 10
3.97900000
 20
6.54300000
  0
VERTEX
  8
0
 62
7
 10
3.94483130
 20
6.54388013
  0
VERTEX
  8
0
 62
7
 10
3.91049414
 20
6.54765039
  0
VERTEX
  8
0
 62
7
 10
3.87642944
 20
6.55431812
  0
VERTEX
  8
0
 62
7
 10
3.84307813
 20
6.56389063
  0
VERTEX
  8
0
 62
7
 10
3.81088110
 20
6.57637524
  0
VERTEX
  8
0
 62
7
 10
3.78027930
 20
6.59177930
  0
VERTEX
  8
0
 62
7
 10
3.75171362
 20
6.61011011
  0
VERTEX
  8
0
 62
7
 10
3.72562500
 20
6.63137500
  0
VERTEX
  8
0
 62
7
 10
3.70245435
 20
6.65558130
  0
VERTEX
  8
0
 62
7
 10
3.68264258
 20
6.68273633
  0
VERTEX
  8
0
 62
7
 10
3.66663062
 20
6.71284741
  0
VERTEX
  8
0
 62
7
 10
3.65485938
 20
6.74592188
  0
VERTEX
  8
0
 62
7
 10
3.64776978
 20
6.78196704
  0
VERTEX
  8
0
 62
7
 10
3.64580273
 20
6.82099023
  0
VERTEX
  8
0
 62
7
 10
3.64939917
 20
6.86299878
  0
VERTEX
  8
0
 62
7
 10
3.65900000
 20
6.90800000
  0
VERTEX
  8
0
 62
7
 10
3.66739551
 20
6.93970752
  0
VERTEX
  8
0
 62
7
 10
3.67483594
 20
6.97186328
  0
VERTEX
  8
0
 62
7
 10
3.68113965
 20
7.00451709
  0
VERTEX
  8
0
 62
7
 10
3.68612500
 20
7.03771875
  0
VERTEX
  8
0
 62
7
 10
3.68961035
 20
7.07151807
  0
VERTEX
  8
0
 62
7
 10
3.69141406
 20
7.10596484
  0
VERTEX
  8
0
 62
7
 10
3.69135449
 20
7.14110889
  0
VERTEX
  8
0
 62
7
 10
3.68925000
 20
7.17700000
  0
VERTEX
  8
0
 62
7
 10
3.68491895
 20
7.21368799
  0
VERTEX
  8
0
 62
7
 10
3.67817969
 20
7.25122266
  0
VERTEX
  8
0
 62
7
 10
3.66885059
 20
7.28965381
  0
VERTEX
  8
0
 62
7
 10
3.65675000
 20
7.32903125
  0
VERTEX
  8
0
 62
7
 10
3.64169629
 20
7.36940479
  0
VERTEX
  8
0
 62
7
 10
3.62350781
 20
7.41082422
  0
VERTEX
  8
0
 62
7
 10
3.60200293
 20
7.45333936
  0
VERTEX
  8
0
 62
7
 10
3.57700000
 20
7.49700000
  0
SEQEND
  0
POLYLINE
  8
0
 62
7
 66
1
 70
1
  0
VERTEX
  8
0
 62
7
 10
4.02900000
 20
7.53400000
  0
VERTEX
  8
0
 62
7
 10
4.12712500
 20
7.53628125
  0
VERTEX
  8
0
 62
7
 10
4.22600000
 20
7.54325000
  0
VERTEX
  8
0
 62
7
 10
4.32262500
 20
7.55509375
  0
VERTEX
  8
0
 62
7
 10
4.41400000
 20
7.57200000
  0
VERTEX
  8
0
 62
7
 10
4.42740356
 20
7.57552344
  0
VERTEX
  8
0
 62
7
 10
4.44158789
 20
7.58012500
  0
VERTEX
  8
0
 62
7
 10
4.45632593
 20
7.58585156
  0
VERTEX
  8
0
 62
7
 10
4.47139063
 20
7.59275000
  0
VERTEX
  8
0
 62
7
 10
4.48655493
 20
7.60086719
  0
VERTEX
  8
0
 62
7
 10
4.50159180
 20
7.61025000
  0
VERTEX
  8
0
 62
7
 10
4.51627417
 20
7.62094531
  0
VERTEX
  8
0
 62
7
 10
4.53037500
 20
7.63300000
  0
VERTEX
  8
0
 62
7
 10
4.54366724
 20
7.64646094
  0
VERTEX
  8
0
 62
7
 10
4.55592383
 20
7.66137500
  0
VERTEX
  8
0
 62
7
 10
4.56691772
 20
7.67778906
  0
VERTEX
  8
0
 62
7
 10
4.57642188
 20
7.69575000
  0
VERTEX
  8
0
 62
7
 10
4.58420923
 20
7.71530469
  0
VERTEX
  8
0
 62
7
 10
4.59005273
 20
7.73650000
  0
VERTEX
  8
0
 62
7
 10
4.59372534
 20
7.75938281
  0
VERTEX
  8
0
 62
7
 10
4.59500000
 20
7.78400000
  0
VERTEX
  8
0
 62
7
 10
4.59194531
 20
7.82571680
  0
VERTEX
  8
0
 62
7
 10
4.58293750
 20
7.86442188
  0
VERTEX
  8
0
 62
7
 10
4.56821094
 20
7.89982227
  0
VERTEX
  8
0
 62
7
 10
4.54800000
 20
7.93162500
  0
VERTEX
  8
0
 62
7
 10
4.52253906
 20
7.95953711
  0
VERTEX
  8
0
 62
7
 10
4.49206250
 20
7.98326563
  0
VERTEX
  8
0
 62
7
 10
4.45680469
 20
8.00251758
  0
VERTEX
  8
0
 62
7
 10
4.41700000
 20
8.01700000
  0
VERTEX
  8
0
 62
7
 10
4.37436328
 20
8.02779102
  0
VERTEX
  8
0
 62
7
 10
4.32809375
 20
8.03695313
  0
VERTEX
  8
0
 62
7
 10
4.27915234
 20
8.04454492
  0
VERTEX
  8
0
 62
7
 10
4.22850000
 20
8.05062500
  0
VERTEX
  8
0
 62
7
 10
4.17709766
 20
8.05525195
  0
VERTEX
  8
0
 62
7
 10
4.12590625
 20
8.05848438
  0
VERTEX
  8
0
 62
7
 10
4.07588672
 20
8.06038086
  0
VERTEX
  8
0
 62
7
 10
4.02800000
 20
8.06100000
  0
VERTEX
  8
0
 62
7
 10
3.98006836
 20
8.06038086
  0
VERTEX
  8
0
 62
7
 10
3.92992188
 20
8.05848438
  0
VERTEX
  8
0
 62
7
 10
3.87853320
 20
8.05525195
  0
VERTEX
  8
0
 62
7
 10
3.82687500
 20
8.05062500
  0
VERTEX
  8
0
 62
7
 10
3.77591992
 20
8.04454492
  0
VERTEX
  8
0
 62
7
 10
3.72664063
 20
8.03695313
  0
VERTEX
  8
0
 62
7
 10
3.68000977
 20
8.02779102
  0
VERTEX
  8
0
 62
7
 10
3.63700000
 20
8.01700000
  0
VERTEX
  8
0
 62
7
 10
3.59719531
 20
8.00251758
  0
VERTEX
  8
0
 62
7
 10
3.56193750
 20
7.98326563
  0
VERTEX
  8
0
 62
7
 10
3.53146094
 20
7.95953711
  0
VERTEX
  8
0
 62
7
 10
3.50600000
 20
7.93162500
  0
VERTEX
  8
0
 62
7
 10
3.48578906
 20
7.89982227
  0
VERTEX
  8
0
 62
7
 10
3.47106250
 20
7.86442188
  0
VERTEX
  8
0
 62
7
 10
3.46205469
 20
7.82571680
  0
VERTEX
  8
0
 62
7
 10
3.45900000
 20
7.78400000
  0
VERTEX
  8
0
 62
7
 10
3.46027466
 20
7.75938281
  0
VERTEX
  8
0
 62
7
 10
3.46394727
 20
7.73650000
  0
VERTEX
  8
0
 62
7
 10
3.46979077
 20
7.71530469
  0
VERTEX
  8
0
 62
7
 10
3.47757813
 20
7.69575000
  0
VERTEX
  8
0
 62
7
 10
3.48708228
 20
7.67778906
  0
VERTEX
  8
0
 62
7
 10
3.49807617
 20
7.66137500
  0
VERTEX
  8
0
 62
7
 10
3.51033276
 20
7.64646094
  0
VERTEX
  8
0
 62
7
 10
3.52362500
 20
7.63300000
  0
VERTEX
  8
0
 62
7
 10
3.53772583
 20
7.62094531
  0
VERTEX
  8
0
 62
7
 10
3.55240820
 20
7.61025000
  0
VERTEX
  8
0
 62
7
 10
3.56744507
 20
7.60086719
  0
VERTEX
  8
0
 62
7
 10
3.58260938
 20
7.59275000
  0
VERTEX
  8
0
 62
7
 10
3.59767407
 20
7.58585156
  0
VERTEX
  8
0
 62
7
 10
3.61241211
 20
7.58012500
  0
VERTEX
  8
0
 62
7
 10
3.62659644
 20
7.57552344
  0
VERTEX
  8
0
 62
7
 10
3.64000000
 20
7.57200000
  0
VERTEX
  8
0
 62
7
 10
3.73214063
 20
7.55509375
  0
VERTEX
  8
0
 62
7
 10
3.83037500
 20
7.54325000
  0
VERTEX
  8
0
 62
7
 10
3.93067188
 20
7.53628125
  0
VERTEX
  8
0
 62
7
 10
4.02900000
 20
7.53400000
  0
SEQEND
  0
POLYLINE
  8
0
 62
7
 66
1
 70
1
  0
VERTEX
  8
0
 62
7
 10
4.02900000
 20
7.69500000
  0
VERTEX
  8
0
 62
7
 10
4.12073438
 20
7.69793750
  0
VERTEX
  8
0
 62
7
 10
4.21237500
 20
7.70425000
  0
VERTEX
  8
0
 62
7
 10
4.30082813
 20
7.71468750
  0
VERTEX
  8
0
 62
7
 10
4.38300000
 20
7.73000000
  0
VERTEX
  8
0
 62
7
 10
4.39729102
 20
7.73383789
  0
VERTEX
  8
0
 62
7
 10
4.41070313
 20
7.73932813
  0
VERTEX
  8
0
 62
7
 10
4.42291992
 20
7.74643555
  0
VERTEX
  8
0
 62
7
 10
4.43362500
 20
7.75512500
  0
VERTEX
  8
0
 62
7
 10
4.44250195
 20
7.76536133
  0
VERTEX
  8
0
 62
7
 10
4.44923438
 20
7.77710938
  0
VERTEX
  8
0
 62
7
 10
4.45350586
 20
7.79033398
  0
VERTEX
  8
0
 62
7
 10
4.45500000
 20
7.80500000
  0
VERTEX
  8
0
 62
7
 10
4.45390820
 20
7.82323828
  0
VERTEX
  8
0
 62
7
 10
4.45057813
 20
7.83971875
  0
VERTEX
  8
0
 62
7
 10
4.44492773
 20
7.85446484
  0
VERTEX
  8
0
 62
7
 10
4.43687500
 20
7.86750000
  0
VERTEX
  8
0
 62
7
 10
4.42633789
 20
7.87884766
  0
VERTEX
  8
0
 62
7
 10
4.41323438
 20
7.88853125
  0
VERTEX
  8
0
 62
7
 10
4.39748242
 20
7.89657422
  0
VERTEX
  8
0
 62
7
 10
4.37900000
 20
7.90300000
  0
VERTEX
  8
0
 62
7
 10
4.30235938
 20
7.92020313
  0
VERTEX
  8
0
 62
7
 10
4.21362500
 20
7.93262500
  0
VERTEX
  8
0
 62
7
 10
4.11982813
 20
7.93998438
  0
VERTEX
  8
0
 62
7
 10
4.02800000
 20
7.94200000
  0
VERTEX
  8
0
 62
7
 10
3.93585938
 20
7.93998438
  0
VERTEX
  8
0
 62
7
 10
3.84137500
 20
7.93262500
  0
VERTEX
  8
0
 62
7
 10
3.75195313
 20
7.92020313
  0
VERTEX
  8
0
 62
7
 10
3.67500000
 20
7.90300000
  0
VERTEX
  8
0
 62
7
 10
3.65651758
 20
7.89657422
  0
VERTEX
  8
0
 62
7
 10
3.64076563
 20
7.88853125
  0
VERTEX
  8
0
 62
7
 10
3.62766211
 20
7.87884766
  0
VERTEX
  8
0
 62
7
 10
3.61712500
 20
7.86750000
  0
VERTEX
  8
0
 62
7
 10
3.60907227
 20
7.85446484
  0
VERTEX
  8
0
 62
7
 10
3.60342188
 20
7.83971875
  0
VERTEX
  8
0
 62
7
 10
3.60009180
 20
7.82323828
  0
VERTEX
  8
0
 62
7
 10
3.59900000
 20
7.80500000
  0
VERTEX
  8
0
 62
7
 10
3.60049414
 20
7.79033398
  0
VERTEX
  8
0
 62
7
 10
3.60476563
 20
7.77710938
  0
VERTEX
  8
0
 62
7
 10
3.61149805
 20
7.76536133
  0
VERTEX
  8
0
 62
7
 10
3.62037500
 20
7.75512500
  0
VERTEX
  8
0
 62
7
 10
3.63108008
 20
7.74643555
  0
VERTEX
  8
0
 62
7
 10
3.64329688
 20
7.73932813
  0
VERTEX
  8
0
 62
7
 10
3.65670898
 20
7.73383789
  0
VERTEX
  8
0
 62
7
 10
3.67100000
 20
7.73000000
  0
VERTEX
  8
0
 62
7
 10
3.75379688
 20
7.71468750
  0
VERTEX
  8
0
 62
7
 10
3.84362500
 20
7.70425000
  0
VERTEX
  8
0
 62
7
 10
3.93664063
 20
7.69793750
  0
VERTEX
  8
0
 62
7
 10
4.02900000
 20
7.69500000
  0
SEQEND
  0
POLYLINE
  8
0
 62
7
 66
1
 70
1
  0
VERTEX
  8
0
 62
7
 10
6.36500000
 20
7.33900000
  0
VERTEX
  8
0
 62
7
 10
6.34479688
 20
7.35043750
  0
VERTEX
  8
0
 62
7
 10
6.32337500
 20
7.35925000
  0
VERTEX
  8
0
 62
7
 10
6.30101563
 20
7.36543750
  0
VERTEX
  8
0
 62
7
 10
6.27800000
 20
7.36900000
  0
VERTEX
  8
0
 62
7
 10
6.24900000
 20
7.36975000
  0
VERTEX
  8
0
 62
7
 10
6.22000000
 20
7.36600000
  0
VERTEX
  8
0
 62
7
 10
6.23737500
 20
7.33650000
  0
VERTEX
  8
0
 62
7
 10
6.24800000
 20
7.30400000
  0
VERTEX
  8
0
 62
7
 10
6.25057031
 20
7.28349023
  0
VERTEX
  8
0
 62
7
 10
6.25018750
 20
7.26329688
  0
VERTEX
  8
0
 62
7
 10
6.24708594
 20
7.24354883
  0
VERTEX
  8
0
 62
7
 10
6.24150000
 20
7.22437500
  0
VERTEX
  8
0
 62
7
 10
6.23366406
 20
7.20590430
  0
VERTEX
  8
0
 62
7
 10
6.22381250
 20
7.18826563
  0
VERTEX
  8
0
 62
7
 10
6.21217969
 20
7.17158789
  0
VERTEX
  8
0
 62
7
 10
6.19900000
 20
7.15600000
  0
VERTEX
  8
0
 62
7
 10
6.18385938
 20
7.14178125
  0
VERTEX
  8
0
 62
7
 10
6.16712500
 20
7.12925000
  0
VERTEX
  8
0
 62
7
 10
6.14907813
 20
7.11859375
  0
VERTEX
  8
0
 62
7
 10
6.13000000
 20
7.11000000
  0
VERTEX
  8
0
 62
7
 10
6.16093945
 20
7.08860156
  0
VERTEX
  8
0
 62
7
 10
6.19451563
 20
7.07456250
  0
VERTEX
  8
0
 62
7
 10
6.22961523
 20
7.06774219
  0
VERTEX
  8
0
 62
7
 10
6.26512500
 20
7.06800000
  0
VERTEX
  8
0
 62
7
 10
6.29993164
 20
7.07519531
  0
VERTEX
  8
0
 62
7
 10
6.33292188
 20
7.08918750
  0
VERTEX
  8
0
 62
7
 10
6.36298242
 20
7.10983594
  0
VERTEX
  8
0
 62
7
 10
6.38900000
 20
7.13700000
  0
VERTEX
  8
0
 62
7
 10
6.40120313
 20
7.15406250
  0
VERTEX
  8
0
 62
7
 10
6.41162500
 20
7.17225000
  0
VERTEX
  8
0
 62
7
 10
6.41923438
 20
7.19156250
  0
VERTEX
  8
0
 62
7
 10
6.42300000
 20
7.21200000
  0
VERTEX
  8
0
 62
7
 10
6.42160938
 20
7.23337500
  0
VERTEX
  8
0
 62
7
 10
6.41562500
 20
7.25400000
  0
VERTEX
  8
0
 62
7
 10
6.40682813
 20
7.27387500
  0
VERTEX
  8
0
 62
7
 10
6.39700000
 20
7.29300000
  0
VERTEX
  8
0
 62
7
 10
6.38212500
 20
7.31712500
  0
VERTEX
  8
0
 62
7
 10
6.36500000
 20
7.33900000
  0
SEQEND
  0
POLYLINE
  8
0
 62
7
 66
1
 70
1
  0
VERTEX
  8
0
 62
7
 10
4.42600000
 20
6.91300000
  0
VERTEX
  8
0
 62
7
 10
4.47159375
 20
6.94620313
  0
VERTEX
  8
0
 62
7
 10
4.50950000
 20
6.97687500
  0
VERTEX
  8
0
 62
7
 10
4.54440625
 20
7.00735938
  0
VERTEX
  8
0
 62
7
 10
4.58100000
 20
7.04000000
  0
VERTEX
  8
0
 62
7
 10
4.72900000
 20
7.17900000
  0
VERTEX
  8
0
 62
7
 10
4.73800000
 20
7.15600000
  0
VERTEX
  8
0
 62
7
 10
4.68542188
 20
7.10389063
  0
VERTEX
  8
0
 62
7
 10
4.63537500
 20
7.04962500
  0
VERTEX
  8
0
 62
7
 10
4.58739063
 20
6.99329688
  0
VERTEX
  8
0
 62
7
 10
4.54100000
 20
6.93500000
  0
VERTEX
  8
0
 62
7
 10
4.51314063
 20
6.90082813
  0
VERTEX
  8
0
 62
7
 10
4.48837500
 20
6.87087500
  0
VERTEX
  8
0
 62
7
 10
4.46267188
 20
6.83473438
  0
VERTEX
  8
0
 62
7
 10
4.43200000
 20
6.78200000
  0
VERTEX
  8
0
 62
7
 10
4.42553125
 20
6.74723438
  0
VERTEX
  8
0
 62
7
 10
4.41475000
 20
6.71012500
  0
VERTEX
  8
0
 62
7
 10
4.39909375
 20
6.66795313
  0
VERTEX
  8
0
 62
7
 10
4.37800000
 20
6.61800000
  0
VERTEX
  8
0
 62
7
 10
4.37831250
 20
6.61171484
  0
VERTEX
  8
0
 62
7
 10
4.38312500
 20
6.60221875
  0
VERTEX
  8
0
 62
7
 10
4.39150000
 20
6.59005078
  0
VERTEX
  8
0
 62
7
 10
4.40250000
 20
6.57575000
  0
VERTEX
  8
0
 62
7
 10
4.41518750
 20
6.55985547
  0
VERTEX
  8
0
 62
7
 10
4.42862500
 20
6.54290625
  0
VERTEX
  8
0
 62
7
 10
4.44187500
 20
6.52544141
  0
VERTEX
  8
0
 62
7
 10
4.45400000
 20
6.50800000
  0
VERTEX
  8
0
 62
7
 10
4.50900000
 20
6.41000000
  0
VERTEX
  8
0
 62
7
 10
4.55689014
 20
6.40938525
  0
VERTEX
  8
0
 62
7
 10
4.60332422
 20
6.41375391
  0
VERTEX
  8
0
 62
7
 10
4.64813525
 20
6.42286279
  0
VERTEX
  8
0
 62
7
 10
4.69115625
 20
6.43646875
  0
VERTEX
  8
0
 62
7
 10
4.73222021
 20
6.45432861
  0
VERTEX
  8
0
 62
7
 10
4.77116016
 20
6.47619922
  0
VERTEX
  8
0
 62
7
 10
4.80780908
 20
6.50183740
  0
VERTEX
  8
0
 62
7
 10
4.84200000
 20
6.53100000
  0
VERTEX
  8
0
 62
7
 10
4.87356592
 20
6.56344385
  0
VERTEX
  8
0
 62
7
 10
4.90233984
 20
6.59892578
  0
VERTEX
  8
0
 62
7
 10
4.92815479
 20
6.63720264
  0
VERTEX
  8
0
 62
7
 10
4.95084375
 20
6.67803125
  0
VERTEX
  8
0
 62
7
 10
4.97023975
 20
6.72116846
  0
VERTEX
  8
0
 62
7
 10
4.98617578
 20
6.76637109
  0
VERTEX
  8
0
 62
7
 10
4.99848486
 20
6.81339600
  0
VERTEX
  8
0
 62
7
 10
5.00700000
 20
6.86200000
  0
VERTEX
  8
0
 62
7
 10
5.01792188
 20
6.91376758
  0
VERTEX
  8
0
 62
7
 10
5.03573438
 20
6.96254688
  0
VERTEX
  8
0
 62
7
 10
5.05938281
 20
7.00830273
  0
VERTEX
  8
0
 62
7
 10
5.08781250
 20
7.05100000
  0
VERTEX
  8
0
 62
7
 10
5.11996875
 20
7.09060352
  0
VERTEX
  8
0
 62
7
 10
5.15479688
 20
7.12707813
  0
VERTEX
  8
0
 62
7
 10
5.19124219
 20
7.16038867
  0
VERTEX
  8
0
 62
7
 10
5.22825000
 20
7.19050000
  0
VERTEX
  8
0
 62
7
 10
5.26476563
 20
7.21737695
  0
VERTEX
  8
0
 62
7
 10
5.29973438
 20
7.24098438
  0
VERTEX
  8
0
 62
7
 10
5.33210156
 20
7.26128711
  0
VERTEX
  8
0
 62
7
 10
5.36081250
 20
7.27825000
  0
VERTEX
  8
0
 62
7
 10
5.38481250
 20
7.29183789
  0
VERTEX
  8
0
 62
7
 10
5.40304688
 20
7.30201563
  0
VERTEX
  8
0
 62
7
 10
5.41446094
 20
7.30874805
  0
VERTEX
  8
0
 62
7
 10
5.41800000
 20
7.31200000
  0
VERTEX
  8
0
 62
7
 10
5.40888281
 20
7.32373853
  0
VERTEX
  8
0
 62
7
 10
5.39465625
 20
7.33597070
  0
VERTEX
  8
0
 62
7
 10
5.37588281
 20
7.34853394
  0
VERTEX
  8
0
 62
7
 10
5.35312500
 20
7.36126563
  0
VERTEX
  8
0
 62
7
 10
5.32694531
 20
7.37400317
  0
VERTEX
  8
0
 62
7
 10
5.29790625
 20
7.38658398
  0
VERTEX
  8
0
 62
7
 10
5.26657031
 20
7.39884546
  0
VERTEX
  8
0
 62
7
 10
5.23350000
 20
7.41062500
  0
VERTEX
  8
0
 62
7
 10
5.19925781
 20
7.42176001
  0
VERTEX
  8
0
 62
7
 10
5.16440625
 20
7.43208789
  0
VERTEX
  8
0
 62
7
 10
5.12950781
 20
7.44144604
  0
VERTEX
  8
0
 62
7
 10
5.09512500
 20
7.44967188
  0
VERTEX
  8
0
 62
7
 10
5.06182031
 20
7.45660278
  0
VERTEX
  8
0
 62
7
 10
5.03015625
 20
7.46207617
  0
VERTEX
  8
0
 62
7
 10
5.00069531
 20
7.46592944
  0
VERTEX
  8
0
 62
7
 10
4.97400000
 20
7.46800000
  0
VERTEX
  8
0
 62
7
 10
4.90950586
 20
7.46774805
  0
VERTEX
  8
0
 62
7
 10
4.84410938
 20
7.46185938
  0
VERTEX
  8
0
 62
7
 10
4.77868945
 20
7.45050977
  0
VERTEX
  8
0
 62
7
 10
4.71412500
 20
7.43387500
  0
VERTEX
  8
0
 62
7
 10
4.65129492
 20
7.41213086
  0
VERTEX
  8
0
 62
7
 10
4.59107813
 20
7.38545313
  0
VERTEX
  8
0
 62
7
 10
4.53435352
 20
7.35401758
  0
VERTEX
  8
0
 62
7
 10
4.48200000
 20
7.31800000
  0
VERTEX
  8
0
 62
7
 10
4.46563867
 20
7.27757422
  0
VERTEX
  8
0
 62
7
 10
4.45010938
 20
7.23909375
  0
VERTEX
  8
0
 62
7
 10
4.43624414
 20
7.20075391
  0
VERTEX
  8
0
 62
7
 10
4.42487500
 20
7.16075000
  0
VERTEX
  8
0
 62
7
 10
4.41683398
 20
7.11727734
  0
VERTEX
  8
0
 62
7
 10
4.41295313
 20
7.06853125
  0
VERTEX
  8
0
 62
7
 10
4.41406445
 20
7.01270703
  0
VERTEX
  8
0
 62
7
 10
4.42100000
 20
6.94800000
  0
VERTEX
  8
0
 62
7
 10
4.42600000
 20
6.91300000
  0
SEQEND
  0
POLYLINE
  8
0
 62
7
 66
1
 70
1
  0
VERTEX
  8
0
 62
7
 10
4.34899827
 20
9.85000000
  0
VERTEX
  8
0
 62
7
 10
4.09848133
 20
9.85000000
  0
VERTEX
  8
0
 62
7
 10
4.09848133
 20
14.15300000
  0
VERTEX
  8
0
 62
7
 10
4.34899827
 20
14.18300000
  0
VERTEX
  8
0
 62
7
 10
4.34899827
 20
9.85000000
  0
SEQEND
  0
POLYLINE
  8
0
 62
7
 66
1
 70
1
  0
VERTEX
  8
0
 62
7
 10
36.02600000
 20
2.94600000
  0
VERTEX
  8
0
 62
7
 10
36.06795313
 20
2.97725000
  0
VERTEX
  8
0
 62
7
 10
36.12087500
 20
3.01000000
  0
VERTEX
  8
0
 62
7
 10
36.17210938
 20
3.03825000
  0
VERTEX
  8
0
 62
7
 10
36.20900000
 20
3.05600000
  0
VERTEX
  8
0
 62
7
 10
36.25776563
 20
3.07505664
  0
VERTEX
  8
0
 62
7
 10
36.30793750
 20
3.09107813
  0
VERTEX
  8
0
 62
7
 10
36.35932813
 20
3.10421680
  0
VERTEX
  8
0
 62
7
 10
36.41175000
 20
3.11462500
  0
VERTEX
  8
0
 62
7
 10
36.46501563
 20
3.12245508
  0
VERTEX
  8
0
 62
7
 10
36.51893750
 20
3.12785938
  0
VERTEX
  8
0
 62
7
 10
36.57332813
 20
3.13099023
  0
VERTEX
  8
0
 62
7
 10
36.62800000
 20
3.13200000
  0
VERTEX
  8
0
 62
7
 10
36.72814063
 20
3.12873438
  0
VERTEX
  8
0
 62
7
 10
36.82837500
 20
3.11937500
  0
VERTEX
  8
0
 62
7
 10
36.92767188
 20
3.10457813
  0
VERTEX
  8
0
 62
7
 10
37.02500000
 20
3.08500000
  0
VERTEX
  8
0
 62
7
 10
37.07425977
 20
3.07159961
  0
VERTEX
  8
0
 62
7
 10
37.12751563
 20
3.05373438
  0
VERTEX
  8
0
 62
7
 10
37.18360742
 20
3.03228320
  0
VERTEX
  8
0
 62
7
 10
37.24137500
 20
3.00812500
  0
VERTEX
  8
0
 62
7
 10
37.29965820
 20
2.98213867
  0
VERTEX
  8
0
 62
7
 10
37.35729688
 20
2.95520313
  0
VERTEX
  8
0
 62
7
 10
37.41313086
 20
2.92819727
  0
VERTEX
  8
0
 62
7
 10
37.46600000
 20
2.90200000
  0
VERTEX
  8
0
 62
7
 10
37.39062500
 20
3.02425000
  0
VERTEX
  8
0
 62
7
 10
37.31600000
 20
3.15100000
  0
VERTEX
  8
0
 62
7
 10
37.25187891
 20
3.26749023
  0
VERTEX
  8
0
 62
7
 10
37.18796875
 20
3.39610938
  0
VERTEX
  8
0
 62
7
 10
37.12457422
 20
3.53520508
  0
VERTEX
  8
0
 62
7
 10
37.06200000
 20
3.68312500
  0
VERTEX
  8
0
 62
7
 10
37.00055078
 20
3.83821680
  0
VERTEX
  8
0
 62
7
 10
36.94053125
 20
3.99882813
  0
VERTEX
  8
0
 62
7
 10
36.88224609
 20
4.16330664
  0
VERTEX
  8
0
 62
7
 10
36.82600000
 20
4.33000000
  0
VERTEX
  8
0
 62
7
 10
36.72926563
 20
4.62751563
  0
VERTEX
  8
0
 62
7
 10
36.63637500
 20
4.92212500
  0
VERTEX
  8
0
 62
7
 10
36.55079688
 20
5.20117188
  0
VERTEX
  8
0
 62
7
 10
36.47600000
 20
5.45200000
  0
VERTEX
  8
0
 62
7
 10
36.41528125
 20
5.67085938
  0
VERTEX
  8
0
 62
7
 10
36.36075000
 20
5.89037500
  0
VERTEX
  8
0
 62
7
 10
36.31034375
 20
6.11195313
  0
VERTEX
  8
0
 62
7
 10
36.26200000
 20
6.33700000
  0
VERTEX
  8
0
 62
7
 10
36.24640796
 20
6.41000415
  0
VERTEX
  8
0
 62
7
 10
36.23073242
 20
6.48186133
  0
VERTEX
  8
0
 62
7
 10
36.21493677
 20
6.55233862
  0
VERTEX
  8
0
 62
7
 10
36.19898438
 20
6.62120313
  0
VERTEX
  8
0
 62
7
 10
36.18283862
 20
6.68822192
  0
VERTEX
  8
0
 62
7
 10
36.16646289
 20
6.75316211
  0
VERTEX
  8
0
 62
7
 10
36.14982056
 20
6.81579077
  0
VERTEX
  8
0
 62
7
 10
36.13287500
 20
6.87587500
  0
VERTEX
  8
0
 62
7
 10
36.11558960
 20
6.93318188
  0
VERTEX
  8
0
 62
7
 10
36.09792773
 20
6.98747852
  0
VERTEX
  8
0
 62
7
 10
36.07985278
 20
7.03853198
  0
VERTEX
  8
0
 62
7
 10
36.06132813
 20
7.08610938
  0
VERTEX
  8
0
 62
7
 10
36.04231714
 20
7.12997778
  0
VERTEX
  8
0
 62
7
 10
36.02278320
 20
7.16990430
  0
VERTEX
  8
0
 62
7
 10
36.00268970
 20
7.20565601
  0
VERTEX
  8
0
 62
7
 10
35.98200000
 20
7.23700000
  0
VERTEX
  8
0
 62
7
 10
35.95684375
 20
7.26743750
  0
VERTEX
  8
0
 62
7
 10
35.92850000
 20
7.29300000
  0
VERTEX
  8
0
 62
7
 10
35.89790625
 20
7.31406250
  0
VERTEX
  8
0
 62
7
 10
35.86600000
 20
7.33100000
  0
VERTEX
  8
0
 62
7
 10
35.85100000
 20
7.31100000
  0
VERTEX
  8
0
 62
7
 10
35.84405859
 20
7.29937305
  0
VERTEX
  8
0
 62
7
 10
35.84028125
 20
7.28717188
  0
VERTEX
  8
0
 62
7
 10
35.83936328
 20
7.27466602
  0
VERTEX
  8
0
 62
7
 10
35.84100000
 20
7.26212500
  0
VERTEX
  8
0
 62
7
 10
35.84488672
 20
7.24981836
  0
VERTEX
  8
0
 62
7
 10
35.85071875
 20
7.23801563
  0
VERTEX
  8
0
 62
7
 10
35.85819141
 20
7.22698633
  0
VERTEX
  8
0
 62
7
 10
35.86700000
 20
7.21700000
  0
VERTEX
  8
0
 62
7
 10
35.88262500
 20
7.20400000
  0
VERTEX
  8
0
 62
7
 10
35.90200000
 20
7.19400000
  0
VERTEX
  8
0
 62
7
 10
35.92395508
 20
7.18271094
  0
VERTEX
  8
0
 62
7
 10
35.94095313
 20
7.16687500
  0
VERTEX
  8
0
 62
7
 10
35.95281836
 20
7.14766406
  0
VERTEX
  8
0
 62
7
 10
35.95937500
 20
7.12625000
  0
VERTEX
  8
0
 62
7
 10
35.96044727
 20
7.10380469
  0
VERTEX
  8
0
 62
7
 10
35.95585938
 20
7.08150000
  0
VERTEX
  8
0
 62
7
 10
35.94543555
 20
7.06050781
  0
VERTEX
  8
0
 62
7
 10
35.92900000
 20
7.04200000
  0
VERTEX
  8
0
 62
7
 10
35.90938086
 20
7.02657422
  0
VERTEX
  8
0
 62
7
 10
35.88885938
 20
7.01328125
  0
VERTEX
  8
0
 62
7
 10
35.86756445
 20
7.00209766
  0
VERTEX
  8
0
 62
7
 10
35.84562500
 20
6.99300000
  0
VERTEX
  8
0
 62
7
 10
35.82316992
 20
6.98596484
  0
VERTEX
  8
0
 62
7
 10
35.80032813
 20
6.98096875
  0
VERTEX
  8
0
 62
7
 10
35.77722852
 20
6.97798828
  0
VERTEX
  8
0
 62
7
 10
35.75400000
 20
6.97700000
  0
VERTEX
  8
0
 62
7
 10
35.70803125
 20
6.98089063
  0
VERTEX
  8
0
 62
7
 10
35.66375000
 20
6.99237500
  0
VERTEX
  8
0
 62
7
 10
35.62209375
 20
7.01117188
  0
VERTEX
  8
0
 62
7
 10
35.58400000
 20
7.03700000
  0
VERTEX
  8
0
 62
7
 10
35.55094727
 20
7.06501172
  0
VERTEX
  8
0
 62
7
 10
35.51889063
 20
7.09440625
  0
VERTEX
  8
0
 62
7
 10
35.48835742
 20
7.12534766
  0
VERTEX
  8
0
 62
7
 10
35.45987500
 20
7.15800000
  0
VERTEX
  8
0
 62
7
 10
35.43397070
 20
7.19252734
  0
VERTEX
  8
0
 62
7
 10
35.41117188
 20
7.22909375
  0
VERTEX
  8
0
 62
7
 10
35.39200586
 20
7.26786328
  0
VERTEX
  8
0
 62
7
 10
35.37700000
 20
7.30900000
  0
VERTEX
  8
0
 62
7
 10
35.36960352
 20
7.34067578
  0
VERTEX
  8
0
 62
7
 10
35.36564063
 20
7.37265625
  0
VERTEX
  8
0
 62
7
 10
35.36432617
 20
7.40487109
  0
VERTEX
  8
0
 62
7
 10
35.36487500
 20
7.43725000
  0
VERTEX
  8
0
 62
7
 10
35.36650195
 20
7.46972266
  0
VERTEX
  8
0
 62
7
 10
35.36842188
 20
7.50221875
  0
VERTEX
  8
0
 62
7
 10
35.36984961
 20
7.53466797
  0
VERTEX
  8
0
 62
7
 10
35.37000000
 20
7.56700000
  0
VERTEX
  8
0
 62
7
 10
35.36600000
 20
7.59700000
  0
VERTEX
  8
0
 62
7
 10
22.18000000
 20
7.59700000
  0
VERTEX
  8
0
 62
7
 10
22.18000000
 20
2.09700000
  0
VERTEX
  8
0
 62
7
 10
36.02100000
 20
2.09700000
  0
VERTEX
  8
0
 62
7
 10
35.99635352
 20
2.11503125
  0
VERTEX
  8
0
 62
7
 10
35.97139063
 20
2.13550000
  0
VERTEX
  8
0
 62
7
 10
35.94645117
 20
2.15859375
  0
VERTEX
  8
0
 62
7
 10
35.92187500
 20
2.18450000
  0
VERTEX
  8
0
 62
7
 10
35.89800195
 20
2.21340625
  0
VERTEX
  8
0
 62
7
 10
35.87517188
 20
2.24550000
  0
VERTEX
  8
0
 62
7
 10
35.85372461
 20
2.28096875
  0
VERTEX
  8
0
 62
7
 10
35.83400000
 20
2.32000000
  0
VERTEX
  8
0
 62
7
 10
35.81578125
 20
2.36667188
  0
VERTEX
  8
0
 62
7
 10
35.80300000
 20
2.41362500
  0
VERTEX
  8
0
 62
7
 10
35.79546875
 20
2.46076563
  0
VERTEX
  8
0
 62
7
 10
35.79300000
 20
2.50800000
  0
VERTEX
  8
0
 62
7
 10
35.79433130
 20
2.54041772
  0
VERTEX
  8
0
 62
7
 10
35.79821289
 20
2.57238867
  0
VERTEX
  8
0
 62
7
 10
35.80447632
 20
2.60386450
  0
VERTEX
  8
0
 62
7
 10
35.81295313
 20
2.63479688
  0
VERTEX
  8
0
 62
7
 10
35.82347485
 20
2.66513745
  0
VERTEX
  8
0
 62
7
 10
35.83587305
 20
2.69483789
  0
VERTEX
  8
0
 62
7
 10
35.84997925
 20
2.72384985
  0
VERTEX
  8
0
 62
7
 10
35.86562500
 20
2.75212500
  0
VERTEX
  8
0
 62
7
 10
35.88264185
 20
2.77961499
  0
VERTEX
  8
0
 62
7
 10
35.90086133
 20
2.80627148
  0
VERTEX
  8
0
 62
7
 10
35.92011499
 20
2.83204614
  0
VERTEX
  8
0
 62
7
 10
35.94023438
 20
2.85689063
  0
VERTEX
  8
0
 62
7
 10
35.96105103
 20
2.88075659
  0
VERTEX
  8
0
 62
7
 10
35.98239648
 20
2.90359570
  0
VERTEX
  8
0
 62
7
 10
36.00410229
 20
2.92535962
  0
VERTEX
  8
0
 62
7
 10
36.02600000
 20
2.94600000
  0
SEQEND
  0
POLYLINE
  8
0
 62
7
 66
1
 70
1
  0
VERTEX
  8
0
 62
7
 10
21.84000000
 20
2.09700000
  0
VERTEX
  8
0
 62
7
 10
22.09000000
 20
2.09700000
  0
VERTEX
  8
0
 62
7
 10
22.09000000
 20
7.59700000
  0
VERTEX
  8
0
 62
7
 10
21.84000000
 20
7.59700000
  0
VERTEX
  8
0
 62
7
 10
21.84000000
 20
2.09700000
  0
SEQEND
  0
POLYLINE
  8
0
 62
7
 66
1
 70
1
  0
VERTEX
  8
0
 62
7
 10
39.07900000
 20
6.87700000
  0
VERTEX
  8
0
 62
7
 10
39.07500000
 20
6.82725000
  0
VERTEX
  8
0
 62
7
 10
39.06500000
 20
6.77900000
  0
VERTEX
  8
0
 62
7
 10
39.11188477
 20
6.80597021
  0
VERTEX
  8
0
 62
7
 10
39.16121875
 20
6.82990234
  0
VERTEX
  8
0
 62
7
 10
39.21270898
 20
6.85082861
  0
VERTEX
  8
0
 62
7
 10
39.26606250
 20
6.86878125
  0
VERTEX
  8
0
 62
7
 10
39.32098633
 20
6.88379248
  0
VERTEX
  8
0
 62
7
 10
39.37718750
 20
6.89589453
  0
VERTEX
  8
0
 62
7
 10
39.43437305
 20
6.90511963
  0
VERTEX
  8
0
 62
7
 10
39.49225000
 20
6.91150000
  0
VERTEX
  8
0
 62
7
 10
39.55052539
 20
6.91506787
  0
VERTEX
  8
0
 62
7
 10
39.60890625
 20
6.91585547
  0
VERTEX
  8
0
 62
7
 10
39.66709961
 20
6.91389502
  0
VERTEX
  8
0
 62
7
 10
39.72481250
 20
6.90921875
  0
VERTEX
  8
0
 62
7
 10
39.78175195
 20
6.90185889
  0
VERTEX
  8
0
 62
7
 10
39.83762500
 20
6.89184766
  0
VERTEX
  8
0
 62
7
 10
39.89213867
 20
6.87921729
  0
VERTEX
  8
0
 62
7
 10
39.94500000
 20
6.86400000
  0
VERTEX
  8
0
 62
7
 10
39.98829102
 20
6.84905859
  0
VERTEX
  8
0
 62
7
 10
40.02920313
 20
6.82996875
  0
VERTEX
  8
0
 62
7
 10
40.06704492
 20
6.80708203
  0
VERTEX
  8
0
 62
7
 10
40.10112500
 20
6.78075000
  0
VERTEX
  8
0
 62
7
 10
40.13075195
 20
6.75132422
  0
VERTEX
  8
0
 62
7
 10
40.15523438
 20
6.71915625
  0
VERTEX
  8
0
 62
7
 10
40.17388086
 20
6.68459766
  0
VERTEX
  8
0
 62
7
 10
40.18600000
 20
6.64800000
  0
VERTEX
  8
0
 62
7
 10
40.19155469
 20
6.61402344
  0
VERTEX
  8
0
 62
7
 10
40.19237500
 20
6.58206250
  0
VERTEX
  8
0
 62
7
 10
40.18944531
 20
6.55244531
  0
VERTEX
  8
0
 62
7
 10
40.18375000
 20
6.52550000
  0
VERTEX
  8
0
 62
7
 10
40.17627344
 20
6.50155469
  0
VERTEX
  8
0
 62
7
 10
40.16800000
 20
6.48093750
  0
VERTEX
  8
0
 62
7
 10
40.15991406
 20
6.46397656
  0
VERTEX
  8
0
 62
7
 10
40.15300000
 20
6.45100000
  0
VERTEX
  8
0
 62
7
 10
40.16800000
 20
6.44000000
  0
VERTEX
  8
0
 62
7
 10
40.20208887
 20
6.44738599
  0
VERTEX
  8
0
 62
7
 10
40.23525781
 20
6.46050977
  0
VERTEX
  8
0
 62
7
 10
40.26736035
 20
6.47875757
  0
VERTEX
  8
0
 62
7
 10
40.29825000
 20
6.50151563
  0
VERTEX
  8
0
 62
7
 10
40.32778027
 20
6.52817017
  0
VERTEX
  8
0
 62
7
 10
40.35580469
 20
6.55810742
  0
VERTEX
  8
0
 62
7
 10
40.38217676
 20
6.59071362
  0
VERTEX
  8
0
 62
7
 10
40.40675000
 20
6.62537500
  0
VERTEX
  8
0
 62
7
 10
40.42937793
 20
6.66147778
  0
VERTEX
  8
0
 62
7
 10
40.44991406
 20
6.69840820
  0
VERTEX
  8
0
 62
7
 10
40.46821191
 20
6.73555249
  0
VERTEX
  8
0
 62
7
 10
40.48412500
 20
6.77229688
  0
VERTEX
  8
0
 62
7
 10
40.49750684
 20
6.80802759
  0
VERTEX
  8
0
 62
7
 10
40.50821094
 20
6.84213086
  0
VERTEX
  8
0
 62
7
 10
40.51609082
 20
6.87399292
  0
VERTEX
  8
0
 62
7
 10
40.52100000
 20
6.90300000
  0
VERTEX
  8
0
 62
7
 10
40.52410205
 20
6.94325537
  0
VERTEX
  8
0
 62
7
 10
40.52336328
 20
6.98499609
  0
VERTEX
  8
0
 62
7
 10
40.51890381
 20
7.02780908
  0
VERTEX
  8
0
 62
7
 10
40.51084375
 20
7.07128125
  0
VERTEX
  8
0
 62
7
 10
40.49930322
 20
7.11499951
  0
VERTEX
  8
0
 62
7
 10
40.48440234
 20
7.15855078
  0
VERTEX
  8
0
 62
7
 10
40.46626123
 20
7.20152197
  0
VERTEX
  8
0
 62
7
 10
40.44500000
 20
7.24350000
  0
VERTEX
  8
0
 62
7
 10
40.42073877
 20
7.28407178
  0
VERTEX
  8
0
 62
7
 10
40.39359766
 20
7.32282422
  0
VERTEX
  8
0
 62
7
 10
40.36369678
 20
7.35934424
  0
VERTEX
  8
0
 62
7
 10
40.33115625
 20
7.39321875
  0
VERTEX
  8
0
 62
7
 10
40.29609619
 20
7.42403467
  0
VERTEX
  8
0
 62
7
 10
40.25863672
 20
7.45137891
  0
VERTEX
  8
0
 62
7
 10
40.21889795
 20
7.47483838
  0
VERTEX
  8
0
 62
7
 10
40.17700000
 20
7.49400000
  0
VERTEX
  8
0
 62
7
 10
40.11010938
 20
7.52359375
  0
VERTEX
  8
0
 62
7
 10
40.04012500
 20
7.54775000
  0
VERTEX
  8
0
 62
7
 10
39.96732813
 20
7.56628125
  0
VERTEX
  8
0
 62
7
 10
39.89200000
 20
7.57900000
  0
VERTEX
  8
0
 62
7
 10
39.81292383
 20
7.58618945
  0
VERTEX
  8
0
 62
7
 10
39.73301563
 20
7.58814063
  0
VERTEX
  8
0
 62
7
 10
39.65313086
 20
7.58467773
  0
VERTEX
  8
0
 62
7
 10
39.57412500
 20
7.57562500
  0
VERTEX
  8
0
 62
7
 10
39.49685352
 20
7.56080664
  0
VERTEX
  8
0
 62
7
 10
39.42217188
 20
7.54004688
  0
VERTEX
  8
0
 62
7
 10
39.35093555
 20
7.51316992
  0
VERTEX
  8
0
 62
7
 10
39.28400000
 20
7.48000000
  0
VERTEX
  8
0
 62
7
 10
39.33112500
 20
7.46087500
  0
VERTEX
  8
0
 62
7
 10
39.37300000
 20
7.44100000
  0
VERTEX
  8
0
 62
7
 10
39.39878125
 20
7.42671875
  0
VERTEX
  8
0
 62
7
 10
39.42700000
 20
7.40775000
  0
VERTEX
  8
0
 62
7
 10
39.45371875
 20
7.38390625
  0
VERTEX
  8
0
 62
7
 10
39.47500000
 20
7.35500000
  0
VERTEX
  8
0
 62
7
 10
39.48312500
 20
7.33490625
  0
VERTEX
  8
0
 62
7
 10
39.48600000
 20
7.31575000
  0
VERTEX
  8
0
 62
7
 10
39.48512500
 20
7.29846875
  0
VERTEX
  8
0
 62
7
 10
39.48200000
 20
7.28400000
  0
VERTEX
  8
0
 62
7
 10
39.47362500
 20
7.26612500
  0
VERTEX
  8
0
 62
7
 10
39.46600000
 20
7.25500000
  0
VERTEX
  8
0
 62
7
 10
39.45000000
 20
7.23900000
  0
VERTEX
  8
0
 62
7
 10
39.43600000
 20
7.23000000
  0
VERTEX
  8
0
 62
7
 10
39.41400000
 20
7.21700000
  0
VERTEX
  8
0
 62
7
 10
39.39569189
 20
7.20680957
  0
VERTEX
  8
0
 62
7
 10
39.37516016
 20
7.19500781
  0
VERTEX
  8
0
 62
7
 10
39.35280615
 20
7.18162402
  0
VERTEX
  8
0
 62
7
 10
39.32903125
 20
7.16668750
  0
VERTEX
  8
0
 62
7
 10
39.30423682
 20
7.15022754
  0
VERTEX
  8
0
 62
7
 10
39.27882422
 20
7.13227344
  0
VERTEX
  8
0
 62
7
 10
39.25319482
 20
7.11285449
  0
VERTEX
  8
0
 62
7
 10
39.22775000
 20
7.09200000
  0
VERTEX
  8
0
 62
7
 10
39.20289111
 20
7.06973926
  0
VERTEX
  8
0
 62
7
 10
39.17901953
 20
7.04610156
  0
VERTEX
  8
0
 62
7
 10
39.15653662
 20
7.02111621
  0
VERTEX
  8
0
 62
7
 10
39.13584375
 20
6.99481250
  0
VERTEX
  8
0
 62
7
 10
39.11734229
 20
6.96721973
  0
VERTEX
  8
0
 62
7
 10
39.10143359
 20
6.93836719
  0
VERTEX
  8
0
 62
7
 10
39.08851904
 20
6.90828418
  0
VERTEX
  8
0
 62
7
 10
39.07900000
 20
6.87700000
  0
SEQEND
  0
POLYLINE
  8
0
 62
7
 66
1
 70
1
  0
VERTEX
  8
0
 62
7
 10
35.32700000
 20
7.68700000
  0
VERTEX
  8
0
 62
7
 10
35.31000000
 20
7.72200000
  0
VERTEX
  8
0
 62
7
 10
35.30600000
 20
7.73200000
  0
VERTEX
  8
0
 62
7
 10
35.29887500
 20
7.75050000
  0
VERTEX
  8
0
 62
7
 10
35.29100000
 20
7.77500000
  0
VERTEX
  8
0
 62
7
 10
35.28462500
 20
7.80400000
  0
VERTEX
  8
0
 62
7
 10
35.28200000
 20
7.83600000
  0
VERTEX
  8
0
 62
7
 10
35.28362500
 20
7.86062500
  0
VERTEX
  8
0
 62
7
 10
35.28900000
 20
7.88600000
  0
VERTEX
  8
0
 62
7
 10
35.29370898
 20
7.90060938
  0
VERTEX
  8
0
 62
7
 10
35.29967188
 20
7.91568750
  0
VERTEX
  8
0
 62
7
 10
35.30701758
 20
7.93085938
  0
VERTEX
  8
0
 62
7
 10
35.31587500
 20
7.94575000
  0
VERTEX
  8
0
 62
7
 10
35.32637305
 20
7.95998438
  0
VERTEX
  8
0
 62
7
 10
35.33864063
 20
7.97318750
  0
VERTEX
  8
0
 62
7
 10
35.35280664
 20
7.98498438
  0
VERTEX
  8
0
 62
7
 10
35.36900000
 20
7.99500000
  0
VERTEX
  8
0
 62
7
 10
35.42188867
 20
8.02041943
  0
VERTEX
  8
0
 62
7
 10
35.47546875
 20
8.04273047
  0
VERTEX
  8
0
 62
7
 10
35.52961133
 20
8.06201221
  0
VERTEX
  8
0
 62
7
 10
35.58418750
 20
8.07834375
  0
VERTEX
  8
0
 62
7
 10
35.63906836
 20
8.09180420
  0
VERTEX
  8
0
 62
7
 10
35.69412500
 20
8.10247266
  0
VERTEX
  8
0
 62
7
 10
35.74922852
 20
8.11042822
  0
VERTEX
  8
0
 62
7
 10
35.80425000
 20
8.11575000
  0
VERTEX
  8
0
 62
7
 10
35.85906055
 20
8.11851709
  0
VERTEX
  8
0
 62
7
 10
35.91353125
 20
8.11880859
  0
VERTEX
  8
0
 62
7
 10
35.96753320
 20
8.11670361
  0
VERTEX
  8
0
 62
7
 10
36.02093750
 20
8.11228125
  0
VERTEX
  8
0
 62
7
 10
36.07361523
 20
8.10562061
  0
VERTEX
  8
0
 62
7
 10
36.12543750
 20
8.09680078
  0
VERTEX
  8
0
 62
7
 10
36.17627539
 20
8.08590088
  0
VERTEX
  8
0
 62
7
 10
36.22600000
 20
8.07300000
  0
VERTEX
  8
0
 62
7
 10
36.26183789
 20
8.06160498
  0
VERTEX
  8
0
 62
7
 10
36.29937500
 20
8.04732422
  0
VERTEX
  8
0
 62
7
 10
36.33827148
 20
8.03020166
  0
VERTEX
  8
0
 62
7
 10
36.37818750
 20
8.01028125
  0
VERTEX
  8
0
 62
7
 10
36.41878320
 20
7.98760693
  0
VERTEX
  8
0
 62
7
 10
36.45971875
 20
7.96222266
  0
VERTEX
  8
0
 62
7
 10
36.50065430
 20
7.93417236
  0
VERTEX
  8
0
 62
7
 10
36.54125000
 20
7.90350000
  0
VERTEX
  8
0
 62
7
 10
36.58116602
 20
7.87024951
  0
VERTEX
  8
0
 62
7
 10
36.62006250
 20
7.83446484
  0
VERTEX
  8
0
 62
7
 10
36.65759961
 20
7.79618994
  0
VERTEX
  8
0
 62
7
 10
36.69343750
 20
7.75546875
  0
VERTEX
  8
0
 62
7
 10
36.72723633
 20
7.71234521
  0
VERTEX
  8
0
 62
7
 10
36.75865625
 20
7.66686328
  0
VERTEX
  8
0
 62
7
 10
36.78735742
 20
7.61906689
  0
VERTEX
  8
0
 62
7
 10
36.81300000
 20
7.56900000
  0
VERTEX
  8
0
 62
7
 10
36.83300000
 20
7.52500000
  0
VERTEX
  8
0
 62
7
 10
36.88432813
 20
7.53746875
  0
VERTEX
  8
0
 62
7
 10
36.93387500
 20
7.54750000
  0
VERTEX
  8
0
 62
7
 10
36.98023438
 20
7.55453125
  0
VERTEX
  8
0
 62
7
 10
37.02200000
 20
7.55800000
  0
VERTEX
  8
0
 62
7
 10
37.05600000
 20
7.55900000
  0
VERTEX
  8
0
 62
7
 10
37.13477539
 20
7.55145703
  0
VERTEX
  8
0
 62
7
 10
37.20620313
 20
7.54028125
  0
VERTEX
  8
0
 62
7
 10
37.26931055
 20
7.52690234
  0
VERTEX
  8
0
 62
7
 10
37.32312500
 20
7.51275000
  0
VERTEX
  8
0
 62
7
 10
37.36667383
 20
7.49925391
  0
VERTEX
  8
0
 62
7
 10
37.39898438
 20
7.48784375
  0
VERTEX
  8
0
 62
7
 10
37.41908398
 20
7.47994922
  0
VERTEX
  8
0
 62
7
 10
37.42600000
 20
7.47700000
  0
VERTEX
  8
0
 62
7
 10
37.42689575
 20
7.49866309
  0
VERTEX
  8
0
 62
7
 10
37.42496289
 20
7.51947656
  0
VERTEX
  8
0
 62
7
 10
37.42058374
 20
7.53955176
  0
VERTEX
  8
0
 62
7
 10
37.41414063
 20
7.55900000
  0
VERTEX
  8
0
 62
7
 10
37.40601587
 20
7.57793262
  0
VERTEX
  8
0
 62
7
 10
37.39659180
 20
7.59646094
  0
VERTEX
  8
0
 62
7
 10
37.38625073
 20
7.61469629
  0
VERTEX
  8
0
 62
7
 10
37.37537500
 20
7.63275000
  0
VERTEX
  8
0
 62
7
 10
37.36434692
 20
7.65073340
  0
VERTEX
  8
0
 62
7
 10
37.35354883
 20
7.66875781
  0
VERTEX
  8
0
 62
7
 10
37.34336304
 20
7.68693457
  0
VERTEX
  8
0
 62
7
 10
37.33417188
 20
7.70537500
  0
VERTEX
  8
0
 62
7
 10
37.32635767
 20
7.72419043
  0
VERTEX
  8
0
 62
7
 10
37.32030273
 20
7.74349219
  0
VERTEX
  8
0
 62
7
 10
37.31638940
 20
7.76339160
  0
VERTEX
  8
0
 62
7
 10
37.31500000
 20
7.78400000
  0
VERTEX
  8
0
 62
7
 10
37.31609204
 20
7.81282935
  0
VERTEX
  8
0
 62
7
 10
37.31933008
 20
7.84077539
  0
VERTEX
  8
0
 62
7
 10
37.32465698
 20
7.86777515
  0
VERTEX
  8
0
 62
7
 10
37.33201563
 20
7.89376563
  0
VERTEX
  8
0
 62
7
 10
37.34134888
 20
7.91868384
  0
VERTEX
  8
0
 62
7
 10
37.35259961
 20
7.94246680
  0
VERTEX
  8
0
 62
7
 10
37.36571069
 20
7.96505151
  0
VERTEX
  8
0
 62
7
 10
37.38062500
 20
7.98637500
  0
VERTEX
  8
0
 62
7
 10
37.39728540
 20
8.00637427
  0
VERTEX
  8
0
 62
7
 10
37.41563477
 20
8.02498633
  0
VERTEX
  8
0
 62
7
 10
37.43561597
 20
8.04214819
  0
VERTEX
  8
0
 62
7
 10
37.45717188
 20
8.05779687
  0
VERTEX
  8
0
 62
7
 10
37.48024536
 20
8.07186938
  0
VERTEX
  8
0
 62
7
 10
37.50477930
 20
8.08430273
  0
VERTEX
  8
0
 62
7
 10
37.53071655
 20
8.09503394
  0
VERTEX
  8
0
 62
7
 10
37.55800000
 20
8.10400000
  0
VERTEX
  8
0
 62
7
 10
37.60499219
 20
8.11578125
  0
VERTEX
  8
0
 62
7
 10
37.65531250
 20
8.12568750
  0
VERTEX
  8
0
 62
7
 10
37.70797656
 20
8.13381250
  0
VERTEX
  8
0
 62
7
 10
37.76200000
 20
8.14025000
  0
VERTEX
  8
0
 62
7
 10
37.81639844
 20
8.14509375
  0
VERTEX
  8
0
 62
7
 10
37.87018750
 20
8.14843750
  0
VERTEX
  8
0
 62
7
 10
37.92238281
 20
8.15037500
  0
VERTEX
  8
0
 62
7
 10
37.97200000
 20
8.15100000
  0
VERTEX
  8
0
 62
7
 10
38.02137500
 20
8.15037500
  0
VERTEX
  8
0
 62
7
 10
38.07356250
 20
8.14843750
  0
VERTEX
  8
0
 62
7
 10
38.12753125
 20
8.14509375
  0
VERTEX
  8
0
 62
7
 10
38.18225000
 20
8.14025000
  0
VERTEX
  8
0
 62
7
 10
38.23668750
 20
8.13381250
  0
VERTEX
  8
0
 62
7
 10
38.28981250
 20
8.12568750
  0
VERTEX
  8
0
 62
7
 10
38.34059375
 20
8.11578125
  0
VERTEX
  8
0
 62
7
 10
38.38800000
 20
8.10400000
  0
VERTEX
  8
0
 62
7
 10
38.42492188
 20
8.09125000
  0
VERTEX
  8
0
 62
7
 10
38.45912500
 20
8.07550000
  0
VERTEX
  8
0
 62
7
 10
38.49051563
 20
8.05675000
  0
VERTEX
  8
0
 62
7
 10
38.51900000
 20
8.03500000
  0
VERTEX
  8
0
 62
7
 10
38.57312500
 20
8.11812500
  0
VERTEX
  8
0
 62
7
 10
38.62800000
 20
8.19600000
  0
VERTEX
  8
0
 62
7
 10
38.68600000
 20
8.27700000
  0
VERTEX
  8
0
 62
7
 10
38.72074414
 20
8.32520703
  0
VERTEX
  8
0
 62
7
 10
38.75789063
 20
8.37165625
  0
VERTEX
  8
0
 62
7
 10
38.79693555
 20
8.41646484
  0
VERTEX
  8
0
 62
7
 10
38.83737500
 20
8.45975000
  0
VERTEX
  8
0
 62
7
 10
38.87870508
 20
8.50162891
  0
VERTEX
  8
0
 62
7
 10
38.92042188
 20
8.54221875
  0
VERTEX
  8
0
 62
7
 10
38.96202148
 20
8.58163672
  0
VERTEX
  8
0
 62
7
 10
39.00300000
 20
8.62000000
  0
VERTEX
  8
0
 62
7
 10
39.03800000
 20
8.65300000
  0
VERTEX
  8
0
 62
7
 10
39.09195313
 20
8.70934375
  0
VERTEX
  8
0
 62
7
 10
39.13962500
 20
8.77150000
  0
VERTEX
  8
0
 62
7
 10
39.18073438
 20
8.83890625
  0
VERTEX
  8
0
 62
7
 10
39.21500000
 20
8.91100000
  0
VERTEX
  8
0
 62
7
 10
39.24437500
 20
8.99400000
  0
VERTEX
  8
0
 62
7
 10
39.26700000
 20
9.08000000
  0
VERTEX
  8
0
 62
7
 10
39.27192017
 20
9.09571265
  0
VERTEX
  8
0
 62
7
 10
39.27898633
 20
9.10946680
  0
VERTEX
  8
0
 62
7
 10
39.28790698
 20
9.12124927
  0
VERTEX
  8
0
 62
7
 10
39.29839063
 20
9.13104687
  0
VERTEX
  8
0
 62
7
 10
39.31014575
 20
9.13884644
  0
VERTEX
  8
0
 62
7
 10
39.32288086
 20
9.14463477
  0
VERTEX
  8
0
 62
7
 10
39.33630444
 20
9.14839868
  0
VERTEX
  8
0
 62
7
 10
39.35012500
 20
9.15012500
  0
VERTEX
  8
0
 62
7
 10
39.36405103
 20
9.14980054
  0
VERTEX
  8
0
 62
7
 10
39.37779102
 20
9.14741211
  0
VERTEX
  8
0
 62
7
 10
39.39105347
 20
9.14294653
  0
VERTEX
  8
0
 62
7
 10
39.40354688
 20
9.13639063
  0
VERTEX
  8
0
 62
7
 10
39.41497974
 20
9.12773120
  0
VERTEX
  8
0
 62
7
 10
39.42506055
 20
9.11695508
  0
VERTEX
  8
0
 62
7
 10
39.43349780
 20
9.10404907
  0
VERTEX
  8
0
 62
7
 10
39.44000000
 20
9.08900000
  0
VERTEX
  8
0
 62
7
 10
39.46498242
 20
9.01129883
  0
VERTEX
  8
0
 62
7
 10
39.48667188
 20
8.93276563
  0
VERTEX
  8
0
 62
7
 10
39.50505664
 20
8.85350586
  0
VERTEX
  8
0
 62
7
 10
39.52012500
 20
8.77362500
  0
VERTEX
  8
0
 62
7
 10
39.53186523
 20
8.69322852
  0
VERTEX
  8
0
 62
7
 10
39.54026563
 20
8.61242188
  0
VERTEX
  8
0
 62
7
 10
39.54531445
 20
8.53131055
  0
VERTEX
  8
0
 62
7
 10
39.54700000
 20
8.45000000
  0
VERTEX
  8
0
 62
7
 10
39.54439063
 20
8.35012500
  0
VERTEX
  8
0
 62
7
 10
39.53662500
 20
8.25025000
  0
VERTEX
  8
0
 62
7
 10
39.52379688
 20
8.15075000
  0
VERTEX
  8
0
 62
7
 10
39.50600000
 20
8.05200000
  0
VERTEX
  8
0
 62
7
 10
39.47956250
 20
7.93956250
  0
VERTEX
  8
0
 62
7
 10
39.44675000
 20
7.82900000
  0
VERTEX
  8
0
 62
7
 10
39.40756250
 20
7.72068750
  0
VERTEX
  8
0
 62
7
 10
39.36200000
 20
7.61500000
  0
VERTEX
  8
0
 62
7
 10
39.40753320
 20
7.63033984
  0
VERTEX
  8
0
 62
7
 10
39.45401563
 20
7.64340625
  0
VERTEX
  8
0
 62
7
 10
39.50127148
 20
7.65426953
  0
VERTEX
  8
0
 62
7
 10
39.54912500
 20
7.66300000
  0
VERTEX
  8
0
 62
7
 10
39.59740039
 20
7.66966797
  0
VERTEX
  8
0
 62
7
 10
39.64592188
 20
7.67434375
  0
VERTEX
  8
0
 62
7
 10
39.69451367
 20
7.67709766
  0
VERTEX
  8
0
 62
7
 10
39.74300000
 20
7.67800000
  0
VERTEX
  8
0
 62
7
 10
39.82375000
 20
7.67562500
  0
VERTEX
  8
0
 62
7
 10
39.90300000
 20
7.66800000
  0
VERTEX
  8
0
 62
7
 10
39.94556250
 20
7.66162891
  0
VERTEX
  8
0
 62
7
 10
39.98700000
 20
7.65321875
  0
VERTEX
  8
0
 62
7
 10
40.02731250
 20
7.64307422
  0
VERTEX
  8
0
 62
7
 10
40.06650000
 20
7.63150000
  0
VERTEX
  8
0
 62
7
 10
40.10456250
 20
7.61880078
  0
VERTEX
  8
0
 62
7
 10
40.14150000
 20
7.60528125
  0
VERTEX
  8
0
 62
7
 10
40.17731250
 20
7.59124609
  0
VERTEX
  8
0
 62
7
 10
40.21200000
 20
7.57700000
  0
VERTEX
  8
0
 62
7
 10
40.25705420
 20
7.55544678
  0
VERTEX
  8
0
 62
7
 10
40.29990234
 20
7.53001172
  0
VERTEX
  8
0
 62
7
 10
40.34044775
 20
7.50103174
  0
VERTEX
  8
0
 62
7
 10
40.37859375
 20
7.46884375
  0
VERTEX
  8
0
 62
7
 10
40.41424365
 20
7.43378467
  0
VERTEX
  8
0
 62
7
 10
40.44730078
 20
7.39619141
  0
VERTEX
  8
0
 62
7
 10
40.47766846
 20
7.35640088
  0
VERTEX
  8
0
 62
7
 10
40.50525000
 20
7.31475000
  0
VERTEX
  8
0
 62
7
 10
40.52994873
 20
7.27157568
  0
VERTEX
  8
0
 62
7
 10
40.55166797
 20
7.22721484
  0
VERTEX
  8
0
 62
7
 10
40.57031104
 20
7.18200439
  0
VERTEX
  8
0
 62
7
 10
40.58578125
 20
7.13628125
  0
VERTEX
  8
0
 62
7
 10
40.59798193
 20
7.09038232
  0
VERTEX
  8
0
 62
7
 10
40.60681641
 20
7.04464453
  0
VERTEX
  8
0
 62
7
 10
40.61218799
 20
6.99940479
  0
VERTEX
  8
0
 62
7
 10
40.61400000
 20
6.95500000
  0
VERTEX
  8
0
 62
7
 10
40.61312500
 20
6.92275000
  0
VERTEX
  8
0
 62
7
 10
40.61000000
 20
6.89200000
  0
VERTEX
  8
0
 62
7
 10
40.60367188
 20
6.85406250
  0
VERTEX
  8
0
 62
7
 10
40.59387500
 20
6.81425000
  0
VERTEX
  8
0
 62
7
 10
40.58089063
 20
6.77331250
  0
VERTEX
  8
0
 62
7
 10
40.56500000
 20
6.73200000
  0
VERTEX
  8
0
 62
7
 10
40.55477222
 20
6.70848853
  0
VERTEX
  8
0
 62
7
 10
40.54322461
 20
6.68387695
  0
VERTEX
  8
0
 62
7
 10
40.53037329
 20
6.65842456
  0
VERTEX
  8
0
 62
7
 10
40.51623438
 20
6.63239063
  0
VERTEX
  8
0
 62
7
 10
40.50082397
 20
6.60603442
  0
VERTEX
  8
0
 62
7
 10
40.48415820
 20
6.57961523
  0
VERTEX
  8
0
 62
7
 10
40.46625317
 20
6.55339233
  0
VERTEX
  8
0
 62
7
 10
40.44712500
 20
6.52762500
  0
VERTEX
  8
0
 62
7
 10
40.42678979
 20
6.50257251
  0
VERTEX
  8
0
 62
7
 10
40.40526367
 20
6.47849414
  0
VERTEX
  8
0
 62
7
 10
40.38256274
 20
6.45564917
  0
VERTEX
  8
0
 62
7
 10
40.35870313
 20
6.43429688
  0
VERTEX
  8
0
 62
7
 10
40.33370093
 20
6.41469653
  0
VERTEX
  8
0
 62
7
 10
40.30757227
 20
6.39710742
  0
VERTEX
  8
0
 62
7
 10
40.28033325
 20
6.38178882
  0
VERTEX
  8
0
 62
7
 10
40.25200000
 20
6.36900000
  0
VERTEX
  8
0
 62
7
 10
40.28300000
 20
6.33700000
  0
VERTEX
  8
0
 62
7
 10
40.31920313
 20
6.29273047
  0
VERTEX
  8
0
 62
7
 10
40.35118750
 20
6.24496875
  0
VERTEX
  8
0
 62
7
 10
40.37876563
 20
6.19416016
  0
VERTEX
  8
0
 62
7
 10
40.40175000
 20
6.14075000
  0
VERTEX
  8
0
 62
7
 10
40.41995313
 20
6.08518359
  0
VERTEX
  8
0
 62
7
 10
40.43318750
 20
6.02790625
  0
VERTEX
  8
0
 62
7
 10
40.44126563
 20
5.96936328
  0
VERTEX
  8
0
 62
7
 10
40.44400000
 20
5.91000000
  0
VERTEX
  8
0
 62
7
 10
40.44262500
 20
5.87237500
  0
VERTEX
  8
0
 62
7
 10
40.43900000
 20
5.83400000
  0
VERTEX
  8
0
 62
7
 10
40.43293140
 20
5.79307642
  0
VERTEX
  8
0
 62
7
 10
40.42452930
 20
5.75322070
  0
VERTEX
  8
0
 62
7
 10
40.41387427
 20
5.71449292
  0
VERTEX
  8
0
 62
7
 10
40.40104688
 20
5.67695313
  0
VERTEX
  8
0
 62
7
 10
40.38612769
 20
5.64066138
  0
VERTEX
  8
0
 62
7
 10
40.36919727
 20
5.60567773
  0
VERTEX
  8
0
 62
7
 10
40.35033618
 20
5.57206226
  0
VERTEX
  8
0
 62
7
 10
40.32962500
 20
5.53987500
  0
VERTEX
  8
0
 62
7
 10
40.30714429
 20
5.50917603
  0
VERTEX
  8
0
 62
7
 10
40.28297461
 20
5.48002539
  0
VERTEX
  8
0
 62
7
 10
40.25719653
 20
5.45248315
  0
VERTEX
  8
0
 62
7
 10
40.22989063
 20
5.42660938
  0
VERTEX
  8
0
 62
7
 10
40.20113745
 20
5.40246411
  0
VERTEX
  8
0
 62
7
 10
40.17101758
 20
5.38010742
  0
VERTEX
  8
0
 62
7
 10
40.13961157
 20
5.35959937
  0
VERTEX
  8
0
 62
7
 10
40.10700000
 20
5.34100000
  0
VERTEX
  8
0
 62
7
 10
39.98500000
 20
5.27700000
  0
VERTEX
  8
0
 62
7
 10
39.97500000
 20
5.41500000
  0
VERTEX
  8
0
 62
7
 10
39.97196777
 20
5.44097339
  0
VERTEX
  8
0
 62
7
 10
39.96667969
 20
5.46631836
  0
VERTEX
  8
0
 62
7
 10
39.95922363
 20
5.49092212
  0
VERTEX
  8
0
 62
7
 10
39.94968750
 20
5.51467188
  0
VERTEX
  8
0
 62
7
 10
39.93815918
 20
5.53745483
  0
VERTEX
  8
0
 62
7
 10
39.92472656
 20
5.55915820
  0
VERTEX
  8
0
 62
7
 10
39.90947754
 20
5.57966919
  0
VERTEX
  8
0
 62
7
 10
39.89250000
 20
5.59887500
  0
VERTEX
  8
0
 62
7
 10
39.87388184
 20
5.61666284
  0
VERTEX
  8
0
 62
7
 10
39.85371094
 20
5.63291992
  0
VERTEX
  8
0
 62
7
 10
39.83207520
 20
5.64753345
  0
VERTEX
  8
0
 62
7
 10
39.80906250
 20
5.66039063
  0
VERTEX
  8
0
 62
7
 10
39.78476074
 20
5.67137866
  0
VERTEX
  8
0
 62
7
 10
39.75925781
 20
5.68038477
  0
VERTEX
  8
0
 62
7
 10
39.73264160
 20
5.68729614
  0
VERTEX
  8
0
 62
7
 10
39.70500000
 20
5.69200000
  0
VERTEX
  8
0
 62
7
 10
39.64400000
 20
5.69500000
  0
VERTEX
  8
0
 62
7
 10
39.59073633
 20
5.69182056
  0
VERTEX
  8
0
 62
7
 10
39.53996875
 20
5.68250195
  0
VERTEX
  8
0
 62
7
 10
39.49154492
 20
5.66737378
  0
VERTEX
  8
0
 62
7
 10
39.44531250
 20
5.64676563
  0
VERTEX
  8
0
 62
7
 10
39.40111914
 20
5.62100708
  0
VERTEX
  8
0
 62
7
 10
39.35881250
 20
5.59042773
  0
VERTEX
  8
0
 62
7
 10
39.31824023
 20
5.55535718
  0
VERTEX
  8
0
 62
7
 10
39.27925000
 20
5.51612500
  0
VERTEX
  8
0
 62
7
 10
39.24168945
 20
5.47306079
  0
VERTEX
  8
0
 62
7
 10
39.20540625
 20
5.42649414
  0
VERTEX
  8
0
 62
7
 10
39.17024805
 20
5.37675464
  0
VERTEX
  8
0
 62
7
 10
39.13606250
 20
5.32417188
  0
VERTEX
  8
0
 62
7
 10
39.10269727
 20
5.26907544
  0
VERTEX
  8
0
 62
7
 10
39.07000000
 20
5.21179492
  0
VERTEX
  8
0
 62
7
 10
39.03781836
 20
5.15265991
  0
VERTEX
  8
0
 62
7
 10
39.00600000
 20
5.09200000
  0
VERTEX
  8
0
 62
7
 10
38.95246680
 20
4.98223438
  0
VERTEX
  8
0
 62
7
 10
38.90304688
 20
4.86843750
  0
VERTEX
  8
0
 62
7
 10
38.85800977
 20
4.75098438
  0
VERTEX
  8
0
 62
7
 10
38.81762500
 20
4.63025000
  0
VERTEX
  8
0
 62
7
 10
38.78216211
 20
4.50660938
  0
VERTEX
  8
0
 62
7
 10
38.75189063
 20
4.38043750
  0
VERTEX
  8
0
 62
7
 10
38.72708008
 20
4.25210938
  0
VERTEX
  8
0
 62
7
 10
38.70800000
 20
4.12200000
  0
VERTEX
  8
0
 62
7
 10
38.69970313
 20
4.04340625
  0
VERTEX
  8
0
 62
7
 10
38.69412500
 20
3.96500000
  0
VERTEX
  8
0
 62
7
 10
38.69098438
 20
3.88659375
  0
VERTEX
  8
0
 62
7
 10
38.69000000
 20
3.80800000
  0
VERTEX
  8
0
 62
7
 10
38.69326563
 20
3.66642188
  0
VERTEX
  8
0
 62
7
 10
38.70262500
 20
3.52512500
  0
VERTEX
  8
0
 62
7
 10
38.71742188
 20
3.38401563
  0
VERTEX
  8
0
 62
7
 10
38.73700000
 20
3.24300000
  0
VERTEX
  8
0
 62
7
 10
38.74578989
 20
3.18866702
  0
VERTEX
  8
0
 62
7
 10
38.75568628
 20
3.13411743
  0
VERTEX
  8
0
 62
7
 10
38.76672928
 20
3.07946274
  0
VERTEX
  8
0
 62
7
 10
38.77895898
 20
3.02481445
  0
VERTEX
  8
0
 62
7
 10
38.79241550
 20
2.97028409
  0
VERTEX
  8
0
 62
7
 10
38.80713892
 20
2.91598315
  0
VERTEX
  8
0
 62
7
 10
38.82316934
 20
2.86202316
  0
VERTEX
  8
0
 62
7
 10
38.84054688
 20
2.80851563
  0
VERTEX
  8
0
 62
7
 10
38.85931161
 20
2.75557205
  0
VERTEX
  8
0
 62
7
 10
38.87950366
 20
2.70330396
  0
VERTEX
  8
0
 62
7
 10
38.90116312
 20
2.65182285
  0
VERTEX
  8
0
 62
7
 10
38.92433008
 20
2.60124023
  0
VERTEX
  8
0
 62
7
 10
38.94904465
 20
2.55166763
  0
VERTEX
  8
0
 62
7
 10
38.97534692
 20
2.50321655
  0
VERTEX
  8
0
 62
7
 10
39.00327701
 20
2.45599850
  0
VERTEX
  8
0
 62
7
 10
39.03287500
 20
2.41012500
  0
VERTEX
  8
0
 62
7
 10
39.06418100
 20
2.36570755
  0
VERTEX
  8
0
 62
7
 10
39.09723511
 20
2.32285767
  0
VERTEX
  8
0
 62
7
 10
39.13207742
 20
2.28168686
  0
VERTEX
  8
0
 62
7
 10
39.16874805
 20
2.24230664
  0
VERTEX
  8
0
 62
7
 10
39.20728708
 20
2.20482852
  0
VERTEX
  8
0
 62
7
 10
39.24773462
 20
2.16936401
  0
VERTEX
  8
0
 62
7
 10
39.29013077
 20
2.13602463
  0
VERTEX
  8
0
 62
7
 10
39.33451563
 20
2.10492188
  0
VERTEX
  8
0
 62
7
 10
39.38092929
 20
2.07616727
  0
VERTEX
  8
0
 62
7
 10
39.42941187
 20
2.04987231
  0
VERTEX
  8
0
 62
7
 10
39.48000345
 20
2.02614853
  0
VERTEX
  8
0
 62
7
 10
39.53274414
 20
2.00510742
  0
VERTEX
  8
0
 62
7
 10
39.58767404
 20
1.98686050
  0
VERTEX
  8
0
 62
7
 10
39.64483325
 20
1.97151929
  0
VERTEX
  8
0
 62
7
 10
39.70426187
 20
1.95919528
  0
VERTEX
  8
0
 62
7
 10
39.76600000
 20
1.95000000
  0
VERTEX
  8
0
 62
7
 10
39.82425000
 20
1.94500000
  0
VERTEX
  8
0
 62
7
 10
39.88100000
 20
1.94300000
  0
VERTEX
  8
0
 62
7
 10
39.92791040
 20
1.94415259
  0
VERTEX
  8
0
 62
7
 10
39.97372070
 20
1.94753320
  0
VERTEX
  8
0
 62
7
 10
40.01836206
 20
1.95302612
  0
VERTEX
  8
0
 62
7
 10
40.06176563
 20
1.96051563
  0
VERTEX
  8
0
 62
7
 10
40.10386255
 20
1.96988599
  0
VERTEX
  8
0
 62
7
 10
40.14458398
 20
1.98102148
  0
VERTEX
  8
0
 62
7
 10
40.18386108
 20
1.99380640
  0
VERTEX
  8
0
 62
7
 10
40.22162500
 20
2.00812500
  0
VERTEX
  8
0
 62
7
 10
40.25780688
 20
2.02386157
  0
VERTEX
  8
0
 62
7
 10
40.29233789
 20
2.04090039
  0
VERTEX
  8
0
 62
7
 10
40.32514917
 20
2.05912573
  0
VERTEX
  8
0
 62
7
 10
40.35617188
 20
2.07842188
  0
VERTEX
  8
0
 62
7
 10
40.38533716
 20
2.09867310
  0
VERTEX
  8
0
 62
7
 10
40.41257617
 20
2.11976367
  0
VERTEX
  8
0
 62
7
 10
40.43782007
 20
2.14157788
  0
VERTEX
  8
0
 62
7
 10
40.46100000
 20
2.16400000
  0
VERTEX
  8
0
 62
7
 10
40.49200977
 20
2.19820703
  0
VERTEX
  8
0
 62
7
 10
40.51839063
 20
2.23234375
  0
VERTEX
  8
0
 62
7
 10
40.54029492
 20
2.26605859
  0
VERTEX
  8
0
 62
7
 10
40.55787500
 20
2.29900000
  0
VERTEX
  8
0
 62
7
 10
40.57128320
 20
2.33081641
  0
VERTEX
  8
0
 62
7
 10
40.58067188
 20
2.36115625
  0
VERTEX
  8
0
 62
7
 10
40.58619336
 20
2.38966797
  0
VERTEX
  8
0
 62
7
 10
40.58800000
 20
2.41600000
  0
VERTEX
  8
0
 62
7
 10
40.58600000
 20
2.44600000
  0
VERTEX
  8
0
 62
7
 10
40.56229688
 20
2.43523438
  0
VERTEX
  8
0
 62
7
 10
40.53812500
 20
2.42812500
  0
VERTEX
  8
0
 62
7
 10
40.51414063
 20
2.42420313
  0
VERTEX
  8
0
 62
7
 10
40.49100000
 20
2.42300000
  0
VERTEX
  8
0
 62
7
 10
40.47268433
 20
2.42377808
  0
VERTEX
  8
0
 62
7
 10
40.45388086
 20
2.42613086
  0
VERTEX
  8
0
 62
7
 10
40.43480493
 20
2.43008618
  0
VERTEX
  8
0
 62
7
 10
40.41567188
 20
2.43567188
  0
VERTEX
  8
0
 62
7
 10
40.39669702
 20
2.44291577
  0
VERTEX
  8
0
 62
7
 10
40.37809570
 20
2.45184570
  0
VERTEX
  8
0
 62
7
 10
40.36008325
 20
2.46248950
  0
VERTEX
  8
0
 62
7
 10
40.34287500
 20
2.47487500
  0
VERTEX
  8
0
 62
7
 10
40.32668628
 20
2.48903003
  0
VERTEX
  8
0
 62
7
 10
40.31173242
 20
2.50498242
  0
VERTEX
  8
0
 62
7
 10
40.29822876
 20
2.52276001
  0
VERTEX
  8
0
 62
7
 10
40.28639063
 20
2.54239063
  0
VERTEX
  8
0
 62
7
 10
40.27643335
 20
2.56390210
  0
VERTEX
  8
0
 62
7
 10
40.26857227
 20
2.58732227
  0
VERTEX
  8
0
 62
7
 10
40.26302271
 20
2.61267896
  0
VERTEX
  8
0
 62
7
 10
40.26000000
 20
2.64000000
  0
VERTEX
  8
0
 62
7
 10
40.26000000
 20
2.66100000
  0
VERTEX
  8
0
 62
7
 10
40.26150439
 20
2.69300244
  0
VERTEX
  8
0
 62
7
 10
40.26589453
 20
2.72300391
  0
VERTEX
  8
0
 62
7
 10
40.27298584
 20
2.75099561
  0
VERTEX
  8
0
 62
7
 10
40.28259375
 20
2.77696875
  0
VERTEX
  8
0
 62
7
 10
40.29453369
 20
2.80091455
  0
VERTEX
  8
0
 62
7
 10
40.30862109
 20
2.82282422
  0
VERTEX
  8
0
 62
7
 10
40.32467139
 20
2.84268896
  0
VERTEX
  8
0
 62
7
 10
40.34250000
 20
2.86050000
  0
VERTEX
  8
0
 62
7
 10
40.36192236
 20
2.87624854
  0
VERTEX
  8
0
 62
7
 10
40.38275391
 20
2.88992578
  0
VERTEX
  8
0
 62
7
 10
40.40481006
 20
2.90152295
  0
VERTEX
  8
0
 62
7
 10
40.42790625
 20
2.91103125
  0
VERTEX
  8
0
 62
7
 10
40.45185791
 20
2.91844189
  0
VERTEX
  8
0
 62
7
 10
40.47648047
 20
2.92374609
  0
VERTEX
  8
0
 62
7
 10
40.50158936
 20
2.92693506
  0
VERTEX
  8
0
 62
7
 10
40.52700000
 20
2.92800000
  0
VERTEX
  8
0
 62
7
 10
40.56540430
 20
2.92575195
  0
VERTEX
  8
0
 62
7
 10
40.60379688
 20
2.91901563
  0
VERTEX
  8
0
 62
7
 10
40.64169727
 20
2.90780273
  0
VERTEX
  8
0
 62
7
 10
40.67862500
 20
2.89212500
  0
VERTEX
  8
0
 62
7
 10
40.71409961
 20
2.87199414
  0
VERTEX
  8
0
 62
7
 10
40.74764063
 20
2.84742188
  0
VERTEX
  8
0
 62
7
 10
40.77876758
 20
2.81841992
  0
VERTEX
  8
0
 62
7
 10
40.80700000
 20
2.78500000
  0
VERTEX
  8
0
 62
7
 10
40.83584766
 20
2.74451172
  0
VERTEX
  8
0
 62
7
 10
40.86153125
 20
2.70390625
  0
VERTEX
  8
0
 62
7
 10
40.88388672
 20
2.66297266
  0
VERTEX
  8
0
 62
7
 10
40.90275000
 20
2.62150000
  0
VERTEX
  8
0
 62
7
 10
40.91795703
 20
2.57927734
  0
VERTEX
  8
0
 62
7
 10
40.92934375
 20
2.53609375
  0
VERTEX
  8
0
 62
7
 10
40.93674609
 20
2.49173828
  0
VERTEX
  8
0
 62
7
 10
40.94000000
 20
2.44600000
  0
VERTEX
  8
0
 62
7
 10
40.94000000
 20
2.42200000
  0
VERTEX
  8
0
 62
7
 10
40.93805615
 20
2.36039404
  0
VERTEX
  8
0
 62
7
 10
40.93227734
 20
2.29979297
  0
VERTEX
  8
0
 62
7
 10
40.92274268
 20
2.24033447
  0
VERTEX
  8
0
 62
7
 10
40.90953125
 20
2.18215625
  0
VERTEX
  8
0
 62
7
 10
40.89272217
 20
2.12539600
  0
VERTEX
  8
0
 62
7
 10
40.87239453
 20
2.07019141
  0
VERTEX
  8
0
 62
7
 10
40.84862744
 20
2.01668018
  0
VERTEX
  8
0
 62
7
 10
40.82150000
 20
1.96500000
  0
VERTEX
  8
0
 62
7
 10
40.79109131
 20
1.91528857
  0
VERTEX
  8
0
 62
7
 10
40.75748047
 20
1.86768359
  0
VERTEX
  8
0
 62
7
 10
40.72074658
 20
1.82232275
  0
VERTEX
  8
0
 62
7
 10
40.68096875
 20
1.77934375
  0
VERTEX
  8
0
 62
7
 10
40.63822607
 20
1.73888428
  0
VERTEX
  8
0
 62
7
 10
40.59259766
 20
1.70108203
  0
VERTEX
  8
0
 62
7
 10
40.54416260
 20
1.66607471
  0
VERTEX
  8
0
 62
7
 10
40.49300000
 20
1.63400000
  0
VERTEX
  8
0
 62
7
 10
40.40402344
 20
1.58671875
  0
VERTEX
  8
0
 62
7
 10
40.31106250
 20
1.54543750
  0
VERTEX
  8
0
 62
7
 10
40.21519531
 20
1.51025000
  0
VERTEX
  8
0
 62
7
 10
40.11750000
 20
1.48125000
  0
VERTEX
  8
0
 62
7
 10
40.01905469
 20
1.45853125
  0
VERTEX
  8
0
 62
7
 10
39.92093750
 20
1.44218750
  0
VERTEX
  8
0
 62
7
 10
39.82422656
 20
1.43231250
  0
VERTEX
  8
0
 62
7
 10
39.73000000
 20
1.42900000
  0
VERTEX
  8
0
 62
7
 10
39.68090625
 20
1.42993750
  0
VERTEX
  8
0
 62
7
 10
39.63275000
 20
1.43275000
  0
VERTEX
  8
0
 62
7
 10
39.58571875
 20
1.43743750
  0
VERTEX
  8
0
 62
7
 10
39.54000000
 20
1.44400000
  0
VERTEX
  8
0
 62
7
 10
39.35405078
 20
1.47885156
  0
VERTEX
  8
0
 62
7
 10
39.16915625
 20
1.51675000
  0
VERTEX
  8
0
 62
7
 10
38.98562109
 20
1.55783594
  0
VERTEX
  8
0
 62
7
 10
38.80375000
 20
1.60225000
  0
VERTEX
  8
0
 62
7
 10
38.62384766
 20
1.65013281
  0
VERTEX
  8
0
 62
7
 10
38.44621875
 20
1.70162500
  0
VERTEX
  8
0
 62
7
 10
38.27116797
 20
1.75686719
  0
VERTEX
  8
0
 62
7
 10
38.09900000
 20
1.81600000
  0
VERTEX
  8
0
 62
7
 10
37.52300000
 20
2.02700000
  0
VERTEX
  8
0
 62
7
 10
37.22050000
 20
2.13900000
  0
VERTEX
  8
0
 62
7
 10
36.91500000
 20
2.24800000
  0
VERTEX
  8
0
 62
7
 10
36.85076563
 20
2.26692188
  0
VERTEX
  8
0
 62
7
 10
36.76562500
 20
2.28762500
  0
VERTEX
  8
0
 62
7
 10
36.68142188
 20
2.30551563
  0
VERTEX
  8
0
 62
7
 10
36.62000000
 20
2.31600000
  0
VERTEX
  8
0
 62
7
 10
36.58350000
 20
2.31912500
  0
VERTEX
  8
0
 62
7
 10
36.55000000
 20
2.32000000
  0
VERTEX
  8
0
 62
7
 10
36.51957422
 20
2.31906567
  0
VERTEX
  8
0
 62
7
 10
36.49128125
 20
2.31627539
  0
VERTEX
  8
0
 62
7
 10
36.46509766
 20
2.31164819
  0
VERTEX
  8
0
 62
7
 10
36.44100000
 20
2.30520313
  0
VERTEX
  8
0
 62
7
 10
36.41896484
 20
2.29695923
  0
VERTEX
  8
0
 62
7
 10
36.39896875
 20
2.28693555
  0
VERTEX
  8
0
 62
7
 10
36.38098828
 20
2.27515112
  0
VERTEX
  8
0
 62
7
 10
36.36500000
 20
2.26162500
  0
VERTEX
  8
0
 62
7
 10
36.35098047
 20
2.24637622
  0
VERTEX
  8
0
 62
7
 10
36.33890625
 20
2.22942383
  0
VERTEX
  8
0
 62
7
 10
36.32875391
 20
2.21078687
  0
VERTEX
  8
0
 62
7
 10
36.32050000
 20
2.19048438
  0
VERTEX
  8
0
 62
7
 10
36.31412109
 20
2.16853540
  0
VERTEX
  8
0
 62
7
 10
36.30959375
 20
2.14495898
  0
VERTEX
  8
0
 62
7
 10
36.30689453
 20
2.11977417
  0
VERTEX
  8
0
 62
7
 10
36.30600000
 20
2.09300000
  0
VERTEX
  8
0
 62
7
 10
36.30275391
 20
2.07035547
  0
VERTEX
  8
0
 62
7
 10
36.29371875
 20
2.05171875
  0
VERTEX
  8
0
 62
7
 10
36.27994922
 20
2.03678516
  0
VERTEX
  8
0
 62
7
 10
36.26250000
 20
2.02525000
  0
VERTEX
  8
0
 62
7
 10
36.24242578
 20
2.01680859
  0
VERTEX
  8
0
 62
7
 10
36.22078125
 20
2.01115625
  0
VERTEX
  8
0
 62
7
 10
36.19862109
 20
2.00798828
  0
VERTEX
  8
0
 62
7
 10
36.17700000
 20
2.00700000
  0
VERTEX
  8
0
 62
7
 10
22.18000000
 20
2.00700000
  0
VERTEX
  8
0
 62
7
 10
22.09000000
 20
2.00700000
  0
VERTEX
  8
0
 62
7
 10
21.75000000
 20
2.00700000
  0
VERTEX
  8
0
 62
7
 10
21.75000000
 20
7.68700000
  0
VERTEX
  8
0
 62
7
 10
22.09000000
 20
7.68700000
  0
VERTEX
  8
0
 62
7
 10
22.18000000
 20
7.68700000
  0
VERTEX
  8
0
 62
7
 10
35.32700000
 20
7.68700000
  0
SEQEND
  0
POLYLINE
  8
0
 62
7
 66
1
 70
1
  0
VERTEX
  8
0
 62
7
 10
39.23100000
 20
7.55400000
  0
VERTEX
  8
0
 62
7
 10
39.26249609
 20
7.61530078
  0
VERTEX
  8
0
 62
7
 10
39.29171875
 20
7.67765625
  0
VERTEX
  8
0
 62
7
 10
39.31864453
 20
7.74099609
  0
VERTEX
  8
0
 62
7
 10
39.34325000
 20
7.80525000
  0
VERTEX
  8
0
 62
7
 10
39.36551172
 20
7.87034766
  0
VERTEX
  8
0
 62
7
 10
39.38540625
 20
7.93621875
  0
VERTEX
  8
0
 62
7
 10
39.40291016
 20
8.00279297
  0
VERTEX
  8
0
 62
7
 10
39.41800000
 20
8.07000000
  0
VERTEX
  8
0
 62
7
 10
39.42969604
 20
8.13200684
  0
VERTEX
  8
0
 62
7
 10
39.43928711
 20
8.19424219
  0
VERTEX
  8
0
 62
7
 10
39.44677759
 20
8.25665332
  0
VERTEX
  8
0
 62
7
 10
39.45217188
 20
8.31918750
  0
VERTEX
  8
0
 62
7
 10
39.45547437
 20
8.38179199
  0
VERTEX
  8
0
 62
7
 10
39.45668945
 20
8.44441406
  0
VERTEX
  8
0
 62
7
 10
39.45582153
 20
8.50700098
  0
VERTEX
  8
0
 62
7
 10
39.45287500
 20
8.56950000
  0
VERTEX
  8
0
 62
7
 10
39.44785425
 20
8.63185840
  0
VERTEX
  8
0
 62
7
 10
39.44076367
 20
8.69402344
  0
VERTEX
  8
0
 62
7
 10
39.43160767
 20
8.75594238
  0
VERTEX
  8
0
 62
7
 10
39.42039063
 20
8.81756250
  0
VERTEX
  8
0
 62
7
 10
39.40711694
 20
8.87883105
  0
VERTEX
  8
0
 62
7
 10
39.39179102
 20
8.93969531
  0
VERTEX
  8
0
 62
7
 10
39.37441724
 20
9.00010254
  0
VERTEX
  8
0
 62
7
 10
39.35500000
 20
9.06000000
  0
VERTEX
  8
0
 62
7
 10
39.33025000
 20
8.96737500
  0
VERTEX
  8
0
 62
7
 10
39.29800000
 20
8.87700000
  0
VERTEX
  8
0
 62
7
 10
39.28009961
 20
8.83595117
  0
VERTEX
  8
0
 62
7
 10
39.26017188
 20
8.79610938
  0
VERTEX
  8
0
 62
7
 10
39.23825195
 20
8.75755664
  0
VERTEX
  8
0
 62
7
 10
39.21437500
 20
8.72037500
  0
VERTEX
  8
0
 62
7
 10
39.18857617
 20
8.68464648
  0
VERTEX
  8
0
 62
7
 10
39.16089063
 20
8.65045313
  0
VERTEX
  8
0
 62
7
 10
39.13135352
 20
8.61787695
  0
VERTEX
  8
0
 62
7
 10
39.10000000
 20
8.58700000
  0
VERTEX
  8
0
 62
7
 10
39.05471094
 20
8.54454102
  0
VERTEX
  8
0
 62
7
 10
39.00918750
 20
8.50176563
  0
VERTEX
  8
0
 62
7
 10
38.96394531
 20
8.45845117
  0
VERTEX
  8
0
 62
7
 10
38.91950000
 20
8.41437500
  0
VERTEX
  8
0
 62
7
 10
38.87636719
 20
8.36931445
  0
VERTEX
  8
0
 62
7
 10
38.83506250
 20
8.32304687
  0
VERTEX
  8
0
 62
7
 10
38.79610156
 20
8.27534961
  0
VERTEX
  8
0
 62
7
 10
38.76000000
 20
8.22600000
  0
VERTEX
  8
0
 62
7
 10
38.71390625
 20
8.16029688
  0
VERTEX
  8
0
 62
7
 10
38.66725000
 20
8.09487500
  0
VERTEX
  8
0
 62
7
 10
38.62246875
 20
8.02926563
  0
VERTEX
  8
0
 62
7
 10
38.58200000
 20
7.96300000
  0
VERTEX
  8
0
 62
7
 10
38.60315625
 20
7.92293750
  0
VERTEX
  8
0
 62
7
 10
38.61850000
 20
7.87950000
  0
VERTEX
  8
0
 62
7
 10
38.62784375
 20
7.83306250
  0
VERTEX
  8
0
 62
7
 10
38.63100000
 20
7.78400000
  0
VERTEX
  8
0
 62
7
 10
38.62844531
 20
7.74246094
  0
VERTEX
  8
0
 62
7
 10
38.62106250
 20
7.70781250
  0
VERTEX
  8
0
 62
7
 10
38.60927344
 20
7.67663281
  0
VERTEX
  8
0
 62
7
 10
38.59350000
 20
7.64550000
  0
VERTEX
  8
0
 62
7
 10
38.57416406
 20
7.61099219
  0
VERTEX
  8
0
 62
7
 10
38.55168750
 20
7.56968750
  0
VERTEX
  8
0
 62
7
 10
38.52649219
 20
7.51816406
  0
VERTEX
  8
0
 62
7
 10
38.49900000
 20
7.45300000
  0
VERTEX
  8
0
 62
7
 10
38.50136621
 20
7.45420142
  0
VERTEX
  8
0
 62
7
 10
38.50827344
 20
7.45759570
  0
VERTEX
  8
0
 62
7
 10
38.51943457
 20
7.46286792
  0
VERTEX
  8
0
 62
7
 10
38.53456250
 20
7.46970313
  0
VERTEX
  8
0
 62
7
 10
38.55337012
 20
7.47778638
  0
VERTEX
  8
0
 62
7
 10
38.57557031
 20
7.48680273
  0
VERTEX
  8
0
 62
7
 10
38.60087598
 20
7.49643726
  0
VERTEX
  8
0
 62
7
 10
38.62900000
 20
7.50637500
  0
VERTEX
  8
0
 62
7
 10
38.65965527
 20
7.51630103
  0
VERTEX
  8
0
 62
7
 10
38.69255469
 20
7.52590039
  0
VERTEX
  8
0
 62
7
 10
38.72741113
 20
7.53485815
  0
VERTEX
  8
0
 62
7
 10
38.76393750
 20
7.54285938
  0
VERTEX
  8
0
 62
7
 10
38.80184668
 20
7.54958911
  0
VERTEX
  8
0
 62
7
 10
38.84085156
 20
7.55473242
  0
VERTEX
  8
0
 62
7
 10
38.88066504
 20
7.55797437
  0
VERTEX
  8
0
 62
7
 10
38.92100000
 20
7.55900000
  0
VERTEX
  8
0
 62
7
 10
38.95600000
 20
7.55800000
  0
VERTEX
  8
0
 62
7
 10
39.00382813
 20
7.55356250
  0
VERTEX
  8
0
 62
7
 10
39.05737500
 20
7.54500000
  0
VERTEX
  8
0
 62
7
 10
39.11448438
 20
7.53268750
  0
VERTEX
  8
0
 62
7
 10
39.17300000
 20
7.51700000
  0
VERTEX
  8
0
 62
7
 10
39.17600000
 20
7.51900000
  0
VERTEX
  8
0
 62
7
 10
39.23100000
 20
7.55400000
  0
SEQEND
  0
POLYLINE
  8
0
 62
7
 66
1
 70
1
  0
VERTEX
  8
0
 62
7
 10
37.97000000
 20
5.39100000
  0
VERTEX
  8
0
 62
7
 10
37.91800000
 20
5.32975000
  0
VERTEX
  8
0
 62
7
 10
37.87500000
 20
5.26700000
  0
VERTEX
  8
0
 62
7
 10
37.87054053
 20
5.25096484
  0
VERTEX
  8
0
 62
7
 10
37.86454297
 20
5.21606250
  0
VERTEX
  8
0
 62
7
 10
37.85739111
 20
5.16409766
  0
VERTEX
  8
0
 62
7
 10
37.84946875
 20
5.09687500
  0
VERTEX
  8
0
 62
7
 10
37.84115967
 20
5.01619922
  0
VERTEX
  8
0
 62
7
 10
37.83284766
 20
4.92387500
  0
VERTEX
  8
0
 62
7
 10
37.82491650
 20
4.82170703
  0
VERTEX
  8
0
 62
7
 10
37.81775000
 20
4.71150000
  0
VERTEX
  8
0
 62
7
 10
37.81173193
 20
4.59505859
  0
VERTEX
  8
0
 62
7
 10
37.80724609
 20
4.47418750
  0
VERTEX
  8
0
 62
7
 10
37.80467627
 20
4.35069141
  0
VERTEX
  8
0
 62
7
 10
37.80440625
 20
4.22637500
  0
VERTEX
  8
0
 62
7
 10
37.80681982
 20
4.10304297
  0
VERTEX
  8
0
 62
7
 10
37.81230078
 20
3.98250000
  0
VERTEX
  8
0
 62
7
 10
37.82123291
 20
3.86655078
  0
VERTEX
  8
0
 62
7
 10
37.83400000
 20
3.75700000
  0
VERTEX
  8
0
 62
7
 10
37.84759839
 20
3.67014697
  0
VERTEX
  8
0
 62
7
 10
37.86361523
 20
3.58436328
  0
VERTEX
  8
0
 62
7
 10
37.88200806
 20
3.49968701
  0
VERTEX
  8
0
 62
7
 10
37.90273438
 20
3.41615625
  0
VERTEX
  8
0
 62
7
 10
37.92575171
 20
3.33380908
  0
VERTEX
  8
0
 62
7
 10
37.95101758
 20
3.25268359
  0
VERTEX
  8
0
 62
7
 10
37.97848950
 20
3.17281787
  0
VERTEX
  8
0
 62
7
 10
38.00812500
 20
3.09425000
  0
VERTEX
  8
0
 62
7
 10
38.03988159
 20
3.01701807
  0
VERTEX
  8
0
 62
7
 10
38.07371680
 20
2.94116016
  0
VERTEX
  8
0
 62
7
 10
38.10958813
 20
2.86671436
  0
VERTEX
  8
0
 62
7
 10
38.14745313
 20
2.79371875
  0
VERTEX
  8
0
 62
7
 10
38.18726929
 20
2.72221143
  0
VERTEX
  8
0
 62
7
 10
38.22899414
 20
2.65223047
  0
VERTEX
  8
0
 62
7
 10
38.27258521
 20
2.58381396
  0
VERTEX
  8
0
 62
7
 10
38.31800000
 20
2.51700000
  0
VERTEX
  8
0
 62
7
 10
38.26700000
 20
2.47700000
  0
VERTEX
  8
0
 62
7
 10
38.20926880
 20
2.54179736
  0
VERTEX
  8
0
 62
7
 10
38.15549414
 20
2.61001953
  0
VERTEX
  8
0
 62
7
 10
38.10536694
 20
2.68141162
  0
VERTEX
  8
0
 62
7
 10
38.05857813
 20
2.75571875
  0
VERTEX
  8
0
 62
7
 10
38.01481860
 20
2.83268604
  0
VERTEX
  8
0
 62
7
 10
37.97377930
 20
2.91205859
  0
VERTEX
  8
0
 62
7
 10
37.93515112
 20
2.99358154
  0
VERTEX
  8
0
 62
7
 10
37.89862500
 20
3.07700000
  0
VERTEX
  8
0
 62
7
 10
37.86389185
 20
3.16205908
  0
VERTEX
  8
0
 62
7
 10
37.83064258
 20
3.24850391
  0
VERTEX
  8
0
 62
7
 10
37.79856812
 20
3.33607959
  0
VERTEX
  8
0
 62
7
 10
37.76735938
 20
3.42453125
  0
VERTEX
  8
0
 62
7
 10
37.73670728
 20
3.51360400
  0
VERTEX
  8
0
 62
7
 10
37.70630273
 20
3.60304297
  0
VERTEX
  8
0
 62
7
 10
37.67583667
 20
3.69259326
  0
VERTEX
  8
0
 62
7
 10
37.64500000
 20
3.78200000
  0
VERTEX
  8
0
 62
7
 10
37.60720776
 20
3.89472754
  0
VERTEX
  8
0
 62
7
 10
37.56934961
 20
4.01519531
  0
VERTEX
  8
0
 62
7
 10
37.53164087
 20
4.14195605
  0
VERTEX
  8
0
 62
7
 10
37.49429688
 20
4.27356250
  0
VERTEX
  8
0
 62
7
 10
37.45753296
 20
4.40856738
  0
VERTEX
  8
0
 62
7
 10
37.42156445
 20
4.54552344
  0
VERTEX
  8
0
 62
7
 10
37.38660669
 20
4.68298340
  0
VERTEX
  8
0
 62
7
 10
37.35287500
 20
4.81950000
  0
VERTEX
  8
0
 62
7
 10
37.32058472
 20
4.95362598
  0
VERTEX
  8
0
 62
7
 10
37.28995117
 20
5.08391406
  0
VERTEX
  8
0
 62
7
 10
37.26118970
 20
5.20891699
  0
VERTEX
  8
0
 62
7
 10
37.23451563
 20
5.32718750
  0
VERTEX
  8
0
 62
7
 10
37.21014429
 20
5.43727832
  0
VERTEX
  8
0
 62
7
 10
37.18829102
 20
5.53774219
  0
VERTEX
  8
0
 62
7
 10
37.16917114
 20
5.62713184
  0
VERTEX
  8
0
 62
7
 10
37.15300000
 20
5.70400000
  0
VERTEX
  8
0
 62
7
 10
37.15000000
 20
5.72300000
  0
VERTEX
  8
0
 62
7
 10
37.07700000
 20
5.71312500
  0
VERTEX
  8
0
 62
7
 10
37.00400000
 20
5.71000000
  0
VERTEX
  8
0
 62
7
 10
36.92775000
 20
5.71356250
  0
VERTEX
  8
0
 62
7
 10
36.85225000
 20
5.72425000
  0
VERTEX
  8
0
 62
7
 10
36.77787500
 20
5.74206250
  0
VERTEX
  8
0
 62
7
 10
36.70500000
 20
5.76700000
  0
VERTEX
  8
0
 62
7
 10
36.68034766
 20
5.78151758
  0
VERTEX
  8
0
 62
7
 10
36.66265625
 20
5.80139063
  0
VERTEX
  8
0
 62
7
 10
36.65194922
 20
5.82484961
  0
VERTEX
  8
0
 62
7
 10
36.64825000
 20
5.85012500
  0
VERTEX
  8
0
 62
7
 10
36.65158203
 20
5.87544727
  0
VERTEX
  8
0
 62
7
 10
36.66196875
 20
5.89904688
  0
VERTEX
  8
0
 62
7
 10
36.67943359
 20
5.91915430
  0
VERTEX
  8
0
 62
7
 10
36.70400000
 20
5.93400000
  0
VERTEX
  8
0
 62
7
 10
36.72015039
 20
5.94210156
  0
VERTEX
  8
0
 62
7
 10
36.73570313
 20
5.95287500
  0
VERTEX
  8
0
 62
7
 10
36.75081055
 20
5.96627344
  0
VERTEX
  8
0
 62
7
 10
36.76562500
 20
5.98225000
  0
VERTEX
  8
0
 62
7
 10
36.78029883
 20
6.00075781
  0
VERTEX
  8
0
 62
7
 10
36.79498438
 20
6.02175000
  0
VERTEX
  8
0
 62
7
 10
36.80983398
 20
6.04517969
  0
VERTEX
  8
0
 62
7
 10
36.82500000
 20
6.07100000
  0
VERTEX
  8
0
 62
7
 10
36.83821875
 20
6.09951563
  0
VERTEX
  8
0
 62
7
 10
36.84750000
 20
6.13187500
  0
VERTEX
  8
0
 62
7
 10
36.85453125
 20
6.16929688
  0
VERTEX
  8
0
 62
7
 10
36.86100000
 20
6.21300000
  0
VERTEX
  8
0
 62
7
 10
36.86639063
 20
6.25503125
  0
VERTEX
  8
0
 62
7
 10
36.87487500
 20
6.30175000
  0
VERTEX
  8
0
 62
7
 10
36.88842188
 20
6.35109375
  0
VERTEX
  8
0
 62
7
 10
36.90900000
 20
6.40100000
  0
VERTEX
  8
0
 62
7
 10
36.92929688
 20
6.43623438
  0
VERTEX
  8
0
 62
7
 10
36.95362500
 20
6.46837500
  0
VERTEX
  8
0
 62
7
 10
36.98114063
 20
6.49732813
  0
VERTEX
  8
0
 62
7
 10
37.01100000
 20
6.52300000
  0
VERTEX
  8
0
 62
7
 10
37.00000000
 20
6.58200000
  0
VERTEX
  8
0
 62
7
 10
36.96573438
 20
6.64426563
  0
VERTEX
  8
0
 62
7
 10
36.93812500
 20
6.71037500
  0
VERTEX
  8
0
 62
7
 10
36.91745313
 20
6.77929688
  0
VERTEX
  8
0
 62
7
 10
36.90400000
 20
6.85000000
  0
VERTEX
  8
0
 62
7
 10
36.89711646
 20
6.88402637
  0
VERTEX
  8
0
 62
7
 10
36.88615039
 20
6.91671094
  0
VERTEX
  8
0
 62
7
 10
36.87156616
 20
6.94802441
  0
VERTEX
  8
0
 62
7
 10
36.85382813
 20
6.97793750
  0
VERTEX
  8
0
 62
7
 10
36.83340063
 20
7.00642090
  0
VERTEX
  8
0
 62
7
 10
36.81074805
 20
7.03344531
  0
VERTEX
  8
0
 62
7
 10
36.78633472
 20
7.05898145
  0
VERTEX
  8
0
 62
7
 10
36.76062500
 20
7.08300000
  0
VERTEX
  8
0
 62
7
 10
36.73408325
 20
7.10547168
  0
VERTEX
  8
0
 62
7
 10
36.70717383
 20
7.12636719
  0
VERTEX
  8
0
 62
7
 10
36.68036108
 20
7.14565723
  0
VERTEX
  8
0
 62
7
 10
36.65410938
 20
7.16331250
  0
VERTEX
  8
0
 62
7
 10
36.62888306
 20
7.17930371
  0
VERTEX
  8
0
 62
7
 10
36.60514648
 20
7.19360156
  0
VERTEX
  8
0
 62
7
 10
36.58336401
 20
7.20617676
  0
VERTEX
  8
0
 62
7
 10
36.56400000
 20
7.21700000
  0
VERTEX
  8
0
 62
7
 10
36.54200000
 20
7.23000000
  0
VERTEX
  8
0
 62
7
 10
36.52800000
 20
7.23900000
  0
VERTEX
  8
0
 62
7
 10
36.51200000
 20
7.25500000
  0
VERTEX
  8
0
 62
7
 10
36.50437500
 20
7.26612500
  0
VERTEX
  8
0
 62
7
 10
36.49600000
 20
7.28400000
  0
VERTEX
  8
0
 62
7
 10
36.49287500
 20
7.29846875
  0
VERTEX
  8
0
 62
7
 10
36.49200000
 20
7.31575000
  0
VERTEX
  8
0
 62
7
 10
36.49487500
 20
7.33490625
  0
VERTEX
  8
0
 62
7
 10
36.50300000
 20
7.35500000
  0
VERTEX
  8
0
 62
7
 10
36.52428125
 20
7.38390625
  0
VERTEX
  8
0
 62
7
 10
36.55100000
 20
7.40775000
  0
VERTEX
  8
0
 62
7
 10
36.57921875
 20
7.42671875
  0
VERTEX
  8
0
 62
7
 10
36.60500000
 20
7.44100000
  0
VERTEX
  8
0
 62
7
 10
36.67025000
 20
7.47075000
  0
VERTEX
  8
0
 62
7
 10
36.74600000
 20
7.49900000
  0
VERTEX
  8
0
 62
7
 10
36.73100000
 20
7.53100000
  0
VERTEX
  8
0
 62
7
 10
36.70819336
 20
7.57550732
  0
VERTEX
  8
0
 62
7
 10
36.68237500
 20
7.61790234
  0
VERTEX
  8
0
 62
7
 10
36.65388477
 20
7.65818213
  0
VERTEX
  8
0
 62
7
 10
36.62306250
 20
7.69634375
  0
VERTEX
  8
0
 62
7
 10
36.59024805
 20
7.73238428
  0
VERTEX
  8
0
 62
7
 10
36.55578125
 20
7.76630078
  0
VERTEX
  8
0
 62
7
 10
36.52000195
 20
7.79809033
  0
VERTEX
  8
0
 62
7
 10
36.48325000
 20
7.82775000
  0
VERTEX
  8
0
 62
7
 10
36.44586523
 20
7.85527686
  0
VERTEX
  8
0
 62
7
 10
36.40818750
 20
7.88066797
  0
VERTEX
  8
0
 62
7
 10
36.37055664
 20
7.90392041
  0
VERTEX
  8
0
 62
7
 10
36.33331250
 20
7.92503125
  0
VERTEX
  8
0
 62
7
 10
36.29679492
 20
7.94399756
  0
VERTEX
  8
0
 62
7
 10
36.26134375
 20
7.96081641
  0
VERTEX
  8
0
 62
7
 10
36.22729883
 20
7.97548486
  0
VERTEX
  8
0
 62
7
 10
36.19500000
 20
7.98800000
  0
VERTEX
  8
0
 62
7
 10
36.15639063
 20
8.00013477
  0
VERTEX
  8
0
 62
7
 10
36.11543750
 20
8.00970313
  0
VERTEX
  8
0
 62
7
 10
36.07307813
 20
8.01695117
  0
VERTEX
  8
0
 62
7
 10
36.03025000
 20
8.02212500
  0
VERTEX
  8
0
 62
7
 10
35.98789063
 20
8.02547070
  0
VERTEX
  8
0
 62
7
 10
35.94693750
 20
8.02723438
  0
VERTEX
  8
0
 62
7
 10
35.90832813
 20
8.02766211
  0
VERTEX
  8
0
 62
7
 10
35.87300000
 20
8.02700000
  0
VERTEX
  8
0
 62
7
 10
35.81661523
 20
8.02404102
  0
VERTEX
  8
0
 62
7
 10
35.75773438
 20
8.01870313
  0
VERTEX
  8
0
 62
7
 10
35.69751758
 20
8.01066992
  0
VERTEX
  8
0
 62
7
 10
35.63712500
 20
7.99962500
  0
VERTEX
  8
0
 62
7
 10
35.57771680
 20
7.98525195
  0
VERTEX
  8
0
 62
7
 10
35.52045313
 20
7.96723438
  0
VERTEX
  8
0
 62
7
 10
35.46649414
 20
7.94525586
  0
VERTEX
  8
0
 62
7
 10
35.41700000
 20
7.91900000
  0
VERTEX
  8
0
 62
7
 10
35.40298438
 20
7.90682813
  0
VERTEX
  8
0
 62
7
 10
35.39112500
 20
7.89287500
  0
VERTEX
  8
0
 62
7
 10
35.38170313
 20
7.87723438
  0
VERTEX
  8
0
 62
7
 10
35.37500000
 20
7.86000000
  0
VERTEX
  8
0
 62
7
 10
35.37212500
 20
7.84650391
  0
VERTEX
  8
0
 62
7
 10
35.37150000
 20
7.83303125
  0
VERTEX
  8
0
 62
7
 10
35.37275000
 20
7.81960547
  0
VERTEX
  8
0
 62
7
 10
35.37550000
 20
7.80625000
  0
VERTEX
  8
0
 62
7
 10
35.37937500
 20
7.79298828
  0
VERTEX
  8
0
 62
7
 10
35.38400000
 20
7.77984375
  0
VERTEX
  8
0
 62
7
 10
35.38900000
 20
7.76683984
  0
VERTEX
  8
0
 62
7
 10
35.39400000
 20
7.75400000
  0
VERTEX
  8
0
 62
7
 10
35.43000000
 20
7.68600000
  0
VERTEX
  8
0
 62
7
 10
35.44073438
 20
7.65804688
  0
VERTEX
  8
0
 62
7
 10
35.44987500
 20
7.62962500
  0
VERTEX
  8
0
 62
7
 10
35.45657813
 20
7.60064063
  0
VERTEX
  8
0
 62
7
 10
35.46000000
 20
7.57100000
  0
VERTEX
  8
0
 62
7
 10
35.45300000
 20
7.48900000
  0
VERTEX
  8
0
 62
7
 10
35.45160938
 20
7.44987500
  0
VERTEX
  8
0
 62
7
 10
35.45162500
 20
7.41075000
  0
VERTEX
  8
0
 62
7
 10
35.45482813
 20
7.37200000
  0
VERTEX
  8
0
 62
7
 10
35.46300000
 20
7.33400000
  0
VERTEX
  8
0
 62
7
 10
35.47159375
 20
7.30814063
  0
VERTEX
  8
0
 62
7
 10
35.48225000
 20
7.28312500
  0
VERTEX
  8
0
 62
7
 10
35.49478125
 20
7.25904688
  0
VERTEX
  8
0
 62
7
 10
35.50900000
 20
7.23600000
  0
VERTEX
  8
0
 62
7
 10
35.51212695
 20
7.26010938
  0
VERTEX
  8
0
 62
7
 10
35.51770313
 20
7.28356250
  0
VERTEX
  8
0
 62
7
 10
35.52564648
 20
7.30617188
  0
VERTEX
  8
0
 62
7
 10
35.53587500
 20
7.32775000
  0
VERTEX
  8
0
 62
7
 10
35.54830664
 20
7.34810938
  0
VERTEX
  8
0
 62
7
 10
35.56285938
 20
7.36706250
  0
VERTEX
  8
0
 62
7
 10
35.57945117
 20
7.38442188
  0
VERTEX
  8
0
 62
7
 10
35.59800000
 20
7.40000000
  0
VERTEX
  8
0
 62
7
 10
35.62714063
 20
7.41829688
  0
VERTEX
  8
0
 62
7
 10
35.65862500
 20
7.43162500
  0
VERTEX
  8
0
 62
7
 10
35.69179688
 20
7.44064063
  0
VERTEX
  8
0
 62
7
 10
35.72600000
 20
7.44600000
  0
VERTEX
  8
0
 62
7
 10
35.76261328
 20
7.44721289
  0
VERTEX
  8
0
 62
7
 10
35.80328125
 20
7.44314063
  0
VERTEX
  8
0
 62
7
 10
35.84662109
 20
7.43346680
  0
VERTEX
  8
0
 62
7
 10
35.89125000
 20
7.41787500
  0
VERTEX
  8
0
 62
7
 10
35.93578516
 20
7.39604883
  0
VERTEX
  8
0
 62
7
 10
35.97884375
 20
7.36767188
  0
VERTEX
  8
0
 62
7
 10
36.01904297
 20
7.33242773
  0
VERTEX
  8
0
 62
7
 10
36.05500000
 20
7.29000000
  0
VERTEX
  8
0
 62
7
 10
36.07818726
 20
7.25487939
  0
VERTEX
  8
0
 62
7
 10
36.10052930
 20
7.21533203
  0
VERTEX
  8
0
 62
7
 10
36.12207153
 20
7.17164209
  0
VERTEX
  8
0
 62
7
 10
36.14285938
 20
7.12409375
  0
VERTEX
  8
0
 62
7
 10
36.16293823
 20
7.07297119
  0
VERTEX
  8
0
 62
7
 10
36.18235352
 20
7.01855859
  0
VERTEX
  8
0
 62
7
 10
36.20115063
 20
6.96114014
  0
VERTEX
  8
0
 62
7
 10
36.21937500
 20
6.90100000
  0
VERTEX
  8
0
 62
7
 10
36.23707202
 20
6.83842236
  0
VERTEX
  8
0
 62
7
 10
36.25428711
 20
6.77369141
  0
VERTEX
  8
0
 62
7
 10
36.27106567
 20
6.70709131
  0
VERTEX
  8
0
 62
7
 10
36.28745313
 20
6.63890625
  0
VERTEX
  8
0
 62
7
 10
36.30349487
 20
6.56942041
  0
VERTEX
  8
0
 62
7
 10
36.31923633
 20
6.49891797
  0
VERTEX
  8
0
 62
7
 10
36.33472290
 20
6.42768311
  0
VERTEX
  8
0
 62
7
 10
36.35000000
 20
6.35600000
  0
VERTEX
  8
0
 62
7
 10
36.39859375
 20
6.13146875
  0
VERTEX
  8
0
 62
7
 10
36.44850000
 20
5.91125000
  0
VERTEX
  8
0
 62
7
 10
36.50215625
 20
5.69365625
  0
VERTEX
  8
0
 62
7
 10
36.56200000
 20
5.47700000
  0
VERTEX
  8
0
 62
7
 10
36.63678125
 20
5.22692188
  0
VERTEX
  8
0
 62
7
 10
36.72225000
 20
4.94862500
  0
VERTEX
  8
0
 62
7
 10
36.81484375
 20
4.65476563
  0
VERTEX
  8
0
 62
7
 10
36.91100000
 20
4.35800000
  0
VERTEX
  8
0
 62
7
 10
36.96715039
 20
4.19228320
  0
VERTEX
  8
0
 62
7
 10
37.02514063
 20
4.02920313
  0
VERTEX
  8
0
 62
7
 10
37.08465430
 20
3.87036523
  0
VERTEX
  8
0
 62
7
 10
37.14537500
 20
3.71737500
  0
VERTEX
  8
0
 62
7
 10
37.20698633
 20
3.57183789
  0
VERTEX
  8
0
 62
7
 10
37.26917188
 20
3.43535938
  0
VERTEX
  8
0
 62
7
 10
37.33161523
 20
3.30954492
  0
VERTEX
  8
0
 62
7
 10
37.39400000
 20
3.19600000
  0
VERTEX
  8
0
 62
7
 10
37.45023828
 20
3.10033789
  0
VERTEX
  8
0
 62
7
 10
37.50621875
 20
3.00764063
  0
VERTEX
  8
0
 62
7
 10
37.56271484
 20
2.91796680
  0
VERTEX
  8
0
 62
7
 10
37.62050000
 20
2.83137500
  0
VERTEX
  8
0
 62
7
 10
37.68034766
 20
2.74792383
  0
VERTEX
  8
0
 62
7
 10
37.74303125
 20
2.66767188
  0
VERTEX
  8
0
 62
7
 10
37.80932422
 20
2.59067773
  0
VERTEX
  8
0
 62
7
 10
37.88000000
 20
2.51700000
  0
VERTEX
  8
0
 62
7
 10
37.95555664
 20
2.44421875
  0
VERTEX
  8
0
 62
7
 10
38.03220313
 20
2.37575000
  0
VERTEX
  8
0
 62
7
 10
38.10990430
 20
2.31140625
  0
VERTEX
  8
0
 62
7
 10
38.18862500
 20
2.25100000
  0
VERTEX
  8
0
 62
7
 10
38.26833008
 20
2.19434375
  0
VERTEX
  8
0
 62
7
 10
38.34898438
 20
2.14125000
  0
VERTEX
  8
0
 62
7
 10
38.43055273
 20
2.09153125
  0
VERTEX
  8
0
 62
7
 10
38.51300000
 20
2.04500000
  0
VERTEX
  8
0
 62
7
 10
38.61635352
 20
1.99243750
  0
VERTEX
  8
0
 62
7
 10
38.71339063
 20
1.94850000
  0
VERTEX
  8
0
 62
7
 10
38.80182617
 20
1.91281250
  0
VERTEX
  8
0
 62
7
 10
38.87937500
 20
1.88500000
  0
VERTEX
  8
0
 62
7
 10
38.94375195
 20
1.86468750
  0
VERTEX
  8
0
 62
7
 10
38.99267188
 20
1.85150000
  0
VERTEX
  8
0
 62
7
 10
39.02384961
 20
1.84506250
  0
VERTEX
  8
0
 62
7
 10
39.03500000
 20
1.84500000
  0
VERTEX
  8
0
 62
7
 10
39.02800000
 20
1.78900000
  0
VERTEX
  8
0
 62
7
 10
38.93053906
 20
1.81940234
  0
VERTEX
  8
0
 62
7
 10
38.83645313
 20
1.85071875
  0
VERTEX
  8
0
 62
7
 10
38.74562500
 20
1.88311328
  0
VERTEX
  8
0
 62
7
 10
38.65793750
 20
1.91675000
  0
VERTEX
  8
0
 62
7
 10
38.57327344
 20
1.95179297
  0
VERTEX
  8
0
 62
7
 10
38.49151563
 20
1.98840625
  0
VERTEX
  8
0
 62
7
 10
38.41254688
 20
2.02675391
  0
VERTEX
  8
0
 62
7
 10
38.33625000
 20
2.06700000
  0
VERTEX
  8
0
 62
7
 10
38.26250781
 20
2.10930859
  0
VERTEX
  8
0
 62
7
 10
38.19120313
 20
2.15384375
  0
VERTEX
  8
0
 62
7
 10
38.12221875
 20
2.20076953
  0
VERTEX
  8
0
 62
7
 10
38.05543750
 20
2.25025000
  0
VERTEX
  8
0
 62
7
 10
37.99074219
 20
2.30244922
  0
VERTEX
  8
0
 62
7
 10
37.92801563
 20
2.35753125
  0
VERTEX
  8
0
 62
7
 10
37.86714063
 20
2.41566016
  0
VERTEX
  8
0
 62
7
 10
37.80800000
 20
2.47700000
  0
VERTEX
  8
0
 62
7
 10
37.74778125
 20
2.53862500
  0
VERTEX
  8
0
 62
7
 10
37.68625000
 20
2.60400000
  0
VERTEX
  8
0
 62
7
 10
37.62659375
 20
2.67387500
  0
VERTEX
  8
0
 62
7
 10
37.57200000
 20
2.74900000
  0
VERTEX
  8
0
 62
7
 10
37.51597266
 20
2.77639063
  0
VERTEX
  8
0
 62
7
 10
37.44965625
 20
2.80912500
  0
VERTEX
  8
0
 62
7
 10
37.37607422
 20
2.84504688
  0
VERTEX
  8
0
 62
7
 10
37.29825000
 20
2.88200000
  0
VERTEX
  8
0
 62
7
 10
37.21920703
 20
2.91782813
  0
VERTEX
  8
0
 62
7
 10
37.14196875
 20
2.95037500
  0
VERTEX
  8
0
 62
7
 10
37.06955859
 20
2.97748438
  0
VERTEX
  8
0
 62
7
 10
37.00500000
 20
2.99700000
  0
VERTEX
  8
0
 62
7
 10
36.95632056
 20
3.00701367
  0
VERTEX
  8
0
 62
7
 10
36.90712695
 20
3.01598438
  0
VERTEX
  8
0
 62
7
 10
36.85756128
 20
3.02380664
  0
VERTEX
  8
0
 62
7
 10
36.80776563
 20
3.03037500
  0
VERTEX
  8
0
 62
7
 10
36.75788208
 20
3.03558398
  0
VERTEX
  8
0
 62
7
 10
36.70805273
 20
3.03932813
  0
VERTEX
  8
0
 62
7
 10
36.65841968
 20
3.04150195
  0
VERTEX
  8
0
 62
7
 10
36.60912500
 20
3.04200000
  0
VERTEX
  8
0
 62
7
 10
36.56031079
 20
3.04071680
  0
VERTEX
  8
0
 62
7
 10
36.51211914
 20
3.03754688
  0
VERTEX
  8
0
 62
7
 10
36.46469214
 20
3.03238477
  0
VERTEX
  8
0
 62
7
 10
36.41817188
 20
3.02512500
  0
VERTEX
  8
0
 62
7
 10
36.37270044
 20
3.01566211
  0
VERTEX
  8
0
 62
7
 10
36.32841992
 20
3.00389063
  0
VERTEX
  8
0
 62
7
 10
36.28547241
 20
2.98970508
  0
VERTEX
  8
0
 62
7
 10
36.24400000
 20
2.97300000
  0
VERTEX
  8
0
 62
7
 10
36.19768945
 20
2.95166797
  0
VERTEX
  8
0
 62
7
 10
36.15312500
 20
2.92684375
  0
VERTEX
  8
0
 62
7
 10
36.11066992
 20
2.89878516
  0
VERTEX
  8
0
 62
7
 10
36.07068750
 20
2.86775000
  0
VERTEX
  8
0
 62
7
 10
36.03354102
 20
2.83399609
  0
VERTEX
  8
0
 62
7
 10
35.99959375
 20
2.79778125
  0
VERTEX
  8
0
 62
7
 10
35.96920898
 20
2.75936328
  0
VERTEX
  8
0
 62
7
 10
35.94275000
 20
2.71900000
  0
VERTEX
  8
0
 62
7
 10
35.92058008
 20
2.67694922
  0
VERTEX
  8
0
 62
7
 10
35.90306250
 20
2.63346875
  0
VERTEX
  8
0
 62
7
 10
35.89056055
 20
2.58881641
  0
VERTEX
  8
0
 62
7
 10
35.88343750
 20
2.54325000
  0
VERTEX
  8
0
 62
7
 10
35.88205664
 20
2.49702734
  0
VERTEX
  8
0
 62
7
 10
35.88678125
 20
2.45040625
  0
VERTEX
  8
0
 62
7
 10
35.89797461
 20
2.40364453
  0
VERTEX
  8
0
 62
7
 10
35.91600000
 20
2.35700000
  0
VERTEX
  8
0
 62
7
 10
35.93387109
 20
2.32107617
  0
VERTEX
  8
0
 62
7
 10
35.95415625
 20
2.28823438
  0
VERTEX
  8
0
 62
7
 10
35.97636328
 20
2.25836914
  0
VERTEX
  8
0
 62
7
 10
36.00000000
 20
2.23137500
  0
VERTEX
  8
0
 62
7
 10
36.02457422
 20
2.20714648
  0
VERTEX
  8
0
 62
7
 10
36.04959375
 20
2.18557813
  0
VERTEX
  8
0
 62
7
 10
36.07456641
 20
2.16656445
  0
VERTEX
  8
0
 62
7
 10
36.09900000
 20
2.15000000
  0
VERTEX
  8
0
 62
7
 10
36.12240234
 20
2.13577930
  0
VERTEX
  8
0
 62
7
 10
36.14428125
 20
2.12379688
  0
VERTEX
  8
0
 62
7
 10
36.16414453
 20
2.11394727
  0
VERTEX
  8
0
 62
7
 10
36.18150000
 20
2.10612500
  0
VERTEX
  8
0
 62
7
 10
36.19585547
 20
2.10022461
  0
VERTEX
  8
0
 62
7
 10
36.20671875
 20
2.09614063
  0
VERTEX
  8
0
 62
7
 10
36.21359766
 20
2.09376758
  0
VERTEX
  8
0
 62
7
 10
36.21600000
 20
2.09300000
  0
VERTEX
  8
0
 62
7
 10
36.21776025
 20
2.13376953
  0
VERTEX
  8
0
 62
7
 10
36.22300391
 20
2.17203125
  0
VERTEX
  8
0
 62
7
 10
36.23167529
 20
2.20771484
  0
VERTEX
  8
0
 62
7
 10
36.24371875
 20
2.24075000
  0
VERTEX
  8
0
 62
7
 10
36.25907861
 20
2.27106641
  0
VERTEX
  8
0
 62
7
 10
36.27769922
 20
2.29859375
  0
VERTEX
  8
0
 62
7
 10
36.29952490
 20
2.32326172
  0
VERTEX
  8
0
 62
7
 10
36.32450000
 20
2.34500000
  0
VERTEX
  8
0
 62
7
 10
36.35256885
 20
2.36373828
  0
VERTEX
  8
0
 62
7
 10
36.38367578
 20
2.37940625
  0
VERTEX
  8
0
 62
7
 10
36.41776514
 20
2.39193359
  0
VERTEX
  8
0
 62
7
 10
36.45478125
 20
2.40125000
  0
VERTEX
  8
0
 62
7
 10
36.49466846
 20
2.40728516
  0
VERTEX
  8
0
 62
7
 10
36.53737109
 20
2.40996875
  0
VERTEX
  8
0
 62
7
 10
36.58283350
 20
2.40923047
  0
VERTEX
  8
0
 62
7
 10
36.63100000
 20
2.40500000
  0
VERTEX
  8
0
 62
7
 10
36.69651563
 20
2.39375000
  0
VERTEX
  8
0
 62
7
 10
36.78537500
 20
2.37500000
  0
VERTEX
  8
0
 62
7
 10
36.87554688
 20
2.35325000
  0
VERTEX
  8
0
 62
7
 10
36.94500000
 20
2.33300000
  0
VERTEX
  8
0
 62
7
 10
37.08844727
 20
2.28162500
  0
VERTEX
  8
0
 62
7
 10
37.22801563
 20
2.22950000
  0
VERTEX
  8
0
 62
7
 10
37.36629492
 20
2.17662500
  0
VERTEX
  8
0
 62
7
 10
37.50587500
 20
2.12300000
  0
VERTEX
  8
0
 62
7
 10
37.64934570
 20
2.06862500
  0
VERTEX
  8
0
 62
7
 10
37.79929688
 20
2.01350000
  0
VERTEX
  8
0
 62
7
 10
37.95831836
 20
1.95762500
  0
VERTEX
  8
0
 62
7
 10
38.12900000
 20
1.90100000
  0
VERTEX
  8
0
 62
7
 10
38.29753125
 20
1.83826563
  0
VERTEX
  8
0
 62
7
 10
38.46981250
 20
1.78162500
  0
VERTEX
  8
0
 62
7
 10
38.64537500
 20
1.73042188
  0
VERTEX
  8
0
 62
7
 10
38.82375000
 20
1.68400000
  0
VERTEX
  8
0
 62
7
 10
39.00446875
 20
1.64170313
  0
VERTEX
  8
0
 62
7
 10
39.18706250
 20
1.60287500
  0
VERTEX
  8
0
 62
7
 10
39.37106250
 20
1.56685938
  0
VERTEX
  8
0
 62
7
 10
39.55600000
 20
1.53300000
  0
VERTEX
  8
0
 62
7
 10
39.60552441
 20
1.52567188
  0
VERTEX
  8
0
 62
7
 10
39.65716406
 20
1.52092188
  0
VERTEX
  8
0
 62
7
 10
39.71064355
 20
1.51872656
  0
VERTEX
  8
0
 62
7
 10
39.76568750
 20
1.51906250
  0
VERTEX
  8
0
 62
7
 10
39.82202051
 20
1.52190625
  0
VERTEX
  8
0
 62
7
 10
39.87936719
 20
1.52723438
  0
VERTEX
  8
0
 62
7
 10
39.93745215
 20
1.53502344
  0
VERTEX
  8
0
 62
7
 10
39.99600000
 20
1.54525000
  0
VERTEX
  8
0
 62
7
 10
40.05473535
 20
1.55789063
  0
VERTEX
  8
0
 62
7
 10
40.11338281
 20
1.57292188
  0
VERTEX
  8
0
 62
7
 10
40.17166699
 20
1.59032031
  0
VERTEX
  8
0
 62
7
 10
40.22931250
 20
1.61006250
  0
VERTEX
  8
0
 62
7
 10
40.28604395
 20
1.63212500
  0
VERTEX
  8
0
 62
7
 10
40.34158594
 20
1.65648438
  0
VERTEX
  8
0
 62
7
 10
40.39566309
 20
1.68311719
  0
VERTEX
  8
0
 62
7
 10
40.44800000
 20
1.71200000
  0
VERTEX
  8
0
 62
7
 10
40.49511963
 20
1.74154517
  0
VERTEX
  8
0
 62
7
 10
40.53967578
 20
1.77384570
  0
VERTEX
  8
0
 62
7
 10
40.58158936
 20
1.80877417
  0
VERTEX
  8
0
 62
7
 10
40.62078125
 20
1.84620313
  0
VERTEX
  8
0
 62
7
 10
40.65717236
 20
1.88600513
  0
VERTEX
  8
0
 62
7
 10
40.69068359
 20
1.92805273
  0
VERTEX
  8
0
 62
7
 10
40.72123584
 20
1.97221851
  0
VERTEX
  8
0
 62
7
 10
40.74875000
 20
2.01837500
  0
VERTEX
  8
0
 62
7
 10
40.77314697
 20
2.06639478
  0
VERTEX
  8
0
 62
7
 10
40.79434766
 20
2.11615039
  0
VERTEX
  8
0
 62
7
 10
40.81227295
 20
2.16751440
  0
VERTEX
  8
0
 62
7
 10
40.82684375
 20
2.22035938
  0
VERTEX
  8
0
 62
7
 10
40.83798096
 20
2.27455786
  0
VERTEX
  8
0
 62
7
 10
40.84560547
 20
2.32998242
  0
VERTEX
  8
0
 62
7
 10
40.84963818
 20
2.38650562
  0
VERTEX
  8
0
 62
7
 10
40.85000000
 20
2.44400000
  0
VERTEX
  8
0
 62
7
 10
40.84751953
 20
2.48069531
  0
VERTEX
  8
0
 62
7
 10
40.84159375
 20
2.51668750
  0
VERTEX
  8
0
 62
7
 10
40.83224609
 20
2.55221094
  0
VERTEX
  8
0
 62
7
 10
40.81950000
 20
2.58750000
  0
VERTEX
  8
0
 62
7
 10
40.80337891
 20
2.62278906
  0
VERTEX
  8
0
 62
7
 10
40.78390625
 20
2.65831250
  0
VERTEX
  8
0
 62
7
 10
40.76110547
 20
2.69430469
  0
VERTEX
  8
0
 62
7
 10
40.73500000
 20
2.73100000
  0
VERTEX
  8
0
 62
7
 10
40.70960449
 20
2.76018066
  0
VERTEX
  8
0
 62
7
 10
40.68146094
 20
2.78472656
  0
VERTEX
  8
0
 62
7
 10
40.65119629
 20
2.80464355
  0
VERTEX
  8
0
 62
7
 10
40.61943750
 20
2.81993750
  0
VERTEX
  8
0
 62
7
 10
40.58681152
 20
2.83061426
  0
VERTEX
  8
0
 62
7
 10
40.55394531
 20
2.83667969
  0
VERTEX
  8
0
 62
7
 10
40.52146582
 20
2.83813965
  0
VERTEX
  8
0
 62
7
 10
40.49000000
 20
2.83500000
  0
VERTEX
  8
0
 62
7
 10
40.46017480
 20
2.82726660
  0
VERTEX
  8
0
 62
7
 10
40.43261719
 20
2.81494531
  0
VERTEX
  8
0
 62
7
 10
40.40795410
 20
2.79804199
  0
VERTEX
  8
0
 62
7
 10
40.38681250
 20
2.77656250
  0
VERTEX
  8
0
 62
7
 10
40.36981934
 20
2.75051270
  0
VERTEX
  8
0
 62
7
 10
40.35760156
 20
2.71989844
  0
VERTEX
  8
0
 62
7
 10
40.35078613
 20
2.68472559
  0
VERTEX
  8
0
 62
7
 10
40.35000000
 20
2.64500000
  0
VERTEX
  8
0
 62
7
 10
40.35304932
 20
2.62212109
  0
VERTEX
  8
0
 62
7
 10
40.35897266
 20
2.60146875
  0
VERTEX
  8
0
 62
7
 10
40.36743311
 20
2.58301953
  0
VERTEX
  8
0
 62
7
 10
40.37809375
 20
2.56675000
  0
VERTEX
  8
0
 62
7
 10
40.39061768
 20
2.55263672
  0
VERTEX
  8
0
 62
7
 10
40.40466797
 20
2.54065625
  0
VERTEX
  8
0
 62
7
 10
40.41990771
 20
2.53078516
  0
VERTEX
  8
0
 62
7
 10
40.43600000
 20
2.52300000
  0
VERTEX
  8
0
 62
7
 10
40.45260791
 20
2.51727734
  0
VERTEX
  8
0
 62
7
 10
40.46939453
 20
2.51359375
  0
VERTEX
  8
0
 62
7
 10
40.48602295
 20
2.51192578
  0
VERTEX
  8
0
 62
7
 10
40.50215625
 20
2.51225000
  0
VERTEX
  8
0
 62
7
 10
40.51745752
 20
2.51454297
  0
VERTEX
  8
0
 62
7
 10
40.53158984
 20
2.51878125
  0
VERTEX
  8
0
 62
7
 10
40.54421631
 20
2.52494141
  0
VERTEX
  8
0
 62
7
 10
40.55500000
 20
2.53300000
  0
VERTEX
  8
0
 62
7
 10
40.57001563
 20
2.54850000
  0
VERTEX
  8
0
 62
7
 10
40.58062500
 20
2.56700000
  0
VERTEX
  8
0
 62
7
 10
40.58692188
 20
2.58250000
  0
VERTEX
  8
0
 62
7
 10
40.58900000
 20
2.58900000
  0
VERTEX
  8
0
 62
7
 10
40.61291260
 20
2.56831445
  0
VERTEX
  8
0
 62
7
 10
40.63292578
 20
2.54539063
  0
VERTEX
  8
0
 62
7
 10
40.64907764
 20
2.52042773
  0
VERTEX
  8
0
 62
7
 10
40.66140625
 20
2.49362500
  0
VERTEX
  8
0
 62
7
 10
40.66994971
 20
2.46518164
  0
VERTEX
  8
0
 62
7
 10
40.67474609
 20
2.43529688
  0
VERTEX
  8
0
 62
7
 10
40.67583350
 20
2.40416992
  0
VERTEX
  8
0
 62
7
 10
40.67325000
 20
2.37200000
  0
VERTEX
  8
0
 62
7
 10
40.66703369
 20
2.33898633
  0
VERTEX
  8
0
 62
7
 10
40.65722266
 20
2.30532813
  0
VERTEX
  8
0
 62
7
 10
40.64385498
 20
2.27122461
  0
VERTEX
  8
0
 62
7
 10
40.62696875
 20
2.23687500
  0
VERTEX
  8
0
 62
7
 10
40.60660205
 20
2.20247852
  0
VERTEX
  8
0
 62
7
 10
40.58279297
 20
2.16823438
  0
VERTEX
  8
0
 62
7
 10
40.55557959
 20
2.13434180
  0
VERTEX
  8
0
 62
7
 10
40.52500000
 20
2.10100000
  0
VERTEX
  8
0
 62
7
 10
40.49425903
 20
2.07149805
  0
VERTEX
  8
0
 62
7
 10
40.46061914
 20
2.04310938
  0
VERTEX
  8
0
 62
7
 10
40.42420483
 20
2.01600977
  0
VERTEX
  8
0
 62
7
 10
40.38514063
 20
1.99037500
  0
VERTEX
  8
0
 62
7
 10
40.34355103
 20
1.96638086
  0
VERTEX
  8
0
 62
7
 10
40.29956055
 20
1.94420313
  0
VERTEX
  8
0
 62
7
 10
40.25329370
 20
1.92401758
  0
VERTEX
  8
0
 62
7
 10
40.20487500
 20
1.90600000
  0
VERTEX
  8
0
 62
7
 10
40.15442896
 20
1.89032617
  0
VERTEX
  8
0
 62
7
 10
40.10208008
 20
1.87717188
  0
VERTEX
  8
0
 62
7
 10
40.04795288
 20
1.86671289
  0
VERTEX
  8
0
 62
7
 10
39.99217188
 20
1.85912500
  0
VERTEX
  8
0
 62
7
 10
39.93486157
 20
1.85458398
  0
VERTEX
  8
0
 62
7
 10
39.87614648
 20
1.85326563
  0
VERTEX
  8
0
 62
7
 10
39.81615112
 20
1.85534570
  0
VERTEX
  8
0
 62
7
 10
39.75500000
 20
1.86100000
  0
VERTEX
  8
0
 62
7
 10
39.68711777
 20
1.87100928
  0
VERTEX
  8
0
 62
7
 10
39.62181714
 20
1.88444922
  0
VERTEX
  8
0
 62
7
 10
39.55905472
 20
1.90118799
  0
VERTEX
  8
0
 62
7
 10
39.49878711
 20
1.92109375
  0
VERTEX
  8
0
 62
7
 10
39.44097092
 20
1.94403467
  0
VERTEX
  8
0
 62
7
 10
39.38556274
 20
1.96987891
  0
VERTEX
  8
0
 62
7
 10
39.33251920
 20
1.99849463
  0
VERTEX
  8
0
 62
7
 10
39.28179688
 20
2.02975000
  0
VERTEX
  8
0
 62
7
 10
39.23335239
 20
2.06351318
  0
VERTEX
  8
0
 62
7
 10
39.18714233
 20
2.09965234
  0
VERTEX
  8
0
 62
7
 10
39.14312332
 20
2.13803564
  0
VERTEX
  8
0
 62
7
 10
39.10125195
 20
2.17853125
  0
VERTEX
  8
0
 62
7
 10
39.06148483
 20
2.22100732
  0
VERTEX
  8
0
 62
7
 10
39.02377856
 20
2.26533203
  0
VERTEX
  8
0
 62
7
 10
38.98808975
 20
2.31137354
  0
VERTEX
  8
0
 62
7
 10
38.95437500
 20
2.35900000
  0
VERTEX
  8
0
 62
7
 10
38.92259091
 20
2.40807959
  0
VERTEX
  8
0
 62
7
 10
38.89269409
 20
2.45848047
  0
VERTEX
  8
0
 62
7
 10
38.86464114
 20
2.51007080
  0
VERTEX
  8
0
 62
7
 10
38.83838867
 20
2.56271875
  0
VERTEX
  8
0
 62
7
 10
38.81389328
 20
2.61629248
  0
VERTEX
  8
0
 62
7
 10
38.79111157
 20
2.67066016
  0
VERTEX
  8
0
 62
7
 10
38.77000015
 20
2.72568994
  0
VERTEX
  8
0
 62
7
 10
38.75051563
 20
2.78125000
  0
VERTEX
  8
0
 62
7
 10
38.73261459
 20
2.83720850
  0
VERTEX
  8
0
 62
7
 10
38.71625366
 20
2.89343359
  0
VERTEX
  8
0
 62
7
 10
38.70138943
 20
2.94979346
  0
VERTEX
  8
0
 62
7
 10
38.68797852
 20
3.00615625
  0
VERTEX
  8
0
 62
7
 10
38.67597751
 20
3.06239014
  0
VERTEX
  8
0
 62
7
 10
38.66534302
 20
3.11836328
  0
VERTEX
  8
0
 62
7
 10
38.65603165
 20
3.17394385
  0
VERTEX
  8
0
 62
7
 10
38.64800000
 20
3.22900000
  0
VERTEX
  8
0
 62
7
 10
38.62940430
 20
3.34035938
  0
VERTEX
  8
0
 62
7
 10
38.61492188
 20
3.45237500
  0
VERTEX
  8
0
 62
7
 10
38.60463477
 20
3.56495313
  0
VERTEX
  8
0
 62
7
 10
38.59862500
 20
3.67800000
  0
VERTEX
  8
0
 62
7
 10
38.59697461
 20
3.79142188
  0
VERTEX
  8
0
 62
7
 10
38.59976563
 20
3.90512500
  0
VERTEX
  8
0
 62
7
 10
38.60708008
 20
4.01901563
  0
VERTEX
  8
0
 62
7
 10
38.61900000
 20
4.13300000
  0
VERTEX
  8
0
 62
7
 10
38.63854883
 20
4.26718750
  0
VERTEX
  8
0
 62
7
 10
38.66401563
 20
4.39950000
  0
VERTEX
  8
0
 62
7
 10
38.69513086
 20
4.52956250
  0
VERTEX
  8
0
 62
7
 10
38.73162500
 20
4.65700000
  0
VERTEX
  8
0
 62
7
 10
38.77322852
 20
4.78143750
  0
VERTEX
  8
0
 62
7
 10
38.81967188
 20
4.90250000
  0
VERTEX
  8
0
 62
7
 10
38.87068555
 20
5.01981250
  0
VERTEX
  8
0
 62
7
 10
38.92600000
 20
5.13300000
  0
VERTEX
  8
0
 62
7
 10
38.94243988
 20
5.16455713
  0
VERTEX
  8
0
 62
7
 10
38.95915186
 20
5.19617578
  0
VERTEX
  8
0
 62
7
 10
38.97616193
 20
5.22777686
  0
VERTEX
  8
0
 62
7
 10
38.99349609
 20
5.25928125
  0
VERTEX
  8
0
 62
7
 10
39.01118036
 20
5.29060986
  0
VERTEX
  8
0
 62
7
 10
39.02924072
 20
5.32168359
  0
VERTEX
  8
0
 62
7
 10
39.04770319
 20
5.35242334
  0
VERTEX
  8
0
 62
7
 10
39.06659375
 20
5.38275000
  0
VERTEX
  8
0
 62
7
 10
39.08593842
 20
5.41258447
  0
VERTEX
  8
0
 62
7
 10
39.10576318
 20
5.44184766
  0
VERTEX
  8
0
 62
7
 10
39.12609406
 20
5.47046045
  0
VERTEX
  8
0
 62
7
 10
39.14695703
 20
5.49834375
  0
VERTEX
  8
0
 62
7
 10
39.16837811
 20
5.52541846
  0
VERTEX
  8
0
 62
7
 10
39.19038330
 20
5.55160547
  0
VERTEX
  8
0
 62
7
 10
39.21299860
 20
5.57682568
  0
VERTEX
  8
0
 62
7
 10
39.23625000
 20
5.60100000
  0
VERTEX
  8
0
 62
7
 10
39.26016351
 20
5.62404932
  0
VERTEX
  8
0
 62
7
 10
39.28476514
 20
5.64589453
  0
VERTEX
  8
0
 62
7
 10
39.31008087
 20
5.66645654
  0
VERTEX
  8
0
 62
7
 10
39.33613672
 20
5.68565625
  0
VERTEX
  8
0
 62
7
 10
39.36295868
 20
5.70341455
  0
VERTEX
  8
0
 62
7
 10
39.39057275
 20
5.71965234
  0
VERTEX
  8
0
 62
7
 10
39.41900494
 20
5.73429053
  0
VERTEX
  8
0
 62
7
 10
39.44828125
 20
5.74725000
  0
VERTEX
  8
0
 62
7
 10
39.47842767
 20
5.75845166
  0
VERTEX
  8
0
 62
7
 10
39.50947021
 20
5.76781641
  0
VERTEX
  8
0
 62
7
 10
39.54143488
 20
5.77526514
  0
VERTEX
  8
0
 62
7
 10
39.57434766
 20
5.78071875
  0
VERTEX
  8
0
 62
7
 10
39.60823456
 20
5.78409814
  0
VERTEX
  8
0
 62
7
 10
39.64312158
 20
5.78532422
  0
VERTEX
  8
0
 62
7
 10
39.67903473
 20
5.78431787
  0
VERTEX
  8
0
 62
7
 10
39.71600000
 20
5.78100000
  0
VERTEX
  8
0
 62
7
 10
39.75141724
 20
5.77502344
  0
VERTEX
  8
0
 62
7
 10
39.78558789
 20
5.76618750
  0
VERTEX
  8
0
 62
7
 10
39.81839038
 20
5.75463281
  0
VERTEX
  8
0
 62
7
 10
39.84970313
 20
5.74050000
  0
VERTEX
  8
0
 62
7
 10
39.87940454
 20
5.72392969
  0
VERTEX
  8
0
 62
7
 10
39.90737305
 20
5.70506250
  0
VERTEX
  8
0
 62
7
 10
39.93348706
 20
5.68403906
  0
VERTEX
  8
0
 62
7
 10
39.95762500
 20
5.66100000
  0
VERTEX
  8
0
 62
7
 10
39.97966528
 20
5.63608594
  0
VERTEX
  8
0
 62
7
 10
39.99948633
 20
5.60943750
  0
VERTEX
  8
0
 62
7
 10
40.01696655
 20
5.58119531
  0
VERTEX
  8
0
 62
7
 10
40.03198438
 20
5.55150000
  0
VERTEX
  8
0
 62
7
 10
40.04441821
 20
5.52049219
  0
VERTEX
  8
0
 62
7
 10
40.05414648
 20
5.48831250
  0
VERTEX
  8
0
 62
7
 10
40.06104761
 20
5.45510156
  0
VERTEX
  8
0
 62
7
 10
40.06500000
 20
5.42100000
  0
VERTEX
  8
0
 62
7
 10
40.09283203
 20
5.43683594
  0
VERTEX
  8
0
 62
7
 10
40.11965625
 20
5.45431250
  0
VERTEX
  8
0
 62
7
 10
40.14540234
 20
5.47338281
  0
VERTEX
  8
0
 62
7
 10
40.17000000
 20
5.49400000
  0
VERTEX
  8
0
 62
7
 10
40.19337891
 20
5.51611719
  0
VERTEX
  8
0
 62
7
 10
40.21546875
 20
5.53968750
  0
VERTEX
  8
0
 62
7
 10
40.23619922
 20
5.56466406
  0
VERTEX
  8
0
 62
7
 10
40.25550000
 20
5.59100000
  0
VERTEX
  8
0
 62
7
 10
40.27330078
 20
5.61864844
  0
VERTEX
  8
0
 62
7
 10
40.28953125
 20
5.64756250
  0
VERTEX
  8
0
 62
7
 10
40.30412109
 20
5.67769531
  0
VERTEX
  8
0
 62
7
 10
40.31700000
 20
5.70900000
  0
VERTEX
  8
0
 62
7
 10
40.32809766
 20
5.74142969
  0
VERTEX
  8
0
 62
7
 10
40.33734375
 20
5.77493750
  0
VERTEX
  8
0
 62
7
 10
40.34466797
 20
5.80947656
  0
VERTEX
  8
0
 62
7
 10
40.35000000
 20
5.84500000
  0
VERTEX
  8
0
 62
7
 10
40.35379883
 20
5.90490625
  0
VERTEX
  8
0
 62
7
 10
40.35114063
 20
5.96425000
  0
VERTEX
  8
0
 62
7
 10
40.34231836
 20
6.02246875
  0
VERTEX
  8
0
 62
7
 10
40.32762500
 20
6.07900000
  0
VERTEX
  8
0
 62
7
 10
40.30735352
 20
6.13328125
  0
VERTEX
  8
0
 62
7
 10
40.28179688
 20
6.18475000
  0
VERTEX
  8
0
 62
7
 10
40.25124805
 20
6.23284375
  0
VERTEX
  8
0
 62
7
 10
40.21600000
 20
6.27700000
  0
VERTEX
  8
0
 62
7
 10
40.17379004
 20
6.31957422
  0
VERTEX
  8
0
 62
7
 10
40.12872656
 20
6.35734375
  0
VERTEX
  8
0
 62
7
 10
40.08109668
 20
6.39037891
  0
VERTEX
  8
0
 62
7
 10
40.03118750
 20
6.41875000
  0
VERTEX
  8
0
 62
7
 10
39.97928613
 20
6.44252734
  0
VERTEX
  8
0
 62
7
 10
39.92567969
 20
6.46178125
  0
VERTEX
  8
0
 62
7
 10
39.87065527
 20
6.47658203
  0
VERTEX
  8
0
 62
7
 10
39.81450000
 20
6.48700000
  0
VERTEX
  8
0
 62
7
 10
39.75750098
 20
6.49310547
  0
VERTEX
  8
0
 62
7
 10
39.69994531
 20
6.49496875
  0
VERTEX
  8
0
 62
7
 10
39.64212012
 20
6.49266016
  0
VERTEX
  8
0
 62
7
 10
39.58431250
 20
6.48625000
  0
VERTEX
  8
0
 62
7
 10
39.52680957
 20
6.47580859
  0
VERTEX
  8
0
 62
7
 10
39.46989844
 20
6.46140625
  0
VERTEX
  8
0
 62
7
 10
39.41386621
 20
6.44311328
  0
VERTEX
  8
0
 62
7
 10
39.35900000
 20
6.42100000
  0
VERTEX
  8
0
 62
7
 10
39.28367188
 20
6.38545313
  0
VERTEX
  8
0
 62
7
 10
39.21087500
 20
6.34512500
  0
VERTEX
  8
0
 62
7
 10
39.14089063
 20
6.30048438
  0
VERTEX
  8
0
 62
7
 10
39.07400000
 20
6.25200000
  0
VERTEX
  8
0
 62
7
 10
39.07900000
 20
6.21200000
  0
VERTEX
  8
0
 62
7
 10
39.08489063
 20
6.16845313
  0
VERTEX
  8
0
 62
7
 10
39.09162500
 20
6.13137500
  0
VERTEX
  8
0
 62
7
 10
39.10079688
 20
6.09935938
  0
VERTEX
  8
0
 62
7
 10
39.11400000
 20
6.07100000
  0
VERTEX
  8
0
 62
7
 10
39.12916602
 20
6.04517969
  0
VERTEX
  8
0
 62
7
 10
39.14401563
 20
6.02175000
  0
VERTEX
  8
0
 62
7
 10
39.15870117
 20
6.00075781
  0
VERTEX
  8
0
 62
7
 10
39.17337500
 20
5.98225000
  0
VERTEX
  8
0
 62
7
 10
39.18818945
 20
5.96627344
  0
VERTEX
  8
0
 62
7
 10
39.20329688
 20
5.95287500
  0
VERTEX
  8
0
 62
7
 10
39.21884961
 20
5.94210156
  0
VERTEX
  8
0
 62
7
 10
39.23500000
 20
5.93400000
  0
VERTEX
  8
0
 62
7
 10
39.25956641
 20
5.91915430
  0
VERTEX
  8
0
 62
7
 10
39.27703125
 20
5.89904688
  0
VERTEX
  8
0
 62
7
 10
39.28741797
 20
5.87544727
  0
VERTEX
  8
0
 62
7
 10
39.29075000
 20
5.85012500
  0
VERTEX
  8
0
 62
7
 10
39.28705078
 20
5.82484961
  0
VERTEX
  8
0
 62
7
 10
39.27634375
 20
5.80139063
  0
VERTEX
  8
0
 62
7
 10
39.25865234
 20
5.78151758
  0
VERTEX
  8
0
 62
7
 10
39.23400000
 20
5.76700000
  0
VERTEX
  8
0
 62
7
 10
39.16112500
 20
5.74206250
  0
VERTEX
  8
0
 62
7
 10
39.08675000
 20
5.72425000
  0
VERTEX
  8
0
 62
7
 10
39.01125000
 20
5.71356250
  0
VERTEX
  8
0
 62
7
 10
38.93500000
 20
5.71000000
  0
VERTEX
  8
0
 62
7
 10
38.87278125
 20
5.71228125
  0
VERTEX
  8
0
 62
7
 10
38.81075000
 20
5.71925000
  0
VERTEX
  8
0
 62
7
 10
38.74909375
 20
5.73109375
  0
VERTEX
  8
0
 62
7
 10
38.68800000
 20
5.74800000
  0
VERTEX
  8
0
 62
7
 10
38.66100000
 20
5.75700000
  0
VERTEX
  8
0
 62
7
 10
38.62004810
 20
5.68720874
  0
VERTEX
  8
0
 62
7
 10
38.58083789
 20
5.61623242
  0
VERTEX
  8
0
 62
7
 10
38.54340015
 20
5.54410474
  0
VERTEX
  8
0
 62
7
 10
38.50776563
 20
5.47085938
  0
VERTEX
  8
0
 62
7
 10
38.47396509
 20
5.39653003
  0
VERTEX
  8
0
 62
7
 10
38.44202930
 20
5.32115039
  0
VERTEX
  8
0
 62
7
 10
38.41198901
 20
5.24475415
  0
VERTEX
  8
0
 62
7
 10
38.38387500
 20
5.16737500
  0
VERTEX
  8
0
 62
7
 10
38.35771802
 20
5.08904663
  0
VERTEX
  8
0
 62
7
 10
38.33354883
 20
5.00980273
  0
VERTEX
  8
0
 62
7
 10
38.31139819
 20
4.92967700
  0
VERTEX
  8
0
 62
7
 10
38.29129688
 20
4.84870313
  0
VERTEX
  8
0
 62
7
 10
38.27327563
 20
4.76691479
  0
VERTEX
  8
0
 62
7
 10
38.25736523
 20
4.68434570
  0
VERTEX
  8
0
 62
7
 10
38.24359644
 20
4.60102954
  0
VERTEX
  8
0
 62
7
 10
38.23200000
 20
4.51700000
  0
VERTEX
  8
0
 62
7
 10
38.22349976
 20
4.43345313
  0
VERTEX
  8
0
 62
7
 10
38.21809180
 20
4.34812500
  0
VERTEX
  8
0
 62
7
 10
38.21554028
 20
4.26148438
  0
VERTEX
  8
0
 62
7
 10
38.21560938
 20
4.17400000
  0
VERTEX
  8
0
 62
7
 10
38.21806323
 20
4.08614063
  0
VERTEX
  8
0
 62
7
 10
38.22266602
 20
3.99837500
  0
VERTEX
  8
0
 62
7
 10
38.22918188
 20
3.91117188
  0
VERTEX
  8
0
 62
7
 10
38.23737500
 20
3.82500000
  0
VERTEX
  8
0
 62
7
 10
38.24700952
 20
3.74032813
  0
VERTEX
  8
0
 62
7
 10
38.25784961
 20
3.65762500
  0
VERTEX
  8
0
 62
7
 10
38.26965942
 20
3.57735938
  0
VERTEX
  8
0
 62
7
 10
38.28220313
 20
3.50000000
  0
VERTEX
  8
0
 62
7
 10
38.29524487
 20
3.42601563
  0
VERTEX
  8
0
 62
7
 10
38.30854883
 20
3.35587500
  0
VERTEX
  8
0
 62
7
 10
38.32187915
 20
3.29004688
  0
VERTEX
  8
0
 62
7
 10
38.33500000
 20
3.22900000
  0
VERTEX
  8
0
 62
7
 10
38.34694702
 20
3.17838867
  0
VERTEX
  8
0
 62
7
 10
38.36138867
 20
3.12298438
  0
VERTEX
  8
0
 62
7
 10
38.37828833
 20
3.06343164
  0
VERTEX
  8
0
 62
7
 10
38.39760938
 20
3.00037500
  0
VERTEX
  8
0
 62
7
 10
38.41931519
 20
2.93445898
  0
VERTEX
  8
0
 62
7
 10
38.44336914
 20
2.86632813
  0
VERTEX
  8
0
 62
7
 10
38.46973462
 20
2.79662695
  0
VERTEX
  8
0
 62
7
 10
38.49837500
 20
2.72600000
  0
VERTEX
  8
0
 62
7
 10
38.52925366
 20
2.65509180
  0
VERTEX
  8
0
 62
7
 10
38.56233398
 20
2.58454688
  0
VERTEX
  8
0
 62
7
 10
38.59757935
 20
2.51500977
  0
VERTEX
  8
0
 62
7
 10
38.63495313
 20
2.44712500
  0
VERTEX
  8
0
 62
7
 10
38.67441870
 20
2.38153711
  0
VERTEX
  8
0
 62
7
 10
38.71593945
 20
2.31889063
  0
VERTEX
  8
0
 62
7
 10
38.75947876
 20
2.25983008
  0
VERTEX
  8
0
 62
7
 10
38.80500000
 20
2.20500000
  0
VERTEX
  8
0
 62
7
 10
38.77100000
 20
2.16500000
  0
VERTEX
  8
0
 62
7
 10
38.72298560
 20
2.21859766
  0
VERTEX
  8
0
 62
7
 10
38.67750977
 20
2.27428125
  0
VERTEX
  8
0
 62
7
 10
38.63448608
 20
2.33188672
  0
VERTEX
  8
0
 62
7
 10
38.59382813
 20
2.39125000
  0
VERTEX
  8
0
 62
7
 10
38.55544946
 20
2.45220703
  0
VERTEX
  8
0
 62
7
 10
38.51926367
 20
2.51459375
  0
VERTEX
  8
0
 62
7
 10
38.48518433
 20
2.57824609
  0
VERTEX
  8
0
 62
7
 10
38.45312500
 20
2.64300000
  0
VERTEX
  8
0
 62
7
 10
38.42299927
 20
2.70869141
  0
VERTEX
  8
0
 62
7
 10
38.39472070
 20
2.77515625
  0
VERTEX
  8
0
 62
7
 10
38.36820288
 20
2.84223047
  0
VERTEX
  8
0
 62
7
 10
38.34335938
 20
2.90975000
  0
VERTEX
  8
0
 62
7
 10
38.32010376
 20
2.97755078
  0
VERTEX
  8
0
 62
7
 10
38.29834961
 20
3.04546875
  0
VERTEX
  8
0
 62
7
 10
38.27801050
 20
3.11333984
  0
VERTEX
  8
0
 62
7
 10
38.25900000
 20
3.18100000
  0
VERTEX
  8
0
 62
7
 10
38.21898828
 20
3.34375000
  0
VERTEX
  8
0
 62
7
 10
38.18659375
 20
3.50800000
  0
VERTEX
  8
0
 62
7
 10
38.16165234
 20
3.67375000
  0
VERTEX
  8
0
 62
7
 10
38.14400000
 20
3.84100000
  0
VERTEX
  8
0
 62
7
 10
38.13347266
 20
4.00975000
  0
VERTEX
  8
0
 62
7
 10
38.12990625
 20
4.18000000
  0
VERTEX
  8
0
 62
7
 10
38.13313672
 20
4.35175000
  0
VERTEX
  8
0
 62
7
 10
38.14300000
 20
4.52500000
  0
VERTEX
  8
0
 62
7
 10
38.15428320
 20
4.65506250
  0
VERTEX
  8
0
 62
7
 10
38.16707813
 20
4.77650000
  0
VERTEX
  8
0
 62
7
 10
38.18130273
 20
4.89118750
  0
VERTEX
  8
0
 62
7
 10
38.19687500
 20
5.00100000
  0
VERTEX
  8
0
 62
7
 10
38.21371289
 20
5.10781250
  0
VERTEX
  8
0
 62
7
 10
38.23173438
 20
5.21350000
  0
VERTEX
  8
0
 62
7
 10
38.25085742
 20
5.31993750
  0
VERTEX
  8
0
 62
7
 10
38.27100000
 20
5.42900000
  0
VERTEX
  8
0
 62
7
 10
38.28420313
 20
5.50887500
  0
VERTEX
  8
0
 62
7
 10
38.29262500
 20
5.57900000
  0
VERTEX
  8
0
 62
7
 10
38.29673438
 20
5.63487500
  0
VERTEX
  8
0
 62
7
 10
38.29700000
 20
5.67200000
  0
VERTEX
  8
0
 62
7
 10
38.26160938
 20
5.62905664
  0
VERTEX
  8
0
 62
7
 10
38.22462500
 20
5.58814063
  0
VERTEX
  8
0
 62
7
 10
38.18632813
 20
5.54949805
  0
VERTEX
  8
0
 62
7
 10
38.14700000
 20
5.51337500
  0
VERTEX
  8
0
 62
7
 10
38.10692188
 20
5.48001758
  0
VERTEX
  8
0
 62
7
 10
38.06637500
 20
5.44967188
  0
VERTEX
  8
0
 62
7
 10
38.02564063
 20
5.42258398
  0
VERTEX
  8
0
 62
7
 10
37.98500000
 20
5.39900000
  0
VERTEX
  8
0
 62
7
 10
37.97000000
 20
5.39100000
  0
SEQEND
  0
POLYLINE
  8
0
 62
7
 66
1
 70
1
  0
VERTEX
  8
0
 62
7
 10
37.61000000
 20
4.19300000
  0
VERTEX
  8
0
 62
7
 10
37.59329688
 20
4.34632813
  0
VERTEX
  8
0
 62
7
 10
37.58062500
 20
4.50012500
  0
VERTEX
  8
0
 62
7
 10
37.57189063
 20
4.65410938
  0
VERTEX
  8
0
 62
7
 10
37.56700000
 20
4.80800000
  0
VERTEX
  8
0
 62
7
 10
37.56600000
 20
4.90300000
  0
VERTEX
  8
0
 62
7
 10
37.56971875
 20
5.10470313
  0
VERTEX
  8
0
 62
7
 10
37.58075000
 20
5.30612500
  0
VERTEX
  8
0
 62
7
 10
37.59890625
 20
5.50698438
  0
VERTEX
  8
0
 62
7
 10
37.62400000
 20
5.70700000
  0
VERTEX
  8
0
 62
7
 10
37.62600000
 20
5.71700000
  0
VERTEX
  8
0
 62
7
 10
37.68000000
 20
5.65800000
  0
VERTEX
  8
0
 62
7
 10
37.72800000
 20
5.61000000
  0
VERTEX
  8
0
 62
7
 10
37.74900000
 20
5.59000000
  0
VERTEX
  8
0
 62
7
 10
37.73046875
 20
5.41867188
  0
VERTEX
  8
0
 62
7
 10
37.71700000
 20
5.24687500
  0
VERTEX
  8
0
 62
7
 10
37.70878125
 20
5.07489063
  0
VERTEX
  8
0
 62
7
 10
37.70600000
 20
4.90300000
  0
VERTEX
  8
0
 62
7
 10
37.70700000
 20
4.81000000
  0
VERTEX
  8
0
 62
7
 10
37.71150000
 20
4.66950000
  0
VERTEX
  8
0
 62
7
 10
37.71900000
 20
4.52900000
  0
VERTEX
  8
0
 62
7
 10
37.71537500
 20
4.40275000
  0
VERTEX
  8
0
 62
7
 10
37.71400000
 20
4.27500000
  0
VERTEX
  8
0
 62
7
 10
37.71596875
 20
4.16993750
  0
VERTEX
  8
0
 62
7
 10
37.72075000
 20
4.06600000
  0
VERTEX
  8
0
 62
7
 10
37.72665625
 20
3.96281250
  0
VERTEX
  8
0
 62
7
 10
37.73200000
 20
3.86000000
  0
VERTEX
  8
0
 62
7
 10
37.73192383
 20
3.85241016
  0
VERTEX
  8
0
 62
7
 10
37.73045313
 20
3.84803125
  0
VERTEX
  8
0
 62
7
 10
37.72797461
 20
3.84632422
  0
VERTEX
  8
0
 62
7
 10
37.72487500
 20
3.84675000
  0
VERTEX
  8
0
 62
7
 10
37.72154102
 20
3.84876953
  0
VERTEX
  8
0
 62
7
 10
37.71835938
 20
3.85184375
  0
VERTEX
  8
0
 62
7
 10
37.71571680
 20
3.85543359
  0
VERTEX
  8
0
 62
7
 10
37.71400000
 20
3.85900000
  0
VERTEX
  8
0
 62
7
 10
37.66200000
 20
4.01962500
  0
VERTEX
  8
0
 62
7
 10
37.61000000
 20
4.19300000
  0
SEQEND
  0
POLYLINE
  8
0
 62
7
 66
1
 70
1
  0
VERTEX
  8
0
 62
7
 10
38.48500000
 20
6.26200000
  0
VERTEX
  8
0
 62
7
 10
38.51612500
 20
6.24875000
  0
VERTEX
  8
0
 62
7
 10
38.54500000
 20
6.23400000
  0
VERTEX
  8
0
 62
7
 10
38.58415625
 20
6.21084375
  0
VERTEX
  8
0
 62
7
 10
38.62050000
 20
6.18525000
  0
VERTEX
  8
0
 62
7
 10
38.65609375
 20
6.15778125
  0
VERTEX
  8
0
 62
7
 10
38.69300000
 20
6.12900000
  0
VERTEX
  8
0
 62
7
 10
38.70064063
 20
6.12585938
  0
VERTEX
  8
0
 62
7
 10
38.70912500
 20
6.12562500
  0
VERTEX
  8
0
 62
7
 10
38.71704688
 20
6.12857813
  0
VERTEX
  8
0
 62
7
 10
38.72300000
 20
6.13500000
  0
VERTEX
  8
0
 62
7
 10
38.72718750
 20
6.14193750
  0
VERTEX
  8
0
 62
7
 10
38.72800000
 20
6.15000000
  0
VERTEX
  8
0
 62
7
 10
38.72581250
 20
6.15806250
  0
VERTEX
  8
0
 62
7
 10
38.72100000
 20
6.16500000
  0
VERTEX
  8
0
 62
7
 10
38.68382813
 20
6.19384375
  0
VERTEX
  8
0
 62
7
 10
38.64862500
 20
6.22175000
  0
VERTEX
  8
0
 62
7
 10
38.61510938
 20
6.25078125
  0
VERTEX
  8
0
 62
7
 10
38.58300000
 20
6.28300000
  0
VERTEX
  8
0
 62
7
 10
38.55600000
 20
6.31600000
  0
VERTEX
  8
0
 62
7
 10
38.59896484
 20
6.32276367
  0
VERTEX
  8
0
 62
7
 10
38.64078125
 20
6.33317188
  0
VERTEX
  8
0
 62
7
 10
38.68133203
 20
6.34702539
  0
VERTEX
  8
0
 62
7
 10
38.72050000
 20
6.36412500
  0
VERTEX
  8
0
 62
7
 10
38.75816797
 20
6.38427148
  0
VERTEX
  8
0
 62
7
 10
38.79421875
 20
6.40726563
  0
VERTEX
  8
0
 62
7
 10
38.82853516
 20
6.43290820
  0
VERTEX
  8
0
 62
7
 10
38.86100000
 20
6.46100000
  0
VERTEX
  8
0
 62
7
 10
38.88756250
 20
6.43945313
  0
VERTEX
  8
0
 62
7
 10
38.91150000
 20
6.41537500
  0
VERTEX
  8
0
 62
7
 10
38.93243750
 20
6.38885938
  0
VERTEX
  8
0
 62
7
 10
38.95000000
 20
6.36000000
  0
VERTEX
  8
0
 62
7
 10
38.96616406
 20
6.32034180
  0
VERTEX
  8
0
 62
7
 10
38.97693750
 20
6.27898438
  0
VERTEX
  8
0
 62
7
 10
38.98424219
 20
6.23647852
  0
VERTEX
  8
0
 62
7
 10
38.99000000
 20
6.19337500
  0
VERTEX
  8
0
 62
7
 10
38.99613281
 20
6.15022461
  0
VERTEX
  8
0
 62
7
 10
39.00456250
 20
6.10757813
  0
VERTEX
  8
0
 62
7
 10
39.01721094
 20
6.06598633
  0
VERTEX
  8
0
 62
7
 10
39.03600000
 20
6.02600000
  0
VERTEX
  8
0
 62
7
 10
39.05145703
 20
5.99936719
  0
VERTEX
  8
0
 62
7
 10
39.06796875
 20
5.97306250
  0
VERTEX
  8
0
 62
7
 10
39.08574609
 20
5.94760156
  0
VERTEX
  8
0
 62
7
 10
39.10500000
 20
5.92350000
  0
VERTEX
  8
0
 62
7
 10
39.12594141
 20
5.90127344
  0
VERTEX
  8
0
 62
7
 10
39.14878125
 20
5.88143750
  0
VERTEX
  8
0
 62
7
 10
39.17373047
 20
5.86450781
  0
VERTEX
  8
0
 62
7
 10
39.20100000
 20
5.85100000
  0
VERTEX
  8
0
 62
7
 10
39.14217969
 20
5.83037695
  0
VERTEX
  8
0
 62
7
 10
39.08218750
 20
5.81501563
  0
VERTEX
  8
0
 62
7
 10
39.02135156
 20
5.80492773
  0
VERTEX
  8
0
 62
7
 10
38.96000000
 20
5.80012500
  0
VERTEX
  8
0
 62
7
 10
38.89846094
 20
5.80061914
  0
VERTEX
  8
0
 62
7
 10
38.83706250
 20
5.80642188
  0
VERTEX
  8
0
 62
7
 10
38.77613281
 20
5.81754492
  0
VERTEX
  8
0
 62
7
 10
38.71600000
 20
5.83400000
  0
VERTEX
  8
0
 62
7
 10
38.64557813
 20
5.86095313
  0
VERTEX
  8
0
 62
7
 10
38.57862500
 20
5.89512500
  0
VERTEX
  8
0
 62
7
 10
38.51560938
 20
5.93623438
  0
VERTEX
  8
0
 62
7
 10
38.45700000
 20
5.98400000
  0
VERTEX
  8
0
 62
7
 10
38.47487500
 20
6.04750000
  0
VERTEX
  8
0
 62
7
 10
38.48600000
 20
6.11100000
  0
VERTEX
  8
0
 62
7
 10
38.48962500
 20
6.14737500
  0
VERTEX
  8
0
 62
7
 10
38.49100000
 20
6.18300000
  0
VERTEX
  8
0
 62
7
 10
38.48950000
 20
6.22362500
  0
VERTEX
  8
0
 62
7
 10
38.48500000
 20
6.26200000
  0
SEQEND
  0
POLYLINE
  8
0
 62
7
 66
1
 70
1
  0
VERTEX
  8
0
 62
7
 10
37.39200000
 20
6.33100000
  0
VERTEX
  8
0
 62
7
 10
37.35300000
 20
6.28300000
  0
VERTEX
  8
0
 62
7
 10
37.32089063
 20
6.25078125
  0
VERTEX
  8
0
 62
7
 10
37.28737500
 20
6.22175000
  0
VERTEX
  8
0
 62
7
 10
37.25217188
 20
6.19384375
  0
VERTEX
  8
0
 62
7
 10
37.21500000
 20
6.16500000
  0
VERTEX
  8
0
 62
7
 10
37.21018750
 20
6.15806250
  0
VERTEX
  8
0
 62
7
 10
37.20800000
 20
6.15000000
  0
VERTEX
  8
0
 62
7
 10
37.20881250
 20
6.14193750
  0
VERTEX
  8
0
 62
7
 10
37.21300000
 20
6.13500000
  0
VERTEX
  8
0
 62
7
 10
37.21895313
 20
6.12857813
  0
VERTEX
  8
0
 62
7
 10
37.22687500
 20
6.12562500
  0
VERTEX
  8
0
 62
7
 10
37.23535938
 20
6.12585938
  0
VERTEX
  8
0
 62
7
 10
37.24300000
 20
6.12900000
  0
VERTEX
  8
0
 62
7
 10
37.27990625
 20
6.15778125
  0
VERTEX
  8
0
 62
7
 10
37.31550000
 20
6.18525000
  0
VERTEX
  8
0
 62
7
 10
37.35184375
 20
6.21084375
  0
VERTEX
  8
0
 62
7
 10
37.39100000
 20
6.23400000
  0
VERTEX
  8
0
 62
7
 10
37.42437500
 20
6.25075000
  0
VERTEX
  8
0
 62
7
 10
37.46000000
 20
6.26600000
  0
VERTEX
  8
0
 62
7
 10
37.45500000
 20
6.23000000
  0
VERTEX
  8
0
 62
7
 10
37.45187500
 20
6.19762500
  0
VERTEX
  8
0
 62
7
 10
37.45100000
 20
6.16600000
  0
VERTEX
  8
0
 62
7
 10
37.45303125
 20
6.11856250
  0
VERTEX
  8
0
 62
7
 10
37.45900000
 20
6.07225000
  0
VERTEX
  8
0
 62
7
 10
37.46871875
 20
6.02706250
  0
VERTEX
  8
0
 62
7
 10
37.48200000
 20
5.98300000
  0
VERTEX
  8
0
 62
7
 10
37.42339063
 20
5.93581250
  0
VERTEX
  8
0
 62
7
 10
37.36037500
 20
5.89500000
  0
VERTEX
  8
0
 62
7
 10
37.29342188
 20
5.86093750
  0
VERTEX
  8
0
 62
7
 10
37.22300000
 20
5.83400000
  0
VERTEX
  8
0
 62
7
 10
37.16286719
 20
5.81754492
  0
VERTEX
  8
0
 62
7
 10
37.10193750
 20
5.80642188
  0
VERTEX
  8
0
 62
7
 10
37.04053906
 20
5.80061914
  0
VERTEX
  8
0
 62
7
 10
36.97900000
 20
5.80012500
  0
VERTEX
  8
0
 62
7
 10
36.91764844
 20
5.80492773
  0
VERTEX
  8
0
 62
7
 10
36.85681250
 20
5.81501563
  0
VERTEX
  8
0
 62
7
 10
36.79682031
 20
5.83037695
  0
VERTEX
  8
0
 62
7
 10
36.73800000
 20
5.85100000
  0
VERTEX
  8
0
 62
7
 10
36.76526953
 20
5.86450781
  0
VERTEX
  8
0
 62
7
 10
36.79021875
 20
5.88143750
  0
VERTEX
  8
0
 62
7
 10
36.81305859
 20
5.90127344
  0
VERTEX
  8
0
 62
7
 10
36.83400000
 20
5.92350000
  0
VERTEX
  8
0
 62
7
 10
36.85325391
 20
5.94760156
  0
VERTEX
  8
0
 62
7
 10
36.87103125
 20
5.97306250
  0
VERTEX
  8
0
 62
7
 10
36.88754297
 20
5.99936719
  0
VERTEX
  8
0
 62
7
 10
36.90300000
 20
6.02600000
  0
VERTEX
  8
0
 62
7
 10
36.92178906
 20
6.06598633
  0
VERTEX
  8
0
 62
7
 10
36.93443750
 20
6.10757813
  0
VERTEX
  8
0
 62
7
 10
36.94286719
 20
6.15022461
  0
VERTEX
  8
0
 62
7
 10
36.94900000
 20
6.19337500
  0
VERTEX
  8
0
 62
7
 10
36.95475781
 20
6.23647852
  0
VERTEX
  8
0
 62
7
 10
36.96206250
 20
6.27898438
  0
VERTEX
  8
0
 62
7
 10
36.97283594
 20
6.32034180
  0
VERTEX
  8
0
 62
7
 10
36.98900000
 20
6.36000000
  0
VERTEX
  8
0
 62
7
 10
37.00968750
 20
6.39370313
  0
VERTEX
  8
0
 62
7
 10
37.03525000
 20
6.42412500
  0
VERTEX
  8
0
 62
7
 10
37.06493750
 20
6.45098438
  0
VERTEX
  8
0
 62
7
 10
37.09800000
 20
6.47400000
  0
VERTEX
  8
0
 62
7
 10
37.12859766
 20
6.44628125
  0
VERTEX
  8
0
 62
7
 10
37.16109375
 20
6.42100000
  0
VERTEX
  8
0
 62
7
 10
37.19541797
 20
6.39834375
  0
VERTEX
  8
0
 62
7
 10
37.23150000
 20
6.37850000
  0
VERTEX
  8
0
 62
7
 10
37.26926953
 20
6.36165625
  0
VERTEX
  8
0
 62
7
 10
37.30865625
 20
6.34800000
  0
VERTEX
  8
0
 62
7
 10
37.34958984
 20
6.33771875
  0
VERTEX
  8
0
 62
7
 10
37.39200000
 20
6.33100000
  0
SEQEND
  0
POLYLINE
  8
0
 62
7
 66
1
 70
1
  0
VERTEX
  8
0
 62
7
 10
37.94100000
 20
6.45200000
  0
VERTEX
  8
0
 62
7
 10
37.95400000
 20
6.39400000
  0
VERTEX
  8
0
 62
7
 10
37.95989063
 20
6.34954688
  0
VERTEX
  8
0
 62
7
 10
37.96212500
 20
6.30537500
  0
VERTEX
  8
0
 62
7
 10
37.96229688
 20
6.26026563
  0
VERTEX
  8
0
 62
7
 10
37.96200000
 20
6.21300000
  0
VERTEX
  8
0
 62
7
 10
37.96432813
 20
6.20465625
  0
VERTEX
  8
0
 62
7
 10
37.96937500
 20
6.19800000
  0
VERTEX
  8
0
 62
7
 10
37.97648438
 20
6.19359375
  0
VERTEX
  8
0
 62
7
 10
37.98500000
 20
6.19200000
  0
VERTEX
  8
0
 62
7
 10
37.99337500
 20
6.19373438
  0
VERTEX
  8
0
 62
7
 10
38.00025000
 20
6.19837500
  0
VERTEX
  8
0
 62
7
 10
38.00525000
 20
6.20507813
  0
VERTEX
  8
0
 62
7
 10
38.00800000
 20
6.21300000
  0
VERTEX
  8
0
 62
7
 10
38.00770313
 20
6.26026563
  0
VERTEX
  8
0
 62
7
 10
38.00787500
 20
6.30537500
  0
VERTEX
  8
0
 62
7
 10
38.01010938
 20
6.34954688
  0
VERTEX
  8
0
 62
7
 10
38.01600000
 20
6.39400000
  0
VERTEX
  8
0
 62
7
 10
38.03000000
 20
6.45500000
  0
VERTEX
  8
0
 62
7
 10
38.11335938
 20
6.46646875
  0
VERTEX
  8
0
 62
7
 10
38.18462500
 20
6.48000000
  0
VERTEX
  8
0
 62
7
 10
38.23432813
 20
6.49128125
  0
VERTEX
  8
0
 62
7
 10
38.25300000
 20
6.49600000
  0
VERTEX
  8
0
 62
7
 10
38.29484961
 20
6.45568750
  0
VERTEX
  8
0
 62
7
 10
38.33035938
 20
6.41462500
  0
VERTEX
  8
0
 62
7
 10
38.35947070
 20
6.37225000
  0
VERTEX
  8
0
 62
7
 10
38.38212500
 20
6.32800000
  0
VERTEX
  8
0
 62
7
 10
38.39826367
 20
6.28131250
  0
VERTEX
  8
0
 62
7
 10
38.40782813
 20
6.23162500
  0
VERTEX
  8
0
 62
7
 10
38.41075977
 20
6.17837500
  0
VERTEX
  8
0
 62
7
 10
38.40700000
 20
6.12100000
  0
VERTEX
  8
0
 62
7
 10
38.39880054
 20
6.07348096
  0
VERTEX
  8
0
 62
7
 10
38.38640430
 20
6.02561328
  0
VERTEX
  8
0
 62
7
 10
38.37011450
 20
5.97768115
  0
VERTEX
  8
0
 62
7
 10
38.35023438
 20
5.92996875
  0
VERTEX
  8
0
 62
7
 10
38.32706714
 20
5.88276025
  0
VERTEX
  8
0
 62
7
 10
38.30091602
 20
5.83633984
  0
VERTEX
  8
0
 62
7
 10
38.27208423
 20
5.79099170
  0
VERTEX
  8
0
 62
7
 10
38.24087500
 20
5.74700000
  0
VERTEX
  8
0
 62
7
 10
38.20759155
 20
5.70464893
  0
VERTEX
  8
0
 62
7
 10
38.17253711
 20
5.66422266
  0
VERTEX
  8
0
 62
7
 10
38.13601489
 20
5.62600537
  0
VERTEX
  8
0
 62
7
 10
38.09832813
 20
5.59028125
  0
VERTEX
  8
0
 62
7
 10
38.05978003
 20
5.55733447
  0
VERTEX
  8
0
 62
7
 10
38.02067383
 20
5.52744922
  0
VERTEX
  8
0
 62
7
 10
37.98131274
 20
5.50090967
  0
VERTEX
  8
0
 62
7
 10
37.94200000
 20
5.47800000
  0
VERTEX
  8
0
 62
7
 10
37.92553516
 20
5.51354297
  0
VERTEX
  8
0
 62
7
 10
37.90571875
 20
5.54634375
  0
VERTEX
  8
0
 62
7
 10
37.88304297
 20
5.57703516
  0
VERTEX
  8
0
 62
7
 10
37.85800000
 20
5.60625000
  0
VERTEX
  8
0
 62
7
 10
37.83108203
 20
5.63462109
  0
VERTEX
  8
0
 62
7
 10
37.80278125
 20
5.66278125
  0
VERTEX
  8
0
 62
7
 10
37.77358984
 20
5.69136328
  0
VERTEX
  8
0
 62
7
 10
37.74400000
 20
5.72100000
  0
VERTEX
  8
0
 62
7
 10
37.72126196
 20
5.74501709
  0
VERTEX
  8
0
 62
7
 10
37.69892383
 20
5.77016797
  0
VERTEX
  8
0
 62
7
 10
37.67717456
 20
5.79641455
  0
VERTEX
  8
0
 62
7
 10
37.65620313
 20
5.82371875
  0
VERTEX
  8
0
 62
7
 10
37.63619849
 20
5.85204248
  0
VERTEX
  8
0
 62
7
 10
37.61734961
 20
5.88134766
  0
VERTEX
  8
0
 62
7
 10
37.59984546
 20
5.91159619
  0
VERTEX
  8
0
 62
7
 10
37.58387500
 20
5.94275000
  0
VERTEX
  8
0
 62
7
 10
37.56962720
 20
5.97477100
  0
VERTEX
  8
0
 62
7
 10
37.55729102
 20
6.00762109
  0
VERTEX
  8
0
 62
7
 10
37.54705542
 20
6.04126221
  0
VERTEX
  8
0
 62
7
 10
37.53910938
 20
6.07565625
  0
VERTEX
  8
0
 62
7
 10
37.53364185
 20
6.11076514
  0
VERTEX
  8
0
 62
7
 10
37.53084180
 20
6.14655078
  0
VERTEX
  8
0
 62
7
 10
37.53089819
 20
6.18297510
  0
VERTEX
  8
0
 62
7
 10
37.53400000
 20
6.22000000
  0
VERTEX
  8
0
 62
7
 10
37.54118555
 20
6.26573242
  0
VERTEX
  8
0
 62
7
 10
37.55210938
 20
6.30985938
  0
VERTEX
  8
0
 62
7
 10
37.56657227
 20
6.35227539
  0
VERTEX
  8
0
 62
7
 10
37.58437500
 20
6.39287500
  0
VERTEX
  8
0
 62
7
 10
37.60531836
 20
6.43155273
  0
VERTEX
  8
0
 62
7
 10
37.62920313
 20
6.46820313
  0
VERTEX
  8
0
 62
7
 10
37.65583008
 20
6.50272070
  0
VERTEX
  8
0
 62
7
 10
37.68500000
 20
6.53500000
  0
VERTEX
  8
0
 62
7
 10
37.71750000
 20
6.51462500
  0
VERTEX
  8
0
 62
7
 10
37.75300000
 20
6.49800000
  0
VERTEX
  8
0
 62
7
 10
37.79292188
 20
6.48335938
  0
VERTEX
  8
0
 62
7
 10
37.84137500
 20
6.46937500
  0
VERTEX
  8
0
 62
7
 10
37.89264063
 20
6.45820313
  0
VERTEX
  8
0
 62
7
 10
37.94100000
 20
6.45200000
  0
SEQEND
  0
POLYLINE
  8
0
 62
7
 66
1
 70
1
  0
VERTEX
  8
0
 62
7
 10
38.42600000
 20
6.90000000
  0
VERTEX
  8
0
 62
7
 10
38.41300000
 20
6.95000000
  0
VERTEX
  8
0
 62
7
 10
38.40174609
 20
7.01466406
  0
VERTEX
  8
0
 62
7
 10
38.39609375
 20
7.07037500
  0
VERTEX
  8
0
 62
7
 10
38.39545703
 20
7.11896094
  0
VERTEX
  8
0
 62
7
 10
38.39925000
 20
7.16225000
  0
VERTEX
  8
0
 62
7
 10
38.40688672
 20
7.20207031
  0
VERTEX
  8
0
 62
7
 10
38.41778125
 20
7.24025000
  0
VERTEX
  8
0
 62
7
 10
38.43134766
 20
7.27861719
  0
VERTEX
  8
0
 62
7
 10
38.44700000
 20
7.31900000
  0
VERTEX
  8
0
 62
7
 10
38.49991211
 20
7.35497461
  0
VERTEX
  8
0
 62
7
 10
38.55810938
 20
7.38629688
  0
VERTEX
  8
0
 62
7
 10
38.62040820
 20
7.41281445
  0
VERTEX
  8
0
 62
7
 10
38.68562500
 20
7.43437500
  0
VERTEX
  8
0
 62
7
 10
38.75257617
 20
7.45082617
  0
VERTEX
  8
0
 62
7
 10
38.82007813
 20
7.46201563
  0
VERTEX
  8
0
 62
7
 10
38.88694727
 20
7.46779102
  0
VERTEX
  8
0
 62
7
 10
38.95200000
 20
7.46800000
  0
VERTEX
  8
0
 62
7
 10
38.97869531
 20
7.46592944
  0
VERTEX
  8
0
 62
7
 10
39.00815625
 20
7.46207617
  0
VERTEX
  8
0
 62
7
 10
39.03982031
 20
7.45660278
  0
VERTEX
  8
0
 62
7
 10
39.07312500
 20
7.44967188
  0
VERTEX
  8
0
 62
7
 10
39.10750781
 20
7.44144604
  0
VERTEX
  8
0
 62
7
 10
39.14240625
 20
7.43208789
  0
VERTEX
  8
0
 62
7
 10
39.17725781
 20
7.42176001
  0
VERTEX
  8
0
 62
7
 10
39.21150000
 20
7.41062500
  0
VERTEX
  8
0
 62
7
 10
39.24457031
 20
7.39884546
  0
VERTEX
  8
0
 62
7
 10
39.27590625
 20
7.38658398
  0
VERTEX
  8
0
 62
7
 10
39.30494531
 20
7.37400317
  0
VERTEX
  8
0
 62
7
 10
39.33112500
 20
7.36126563
  0
VERTEX
  8
0
 62
7
 10
39.35388281
 20
7.34853394
  0
VERTEX
  8
0
 62
7
 10
39.37265625
 20
7.33597070
  0
VERTEX
  8
0
 62
7
 10
39.38688281
 20
7.32373853
  0
VERTEX
  8
0
 62
7
 10
39.39600000
 20
7.31200000
  0
VERTEX
  8
0
 62
7
 10
39.39246094
 20
7.30874805
  0
VERTEX
  8
0
 62
7
 10
39.38104688
 20
7.30201563
  0
VERTEX
  8
0
 62
7
 10
39.36281250
 20
7.29183789
  0
VERTEX
  8
0
 62
7
 10
39.33881250
 20
7.27825000
  0
VERTEX
  8
0
 62
7
 10
39.31010156
 20
7.26128711
  0
VERTEX
  8
0
 62
7
 10
39.27773438
 20
7.24098438
  0
VERTEX
  8
0
 62
7
 10
39.24276563
 20
7.21737695
  0
VERTEX
  8
0
 62
7
 10
39.20625000
 20
7.19050000
  0
VERTEX
  8
0
 62
7
 10
39.16924219
 20
7.16038867
  0
VERTEX
  8
0
 62
7
 10
39.13279688
 20
7.12707813
  0
VERTEX
  8
0
 62
7
 10
39.09796875
 20
7.09060352
  0
VERTEX
  8
0
 62
7
 10
39.06581250
 20
7.05100000
  0
VERTEX
  8
0
 62
7
 10
39.03738281
 20
7.00830273
  0
VERTEX
  8
0
 62
7
 10
39.01373438
 20
6.96254688
  0
VERTEX
  8
0
 62
7
 10
38.99592188
 20
6.91376758
  0
VERTEX
  8
0
 62
7
 10
38.98500000
 20
6.86200000
  0
VERTEX
  8
0
 62
7
 10
38.97621533
 20
6.81322754
  0
VERTEX
  8
0
 62
7
 10
38.96314453
 20
6.76572656
  0
VERTEX
  8
0
 62
7
 10
38.94602490
 20
6.71978418
  0
VERTEX
  8
0
 62
7
 10
38.92509375
 20
6.67568750
  0
VERTEX
  8
0
 62
7
 10
38.90058838
 20
6.63372363
  0
VERTEX
  8
0
 62
7
 10
38.87274609
 20
6.59417969
  0
VERTEX
  8
0
 62
7
 10
38.84180420
 20
6.55734277
  0
VERTEX
  8
0
 62
7
 10
38.80800000
 20
6.52350000
  0
VERTEX
  8
0
 62
7
 10
38.77157080
 20
6.49293848
  0
VERTEX
  8
0
 62
7
 10
38.73275391
 20
6.46594531
  0
VERTEX
  8
0
 62
7
 10
38.69178662
 20
6.44280762
  0
VERTEX
  8
0
 62
7
 10
38.64890625
 20
6.42381250
  0
VERTEX
  8
0
 62
7
 10
38.60435010
 20
6.40924707
  0
VERTEX
  8
0
 62
7
 10
38.55835547
 20
6.39939844
  0
VERTEX
  8
0
 62
7
 10
38.51115967
 20
6.39455371
  0
VERTEX
  8
0
 62
7
 10
38.46300000
 20
6.39500000
  0
VERTEX
  8
0
 62
7
 10
38.44575000
 20
6.42150000
  0
VERTEX
  8
0
 62
7
 10
38.40600000
 20
6.47500000
  0
VERTEX
  8
0
 62
7
 10
38.38559375
 20
6.49520313
  0
VERTEX
  8
0
 62
7
 10
38.36425000
 20
6.51287500
  0
VERTEX
  8
0
 62
7
 10
38.34553125
 20
6.52885938
  0
VERTEX
  8
0
 62
7
 10
38.33300000
 20
6.54400000
  0
VERTEX
  8
0
 62
7
 10
38.35566211
 20
6.56566016
  0
VERTEX
  8
0
 62
7
 10
38.37629688
 20
6.59053125
  0
VERTEX
  8
0
 62
7
 10
38.39475195
 20
6.61807422
  0
VERTEX
  8
0
 62
7
 10
38.41087500
 20
6.64775000
  0
VERTEX
  8
0
 62
7
 10
38.42451367
 20
6.67901953
  0
VERTEX
  8
0
 62
7
 10
38.43551563
 20
6.71134375
  0
VERTEX
  8
0
 62
7
 10
38.44372852
 20
6.74418359
  0
VERTEX
  8
0
 62
7
 10
38.44900000
 20
6.77700000
  0
VERTEX
  8
0
 62
7
 10
38.48084375
 20
6.83206250
  0
VERTEX
  8
0
 62
7
 10
38.50725000
 20
6.86950000
  0
VERTEX
  8
0
 62
7
 10
38.53253125
 20
6.90018750
  0
VERTEX
  8
0
 62
7
 10
38.56100000
 20
6.93500000
  0
VERTEX
  8
0
 62
7
 10
38.60739063
 20
6.99329688
  0
VERTEX
  8
0
 62
7
 10
38.65537500
 20
7.04962500
  0
VERTEX
  8
0
 62
7
 10
38.70542188
 20
7.10389063
  0
VERTEX
  8
0
 62
7
 10
38.75800000
 20
7.15600000
  0
VERTEX
  8
0
 62
7
 10
38.74900000
 20
7.17900000
  0
VERTEX
  8
0
 62
7
 10
38.60100000
 20
7.04000000
  0
VERTEX
  8
0
 62
7
 10
38.56142188
 20
7.00462500
  0
VERTEX
  8
0
 62
7
 10
38.52287500
 20
6.97150000
  0
VERTEX
  8
0
 62
7
 10
38.47964063
 20
6.93762500
  0
VERTEX
  8
0
 62
7
 10
38.42600000
 20
6.90000000
  0
SEQEND
  0
POLYLINE
  8
0
 62
7
 66
1
 70
1
  0
VERTEX
  8
0
 62
7
 10
38.42300000
 20
7.49700000
  0
VERTEX
  8
0
 62
7
 10
38.38000000
 20
7.48400000
  0
VERTEX
  8
0
 62
7
 10
38.28150000
 20
7.46593750
  0
VERTEX
  8
0
 62
7
 10
38.17775000
 20
7.45350000
  0
VERTEX
  8
0
 62
7
 10
38.07287500
 20
7.44631250
  0
VERTEX
  8
0
 62
7
 10
37.97100000
 20
7.44400000
  0
VERTEX
  8
0
 62
7
 10
37.86876563
 20
7.44631250
  0
VERTEX
  8
0
 62
7
 10
37.76512500
 20
7.45350000
  0
VERTEX
  8
0
 62
7
 10
37.66317188
 20
7.46593750
  0
VERTEX
  8
0
 62
7
 10
37.56600000
 20
7.48400000
  0
VERTEX
  8
0
 62
7
 10
37.51500000
 20
7.50000000
  0
VERTEX
  8
0
 62
7
 10
37.51400000
 20
7.49900000
  0
VERTEX
  8
0
 62
7
 10
37.56364063
 20
7.40789844
  0
VERTEX
  8
0
 62
7
 10
37.60343750
 20
7.32350000
  0
VERTEX
  8
0
 62
7
 10
37.63395313
 20
7.24453906
  0
VERTEX
  8
0
 62
7
 10
37.65575000
 20
7.16975000
  0
VERTEX
  8
0
 62
7
 10
37.66939063
 20
7.09786719
  0
VERTEX
  8
0
 62
7
 10
37.67543750
 20
7.02762500
  0
VERTEX
  8
0
 62
7
 10
37.67445313
 20
6.95775781
  0
VERTEX
  8
0
 62
7
 10
37.66700000
 20
6.88700000
  0
VERTEX
  8
0
 62
7
 10
37.66282373
 20
6.84511304
  0
VERTEX
  8
0
 62
7
 10
37.66260547
 20
6.80606055
  0
VERTEX
  8
0
 62
7
 10
37.66624854
 20
6.76981763
  0
VERTEX
  8
0
 62
7
 10
37.67365625
 20
6.73635938
  0
VERTEX
  8
0
 62
7
 10
37.68473193
 20
6.70566089
  0
VERTEX
  8
0
 62
7
 10
37.69937891
 20
6.67769727
  0
VERTEX
  8
0
 62
7
 10
37.71750049
 20
6.65244360
  0
VERTEX
  8
0
 62
7
 10
37.73900000
 20
6.62987500
  0
VERTEX
  8
0
 62
7
 10
37.76378076
 20
6.60996655
  0
VERTEX
  8
0
 62
7
 10
37.79174609
 20
6.59269336
  0
VERTEX
  8
0
 62
7
 10
37.82279932
 20
6.57803052
  0
VERTEX
  8
0
 62
7
 10
37.85684375
 20
6.56595313
  0
VERTEX
  8
0
 62
7
 10
37.89378271
 20
6.55643628
  0
VERTEX
  8
0
 62
7
 10
37.93351953
 20
6.54945508
  0
VERTEX
  8
0
 62
7
 10
37.97595752
 20
6.54498462
  0
VERTEX
  8
0
 62
7
 10
38.02100000
 20
6.54300000
  0
VERTEX
  8
0
 62
7
 10
38.05516870
 20
6.54388013
  0
VERTEX
  8
0
 62
7
 10
38.08950586
 20
6.54765039
  0
VERTEX
  8
0
 62
7
 10
38.12357056
 20
6.55431812
  0
VERTEX
  8
0
 62
7
 10
38.15692188
 20
6.56389063
  0
VERTEX
  8
0
 62
7
 10
38.18911890
 20
6.57637524
  0
VERTEX
  8
0
 62
7
 10
38.21972070
 20
6.59177930
  0
VERTEX
  8
0
 62
7
 10
38.24828638
 20
6.61011011
  0
VERTEX
  8
0
 62
7
 10
38.27437500
 20
6.63137500
  0
VERTEX
  8
0
 62
7
 10
38.29754565
 20
6.65558130
  0
VERTEX
  8
0
 62
7
 10
38.31735742
 20
6.68273633
  0
VERTEX
  8
0
 62
7
 10
38.33336938
 20
6.71284741
  0
VERTEX
  8
0
 62
7
 10
38.34514063
 20
6.74592188
  0
VERTEX
  8
0
 62
7
 10
38.35223022
 20
6.78196704
  0
VERTEX
  8
0
 62
7
 10
38.35419727
 20
6.82099023
  0
VERTEX
  8
0
 62
7
 10
38.35060083
 20
6.86299878
  0
VERTEX
  8
0
 62
7
 10
38.34100000
 20
6.90800000
  0
VERTEX
  8
0
 62
7
 10
38.33260449
 20
6.93970752
  0
VERTEX
  8
0
 62
7
 10
38.32516406
 20
6.97186328
  0
VERTEX
  8
0
 62
7
 10
38.31886035
 20
7.00451709
  0
VERTEX
  8
0
 62
7
 10
38.31387500
 20
7.03771875
  0
VERTEX
  8
0
 62
7
 10
38.31038965
 20
7.07151807
  0
VERTEX
  8
0
 62
7
 10
38.30858594
 20
7.10596484
  0
VERTEX
  8
0
 62
7
 10
38.30864551
 20
7.14110889
  0
VERTEX
  8
0
 62
7
 10
38.31075000
 20
7.17700000
  0
VERTEX
  8
0
 62
7
 10
38.31508105
 20
7.21368799
  0
VERTEX
  8
0
 62
7
 10
38.32182031
 20
7.25122266
  0
VERTEX
  8
0
 62
7
 10
38.33114941
 20
7.28965381
  0
VERTEX
  8
0
 62
7
 10
38.34325000
 20
7.32903125
  0
VERTEX
  8
0
 62
7
 10
38.35830371
 20
7.36940479
  0
VERTEX
  8
0
 62
7
 10
38.37649219
 20
7.41082422
  0
VERTEX
  8
0
 62
7
 10
38.39799707
 20
7.45333936
  0
VERTEX
  8
0
 62
7
 10
38.42300000
 20
7.49700000
  0
SEQEND
  0
POLYLINE
  8
0
 62
7
 66
1
 70
1
  0
VERTEX
  8
0
 62
7
 10
37.97100000
 20
7.53400000
  0
VERTEX
  8
0
 62
7
 10
37.87287500
 20
7.53628125
  0
VERTEX
  8
0
 62
7
 10
37.77400000
 20
7.54325000
  0
VERTEX
  8
0
 62
7
 10
37.67737500
 20
7.55509375
  0
VERTEX
  8
0
 62
7
 10
37.58600000
 20
7.57200000
  0
VERTEX
  8
0
 62
7
 10
37.57259644
 20
7.57552344
  0
VERTEX
  8
0
 62
7
 10
37.55841211
 20
7.58012500
  0
VERTEX
  8
0
 62
7
 10
37.54367407
 20
7.58585156
  0
VERTEX
  8
0
 62
7
 10
37.52860938
 20
7.59275000
  0
VERTEX
  8
0
 62
7
 10
37.51344507
 20
7.60086719
  0
VERTEX
  8
0
 62
7
 10
37.49840820
 20
7.61025000
  0
VERTEX
  8
0
 62
7
 10
37.48372583
 20
7.62094531
  0
VERTEX
  8
0
 62
7
 10
37.46962500
 20
7.63300000
  0
VERTEX
  8
0
 62
7
 10
37.45633276
 20
7.64646094
  0
VERTEX
  8
0
 62
7
 10
37.44407617
 20
7.66137500
  0
VERTEX
  8
0
 62
7
 10
37.43308228
 20
7.67778906
  0
VERTEX
  8
0
 62
7
 10
37.42357813
 20
7.69575000
  0
VERTEX
  8
0
 62
7
 10
37.41579077
 20
7.71530469
  0
VERTEX
  8
0
 62
7
 10
37.40994727
 20
7.73650000
  0
VERTEX
  8
0
 62
7
 10
37.40627466
 20
7.75938281
  0
VERTEX
  8
0
 62
7
 10
37.40500000
 20
7.78400000
  0
VERTEX
  8
0
 62
7
 10
37.40805469
 20
7.82571680
  0
VERTEX
  8
0
 62
7
 10
37.41706250
 20
7.86442188
  0
VERTEX
  8
0
 62
7
 10
37.43178906
 20
7.89982227
  0
VERTEX
  8
0
 62
7
 10
37.45200000
 20
7.93162500
  0
VERTEX
  8
0
 62
7
 10
37.47746094
 20
7.95953711
  0
VERTEX
  8
0
 62
7
 10
37.50793750
 20
7.98326563
  0
VERTEX
  8
0
 62
7
 10
37.54319531
 20
8.00251758
  0
VERTEX
  8
0
 62
7
 10
37.58300000
 20
8.01700000
  0
VERTEX
  8
0
 62
7
 10
37.62563672
 20
8.02779102
  0
VERTEX
  8
0
 62
7
 10
37.67190625
 20
8.03695313
  0
VERTEX
  8
0
 62
7
 10
37.72084766
 20
8.04454492
  0
VERTEX
  8
0
 62
7
 10
37.77150000
 20
8.05062500
  0
VERTEX
  8
0
 62
7
 10
37.82290234
 20
8.05525195
  0
VERTEX
  8
0
 62
7
 10
37.87409375
 20
8.05848438
  0
VERTEX
  8
0
 62
7
 10
37.92411328
 20
8.06038086
  0
VERTEX
  8
0
 62
7
 10
37.97200000
 20
8.06100000
  0
VERTEX
  8
0
 62
7
 10
38.01993164
 20
8.06038086
  0
VERTEX
  8
0
 62
7
 10
38.07007813
 20
8.05848438
  0
VERTEX
  8
0
 62
7
 10
38.12146680
 20
8.05525195
  0
VERTEX
  8
0
 62
7
 10
38.17312500
 20
8.05062500
  0
VERTEX
  8
0
 62
7
 10
38.22408008
 20
8.04454492
  0
VERTEX
  8
0
 62
7
 10
38.27335938
 20
8.03695313
  0
VERTEX
  8
0
 62
7
 10
38.31999023
 20
8.02779102
  0
VERTEX
  8
0
 62
7
 10
38.36300000
 20
8.01700000
  0
VERTEX
  8
0
 62
7
 10
38.40280469
 20
8.00251758
  0
VERTEX
  8
0
 62
7
 10
38.43806250
 20
7.98326563
  0
VERTEX
  8
0
 62
7
 10
38.46853906
 20
7.95953711
  0
VERTEX
  8
0
 62
7
 10
38.49400000
 20
7.93162500
  0
VERTEX
  8
0
 62
7
 10
38.51421094
 20
7.89982227
  0
VERTEX
  8
0
 62
7
 10
38.52893750
 20
7.86442188
  0
VERTEX
  8
0
 62
7
 10
38.53794531
 20
7.82571680
  0
VERTEX
  8
0
 62
7
 10
38.54100000
 20
7.78400000
  0
VERTEX
  8
0
 62
7
 10
38.53972534
 20
7.75938281
  0
VERTEX
  8
0
 62
7
 10
38.53605273
 20
7.73650000
  0
VERTEX
  8
0
 62
7
 10
38.53020923
 20
7.71530469
  0
VERTEX
  8
0
 62
7
 10
38.52242188
 20
7.69575000
  0
VERTEX
  8
0
 62
7
 10
38.51291772
 20
7.67778906
  0
VERTEX
  8
0
 62
7
 10
38.50192383
 20
7.66137500
  0
VERTEX
  8
0
 62
7
 10
38.48966724
 20
7.64646094
  0
VERTEX
  8
0
 62
7
 10
38.47637500
 20
7.63300000
  0
VERTEX
  8
0
 62
7
 10
38.46227417
 20
7.62094531
  0
VERTEX
  8
0
 62
7
 10
38.44759180
 20
7.61025000
  0
VERTEX
  8
0
 62
7
 10
38.43255493
 20
7.60086719
  0
VERTEX
  8
0
 62
7
 10
38.41739063
 20
7.59275000
  0
VERTEX
  8
0
 62
7
 10
38.40232593
 20
7.58585156
  0
VERTEX
  8
0
 62
7
 10
38.38758789
 20
7.58012500
  0
VERTEX
  8
0
 62
7
 10
38.37340356
 20
7.57552344
  0
VERTEX
  8
0
 62
7
 10
38.36000000
 20
7.57200000
  0
VERTEX
  8
0
 62
7
 10
38.26785938
 20
7.55509375
  0
VERTEX
  8
0
 62
7
 10
38.16962500
 20
7.54325000
  0
VERTEX
  8
0
 62
7
 10
38.06932813
 20
7.53628125
  0
VERTEX
  8
0
 62
7
 10
37.97100000
 20
7.53400000
  0
SEQEND
  0
POLYLINE
  8
0
 62
7
 66
1
 70
1
  0
VERTEX
  8
0
 62
7
 10
37.97100000
 20
7.69500000
  0
VERTEX
  8
0
 62
7
 10
37.87926563
 20
7.69793750
  0
VERTEX
  8
0
 62
7
 10
37.78762500
 20
7.70425000
  0
VERTEX
  8
0
 62
7
 10
37.69917188
 20
7.71468750
  0
VERTEX
  8
0
 62
7
 10
37.61700000
 20
7.73000000
  0
VERTEX
  8
0
 62
7
 10
37.60270898
 20
7.73383789
  0
VERTEX
  8
0
 62
7
 10
37.58929688
 20
7.73932813
  0
VERTEX
  8
0
 62
7
 10
37.57708008
 20
7.74643555
  0
VERTEX
  8
0
 62
7
 10
37.56637500
 20
7.75512500
  0
VERTEX
  8
0
 62
7
 10
37.55749805
 20
7.76536133
  0
VERTEX
  8
0
 62
7
 10
37.55076563
 20
7.77710938
  0
VERTEX
  8
0
 62
7
 10
37.54649414
 20
7.79033398
  0
VERTEX
  8
0
 62
7
 10
37.54500000
 20
7.80500000
  0
VERTEX
  8
0
 62
7
 10
37.54609180
 20
7.82323828
  0
VERTEX
  8
0
 62
7
 10
37.54942188
 20
7.83971875
  0
VERTEX
  8
0
 62
7
 10
37.55507227
 20
7.85446484
  0
VERTEX
  8
0
 62
7
 10
37.56312500
 20
7.86750000
  0
VERTEX
  8
0
 62
7
 10
37.57366211
 20
7.87884766
  0
VERTEX
  8
0
 62
7
 10
37.58676563
 20
7.88853125
  0
VERTEX
  8
0
 62
7
 10
37.60251758
 20
7.89657422
  0
VERTEX
  8
0
 62
7
 10
37.62100000
 20
7.90300000
  0
VERTEX
  8
0
 62
7
 10
37.69764063
 20
7.92020313
  0
VERTEX
  8
0
 62
7
 10
37.78637500
 20
7.93262500
  0
VERTEX
  8
0
 62
7
 10
37.88017188
 20
7.93998438
  0
VERTEX
  8
0
 62
7
 10
37.97200000
 20
7.94200000
  0
VERTEX
  8
0
 62
7
 10
38.06414063
 20
7.93998438
  0
VERTEX
  8
0
 62
7
 10
38.15862500
 20
7.93262500
  0
VERTEX
  8
0
 62
7
 10
38.24804688
 20
7.92020313
  0
VERTEX
  8
0
 62
7
 10
38.32500000
 20
7.90300000
  0
VERTEX
  8
0
 62
7
 10
38.34348242
 20
7.89657422
  0
VERTEX
  8
0
 62
7
 10
38.35923438
 20
7.88853125
  0
VERTEX
  8
0
 62
7
 10
38.37233789
 20
7.87884766
  0
VERTEX
  8
0
 62
7
 10
38.38287500
 20
7.86750000
  0
VERTEX
  8
0
 62
7
 10
38.39092773
 20
7.85446484
  0
VERTEX
  8
0
 62
7
 10
38.39657813
 20
7.83971875
  0
VERTEX
  8
0
 62
7
 10
38.39990820
 20
7.82323828
  0
VERTEX
  8
0
 62
7
 10
38.40100000
 20
7.80500000
  0
VERTEX
  8
0
 62
7
 10
38.39950586
 20
7.79033398
  0
VERTEX
  8
0
 62
7
 10
38.39523438
 20
7.77710938
  0
VERTEX
  8
0
 62
7
 10
38.38850195
 20
7.76536133
  0
VERTEX
  8
0
 62
7
 10
38.37962500
 20
7.75512500
  0
VERTEX
  8
0
 62
7
 10
38.36891992
 20
7.74643555
  0
VERTEX
  8
0
 62
7
 10
38.35670313
 20
7.73932813
  0
VERTEX
  8
0
 62
7
 10
38.34329102
 20
7.73383789
  0
VERTEX
  8
0
 62
7
 10
38.32900000
 20
7.73000000
  0
VERTEX
  8
0
 62
7
 10
38.24620313
 20
7.71468750
  0
VERTEX
  8
0
 62
7
 10
38.15637500
 20
7.70425000
  0
VERTEX
  8
0
 62
7
 10
38.06335938
 20
7.69793750
  0
VERTEX
  8
0
 62
7
 10
37.97100000
 20
7.69500000
  0
SEQEND
  0
POLYLINE
  8
0
 62
7
 66
1
 70
1
  0
VERTEX
  8
0
 62
7
 10
35.63500000
 20
7.33900000
  0
VERTEX
  8
0
 62
7
 10
35.65520313
 20
7.35043750
  0
VERTEX
  8
0
 62
7
 10
35.67662500
 20
7.35925000
  0
VERTEX
  8
0
 62
7
 10
35.69898438
 20
7.36543750
  0
VERTEX
  8
0
 62
7
 10
35.72200000
 20
7.36900000
  0
VERTEX
  8
0
 62
7
 10
35.75100000
 20
7.36975000
  0
VERTEX
  8
0
 62
7
 10
35.78000000
 20
7.36600000
  0
VERTEX
  8
0
 62
7
 10
35.76262500
 20
7.33650000
  0
VERTEX
  8
0
 62
7
 10
35.75200000
 20
7.30400000
  0
VERTEX
  8
0
 62
7
 10
35.74942969
 20
7.28349023
  0
VERTEX
  8
0
 62
7
 10
35.74981250
 20
7.26329688
  0
VERTEX
  8
0
 62
7
 10
35.75291406
 20
7.24354883
  0
VERTEX
  8
0
 62
7
 10
35.75850000
 20
7.22437500
  0
VERTEX
  8
0
 62
7
 10
35.76633594
 20
7.20590430
  0
VERTEX
  8
0
 62
7
 10
35.77618750
 20
7.18826563
  0
VERTEX
  8
0
 62
7
 10
35.78782031
 20
7.17158789
  0
VERTEX
  8
0
 62
7
 10
35.80100000
 20
7.15600000
  0
VERTEX
  8
0
 62
7
 10
35.81614063
 20
7.14178125
  0
VERTEX
  8
0
 62
7
 10
35.83287500
 20
7.12925000
  0
VERTEX
  8
0
 62
7
 10
35.85092188
 20
7.11859375
  0
VERTEX
  8
0
 62
7
 10
35.87000000
 20
7.11000000
  0
VERTEX
  8
0
 62
7
 10
35.83906055
 20
7.08860156
  0
VERTEX
  8
0
 62
7
 10
35.80548438
 20
7.07456250
  0
VERTEX
  8
0
 62
7
 10
35.77038477
 20
7.06774219
  0
VERTEX
  8
0
 62
7
 10
35.73487500
 20
7.06800000
  0
VERTEX
  8
0
 62
7
 10
35.70006836
 20
7.07519531
  0
VERTEX
  8
0
 62
7
 10
35.66707813
 20
7.08918750
  0
VERTEX
  8
0
 62
7
 10
35.63701758
 20
7.10983594
  0
VERTEX
  8
0
 62
7
 10
35.61100000
 20
7.13700000
  0
VERTEX
  8
0
 62
7
 10
35.59879688
 20
7.15406250
  0
VERTEX
  8
0
 62
7
 10
35.58837500
 20
7.17225000
  0
VERTEX
  8
0
 62
7
 10
35.58076563
 20
7.19156250
  0
VERTEX
  8
0
 62
7
 10
35.57700000
 20
7.21200000
  0
VERTEX
  8
0
 62
7
 10
35.57839063
 20
7.23337500
  0
VERTEX
  8
0
 62
7
 10
35.58437500
 20
7.25400000
  0
VERTEX
  8
0
 62
7
 10
35.59317188
 20
7.27387500
  0
VERTEX
  8
0
 62
7
 10
35.60300000
 20
7.29300000
  0
VERTEX
  8
0
 62
7
 10
35.61787500
 20
7.31712500
  0
VERTEX
  8
0
 62
7
 10
35.63500000
 20
7.33900000
  0
SEQEND
  0
POLYLINE
  8
0
 62
7
 66
1
 70
1
  0
VERTEX
  8
0
 62
7
 10
37.57400000
 20
6.91300000
  0
VERTEX
  8
0
 62
7
 10
37.52840625
 20
6.94620313
  0
VERTEX
  8
0
 62
7
 10
37.49050000
 20
6.97687500
  0
VERTEX
  8
0
 62
7
 10
37.45559375
 20
7.00735938
  0
VERTEX
  8
0
 62
7
 10
37.41900000
 20
7.04000000
  0
VERTEX
  8
0
 62
7
 10
37.27100000
 20
7.17900000
  0
VERTEX
  8
0
 62
7
 10
37.26200000
 20
7.15600000
  0
VERTEX
  8
0
 62
7
 10
37.31457813
 20
7.10389063
  0
VERTEX
  8
0
 62
7
 10
37.36462500
 20
7.04962500
  0
VERTEX
  8
0
 62
7
 10
37.41260938
 20
6.99329688
  0
VERTEX
  8
0
 62
7
 10
37.45900000
 20
6.93500000
  0
VERTEX
  8
0
 62
7
 10
37.48685938
 20
6.90082813
  0
VERTEX
  8
0
 62
7
 10
37.51162500
 20
6.87087500
  0
VERTEX
  8
0
 62
7
 10
37.53732813
 20
6.83473438
  0
VERTEX
  8
0
 62
7
 10
37.56800000
 20
6.78200000
  0
VERTEX
  8
0
 62
7
 10
37.57446875
 20
6.74723438
  0
VERTEX
  8
0
 62
7
 10
37.58525000
 20
6.71012500
  0
VERTEX
  8
0
 62
7
 10
37.60090625
 20
6.66795313
  0
VERTEX
  8
0
 62
7
 10
37.62200000
 20
6.61800000
  0
VERTEX
  8
0
 62
7
 10
37.62168750
 20
6.61171484
  0
VERTEX
  8
0
 62
7
 10
37.61687500
 20
6.60221875
  0
VERTEX
  8
0
 62
7
 10
37.60850000
 20
6.59005078
  0
VERTEX
  8
0
 62
7
 10
37.59750000
 20
6.57575000
  0
VERTEX
  8
0
 62
7
 10
37.58481250
 20
6.55985547
  0
VERTEX
  8
0
 62
7
 10
37.57137500
 20
6.54290625
  0
VERTEX
  8
0
 62
7
 10
37.55812500
 20
6.52544141
  0
VERTEX
  8
0
 62
7
 10
37.54600000
 20
6.50800000
  0
VERTEX
  8
0
 62
7
 10
37.49100000
 20
6.41000000
  0
VERTEX
  8
0
 62
7
 10
37.44310986
 20
6.40938525
  0
VERTEX
  8
0
 62
7
 10
37.39667578
 20
6.41375391
  0
VERTEX
  8
0
 62
7
 10
37.35186475
 20
6.42286279
  0
VERTEX
  8
0
 62
7
 10
37.30884375
 20
6.43646875
  0
VERTEX
  8
0
 62
7
 10
37.26777979
 20
6.45432861
  0
VERTEX
  8
0
 62
7
 10
37.22883984
 20
6.47619922
  0
VERTEX
  8
0
 62
7
 10
37.19219092
 20
6.50183740
  0
VERTEX
  8
0
 62
7
 10
37.15800000
 20
6.53100000
  0
VERTEX
  8
0
 62
7
 10
37.12643408
 20
6.56344385
  0
VERTEX
  8
0
 62
7
 10
37.09766016
 20
6.59892578
  0
VERTEX
  8
0
 62
7
 10
37.07184521
 20
6.63720264
  0
VERTEX
  8
0
 62
7
 10
37.04915625
 20
6.67803125
  0
VERTEX
  8
0
 62
7
 10
37.02976025
 20
6.72116846
  0
VERTEX
  8
0
 62
7
 10
37.01382422
 20
6.76637109
  0
VERTEX
  8
0
 62
7
 10
37.00151514
 20
6.81339600
  0
VERTEX
  8
0
 62
7
 10
36.99300000
 20
6.86200000
  0
VERTEX
  8
0
 62
7
 10
36.98207813
 20
6.91376758
  0
VERTEX
  8
0
 62
7
 10
36.96426563
 20
6.96254688
  0
VERTEX
  8
0
 62
7
 10
36.94061719
 20
7.00830273
  0
VERTEX
  8
0
 62
7
 10
36.91218750
 20
7.05100000
  0
VERTEX
  8
0
 62
7
 10
36.88003125
 20
7.09060352
  0
VERTEX
  8
0
 62
7
 10
36.84520313
 20
7.12707813
  0
VERTEX
  8
0
 62
7
 10
36.80875781
 20
7.16038867
  0
VERTEX
  8
0
 62
7
 10
36.77175000
 20
7.19050000
  0
VERTEX
  8
0
 62
7
 10
36.73523438
 20
7.21737695
  0
VERTEX
  8
0
 62
7
 10
36.70026563
 20
7.24098438
  0
VERTEX
  8
0
 62
7
 10
36.66789844
 20
7.26128711
  0
VERTEX
  8
0
 62
7
 10
36.63918750
 20
7.27825000
  0
VERTEX
  8
0
 62
7
 10
36.61518750
 20
7.29183789
  0
VERTEX
  8
0
 62
7
 10
36.59695313
 20
7.30201563
  0
VERTEX
  8
0
 62
7
 10
36.58553906
 20
7.30874805
  0
VERTEX
  8
0
 62
7
 10
36.58200000
 20
7.31200000
  0
VERTEX
  8
0
 62
7
 10
36.59111719
 20
7.32373853
  0
VERTEX
  8
0
 62
7
 10
36.60534375
 20
7.33597070
  0
VERTEX
  8
0
 62
7
 10
36.62411719
 20
7.34853394
  0
VERTEX
  8
0
 62
7
 10
36.64687500
 20
7.36126563
  0
VERTEX
  8
0
 62
7
 10
36.67305469
 20
7.37400317
  0
VERTEX
  8
0
 62
7
 10
36.70209375
 20
7.38658398
  0
VERTEX
  8
0
 62
7
 10
36.73342969
 20
7.39884546
  0
VERTEX
  8
0
 62
7
 10
36.76650000
 20
7.41062500
  0
VERTEX
  8
0
 62
7
 10
36.80074219
 20
7.42176001
  0
VERTEX
  8
0
 62
7
 10
36.83559375
 20
7.43208789
  0
VERTEX
  8
0
 62
7
 10
36.87049219
 20
7.44144604
  0
VERTEX
  8
0
 62
7
 10
36.90487500
 20
7.44967188
  0
VERTEX
  8
0
 62
7
 10
36.93817969
 20
7.45660278
  0
VERTEX
  8
0
 62
7
 10
36.96984375
 20
7.46207617
  0
VERTEX
  8
0
 62
7
 10
36.99930469
 20
7.46592944
  0
VERTEX
  8
0
 62
7
 10
37.02600000
 20
7.46800000
  0
VERTEX
  8
0
 62
7
 10
37.09049414
 20
7.46774805
  0
VERTEX
  8
0
 62
7
 10
37.15589063
 20
7.46185938
  0
VERTEX
  8
0
 62
7
 10
37.22131055
 20
7.45050977
  0
VERTEX
  8
0
 62
7
 10
37.28587500
 20
7.43387500
  0
VERTEX
  8
0
 62
7
 10
37.34870508
 20
7.41213086
  0
VERTEX
  8
0
 62
7
 10
37.40892188
 20
7.38545313
  0
VERTEX
  8
0
 62
7
 10
37.46564648
 20
7.35401758
  0
VERTEX
  8
0
 62
7
 10
37.51800000
 20
7.31800000
  0
VERTEX
  8
0
 62
7
 10
37.53436133
 20
7.27757422
  0
VERTEX
  8
0
 62
7
 10
37.54989063
 20
7.23909375
  0
VERTEX
  8
0
 62
7
 10
37.56375586
 20
7.20075391
  0
VERTEX
  8
0
 62
7
 10
37.57512500
 20
7.16075000
  0
VERTEX
  8
0
 62
7
 10
37.58316602
 20
7.11727734
  0
VERTEX
  8
0
 62
7
 10
37.58704688
 20
7.06853125
  0
VERTEX
  8
0
 62
7
 10
37.58593555
 20
7.01270703
  0
VERTEX
  8
0
 62
7
 10
37.57900000
 20
6.94800000
  0
VERTEX
  8
0
 62
7
 10
37.57400000
 20
6.91300000
  0
SEQEND
  0
ENDSEC
  0
EOF
