  0
SECTION
  2
ENTITIES
  0
POLYLINE
  8
0
 62
7
 66
1
  0
VERTEX
  8
0
 62
7
 10
6.60300000
 20
14.41000000
  0
VERTEX
  8
0
 62
7
 10
7.79300000
 20
14.41000000
  0
VERTEX
  8
0
 62
7
 10
7.79300000
 20
15.59000000
  0
VERTEX
  8
0
 62
7
 10
1.41000000
 20
15.59000000
  0
VERTEX
  8
0
 62
7
 10
1.41000000
 20
9.40900000
  0
VERTEX
  8
0
 62
7
 10
2.59000000
 20
9.40900000
  0
VERTEX
  8
0
 62
7
 10
2.59000000
 20
10.63900000
  0
VERTEX
  8
0
 62
7
 10
2.65591016
 20
10.67403711
  0
VERTEX
  8
0
 62
7
 10
2.71996875
 20
10.71192188
  0
VERTEX
  8
0
 62
7
 10
2.78191797
 20
10.75306445
  0
VERTEX
  8
0
 62
7
 10
2.84150000
 20
10.79787500
  0
VERTEX
  8
0
 62
7
 10
2.89845703
 20
10.84676367
  0
VERTEX
  8
0
 62
7
 10
2.95253125
 20
10.90014063
  0
VERTEX
  8
0
 62
7
 10
3.00346484
 20
10.95841602
  0
VERTEX
  8
0
 62
7
 10
3.05100000
 20
11.02200000
  0
VERTEX
  8
0
 62
7
 10
3.07163281
 20
11.05448047
  0
VERTEX
  8
0
 62
7
 10
3.09081250
 20
11.08946875
  0
VERTEX
  8
0
 62
7
 10
3.10858594
 20
11.12666016
  0
VERTEX
  8
0
 62
7
 10
3.12500000
 20
11.16575000
  0
VERTEX
  8
0
 62
7
 10
3.14010156
 20
11.20643359
  0
VERTEX
  8
0
 62
7
 10
3.15393750
 20
11.24840625
  0
VERTEX
  8
0
 62
7
 10
3.16655469
 20
11.29136328
  0
VERTEX
  8
0
 62
7
 10
3.17800000
 20
11.33500000
  0
VERTEX
  8
0
 62
7
 10
3.19651563
 20
11.32735938
  0
VERTEX
  8
0
 62
7
 10
3.21737500
 20
11.32337500
  0
VERTEX
  8
0
 62
7
 10
3.24029688
 20
11.32445313
  0
VERTEX
  8
0
 62
7
 10
3.26500000
 20
11.33200000
  0
VERTEX
  8
0
 62
7
 10
3.33342114
 20
11.36401196
  0
VERTEX
  8
0
 62
7
 10
3.39804102
 20
11.39928320
  0
VERTEX
  8
0
 62
7
 10
3.45883179
 20
11.43779175
  0
VERTEX
  8
0
 62
7
 10
3.51576563
 20
11.47951563
  0
VERTEX
  8
0
 62
7
 10
3.56881470
 20
11.52443286
  0
VERTEX
  8
0
 62
7
 10
3.61795117
 20
11.57252148
  0
VERTEX
  8
0
 62
7
 10
3.66314722
 20
11.62375952
  0
VERTEX
  8
0
 62
7
 10
3.70437500
 20
11.67812500
  0
VERTEX
  8
0
 62
7
 10
3.74160669
 20
11.73559595
  0
VERTEX
  8
0
 62
7
 10
3.77481445
 20
11.79615039
  0
VERTEX
  8
0
 62
7
 10
3.80397046
 20
11.85976636
  0
VERTEX
  8
0
 62
7
 10
3.82904688
 20
11.92642188
  0
VERTEX
  8
0
 62
7
 10
3.85001587
 20
11.99609497
  0
VERTEX
  8
0
 62
7
 10
3.86684961
 20
12.06876367
  0
VERTEX
  8
0
 62
7
 10
3.87952026
 20
12.14440601
  0
VERTEX
  8
0
 62
7
 10
3.88800000
 20
12.22300000
  0
VERTEX
  8
0
 62
7
 10
3.89200000
 20
12.33200000
  0
VERTEX
  8
0
 62
7
 10
3.89100000
 20
12.40500000
  0
VERTEX
  8
0
 62
7
 10
3.90030859
 20
12.40920117
  0
VERTEX
  8
0
 62
7
 10
3.91240625
 20
12.41592188
  0
VERTEX
  8
0
 62
7
 10
3.92605078
 20
12.42533789
  0
VERTEX
  8
0
 62
7
 10
3.94000000
 20
12.43762500
  0
VERTEX
  8
0
 62
7
 10
3.95301172
 20
12.45295898
  0
VERTEX
  8
0
 62
7
 10
3.96384375
 20
12.47151563
  0
VERTEX
  8
0
 62
7
 10
3.97125391
 20
12.49347070
  0
VERTEX
  8
0
 62
7
 10
3.97400000
 20
12.51900000
  0
VERTEX
  8
0
 62
7
 10
3.97237500
 20
12.53800000
  0
VERTEX
  8
0
 62
7
 10
3.96700000
 20
12.55700000
  0
VERTEX
  8
0
 62
7
 10
3.96025000
 20
12.58025000
  0
VERTEX
  8
0
 62
7
 10
3.95800000
 20
12.60200000
  0
VERTEX
  8
0
 62
7
 10
3.96025000
 20
12.62262500
  0
VERTEX
  8
0
 62
7
 10
3.96700000
 20
12.64400000
  0
VERTEX
  8
0
 62
7
 10
3.97414063
 20
12.65998438
  0
VERTEX
  8
0
 62
7
 10
3.98362500
 20
12.67362500
  0
VERTEX
  8
0
 62
7
 10
3.99779688
 20
12.68745313
  0
VERTEX
  8
0
 62
7
 10
4.01900000
 20
12.70400000
  0
VERTEX
  8
0
 62
7
 10
4.04604688
 20
12.72162500
  0
VERTEX
  8
0
 62
7
 10
4.06737500
 20
12.73325000
  0
VERTEX
  8
0
 62
7
 10
4.08551563
 20
12.74000000
  0
VERTEX
  8
0
 62
7
 10
4.10300000
 20
12.74300000
  0
VERTEX
  8
0
 62
7
 10
4.11200000
 20
12.74300000
  0
VERTEX
  8
0
 62
7
 10
4.13126563
 20
12.74132813
  0
VERTEX
  8
0
 62
7
 10
4.14987500
 20
12.73637500
  0
VERTEX
  8
0
 62
7
 10
4.16754688
 20
12.72823438
  0
VERTEX
  8
0
 62
7
 10
4.18400000
 20
12.71700000
  0
VERTEX
  8
0
 62
7
 10
4.20096875
 20
12.70565625
  0
VERTEX
  8
0
 62
7
 10
4.21850000
 20
12.69825000
  0
VERTEX
  8
0
 62
7
 10
4.23603125
 20
12.69421875
  0
VERTEX
  8
0
 62
7
 10
4.25300000
 20
12.69300000
  0
VERTEX
  8
0
 62
7
 10
4.27581250
 20
12.69541406
  0
VERTEX
  8
0
 62
7
 10
4.29862500
 20
12.70237500
  0
VERTEX
  8
0
 62
7
 10
4.32050000
 20
12.71346094
  0
VERTEX
  8
0
 62
7
 10
4.34050000
 20
12.72825000
  0
VERTEX
  8
0
 62
7
 10
4.35768750
 20
12.74632031
  0
VERTEX
  8
0
 62
7
 10
4.37112500
 20
12.76725000
  0
VERTEX
  8
0
 62
7
 10
4.37987500
 20
12.79061719
  0
VERTEX
  8
0
 62
7
 10
4.38300000
 20
12.81600000
  0
VERTEX
  8
0
 62
7
 10
4.38112500
 20
12.83525000
  0
VERTEX
  8
0
 62
7
 10
4.37400000
 20
12.85600000
  0
VERTEX
  8
0
 62
7
 10
4.36800000
 20
12.89300000
  0
VERTEX
  8
0
 62
7
 10
4.37625000
 20
12.92000000
  0
VERTEX
  8
0
 62
7
 10
4.38900000
 20
12.95000000
  0
VERTEX
  8
0
 62
7
 10
4.40100000
 20
12.97300000
  0
VERTEX
  8
0
 62
7
 10
4.42046875
 20
13.02170313
  0
VERTEX
  8
0
 62
7
 10
4.43600000
 20
13.07312500
  0
VERTEX
  8
0
 62
7
 10
4.44628125
 20
13.12698438
  0
VERTEX
  8
0
 62
7
 10
4.45000000
 20
13.18300000
  0
VERTEX
  8
0
 62
7
 10
4.44800000
 20
13.21900000
  0
VERTEX
  8
0
 62
7
 10
4.44459180
 20
13.24368359
  0
VERTEX
  8
0
 62
7
 10
4.43910938
 20
13.26740625
  0
VERTEX
  8
0
 62
7
 10
4.43191602
 20
13.29005078
  0
VERTEX
  8
0
 62
7
 10
4.42337500
 20
13.31150000
  0
VERTEX
  8
0
 62
7
 10
4.41384961
 20
13.33163672
  0
VERTEX
  8
0
 62
7
 10
4.40370313
 20
13.35034375
  0
VERTEX
  8
0
 62
7
 10
4.39329883
 20
13.36750391
  0
VERTEX
  8
0
 62
7
 10
4.38300000
 20
13.38300000
  0
VERTEX
  8
0
 62
7
 10
4.36312500
 20
13.40875000
  0
VERTEX
  8
0
 62
7
 10
4.34100000
 20
13.43300000
  0
VERTEX
  8
0
 62
7
 10
4.37262500
 20
13.43837500
  0
VERTEX
  8
0
 62
7
 10
4.40500000
 20
13.44900000
  0
VERTEX
  8
0
 62
7
 10
4.42600000
 20
13.45700000
  0
VERTEX
  8
0
 62
7
 10
4.48868359
 20
13.41756836
  0
VERTEX
  8
0
 62
7
 10
4.55434375
 20
13.38267188
  0
VERTEX
  8
0
 62
7
 10
4.62276953
 20
13.35253320
  0
VERTEX
  8
0
 62
7
 10
4.69375000
 20
13.32737500
  0
VERTEX
  8
0
 62
7
 10
4.76707422
 20
13.30741992
  0
VERTEX
  8
0
 62
7
 10
4.84253125
 20
13.29289063
  0
VERTEX
  8
0
 62
7
 10
4.91991016
 20
13.28400977
  0
VERTEX
  8
0
 62
7
 10
4.99900000
 20
13.28100000
  0
VERTEX
  8
0
 62
7
 10
5.06745972
 20
13.28325024
  0
VERTEX
  8
0
 62
7
 10
5.13474023
 20
13.28990820
  0
VERTEX
  8
0
 62
7
 10
5.20069360
 20
13.30083472
  0
VERTEX
  8
0
 62
7
 10
5.26517188
 20
13.31589063
  0
VERTEX
  8
0
 62
7
 10
5.32802710
 20
13.33493677
  0
VERTEX
  8
0
 62
7
 10
5.38911133
 20
13.35783398
  0
VERTEX
  8
0
 62
7
 10
5.44827661
 20
13.38444312
  0
VERTEX
  8
0
 62
7
 10
5.50537500
 20
13.41462500
  0
VERTEX
  8
0
 62
7
 10
5.56025854
 20
13.44824048
  0
VERTEX
  8
0
 62
7
 10
5.61277930
 20
13.48515039
  0
VERTEX
  8
0
 62
7
 10
5.66278931
 20
13.52521558
  0
VERTEX
  8
0
 62
7
 10
5.71014063
 20
13.56829688
  0
VERTEX
  8
0
 62
7
 10
5.75468530
 20
13.61425513
  0
VERTEX
  8
0
 62
7
 10
5.79627539
 20
13.66295117
  0
VERTEX
  8
0
 62
7
 10
5.83476294
 20
13.71424585
  0
VERTEX
  8
0
 62
7
 10
5.87000000
 20
13.76800000
  0
VERTEX
  8
0
 62
7
 10
5.95200000
 20
13.90100000
  0
VERTEX
  8
0
 62
7
 10
5.79700000
 20
13.91900000
  0
VERTEX
  8
0
 62
7
 10
5.76901172
 20
13.92416406
  0
VERTEX
  8
0
 62
7
 10
5.74221875
 20
13.93275000
  0
VERTEX
  8
0
 62
7
 10
5.71687891
 20
13.94452344
  0
VERTEX
  8
0
 62
7
 10
5.69325000
 20
13.95925000
  0
VERTEX
  8
0
 62
7
 10
5.67158984
 20
13.97669531
  0
VERTEX
  8
0
 62
7
 10
5.65215625
 20
13.99662500
  0
VERTEX
  8
0
 62
7
 10
5.63520703
 20
14.01880469
  0
VERTEX
  8
0
 62
7
 10
5.62100000
 20
14.04300000
  0
VERTEX
  8
0
 62
7
 10
5.58925000
 20
14.09987500
  0
VERTEX
  8
0
 62
7
 10
5.55300000
 20
14.15300000
  0
VERTEX
  8
0
 62
7
 10
5.64231250
 20
14.13562500
  0
VERTEX
  8
0
 62
7
 10
5.73125000
 20
14.12275000
  0
VERTEX
  8
0
 62
7
 10
5.81906250
 20
14.11475000
  0
VERTEX
  8
0
 62
7
 10
5.90500000
 20
14.11200000
  0
VERTEX
  8
0
 62
7
 10
5.92400000
 20
14.11200000
  0
VERTEX
  8
0
 62
7
 10
5.94300000
 20
14.11200000
  0
VERTEX
  8
0
 62
7
 10
5.98512500
 20
14.11312500
  0
VERTEX
  8
0
 62
7
 10
6.03400000
 20
14.11800000
  0
VERTEX
  8
0
 62
7
 10
6.12620703
 20
14.13620703
  0
VERTEX
  8
0
 62
7
 10
6.21121875
 20
14.15940625
  0
VERTEX
  8
0
 62
7
 10
6.28962109
 20
14.18771484
  0
VERTEX
  8
0
 62
7
 10
6.36200000
 20
14.22125000
  0
VERTEX
  8
0
 62
7
 10
6.42894141
 20
14.26012891
  0
VERTEX
  8
0
 62
7
 10
6.49103125
 20
14.30446875
  0
VERTEX
  8
0
 62
7
 10
6.54885547
 20
14.35438672
  0
VERTEX
  8
0
 62
7
 10
6.60300000
 20
14.41000000
  0
SEQEND
  0
POLYLINE
  8
0
 62
7
 66
1
 70
1
  0
VERTEX
  8
0
 62
7
 10
2.84600000
 20
11.98300000
  0
VERTEX
  8
0
 62
7
 10
2.83808789
 20
11.90819922
  0
VERTEX
  8
0
 62
7
 10
2.82714063
 20
11.83384375
  0
VERTEX
  8
0
 62
7
 10
2.81321680
 20
11.76000391
  0
VERTEX
  8
0
 62
7
 10
2.79637500
 20
11.68675000
  0
VERTEX
  8
0
 62
7
 10
2.77667383
 20
11.61415234
  0
VERTEX
  8
0
 62
7
 10
2.75417188
 20
11.54228125
  0
VERTEX
  8
0
 62
7
 10
2.72892773
 20
11.47120703
  0
VERTEX
  8
0
 62
7
 10
2.70100000
 20
11.40100000
  0
VERTEX
  8
0
 62
7
 10
2.66639453
 20
11.32499219
  0
VERTEX
  8
0
 62
7
 10
2.62796875
 20
11.25137500
  0
VERTEX
  8
0
 62
7
 10
2.58593359
 20
11.18000781
  0
VERTEX
  8
0
 62
7
 10
2.54050000
 20
11.11075000
  0
VERTEX
  8
0
 62
7
 10
2.49187891
 20
11.04346094
  0
VERTEX
  8
0
 62
7
 10
2.44028125
 20
10.97800000
  0
VERTEX
  8
0
 62
7
 10
2.38591797
 20
10.91422656
  0
VERTEX
  8
0
 62
7
 10
2.32900000
 20
10.85200000
  0
VERTEX
  8
0
 62
7
 10
2.29200000
 20
10.88000000
  0
VERTEX
  8
0
 62
7
 10
2.34611719
 20
10.94075000
  0
VERTEX
  8
0
 62
7
 10
2.39681250
 20
11.00431250
  0
VERTEX
  8
0
 62
7
 10
2.44422656
 20
11.07040625
  0
VERTEX
  8
0
 62
7
 10
2.48850000
 20
11.13875000
  0
VERTEX
  8
0
 62
7
 10
2.52977344
 20
11.20906250
  0
VERTEX
  8
0
 62
7
 10
2.56818750
 20
11.28106250
  0
VERTEX
  8
0
 62
7
 10
2.60388281
 20
11.35446875
  0
VERTEX
  8
0
 62
7
 10
2.63700000
 20
11.42900000
  0
VERTEX
  8
0
 62
7
 10
2.66919531
 20
11.51030469
  0
VERTEX
  8
0
 62
7
 10
2.69750000
 20
11.59287500
  0
VERTEX
  8
0
 62
7
 10
2.72186719
 20
11.67657031
  0
VERTEX
  8
0
 62
7
 10
2.74225000
 20
11.76125000
  0
VERTEX
  8
0
 62
7
 10
2.75860156
 20
11.84677344
  0
VERTEX
  8
0
 62
7
 10
2.77087500
 20
11.93300000
  0
VERTEX
  8
0
 62
7
 10
2.77902344
 20
12.01978906
  0
VERTEX
  8
0
 62
7
 10
2.78300000
 20
12.10700000
  0
VERTEX
  8
0
 62
7
 10
2.74789063
 20
12.03625000
  0
VERTEX
  8
0
 62
7
 10
2.70687500
 20
11.96850000
  0
VERTEX
  8
0
 62
7
 10
2.65967188
 20
11.90450000
  0
VERTEX
  8
0
 62
7
 10
2.60600000
 20
11.84500000
  0
VERTEX
  8
0
 62
7
 10
2.54913281
 20
11.79083594
  0
VERTEX
  8
0
 62
7
 10
2.49025000
 20
11.74037500
  0
VERTEX
  8
0
 62
7
 10
2.42930469
 20
11.69403906
  0
VERTEX
  8
0
 62
7
 10
2.36625000
 20
11.65225000
  0
VERTEX
  8
0
 62
7
 10
2.30103906
 20
11.61542969
  0
VERTEX
  8
0
 62
7
 10
2.23362500
 20
11.58400000
  0
VERTEX
  8
0
 62
7
 10
2.16396094
 20
11.55838281
  0
VERTEX
  8
0
 62
7
 10
2.09200000
 20
11.53900000
  0
VERTEX
  8
0
 62
7
 10
2.07966724
 20
11.49362134
  0
VERTEX
  8
0
 62
7
 10
2.07124414
 20
11.44958008
  0
VERTEX
  8
0
 62
7
 10
2.06628101
 20
11.40664331
  0
VERTEX
  8
0
 62
7
 10
2.06432813
 20
11.36457813
  0
VERTEX
  8
0
 62
7
 10
2.06493579
 20
11.32315161
  0
VERTEX
  8
0
 62
7
 10
2.06765430
 20
11.28213086
  0
VERTEX
  8
0
 62
7
 10
2.07203394
 20
11.24128296
  0
VERTEX
  8
0
 62
7
 10
2.07762500
 20
11.20037500
  0
VERTEX
  8
0
 62
7
 10
2.08397778
 20
11.15917407
  0
VERTEX
  8
0
 62
7
 10
2.09064258
 20
11.11744727
  0
VERTEX
  8
0
 62
7
 10
2.09716968
 20
11.07496167
  0
VERTEX
  8
0
 62
7
 10
2.10310938
 20
11.03148438
  0
VERTEX
  8
0
 62
7
 10
2.10801196
 20
10.98678247
  0
VERTEX
  8
0
 62
7
 10
2.11142773
 20
10.94062305
  0
VERTEX
  8
0
 62
7
 10
2.11290698
 20
10.89277319
  0
VERTEX
  8
0
 62
7
 10
2.11200000
 20
10.84300000
  0
VERTEX
  8
0
 62
7
 10
2.10969531
 20
10.82127148
  0
VERTEX
  8
0
 62
7
 10
2.10462500
 20
10.79160938
  0
VERTEX
  8
0
 62
7
 10
2.09730469
 20
10.75667383
  0
VERTEX
  8
0
 62
7
 10
2.08825000
 20
10.71912500
  0
VERTEX
  8
0
 62
7
 10
2.07797656
 20
10.68162305
  0
VERTEX
  8
0
 62
7
 10
2.06700000
 20
10.64682813
  0
VERTEX
  8
0
 62
7
 10
2.05583594
 20
10.61740039
  0
VERTEX
  8
0
 62
7
 10
2.04500000
 20
10.59600000
  0
VERTEX
  8
0
 62
7
 10
2.07842578
 20
10.59422656
  0
VERTEX
  8
0
 62
7
 10
2.11871875
 20
10.59606250
  0
VERTEX
  8
0
 62
7
 10
2.16365234
 20
10.60099219
  0
VERTEX
  8
0
 62
7
 10
2.21100000
 20
10.60850000
  0
VERTEX
  8
0
 62
7
 10
2.25853516
 20
10.61807031
  0
VERTEX
  8
0
 62
7
 10
2.30403125
 20
10.62918750
  0
VERTEX
  8
0
 62
7
 10
2.34526172
 20
10.64133594
  0
VERTEX
  8
0
 62
7
 10
2.38000000
 20
10.65400000
  0
VERTEX
  8
0
 62
7
 10
2.46802148
 20
10.69158008
  0
VERTEX
  8
0
 62
7
 10
2.55260938
 20
10.73207813
  0
VERTEX
  8
0
 62
7
 10
2.63342383
 20
10.77625586
  0
VERTEX
  8
0
 62
7
 10
2.71012500
 20
10.82487500
  0
VERTEX
  8
0
 62
7
 10
2.78237305
 20
10.87869727
  0
VERTEX
  8
0
 62
7
 10
2.84982813
 20
10.93848438
  0
VERTEX
  8
0
 62
7
 10
2.91215039
 20
11.00499805
  0
VERTEX
  8
0
 62
7
 10
2.96900000
 20
11.07900000
  0
VERTEX
  8
0
 62
7
 10
2.99814063
 20
11.12769922
  0
VERTEX
  8
0
 62
7
 10
3.02418750
 20
11.18303125
  0
VERTEX
  8
0
 62
7
 10
3.04732813
 20
11.24384766
  0
VERTEX
  8
0
 62
7
 10
3.06775000
 20
11.30900000
  0
VERTEX
  8
0
 62
7
 10
3.08564063
 20
11.37733984
  0
VERTEX
  8
0
 62
7
 10
3.10118750
 20
11.44771875
  0
VERTEX
  8
0
 62
7
 10
3.11457813
 20
11.51898828
  0
VERTEX
  8
0
 62
7
 10
3.12600000
 20
11.59000000
  0
VERTEX
  8
0
 62
7
 10
3.10390625
 20
11.62914063
  0
VERTEX
  8
0
 62
7
 10
3.07900000
 20
11.66687500
  0
VERTEX
  8
0
 62
7
 10
3.05259375
 20
11.70292188
  0
VERTEX
  8
0
 62
7
 10
3.02600000
 20
11.73700000
  0
VERTEX
  8
0
 62
7
 10
3.00800000
 20
11.75800000
  0
VERTEX
  8
0
 62
7
 10
2.96103125
 20
11.81565625
  0
VERTEX
  8
0
 62
7
 10
2.91800000
 20
11.87125000
  0
VERTEX
  8
0
 62
7
 10
2.87946875
 20
11.92646875
  0
VERTEX
  8
0
 62
7
 10
2.84600000
 20
11.98300000
  0
SEQEND
  0
POLYLINE
  8
0
 62
7
 66
1
 70
1
  0
VERTEX
  8
0
 62
7
 10
2.47400000
 20
12.68800000
  0
VERTEX
  8
0
 62
7
 10
2.41439063
 20
12.61532813
  0
VERTEX
  8
0
 62
7
 10
2.36012500
 20
12.53862500
  0
VERTEX
  8
0
 62
7
 10
2.31129688
 20
12.45835938
  0
VERTEX
  8
0
 62
7
 10
2.26800000
 20
12.37500000
  0
VERTEX
  8
0
 62
7
 10
2.24981250
 20
12.33012500
  0
VERTEX
  8
0
 62
7
 10
2.23500000
 20
12.28450000
  0
VERTEX
  8
0
 62
7
 10
2.22243750
 20
12.23887500
  0
VERTEX
  8
0
 62
7
 10
2.21100000
 20
12.19400000
  0
VERTEX
  8
0
 62
7
 10
2.19991992
 20
12.14763672
  0
VERTEX
  8
0
 62
7
 10
2.18817188
 20
12.10228125
  0
VERTEX
  8
0
 62
7
 10
2.17536914
 20
12.05791016
  0
VERTEX
  8
0
 62
7
 10
2.16112500
 20
12.01450000
  0
VERTEX
  8
0
 62
7
 10
2.14505273
 20
11.97202734
  0
VERTEX
  8
0
 62
7
 10
2.12676563
 20
11.93046875
  0
VERTEX
  8
0
 62
7
 10
2.10587695
 20
11.88980078
  0
VERTEX
  8
0
 62
7
 10
2.08200000
 20
11.85000000
  0
VERTEX
  8
0
 62
7
 10
2.12100000
 20
11.82700000
  0
VERTEX
  8
0
 62
7
 10
2.14673828
 20
11.86902930
  0
VERTEX
  8
0
 62
7
 10
2.17128125
 20
11.91179688
  0
VERTEX
  8
0
 62
7
 10
2.19437109
 20
11.95519727
  0
VERTEX
  8
0
 62
7
 10
2.21575000
 20
11.99912500
  0
VERTEX
  8
0
 62
7
 10
2.23516016
 20
12.04347461
  0
VERTEX
  8
0
 62
7
 10
2.25234375
 20
12.08814063
  0
VERTEX
  8
0
 62
7
 10
2.26704297
 20
12.13301758
  0
VERTEX
  8
0
 62
7
 10
2.27900000
 20
12.17800000
  0
VERTEX
  8
0
 62
7
 10
2.29009375
 20
12.22223438
  0
VERTEX
  8
0
 62
7
 10
2.30175000
 20
12.26487500
  0
VERTEX
  8
0
 62
7
 10
2.31528125
 20
12.30582813
  0
VERTEX
  8
0
 62
7
 10
2.33200000
 20
12.34500000
  0
VERTEX
  8
0
 62
7
 10
2.37025000
 20
12.41996875
  0
VERTEX
  8
0
 62
7
 10
2.41300000
 20
12.49175000
  0
VERTEX
  8
0
 62
7
 10
2.46025000
 20
12.56015625
  0
VERTEX
  8
0
 62
7
 10
2.51200000
 20
12.62500000
  0
VERTEX
  8
0
 62
7
 10
2.51500000
 20
12.60000000
  0
VERTEX
  8
0
 62
7
 10
2.51335547
 20
12.56037305
  0
VERTEX
  8
0
 62
7
 10
2.51609375
 20
12.52673438
  0
VERTEX
  8
0
 62
7
 10
2.52234766
 20
12.49869727
  0
VERTEX
  8
0
 62
7
 10
2.53125000
 20
12.47587500
  0
VERTEX
  8
0
 62
7
 10
2.54193359
 20
12.45788086
  0
VERTEX
  8
0
 62
7
 10
2.55353125
 20
12.44432813
  0
VERTEX
  8
0
 62
7
 10
2.56517578
 20
12.43483008
  0
VERTEX
  8
0
 62
7
 10
2.57600000
 20
12.42900000
  0
VERTEX
  8
0
 62
7
 10
2.58331055
 20
12.42583398
  0
VERTEX
  8
0
 62
7
 10
2.59135938
 20
12.42204688
  0
VERTEX
  8
0
 62
7
 10
2.60069727
 20
12.41833008
  0
VERTEX
  8
0
 62
7
 10
2.61187500
 20
12.41537500
  0
VERTEX
  8
0
 62
7
 10
2.62544336
 20
12.41387305
  0
VERTEX
  8
0
 62
7
 10
2.64195313
 20
12.41451563
  0
VERTEX
  8
0
 62
7
 10
2.66195508
 20
12.41799414
  0
VERTEX
  8
0
 62
7
 10
2.68600000
 20
12.42500000
  0
VERTEX
  8
0
 62
7
 10
2.73200000
 20
12.43800000
  0
VERTEX
  8
0
 62
7
 10
2.74500000
 20
12.43900000
  0
VERTEX
  8
0
 62
7
 10
2.79000000
 20
12.43500000
  0
VERTEX
  8
0
 62
7
 10
2.81000000
 20
12.43300000
  0
VERTEX
  8
0
 62
7
 10
2.79791211
 20
12.35835156
  0
VERTEX
  8
0
 62
7
 10
2.78098438
 20
12.28412500
  0
VERTEX
  8
0
 62
7
 10
2.75897070
 20
12.21102344
  0
VERTEX
  8
0
 62
7
 10
2.73162500
 20
12.13975000
  0
VERTEX
  8
0
 62
7
 10
2.69870117
 20
12.07100781
  0
VERTEX
  8
0
 62
7
 10
2.65995313
 20
12.00550000
  0
VERTEX
  8
0
 62
7
 10
2.61513477
 20
11.94392969
  0
VERTEX
  8
0
 62
7
 10
2.56400000
 20
11.88700000
  0
VERTEX
  8
0
 62
7
 10
2.53050708
 20
11.85449365
  0
VERTEX
  8
0
 62
7
 10
2.49640039
 20
11.82340234
  0
VERTEX
  8
0
 62
7
 10
2.46167554
 20
11.79380518
  0
VERTEX
  8
0
 62
7
 10
2.42632813
 20
11.76578125
  0
VERTEX
  8
0
 62
7
 10
2.39035376
 20
11.73940967
  0
VERTEX
  8
0
 62
7
 10
2.35374805
 20
11.71476953
  0
VERTEX
  8
0
 62
7
 10
2.31650659
 20
11.69193994
  0
VERTEX
  8
0
 62
7
 10
2.27862500
 20
11.67100000
  0
VERTEX
  8
0
 62
7
 10
2.24009888
 20
11.65202881
  0
VERTEX
  8
0
 62
7
 10
2.20092383
 20
11.63510547
  0
VERTEX
  8
0
 62
7
 10
2.16109546
 20
11.62030908
  0
VERTEX
  8
0
 62
7
 10
2.12060938
 20
11.60771875
  0
VERTEX
  8
0
 62
7
 10
2.07946118
 20
11.59741357
  0
VERTEX
  8
0
 62
7
 10
2.03764648
 20
11.58947266
  0
VERTEX
  8
0
 62
7
 10
1.99516089
 20
11.58397510
  0
VERTEX
  8
0
 62
7
 10
1.95200000
 20
11.58100000
  0
VERTEX
  8
0
 62
7
 10
1.95962891
 20
11.61587695
  0
VERTEX
  8
0
 62
7
 10
1.96071875
 20
11.65020313
  0
VERTEX
  8
0
 62
7
 10
1.95632422
 20
11.68427148
  0
VERTEX
  8
0
 62
7
 10
1.94750000
 20
11.71837500
  0
VERTEX
  8
0
 62
7
 10
1.93530078
 20
11.75280664
  0
VERTEX
  8
0
 62
7
 10
1.92078125
 20
11.78785938
  0
VERTEX
  8
0
 62
7
 10
1.90499609
 20
11.82382617
  0
VERTEX
  8
0
 62
7
 10
1.88900000
 20
11.86100000
  0
VERTEX
  8
0
 62
7
 10
1.87085620
 20
11.90633130
  0
VERTEX
  8
0
 62
7
 10
1.85480273
 20
11.95224414
  0
VERTEX
  8
0
 62
7
 10
1.84103149
 20
11.99861694
  0
VERTEX
  8
0
 62
7
 10
1.82973438
 20
12.04532813
  0
VERTEX
  8
0
 62
7
 10
1.82110327
 20
12.09225610
  0
VERTEX
  8
0
 62
7
 10
1.81533008
 20
12.13927930
  0
VERTEX
  8
0
 62
7
 10
1.81260669
 20
12.18627612
  0
VERTEX
  8
0
 62
7
 10
1.81312500
 20
12.23312500
  0
VERTEX
  8
0
 62
7
 10
1.81707690
 20
12.27970435
  0
VERTEX
  8
0
 62
7
 10
1.82465430
 20
12.32589258
  0
VERTEX
  8
0
 62
7
 10
1.83604907
 20
12.37156812
  0
VERTEX
  8
0
 62
7
 10
1.85145313
 20
12.41660938
  0
VERTEX
  8
0
 62
7
 10
1.87105835
 20
12.46089478
  0
VERTEX
  8
0
 62
7
 10
1.89505664
 20
12.50430273
  0
VERTEX
  8
0
 62
7
 10
1.92363989
 20
12.54671167
  0
VERTEX
  8
0
 62
7
 10
1.95700000
 20
12.58800000
  0
VERTEX
  8
0
 62
7
 10
1.99410938
 20
12.62684375
  0
VERTEX
  8
0
 62
7
 10
2.03562500
 20
12.66550000
  0
VERTEX
  8
0
 62
7
 10
2.08032813
 20
12.70190625
  0
VERTEX
  8
0
 62
7
 10
2.12700000
 20
12.73400000
  0
VERTEX
  8
0
 62
7
 10
2.14743750
 20
12.71646875
  0
VERTEX
  8
0
 62
7
 10
2.17050000
 20
12.70325000
  0
VERTEX
  8
0
 62
7
 10
2.19506250
 20
12.69490625
  0
VERTEX
  8
0
 62
7
 10
2.22000000
 20
12.69200000
  0
VERTEX
  8
0
 62
7
 10
2.23696875
 20
12.69334375
  0
VERTEX
  8
0
 62
7
 10
2.25450000
 20
12.69750000
  0
VERTEX
  8
0
 62
7
 10
2.27203125
 20
12.70465625
  0
VERTEX
  8
0
 62
7
 10
2.28900000
 20
12.71500000
  0
VERTEX
  8
0
 62
7
 10
2.30660938
 20
12.72739063
  0
VERTEX
  8
0
 62
7
 10
2.32487500
 20
12.73612500
  0
VERTEX
  8
0
 62
7
 10
2.34370313
 20
12.74129688
  0
VERTEX
  8
0
 62
7
 10
2.36300000
 20
12.74300000
  0
VERTEX
  8
0
 62
7
 10
2.37100000
 20
12.74200000
  0
VERTEX
  8
0
 62
7
 10
2.38860938
 20
12.74025000
  0
VERTEX
  8
0
 62
7
 10
2.40462500
 20
12.73550000
  0
VERTEX
  8
0
 62
7
 10
2.42232813
 20
12.72625000
  0
VERTEX
  8
0
 62
7
 10
2.44500000
 20
12.71100000
  0
VERTEX
  8
0
 62
7
 10
2.47400000
 20
12.68800000
  0
SEQEND
  0
POLYLINE
  8
0
 62
7
 66
1
 70
1
  0
VERTEX
  8
0
 62
7
 10
3.26700000
 20
12.58100000
  0
VERTEX
  8
0
 62
7
 10
3.28431250
 20
12.45896875
  0
VERTEX
  8
0
 62
7
 10
3.29675000
 20
12.33675000
  0
VERTEX
  8
0
 62
7
 10
3.30356250
 20
12.21340625
  0
VERTEX
  8
0
 62
7
 10
3.30400000
 20
12.08800000
  0
VERTEX
  8
0
 62
7
 10
3.30265625
 20
12.00673438
  0
VERTEX
  8
0
 62
7
 10
3.30075000
 20
11.92162500
  0
VERTEX
  8
0
 62
7
 10
3.29696875
 20
11.83670313
  0
VERTEX
  8
0
 62
7
 10
3.29000000
 20
11.75600000
  0
VERTEX
  8
0
 62
7
 10
3.33000000
 20
11.74400000
  0
VERTEX
  8
0
 62
7
 10
3.33900000
 20
11.82620313
  0
VERTEX
  8
0
 62
7
 10
3.34725000
 20
11.91262500
  0
VERTEX
  8
0
 62
7
 10
3.35362500
 20
11.99923438
  0
VERTEX
  8
0
 62
7
 10
3.35700000
 20
12.08200000
  0
VERTEX
  8
0
 62
7
 10
3.35789063
 20
12.18839063
  0
VERTEX
  8
0
 62
7
 10
3.35587500
 20
12.29337500
  0
VERTEX
  8
0
 62
7
 10
3.35067188
 20
12.39742188
  0
VERTEX
  8
0
 62
7
 10
3.34200000
 20
12.50100000
  0
VERTEX
  8
0
 62
7
 10
3.37212500
 20
12.47962500
  0
VERTEX
  8
0
 62
7
 10
3.40600000
 20
12.46200000
  0
VERTEX
  8
0
 62
7
 10
3.45098438
 20
12.44598438
  0
VERTEX
  8
0
 62
7
 10
3.49587500
 20
12.43512500
  0
VERTEX
  8
0
 62
7
 10
3.54057813
 20
12.42895313
  0
VERTEX
  8
0
 62
7
 10
3.58500000
 20
12.42700000
  0
VERTEX
  8
0
 62
7
 10
3.61987500
 20
12.42837500
  0
VERTEX
  8
0
 62
7
 10
3.65400000
 20
12.43200000
  0
VERTEX
  8
0
 62
7
 10
3.68600000
 20
12.43600000
  0
VERTEX
  8
0
 62
7
 10
3.72800000
 20
12.43900000
  0
VERTEX
  8
0
 62
7
 10
3.74200000
 20
12.43900000
  0
VERTEX
  8
0
 62
7
 10
3.77600000
 20
12.42100000
  0
VERTEX
  8
0
 62
7
 10
3.78900000
 20
12.41100000
  0
VERTEX
  8
0
 62
7
 10
3.79150000
 20
12.31500000
  0
VERTEX
  8
0
 62
7
 10
3.78800000
 20
12.23100000
  0
VERTEX
  8
0
 62
7
 10
3.78021606
 20
12.15913916
  0
VERTEX
  8
0
 62
7
 10
3.76852539
 20
12.09050391
  0
VERTEX
  8
0
 62
7
 10
3.75298218
 20
12.02501514
  0
VERTEX
  8
0
 62
7
 10
3.73364063
 20
11.96259375
  0
VERTEX
  8
0
 62
7
 10
3.71055493
 20
11.90316064
  0
VERTEX
  8
0
 62
7
 10
3.68377930
 20
11.84663672
  0
VERTEX
  8
0
 62
7
 10
3.65336792
 20
11.79294287
  0
VERTEX
  8
0
 62
7
 10
3.61937500
 20
11.74200000
  0
VERTEX
  8
0
 62
7
 10
3.58185474
 20
11.69372900
  0
VERTEX
  8
0
 62
7
 10
3.54086133
 20
11.64805078
  0
VERTEX
  8
0
 62
7
 10
3.49644897
 20
11.60488623
  0
VERTEX
  8
0
 62
7
 10
3.44867188
 20
11.56415625
  0
VERTEX
  8
0
 62
7
 10
3.39758423
 20
11.52578174
  0
VERTEX
  8
0
 62
7
 10
3.34324023
 20
11.48968359
  0
VERTEX
  8
0
 62
7
 10
3.28569409
 20
11.45578271
  0
VERTEX
  8
0
 62
7
 10
3.22500000
 20
11.42400000
  0
VERTEX
  8
0
 62
7
 10
3.22485938
 20
11.43442188
  0
VERTEX
  8
0
 62
7
 10
3.22387500
 20
11.46012500
  0
VERTEX
  8
0
 62
7
 10
3.22120313
 20
11.49276563
  0
VERTEX
  8
0
 62
7
 10
3.21600000
 20
11.52400000
  0
VERTEX
  8
0
 62
7
 10
3.20513672
 20
11.55935352
  0
VERTEX
  8
0
 62
7
 10
3.19096875
 20
11.59401563
  0
VERTEX
  8
0
 62
7
 10
3.17412891
 20
11.62776367
  0
VERTEX
  8
0
 62
7
 10
3.15525000
 20
11.66037500
  0
VERTEX
  8
0
 62
7
 10
3.13496484
 20
11.69162695
  0
VERTEX
  8
0
 62
7
 10
3.11390625
 20
11.72129688
  0
VERTEX
  8
0
 62
7
 10
3.09270703
 20
11.74916211
  0
VERTEX
  8
0
 62
7
 10
3.07200000
 20
11.77500000
  0
VERTEX
  8
0
 62
7
 10
3.04560791
 20
11.80719580
  0
VERTEX
  8
0
 62
7
 10
3.02047266
 20
11.83798828
  0
VERTEX
  8
0
 62
7
 10
2.99665576
 20
11.86768506
  0
VERTEX
  8
0
 62
7
 10
2.97421875
 20
11.89659375
  0
VERTEX
  8
0
 62
7
 10
2.95322314
 20
11.92502197
  0
VERTEX
  8
0
 62
7
 10
2.93373047
 20
11.95327734
  0
VERTEX
  8
0
 62
7
 10
2.91580225
 20
11.98166748
  0
VERTEX
  8
0
 62
7
 10
2.89950000
 20
12.01050000
  0
VERTEX
  8
0
 62
7
 10
2.88488525
 20
12.04008252
  0
VERTEX
  8
0
 62
7
 10
2.87201953
 20
12.07072266
  0
VERTEX
  8
0
 62
7
 10
2.86096436
 20
12.10272803
  0
VERTEX
  8
0
 62
7
 10
2.85178125
 20
12.13640625
  0
VERTEX
  8
0
 62
7
 10
2.84453174
 20
12.17206494
  0
VERTEX
  8
0
 62
7
 10
2.83927734
 20
12.21001172
  0
VERTEX
  8
0
 62
7
 10
2.83607959
 20
12.25055420
  0
VERTEX
  8
0
 62
7
 10
2.83500000
 20
12.29400000
  0
VERTEX
  8
0
 62
7
 10
2.83600000
 20
12.36337500
  0
VERTEX
  8
0
 62
7
 10
2.84000000
 20
12.42900000
  0
VERTEX
  8
0
 62
7
 10
2.88900000
 20
12.42700000
  0
VERTEX
  8
0
 62
7
 10
2.93256250
 20
12.42895313
  0
VERTEX
  8
0
 62
7
 10
2.97725000
 20
12.43512500
  0
VERTEX
  8
0
 62
7
 10
3.02231250
 20
12.44598438
  0
VERTEX
  8
0
 62
7
 10
3.06700000
 20
12.46200000
  0
VERTEX
  8
0
 62
7
 10
3.08974023
 20
12.47308984
  0
VERTEX
  8
0
 62
7
 10
3.11073438
 20
12.48584375
  0
VERTEX
  8
0
 62
7
 10
3.13001758
 20
12.49986328
  0
VERTEX
  8
0
 62
7
 10
3.14762500
 20
12.51475000
  0
VERTEX
  8
0
 62
7
 10
3.16359180
 20
12.53010547
  0
VERTEX
  8
0
 62
7
 10
3.17795313
 20
12.54553125
  0
VERTEX
  8
0
 62
7
 10
3.19074414
 20
12.56062891
  0
VERTEX
  8
0
 62
7
 10
3.20200000
 20
12.57500000
  0
VERTEX
  8
0
 62
7
 10
3.22100000
 20
12.60162500
  0
VERTEX
  8
0
 62
7
 10
3.23700000
 20
12.62900000
  0
VERTEX
  8
0
 62
7
 10
3.25050000
 20
12.60462500
  0
VERTEX
  8
0
 62
7
 10
3.26700000
 20
12.58100000
  0
SEQEND
  0
POLYLINE
  8
0
 62
7
 66
1
 70
1
  0
VERTEX
  8
0
 62
7
 10
5.17300000
 20
14.50900000
  0
VERTEX
  8
0
 62
7
 10
5.15050000
 20
14.46575000
  0
VERTEX
  8
0
 62
7
 10
5.12500000
 20
14.42400000
  0
VERTEX
  8
0
 62
7
 10
5.20986719
 20
14.37814063
  0
VERTEX
  8
0
 62
7
 10
5.30143750
 20
14.33687500
  0
VERTEX
  8
0
 62
7
 10
5.39816406
 20
14.30067188
  0
VERTEX
  8
0
 62
7
 10
5.49850000
 20
14.27000000
  0
VERTEX
  8
0
 62
7
 10
5.60089844
 20
14.24532813
  0
VERTEX
  8
0
 62
7
 10
5.70381250
 20
14.22712500
  0
VERTEX
  8
0
 62
7
 10
5.80569531
 20
14.21585938
  0
VERTEX
  8
0
 62
7
 10
5.90500000
 20
14.21200000
  0
VERTEX
  8
0
 62
7
 10
5.93278125
 20
14.21179688
  0
VERTEX
  8
0
 62
7
 10
5.96000000
 20
14.21187500
  0
VERTEX
  8
0
 62
7
 10
5.98796875
 20
14.21326563
  0
VERTEX
  8
0
 62
7
 10
6.01800000
 20
14.21700000
  0
VERTEX
  8
0
 62
7
 10
6.08902466
 20
14.23036694
  0
VERTEX
  8
0
 62
7
 10
6.15532227
 20
14.24691992
  0
VERTEX
  8
0
 62
7
 10
6.21722827
 20
14.26677466
  0
VERTEX
  8
0
 62
7
 10
6.27507813
 20
14.29004688
  0
VERTEX
  8
0
 62
7
 10
6.32920728
 20
14.31685229
  0
VERTEX
  8
0
 62
7
 10
6.37995117
 20
14.34730664
  0
VERTEX
  8
0
 62
7
 10
6.42764526
 20
14.38152563
  0
VERTEX
  8
0
 62
7
 10
6.47262500
 20
14.41962500
  0
VERTEX
  8
0
 62
7
 10
6.51522583
 20
14.46172046
  0
VERTEX
  8
0
 62
7
 10
6.55578320
 20
14.50792773
  0
VERTEX
  8
0
 62
7
 10
6.59463257
 20
14.55836255
  0
VERTEX
  8
0
 62
7
 10
6.63210938
 20
14.61314063
  0
VERTEX
  8
0
 62
7
 10
6.66854907
 20
14.67237769
  0
VERTEX
  8
0
 62
7
 10
6.70428711
 20
14.73618945
  0
VERTEX
  8
0
 62
7
 10
6.73965894
 20
14.80469165
  0
VERTEX
  8
0
 62
7
 10
6.77500000
 20
14.87800000
  0
VERTEX
  8
0
 62
7
 10
6.76282227
 20
14.88166797
  0
VERTEX
  8
0
 62
7
 10
6.72989063
 20
14.89196875
  0
VERTEX
  8
0
 62
7
 10
6.68160742
 20
14.90784766
  0
VERTEX
  8
0
 62
7
 10
6.62337500
 20
14.92825000
  0
VERTEX
  8
0
 62
7
 10
6.56059570
 20
14.95212109
  0
VERTEX
  8
0
 62
7
 10
6.49867188
 20
14.97840625
  0
VERTEX
  8
0
 62
7
 10
6.44300586
 20
15.00605078
  0
VERTEX
  8
0
 62
7
 10
6.39900000
 20
15.03400000
  0
VERTEX
  8
0
 62
7
 10
6.34437109
 20
15.07155273
  0
VERTEX
  8
0
 62
7
 10
6.28653125
 20
15.10398438
  0
VERTEX
  8
0
 62
7
 10
6.22592578
 20
15.13133008
  0
VERTEX
  8
0
 62
7
 10
6.16300000
 20
15.15362500
  0
VERTEX
  8
0
 62
7
 10
6.09819922
 20
15.17090430
  0
VERTEX
  8
0
 62
7
 10
6.03196875
 20
15.18320313
  0
VERTEX
  8
0
 62
7
 10
5.96475391
 20
15.19055664
  0
VERTEX
  8
0
 62
7
 10
5.89700000
 20
15.19300000
  0
VERTEX
  8
0
 62
7
 10
5.83800781
 20
15.19215430
  0
VERTEX
  8
0
 62
7
 10
5.78356250
 20
15.18923438
  0
VERTEX
  8
0
 62
7
 10
5.73296094
 20
15.18366602
  0
VERTEX
  8
0
 62
7
 10
5.68550000
 20
15.17487500
  0
VERTEX
  8
0
 62
7
 10
5.64047656
 20
15.16228711
  0
VERTEX
  8
0
 62
7
 10
5.59718750
 20
15.14532813
  0
VERTEX
  8
0
 62
7
 10
5.55492969
 20
15.12342383
  0
VERTEX
  8
0
 62
7
 10
5.51300000
 20
15.09600000
  0
VERTEX
  8
0
 62
7
 10
5.36000000
 20
14.93000000
  0
VERTEX
  8
0
 62
7
 10
5.35412500
 20
14.92228320
  0
VERTEX
  8
0
 62
7
 10
5.34337500
 20
14.90614063
  0
VERTEX
  8
0
 62
7
 10
5.32906250
 20
14.88308398
  0
VERTEX
  8
0
 62
7
 10
5.31250000
 20
14.85462500
  0
VERTEX
  8
0
 62
7
 10
5.29500000
 20
14.82227539
  0
VERTEX
  8
0
 62
7
 10
5.27787500
 20
14.78754688
  0
VERTEX
  8
0
 62
7
 10
5.26243750
 20
14.75195117
  0
VERTEX
  8
0
 62
7
 10
5.25000000
 20
14.71700000
  0
VERTEX
  8
0
 62
7
 10
5.21100000
 20
14.59800000
  0
VERTEX
  8
0
 62
7
 10
5.30248438
 20
14.62851563
  0
VERTEX
  8
0
 62
7
 10
5.39537500
 20
14.65537500
  0
VERTEX
  8
0
 62
7
 10
5.48957813
 20
14.67829688
  0
VERTEX
  8
0
 62
7
 10
5.58500000
 20
14.69700000
  0
VERTEX
  8
0
 62
7
 10
5.65096875
 20
14.70676563
  0
VERTEX
  8
0
 62
7
 10
5.71675000
 20
14.71287500
  0
VERTEX
  8
0
 62
7
 10
5.78215625
 20
14.71654688
  0
VERTEX
  8
0
 62
7
 10
5.84700000
 20
14.71900000
  0
VERTEX
  8
0
 62
7
 10
5.90512500
 20
14.72065625
  0
VERTEX
  8
0
 62
7
 10
5.96250000
 20
14.72325000
  0
VERTEX
  8
0
 62
7
 10
6.01912500
 20
14.72771875
  0
VERTEX
  8
0
 62
7
 10
6.07500000
 20
14.73500000
  0
VERTEX
  8
0
 62
7
 10
6.17698438
 20
14.74948438
  0
VERTEX
  8
0
 62
7
 10
6.27962500
 20
14.76462500
  0
VERTEX
  8
0
 62
7
 10
6.38170313
 20
14.78295313
  0
VERTEX
  8
0
 62
7
 10
6.48200000
 20
14.80700000
  0
VERTEX
  8
0
 62
7
 10
6.49300000
 20
14.76800000
  0
VERTEX
  8
0
 62
7
 10
6.39179688
 20
14.74065625
  0
VERTEX
  8
0
 62
7
 10
6.28937500
 20
14.71500000
  0
VERTEX
  8
0
 62
7
 10
6.18601563
 20
14.69234375
  0
VERTEX
  8
0
 62
7
 10
6.08200000
 20
14.67400000
  0
VERTEX
  8
0
 62
7
 10
6.02323438
 20
14.66573438
  0
VERTEX
  8
0
 62
7
 10
5.96512500
 20
14.65812500
  0
VERTEX
  8
0
 62
7
 10
5.90720313
 20
14.65220313
  0
VERTEX
  8
0
 62
7
 10
5.84900000
 20
14.64900000
  0
VERTEX
  8
0
 62
7
 10
5.78487500
 20
14.64657813
  0
VERTEX
  8
0
 62
7
 10
5.72150000
 20
14.64312500
  0
VERTEX
  8
0
 62
7
 10
5.65887500
 20
14.63760938
  0
VERTEX
  8
0
 62
7
 10
5.59700000
 20
14.62900000
  0
VERTEX
  8
0
 62
7
 10
5.48926563
 20
14.60631250
  0
VERTEX
  8
0
 62
7
 10
5.38237500
 20
14.57875000
  0
VERTEX
  8
0
 62
7
 10
5.27679688
 20
14.54631250
  0
VERTEX
  8
0
 62
7
 10
5.17300000
 20
14.50900000
  0
SEQEND
  0
POLYLINE
  8
0
 62
7
 66
1
 70
1
  0
VERTEX
  8
0
 62
7
 10
.00000000
 20
.00000000
  0
VERTEX
  8
0
 62
7
 10
.00000000
 20
16.23572766
  0
VERTEX
  8
0
 62
7
 10
.00130012
 20
16.28795807
  0
VERTEX
  8
0
 62
7
 10
.00515872
 20
16.33949998
  0
VERTEX
  8
0
 62
7
 10
.01151311
 20
16.39028981
  0
VERTEX
  8
0
 62
7
 10
.02030065
 20
16.44026397
  0
VERTEX
  8
0
 62
7
 10
.03145866
 20
16.48935887
  0
VERTEX
  8
0
 62
7
 10
.04492448
 20
16.53751093
  0
VERTEX
  8
0
 62
7
 10
.06063545
 20
16.58465655
  0
VERTEX
  8
0
 62
7
 10
.07852889
 20
16.63073216
  0
VERTEX
  8
0
 62
7
 10
.09854215
 20
16.67567417
  0
VERTEX
  8
0
 62
7
 10
.12061256
 20
16.71941899
  0
VERTEX
  8
0
 62
7
 10
.14467746
 20
16.76190303
  0
VERTEX
  8
0
 62
7
 10
.17067417
 20
16.80306271
  0
VERTEX
  8
0
 62
7
 10
.19854004
 20
16.84283444
  0
VERTEX
  8
0
 62
7
 10
.22821239
 20
16.88115463
  0
VERTEX
  8
0
 62
7
 10
.25962857
 20
16.91795970
  0
VERTEX
  8
0
 62
7
 10
.29272591
 20
16.95318607
  0
VERTEX
  8
0
 62
7
 10
.32744175
 20
16.98677013
  0
VERTEX
  8
0
 62
7
 10
.36371341
 20
17.01864831
  0
VERTEX
  8
0
 62
7
 10
.40147824
 20
17.04875703
  0
VERTEX
  8
0
 62
7
 10
.44067357
 20
17.07703269
  0
VERTEX
  8
0
 62
7
 10
.48123673
 20
17.10341171
  0
VERTEX
  8
0
 62
7
 10
.52310506
 20
17.12783050
  0
VERTEX
  8
0
 62
7
 10
.56621589
 20
17.15022547
  0
VERTEX
  8
0
 62
7
 10
.61050657
 20
17.17053304
  0
VERTEX
  8
0
 62
7
 10
.65591442
 20
17.18868963
  0
VERTEX
  8
0
 62
7
 10
.70237677
 20
17.20463163
  0
VERTEX
  8
0
 62
7
 10
.74983098
 20
17.21829548
  0
VERTEX
  8
0
 62
7
 10
.79821436
 20
17.22961758
  0
VERTEX
  8
0
 62
7
 10
.84746425
 20
17.23853435
  0
VERTEX
  8
0
 62
7
 10
.89751800
 20
17.24498219
  0
VERTEX
  8
0
 62
7
 10
.94831292
 20
17.24889753
  0
VERTEX
  8
0
 62
7
 10
.99978637
 20
17.25021677
  0
VERTEX
  8
0
 62
7
 10
41.00021363
 20
17.25021677
  0
VERTEX
  8
0
 62
7
 10
41.05168708
 20
17.24889753
  0
VERTEX
  8
0
 62
7
 10
41.10248200
 20
17.24498219
  0
VERTEX
  8
0
 62
7
 10
41.15253575
 20
17.23853435
  0
VERTEX
  8
0
 62
7
 10
41.20178564
 20
17.22961758
  0
VERTEX
  8
0
 62
7
 10
41.25016902
 20
17.21829548
  0
VERTEX
  8
0
 62
7
 10
41.29762323
 20
17.20463163
  0
VERTEX
  8
0
 62
7
 10
41.34408558
 20
17.18868963
  0
VERTEX
  8
0
 62
7
 10
41.38949343
 20
17.17053304
  0
VERTEX
  8
0
 62
7
 10
41.43378411
 20
17.15022547
  0
VERTEX
  8
0
 62
7
 10
41.47689494
 20
17.12783050
  0
VERTEX
  8
0
 62
7
 10
41.51876327
 20
17.10341171
  0
VERTEX
  8
0
 62
7
 10
41.55932643
 20
17.07703269
  0
VERTEX
  8
0
 62
7
 10
41.59852176
 20
17.04875703
  0
VERTEX
  8
0
 62
7
 10
41.63628659
 20
17.01864831
  0
VERTEX
  8
0
 62
7
 10
41.67255825
 20
16.98677013
  0
VERTEX
  8
0
 62
7
 10
41.70727409
 20
16.95318607
  0
VERTEX
  8
0
 62
7
 10
41.74037143
 20
16.91795970
  0
VERTEX
  8
0
 62
7
 10
41.77178761
 20
16.88115463
  0
VERTEX
  8
0
 62
7
 10
41.80145996
 20
16.84283444
  0
VERTEX
  8
0
 62
7
 10
41.82932583
 20
16.80306271
  0
VERTEX
  8
0
 62
7
 10
41.85532254
 20
16.76190303
  0
VERTEX
  8
0
 62
7
 10
41.87938744
 20
16.71941899
  0
VERTEX
  8
0
 62
7
 10
41.90145785
 20
16.67567417
  0
VERTEX
  8
0
 62
7
 10
41.92147111
 20
16.63073216
  0
VERTEX
  8
0
 62
7
 10
41.93936455
 20
16.58465655
  0
VERTEX
  8
0
 62
7
 10
41.95507552
 20
16.53751093
  0
VERTEX
  8
0
 62
7
 10
41.96854134
 20
16.48935887
  0
VERTEX
  8
0
 62
7
 10
41.97969935
 20
16.44026397
  0
VERTEX
  8
0
 62
7
 10
41.98848689
 20
16.39028981
  0
VERTEX
  8
0
 62
7
 10
41.99484128
 20
16.33949998
  0
VERTEX
  8
0
 62
7
 10
41.99869988
 20
16.28795807
  0
VERTEX
  8
0
 62
7
 10
42.00000000
 20
16.23572766
  0
VERTEX
  8
0
 62
7
 10
42.00000000
 20
.00000000
  0
VERTEX
  8
0
 62
7
 10
.00000000
 20
.00000000
  0
SEQEND
  0
POLYLINE
  8
0
 62
7
 66
1
 70
1
  0
VERTEX
  8
0
 62
7
 10
6.67600000
 20
14.50100000
  0
VERTEX
  8
0
 62
7
 10
6.69621094
 20
14.52962695
  0
VERTEX
  8
0
 62
7
 10
6.71675000
 20
14.55920313
  0
VERTEX
  8
0
 62
7
 10
6.73710156
 20
14.58964648
  0
VERTEX
  8
0
 62
7
 10
6.75675000
 20
14.62087500
  0
VERTEX
  8
0
 62
7
 10
6.77517969
 20
14.65280664
  0
VERTEX
  8
0
 62
7
 10
6.79187500
 20
14.68535938
  0
VERTEX
  8
0
 62
7
 10
6.80632031
 20
14.71845117
  0
VERTEX
  8
0
 62
7
 10
6.81800000
 20
14.75200000
  0
VERTEX
  8
0
 62
7
 10
7.45300000
 20
14.75000000
  0
VERTEX
  8
0
 62
7
 10
7.45300000
 20
15.25000000
  0
VERTEX
  8
0
 62
7
 10
1.75000000
 20
15.25000000
  0
VERTEX
  8
0
 62
7
 10
1.75000000
 20
9.74900000
  0
VERTEX
  8
0
 62
7
 10
2.25000000
 20
9.74900000
  0
VERTEX
  8
0
 62
7
 10
2.25000000
 20
10.51700000
  0
VERTEX
  8
0
 62
7
 10
2.28219336
 20
10.52010938
  0
VERTEX
  8
0
 62
7
 10
2.31423438
 20
10.52725000
  0
VERTEX
  8
0
 62
7
 10
2.34606445
 20
10.53739063
  0
VERTEX
  8
0
 62
7
 10
2.37762500
 20
10.54950000
  0
VERTEX
  8
0
 62
7
 10
2.40885742
 20
10.56254688
  0
VERTEX
  8
0
 62
7
 10
2.43970313
 20
10.57550000
  0
VERTEX
  8
0
 62
7
 10
2.47010352
 20
10.58732813
  0
VERTEX
  8
0
 62
7
 10
2.50000000
 20
10.59700000
  0
VERTEX
  8
0
 62
7
 10
2.50000000
 20
9.49900000
  0
VERTEX
  8
0
 62
7
 10
1.50000000
 20
9.49900000
  0
VERTEX
  8
0
 62
7
 10
1.50000000
 20
15.50000000
  0
VERTEX
  8
0
 62
7
 10
7.70300000
 20
15.50000000
  0
VERTEX
  8
0
 62
7
 10
7.70300000
 20
14.50000000
  0
VERTEX
  8
0
 62
7
 10
6.67600000
 20
14.50100000
  0
SEQEND
  0
POLYLINE
  8
0
 62
7
 66
1
 70
1
  0
VERTEX
  8
0
 62
7
 10
4.40800000
 20
14.61400000
  0
VERTEX
  8
0
 62
7
 10
4.43974219
 20
14.64732422
  0
VERTEX
  8
0
 62
7
 10
4.47275000
 20
14.67903125
  0
VERTEX
  8
0
 62
7
 10
4.50707031
 20
14.70909766
  0
VERTEX
  8
0
 62
7
 10
4.54275000
 20
14.73750000
  0
VERTEX
  8
0
 62
7
 10
4.57983594
 20
14.76421484
  0
VERTEX
  8
0
 62
7
 10
4.61837500
 20
14.78921875
  0
VERTEX
  8
0
 62
7
 10
4.65841406
 20
14.81248828
  0
VERTEX
  8
0
 62
7
 10
4.70000000
 20
14.83400000
  0
VERTEX
  8
0
 62
7
 10
4.74357617
 20
14.85375391
  0
VERTEX
  8
0
 62
7
 10
4.78742188
 20
14.87165625
  0
VERTEX
  8
0
 62
7
 10
4.83171289
 20
14.88754297
  0
VERTEX
  8
0
 62
7
 10
4.87662500
 20
14.90125000
  0
VERTEX
  8
0
 62
7
 10
4.92233398
 20
14.91261328
  0
VERTEX
  8
0
 62
7
 10
4.96901563
 20
14.92146875
  0
VERTEX
  8
0
 62
7
 10
5.01684570
 20
14.92765234
  0
VERTEX
  8
0
 62
7
 10
5.06600000
 20
14.93100000
  0
VERTEX
  8
0
 62
7
 10
5.06000000
 20
14.97500000
  0
VERTEX
  8
0
 62
7
 10
5.00812109
 20
14.97263086
  0
VERTEX
  8
0
 62
7
 10
4.95921875
 20
14.96898438
  0
VERTEX
  8
0
 62
7
 10
4.91251953
 20
14.96362695
  0
VERTEX
  8
0
 62
7
 10
4.86725000
 20
14.95612500
  0
VERTEX
  8
0
 62
7
 10
4.82263672
 20
14.94604492
  0
VERTEX
  8
0
 62
7
 10
4.77790625
 20
14.93295313
  0
VERTEX
  8
0
 62
7
 10
4.73228516
 20
14.91641602
  0
VERTEX
  8
0
 62
7
 10
4.68500000
 20
14.89600000
  0
VERTEX
  8
0
 62
7
 10
4.63944922
 20
14.87351367
  0
VERTEX
  8
0
 62
7
 10
4.59509375
 20
14.84885938
  0
VERTEX
  8
0
 62
7
 10
4.55200391
 20
14.82211914
  0
VERTEX
  8
0
 62
7
 10
4.51025000
 20
14.79337500
  0
VERTEX
  8
0
 62
7
 10
4.46990234
 20
14.76270898
  0
VERTEX
  8
0
 62
7
 10
4.43103125
 20
14.73020313
  0
VERTEX
  8
0
 62
7
 10
4.39370703
 20
14.69593945
  0
VERTEX
  8
0
 62
7
 10
4.35800000
 20
14.66000000
  0
VERTEX
  8
0
 62
7
 10
4.33676563
 20
14.67792773
  0
VERTEX
  8
0
 62
7
 10
4.31431250
 20
14.69485938
  0
VERTEX
  8
0
 62
7
 10
4.29064063
 20
14.71064258
  0
VERTEX
  8
0
 62
7
 10
4.26575000
 20
14.72512500
  0
VERTEX
  8
0
 62
7
 10
4.23964063
 20
14.73815430
  0
VERTEX
  8
0
 62
7
 10
4.21231250
 20
14.74957813
  0
VERTEX
  8
0
 62
7
 10
4.18376563
 20
14.75924414
  0
VERTEX
  8
0
 62
7
 10
4.15400000
 20
14.76700000
  0
VERTEX
  8
0
 62
7
 10
4.12325000
 20
14.77325000
  0
VERTEX
  8
0
 62
7
 10
4.09400000
 20
14.77500000
  0
VERTEX
  8
0
 62
7
 10
4.06295313
 20
14.77345313
  0
VERTEX
  8
0
 62
7
 10
4.03312500
 20
14.76937500
  0
VERTEX
  8
0
 62
7
 10
4.00498438
 20
14.76360938
  0
VERTEX
  8
0
 62
7
 10
3.97900000
 20
14.75700000
  0
VERTEX
  8
0
 62
7
 10
3.95262500
 20
14.74812500
  0
VERTEX
  8
0
 62
7
 10
3.92700000
 20
14.73700000
  0
VERTEX
  8
0
 62
7
 10
3.92100000
 20
14.74200000
  0
VERTEX
  8
0
 62
7
 10
3.92400000
 20
14.78700000
  0
VERTEX
  8
0
 62
7
 10
3.92400000
 20
14.79400000
  0
VERTEX
  8
0
 62
7
 10
3.92300000
 20
14.80600000
  0
VERTEX
  8
0
 62
7
 10
3.95986230
 20
14.84411792
  0
VERTEX
  8
0
 62
7
 10
3.99908594
 20
14.88144336
  0
VERTEX
  8
0
 62
7
 10
4.04050098
 20
14.91774634
  0
VERTEX
  8
0
 62
7
 10
4.08393750
 20
14.95279688
  0
VERTEX
  8
0
 62
7
 10
4.12922559
 20
14.98636499
  0
VERTEX
  8
0
 62
7
 10
4.17619531
 20
15.01822070
  0
VERTEX
  8
0
 62
7
 10
4.22467676
 20
15.04813403
  0
VERTEX
  8
0
 62
7
 10
4.27450000
 20
15.07587500
  0
VERTEX
  8
0
 62
7
 10
4.32549512
 20
15.10121362
  0
VERTEX
  8
0
 62
7
 10
4.37749219
 20
15.12391992
  0
VERTEX
  8
0
 62
7
 10
4.43032129
 20
15.14376392
  0
VERTEX
  8
0
 62
7
 10
4.48381250
 20
15.16051563
  0
VERTEX
  8
0
 62
7
 10
4.53779590
 20
15.17394507
  0
VERTEX
  8
0
 62
7
 10
4.59210156
 20
15.18382227
  0
VERTEX
  8
0
 62
7
 10
4.64655957
 20
15.18991724
  0
VERTEX
  8
0
 62
7
 10
4.70100000
 20
15.19200000
  0
VERTEX
  8
0
 62
7
 10
4.78866992
 20
15.18838672
  0
VERTEX
  8
0
 62
7
 10
4.87567188
 20
15.17771875
  0
VERTEX
  8
0
 62
7
 10
4.96124414
 20
15.16025391
  0
VERTEX
  8
0
 62
7
 10
5.04462500
 20
15.13625000
  0
VERTEX
  8
0
 62
7
 10
5.12505273
 20
15.10596484
  0
VERTEX
  8
0
 62
7
 10
5.20176563
 20
15.06965625
  0
VERTEX
  8
0
 62
7
 10
5.27400195
 20
15.02758203
  0
VERTEX
  8
0
 62
7
 10
5.34100000
 20
14.98000000
  0
VERTEX
  8
0
 62
7
 10
5.30890820
 20
14.96038477
  0
VERTEX
  8
0
 62
7
 10
5.28001563
 20
14.93764063
  0
VERTEX
  8
0
 62
7
 10
5.25414648
 20
14.91191992
  0
VERTEX
  8
0
 62
7
 10
5.23112500
 20
14.88337500
  0
VERTEX
  8
0
 62
7
 10
5.21077539
 20
14.85215820
  0
VERTEX
  8
0
 62
7
 10
5.19292188
 20
14.81842188
  0
VERTEX
  8
0
 62
7
 10
5.17738867
 20
14.78231836
  0
VERTEX
  8
0
 62
7
 10
5.16400000
 20
14.74400000
  0
VERTEX
  8
0
 62
7
 10
5.14861523
 20
14.69547656
  0
VERTEX
  8
0
 62
7
 10
5.13279688
 20
14.64831250
  0
VERTEX
  8
0
 62
7
 10
5.11592383
 20
14.60274219
  0
VERTEX
  8
0
 62
7
 10
5.09737500
 20
14.55900000
  0
VERTEX
  8
0
 62
7
 10
5.07652930
 20
14.51732031
  0
VERTEX
  8
0
 62
7
 10
5.05276563
 20
14.47793750
  0
VERTEX
  8
0
 62
7
 10
5.02546289
 20
14.44108594
  0
VERTEX
  8
0
 62
7
 10
4.99400000
 20
14.40700000
  0
VERTEX
  8
0
 62
7
 10
4.92650000
 20
14.41600000
  0
VERTEX
  8
0
 62
7
 10
4.85600000
 20
14.41900000
  0
VERTEX
  8
0
 62
7
 10
4.81466211
 20
14.41797461
  0
VERTEX
  8
0
 62
7
 10
4.77392188
 20
14.41492188
  0
VERTEX
  8
0
 62
7
 10
4.73381445
 20
14.40987695
  0
VERTEX
  8
0
 62
7
 10
4.69437500
 20
14.40287500
  0
VERTEX
  8
0
 62
7
 10
4.65563867
 20
14.39395117
  0
VERTEX
  8
0
 62
7
 10
4.61764063
 20
14.38314063
  0
VERTEX
  8
0
 62
7
 10
4.58041602
 20
14.37047852
  0
VERTEX
  8
0
 62
7
 10
4.54400000
 20
14.35600000
  0
VERTEX
  8
0
 62
7
 10
4.55200000
 20
14.36200000
  0
VERTEX
  8
0
 62
7
 10
4.57653125
 20
14.38400000
  0
VERTEX
  8
0
 62
7
 10
4.59150000
 20
14.40900000
  0
VERTEX
  8
0
 62
7
 10
4.59896875
 20
14.43400000
  0
VERTEX
  8
0
 62
7
 10
4.60100000
 20
14.45600000
  0
VERTEX
  8
0
 62
7
 10
4.59900000
 20
14.47850000
  0
VERTEX
  8
0
 62
7
 10
4.59400000
 20
14.49800000
  0
VERTEX
  8
0
 62
7
 10
4.59347729
 20
14.49970215
  0
VERTEX
  8
0
 62
7
 10
4.59225586
 20
14.50313281
  0
VERTEX
  8
0
 62
7
 10
4.59029321
 20
14.50802832
  0
VERTEX
  8
0
 62
7
 10
4.58754688
 20
14.51412500
  0
VERTEX
  8
0
 62
7
 10
4.58397437
 20
14.52115918
  0
VERTEX
  8
0
 62
7
 10
4.57953320
 20
14.52886719
  0
VERTEX
  8
0
 62
7
 10
4.57418091
 20
14.53698535
  0
VERTEX
  8
0
 62
7
 10
4.56787500
 20
14.54525000
  0
VERTEX
  8
0
 62
7
 10
4.56057300
 20
14.55339746
  0
VERTEX
  8
0
 62
7
 10
4.55223242
 20
14.56116406
  0
VERTEX
  8
0
 62
7
 10
4.54281079
 20
14.56828613
  0
VERTEX
  8
0
 62
7
 10
4.53226563
 20
14.57450000
  0
VERTEX
  8
0
 62
7
 10
4.52055444
 20
14.57954199
  0
VERTEX
  8
0
 62
7
 10
4.50763477
 20
14.58314844
  0
VERTEX
  8
0
 62
7
 10
4.49346411
 20
14.58505566
  0
VERTEX
  8
0
 62
7
 10
4.47800000
 20
14.58500000
  0
VERTEX
  8
0
 62
7
 10
4.44000000
 20
14.58900000
  0
VERTEX
  8
0
 62
7
 10
4.40800000
 20
14.61400000
  0
SEQEND
  0
POLYLINE
  8
0
 62
7
 66
1
 70
1
  0
VERTEX
  8
0
 62
7
 10
9.24900000
 20
9.09500000
  0
VERTEX
  8
0
 62
7
 10
32.14900000
 20
9.09500000
  0
VERTEX
  8
0
 62
7
 10
32.14900000
 20
13.99500000
  0
VERTEX
  8
0
 62
7
 10
9.24900000
 20
13.99500000
  0
VERTEX
  8
0
 62
7
 10
9.24900000
 20
9.09500000
  0
SEQEND
  0
POLYLINE
  8
0
 62
7
 66
1
 70
1
  0
VERTEX
  8
0
 62
7
 10
9.34900000
 20
9.19500000
  0
VERTEX
  8
0
 62
7
 10
32.04900000
 20
9.19500000
  0
VERTEX
  8
0
 62
7
 10
32.04900000
 20
13.89500000
  0
VERTEX
  8
0
 62
7
 10
9.34900000
 20
13.89500000
  0
VERTEX
  8
0
 62
7
 10
9.34900000
 20
9.19500000
  0
SEQEND
  0
POLYLINE
  8
0
 62
7
 66
1
 70
1
  0
VERTEX
  8
0
 62
7
 10
9.59900000
 20
9.44500000
  0
VERTEX
  8
0
 62
7
 10
31.79900000
 20
9.44500000
  0
VERTEX
  8
0
 62
7
 10
31.79900000
 20
13.64500000
  0
VERTEX
  8
0
 62
7
 10
9.59900000
 20
13.64500000
  0
VERTEX
  8
0
 62
7
 10
9.59900000
 20
9.44500000
  0
SEQEND
  0
POLYLINE
  8
0
 62
7
 66
1
 70
1
  0
VERTEX
  8
0
 62
7
 10
9.69900000
 20
9.54500000
  0
VERTEX
  8
0
 62
7
 10
31.69900000
 20
9.54500000
  0
VERTEX
  8
0
 62
7
 10
31.69900000
 20
13.54500000
  0
VERTEX
  8
0
 62
7
 10
9.69900000
 20
13.54500000
  0
VERTEX
  8
0
 62
7
 10
9.69900000
 20
9.54500000
  0
SEQEND
  0
POLYLINE
  8
0
 62
7
 66
1
 70
1
  0
VERTEX
  8
0
 62
7
 10
5.31600000
 20
.90000000
  0
VERTEX
  8
0
 62
7
 10
18.11600000
 20
.90000000
  0
VERTEX
  8
0
 62
7
 10
18.11600000
 20
7.70000000
  0
VERTEX
  8
0
 62
7
 10
5.31600000
 20
7.70000000
  0
VERTEX
  8
0
 62
7
 10
5.31600000
 20
.90000000
  0
SEQEND
  0
POLYLINE
  8
0
 62
7
 66
1
 70
1
  0
VERTEX
  8
0
 62
7
 10
5.41600000
 20
1.00000000
  0
VERTEX
  8
0
 62
7
 10
18.01600000
 20
1.00000000
  0
VERTEX
  8
0
 62
7
 10
18.01600000
 20
7.60000000
  0
VERTEX
  8
0
 62
7
 10
5.41600000
 20
7.60000000
  0
VERTEX
  8
0
 62
7
 10
5.41600000
 20
1.00000000
  0
SEQEND
  0
POLYLINE
  8
0
 62
7
 66
1
 70
1
  0
VERTEX
  8
0
 62
7
 10
5.61600000
 20
1.20000000
  0
VERTEX
  8
0
 62
7
 10
17.81600000
 20
1.20000000
  0
VERTEX
  8
0
 62
7
 10
17.81600000
 20
7.40000000
  0
VERTEX
  8
0
 62
7
 10
5.61600000
 20
7.40000000
  0
VERTEX
  8
0
 62
7
 10
5.61600000
 20
1.20000000
  0
SEQEND
  0
POLYLINE
  8
0
 62
7
 66
1
 70
1
  0
VERTEX
  8
0
 62
7
 10
5.71600000
 20
1.30000000
  0
VERTEX
  8
0
 62
7
 10
17.71600000
 20
1.30000000
  0
VERTEX
  8
0
 62
7
 10
17.71600000
 20
7.30000000
  0
VERTEX
  8
0
 62
7
 10
5.71600000
 20
7.30000000
  0
VERTEX
  8
0
 62
7
 10
5.71600000
 20
1.30000000
  0
SEQEND
  0
POLYLINE
  8
0
 62
7
 66
1
 70
1
  0
VERTEX
  8
0
 62
7
 10
3.24064060
 20
15.03545259
  0
VERTEX
  8
0
 62
7
 10
3.20208810
 20
15.03652182
  0
VERTEX
  8
0
 62
7
 10
3.16670843
 20
15.04095151
  0
VERTEX
  8
0
 62
7
 10
3.13344399
 20
15.05057462
  0
VERTEX
  8
0
 62
7
 10
3.10123716
 20
15.06722414
  0
VERTEX
  8
0
 62
7
 10
3.08443340
 20
15.07859271
  0
VERTEX
  8
0
 62
7
 10
3.06909329
 20
15.09126919
  0
VERTEX
  8
0
 62
7
 10
3.05524517
 20
15.10518675
  0
VERTEX
  8
0
 62
7
 10
3.04291737
 20
15.12027856
  0
VERTEX
  8
0
 62
7
 10
3.03213822
 20
15.13647778
  0
VERTEX
  8
0
 62
7
 10
3.02293604
 20
15.15371761
  0
VERTEX
  8
0
 62
7
 10
3.01533917
 20
15.17193119
  0
VERTEX
  8
0
 62
7
 10
3.00937594
 20
15.19105172
  0
VERTEX
  8
0
 62
7
 10
3.00521001
 20
15.19777263
  0
VERTEX
  8
0
 62
7
 10
2.99871167
 20
15.20220232
  0
VERTEX
  8
0
 62
7
 10
2.99072135
 20
15.20456991
  0
VERTEX
  8
0
 62
7
 10
2.98207945
 20
15.20510453
  0
VERTEX
  8
0
 62
7
 10
2.97362642
 20
15.20403529
  0
VERTEX
  8
0
 62
7
 10
2.96620267
 20
15.20159133
  0
VERTEX
  8
0
 62
7
 10
2.96064863
 20
15.19800175
  0
VERTEX
  8
0
 62
7
 10
2.95780472
 20
15.19349569
  0
VERTEX
  8
0
 62
7
 10
2.94973413
 20
15.17076172
  0
VERTEX
  8
0
 62
7
 10
2.93856624
 20
15.14726401
  0
VERTEX
  8
0
 62
7
 10
2.92754944
 20
15.12773774
  0
VERTEX
  8
0
 62
7
 10
2.91993211
 20
15.11691810
  0
VERTEX
  8
0
 62
7
 10
2.89492712
 20
15.09622077
  0
VERTEX
  8
0
 62
7
 10
2.87097975
 20
15.08086961
  0
VERTEX
  8
0
 62
7
 10
2.84673020
 20
15.06765692
  0
VERTEX
  8
0
 62
7
 10
2.82081868
 20
15.05337500
  0
VERTEX
  8
0
 62
7
 10
2.77725511
 20
15.02591857
  0
VERTEX
  8
0
 62
7
 10
2.73761981
 20
14.99441433
  0
VERTEX
  8
0
 62
7
 10
2.70251714
 20
14.95817491
  0
VERTEX
  8
0
 62
7
 10
2.67255144
 20
14.91651293
  0
VERTEX
  8
0
 62
7
 10
2.65848771
 20
14.88717262
  0
VERTEX
  8
0
 62
7
 10
2.64948541
 20
14.85592295
  0
VERTEX
  8
0
 62
7
 10
2.64456248
 20
14.82360405
  0
VERTEX
  8
0
 62
7
 10
2.64273683
 20
14.79105603
  0
VERTEX
  8
0
 62
7
 10
2.64332859
 20
14.76772062
  0
VERTEX
  8
0
 62
7
 10
2.64611112
 20
14.74474798
  0
VERTEX
  8
0
 62
7
 10
2.65078225
 20
14.72211902
  0
VERTEX
  8
0
 62
7
 10
2.65703979
 20
14.69981466
  0
VERTEX
  8
0
 62
7
 10
2.66458158
 20
14.67781578
  0
VERTEX
  8
0
 62
7
 10
2.67310543
 20
14.65610331
  0
VERTEX
  8
0
 62
7
 10
2.68230918
 20
14.63465815
  0
VERTEX
  8
0
 62
7
 10
2.69189065
 20
14.61346121
  0
VERTEX
  8
0
 62
7
 10
2.70589300
 20
14.58597932
  0
VERTEX
  8
0
 62
7
 10
2.72171785
 20
14.55964305
  0
VERTEX
  8
0
 62
7
 10
2.73907245
 20
14.53429964
  0
VERTEX
  8
0
 62
7
 10
2.75766409
 20
14.50979634
  0
VERTEX
  8
0
 62
7
 10
2.77720003
 20
14.48598040
  0
VERTEX
  8
0
 62
7
 10
2.79738752
 20
14.46269908
  0
VERTEX
  8
0
 62
7
 10
2.81793386
 20
14.43979964
  0
VERTEX
  8
0
 62
7
 10
2.83854629
 20
14.41712931
  0
VERTEX
  8
0
 62
7
 10
2.89078481
 20
14.36076536
  0
VERTEX
  8
0
 62
7
 10
2.94460974
 20
14.30715086
  0
VERTEX
  8
0
 62
7
 10
3.00160752
 20
14.25720232
  0
VERTEX
  8
0
 62
7
 10
3.06336455
 20
14.21183621
  0
VERTEX
  8
0
 62
7
 10
3.08294298
 20
14.21905354
  0
VERTEX
  8
0
 62
7
 10
3.10516544
 20
14.22558351
  0
VERTEX
  8
0
 62
7
 10
3.12784116
 20
14.23073875
  0
VERTEX
  8
0
 62
7
 10
3.14877938
 20
14.23383190
  0
VERTEX
  8
0
 62
7
 10
3.18342879
 20
14.27375000
  0
VERTEX
  8
0
 62
7
 10
3.18555345
 20
14.28403502
  0
VERTEX
  8
0
 62
7
 10
3.18667717
 20
14.30623438
  0
VERTEX
  8
0
 62
7
 10
3.18708322
 20
14.33744585
  0
VERTEX
  8
0
 62
7
 10
3.18705489
 20
14.37476724
  0
VERTEX
  8
0
 62
7
 10
3.18687547
 20
14.41529634
  0
VERTEX
  8
0
 62
7
 10
3.18682826
 20
14.45613093
  0
VERTEX
  8
0
 62
7
 10
3.18719653
 20
14.49436880
  0
VERTEX
  8
0
 62
7
 10
3.18826359
 20
14.52710776
  0
VERTEX
  8
0
 62
7
 10
3.19059757
 20
14.57161148
  0
VERTEX
  8
0
 62
7
 10
3.19243108
 20
14.61643979
  0
VERTEX
  8
0
 62
7
 10
3.19417017
 20
14.66145903
  0
VERTEX
  8
0
 62
7
 10
3.19622086
 20
14.70653556
  0
VERTEX
  8
0
 62
7
 10
3.19898923
 20
14.75153571
  0
VERTEX
  8
0
 62
7
 10
3.20288131
 20
14.79632584
  0
VERTEX
  8
0
 62
7
 10
3.20830315
 20
14.84077228
  0
VERTEX
  8
0
 62
7
 10
3.21566079
 20
14.88474138
  0
VERTEX
  8
0
 62
7
 10
3.25595081
 20
14.88474138
  0
VERTEX
  8
0
 62
7
 10
3.26330845
 20
14.84077228
  0
VERTEX
  8
0
 62
7
 10
3.26873029
 20
14.79632584
  0
VERTEX
  8
0
 62
7
 10
3.27262237
 20
14.75153571
  0
VERTEX
  8
0
 62
7
 10
3.27539074
 20
14.70653556
  0
VERTEX
  8
0
 62
7
 10
3.27744143
 20
14.66145903
  0
VERTEX
  8
0
 62
7
 10
3.27918052
 20
14.61643979
  0
VERTEX
  8
0
 62
7
 10
3.28101403
 20
14.57161148
  0
VERTEX
  8
0
 62
7
 10
3.28334801
 20
14.52710776
  0
VERTEX
  8
0
 62
7
 10
3.28441507
 20
14.49436880
  0
VERTEX
  8
0
 62
7
 10
3.28478335
 20
14.45613093
  0
VERTEX
  8
0
 62
7
 10
3.28473613
 20
14.41529634
  0
VERTEX
  8
0
 62
7
 10
3.28455671
 20
14.37476724
  0
VERTEX
  8
0
 62
7
 10
3.28452838
 20
14.33744585
  0
VERTEX
  8
0
 62
7
 10
3.28493443
 20
14.30623438
  0
VERTEX
  8
0
 62
7
 10
3.28605815
 20
14.28403502
  0
VERTEX
  8
0
 62
7
 10
3.28818281
 20
14.27375000
  0
VERTEX
  8
0
 62
7
 10
3.32283222
 20
14.23383190
  0
VERTEX
  8
0
 62
7
 10
3.34377044
 20
14.23073875
  0
VERTEX
  8
0
 62
7
 10
3.36644616
 20
14.22558351
  0
VERTEX
  8
0
 62
7
 10
3.38866862
 20
14.21905354
  0
VERTEX
  8
0
 62
7
 10
3.40824705
 20
14.21183621
  0
VERTEX
  8
0
 62
7
 10
3.47000408
 20
14.25720232
  0
VERTEX
  8
0
 62
7
 10
3.52700186
 20
14.30715086
  0
VERTEX
  8
0
 62
7
 10
3.58082679
 20
14.36076536
  0
VERTEX
  8
0
 62
7
 10
3.63306531
 20
14.41712931
  0
VERTEX
  8
0
 62
7
 10
3.65367774
 20
14.43979964
  0
VERTEX
  8
0
 62
7
 10
3.67422408
 20
14.46269908
  0
VERTEX
  8
0
 62
7
 10
3.69441157
 20
14.48598040
  0
VERTEX
  8
0
 62
7
 10
3.71394751
 20
14.50979634
  0
VERTEX
  8
0
 62
7
 10
3.73253915
 20
14.53429964
  0
VERTEX
  8
0
 62
7
 10
3.74989375
 20
14.55964305
  0
VERTEX
  8
0
 62
7
 10
3.76571860
 20
14.58597932
  0
VERTEX
  8
0
 62
7
 10
3.77972095
 20
14.61346121
  0
VERTEX
  8
0
 62
7
 10
3.78930242
 20
14.63465815
  0
VERTEX
  8
0
 62
7
 10
3.79850617
 20
14.65610331
  0
VERTEX
  8
0
 62
7
 10
3.80703003
 20
14.67781578
  0
VERTEX
  8
0
 62
7
 10
3.81457181
 20
14.69981466
  0
VERTEX
  8
0
 62
7
 10
3.82082935
 20
14.72211902
  0
VERTEX
  8
0
 62
7
 10
3.82550048
 20
14.74474798
  0
VERTEX
  8
0
 62
7
 10
3.82828301
 20
14.76772062
  0
VERTEX
  8
0
 62
7
 10
3.82887477
 20
14.79105603
  0
VERTEX
  8
0
 62
7
 10
3.82704912
 20
14.82360405
  0
VERTEX
  8
0
 62
7
 10
3.82212619
 20
14.85592295
  0
VERTEX
  8
0
 62
7
 10
3.81312389
 20
14.88717262
  0
VERTEX
  8
0
 62
7
 10
3.79906016
 20
14.91651293
  0
VERTEX
  8
0
 62
7
 10
3.76909446
 20
14.95817491
  0
VERTEX
  8
0
 62
7
 10
3.73399179
 20
14.99441433
  0
VERTEX
  8
0
 62
7
 10
3.69435649
 20
15.02591857
  0
VERTEX
  8
0
 62
7
 10
3.65079292
 20
15.05337500
  0
VERTEX
  8
0
 62
7
 10
3.62488140
 20
15.06765692
  0
VERTEX
  8
0
 62
7
 10
3.60063185
 20
15.08086961
  0
VERTEX
  8
0
 62
7
 10
3.57668448
 20
15.09622077
  0
VERTEX
  8
0
 62
7
 10
3.55167949
 20
15.11691810
  0
VERTEX
  8
0
 62
7
 10
3.54406216
 20
15.12773774
  0
VERTEX
  8
0
 62
7
 10
3.53304536
 20
15.14726401
  0
VERTEX
  8
0
 62
7
 10
3.52187747
 20
15.17076172
  0
VERTEX
  8
0
 62
7
 10
3.51380688
 20
15.19349569
  0
VERTEX
  8
0
 62
7
 10
3.51096297
 20
15.19800175
  0
VERTEX
  8
0
 62
7
 10
3.50540893
 20
15.20159133
  0
VERTEX
  8
0
 62
7
 10
3.49798518
 20
15.20403529
  0
VERTEX
  8
0
 62
7
 10
3.48953215
 20
15.20510453
  0
VERTEX
  8
0
 62
7
 10
3.48089025
 20
15.20456991
  0
VERTEX
  8
0
 62
7
 10
3.47289993
 20
15.20220232
  0
VERTEX
  8
0
 62
7
 10
3.46640159
 20
15.19777263
  0
VERTEX
  8
0
 62
7
 10
3.46223566
 20
15.19105172
  0
VERTEX
  8
0
 62
7
 10
3.45627243
 20
15.17193119
  0
VERTEX
  8
0
 62
7
 10
3.44867556
 20
15.15371761
  0
VERTEX
  8
0
 62
7
 10
3.43947338
 20
15.13647778
  0
VERTEX
  8
0
 62
7
 10
3.42869423
 20
15.12027856
  0
VERTEX
  8
0
 62
7
 10
3.41636643
 20
15.10518675
  0
VERTEX
  8
0
 62
7
 10
3.40251831
 20
15.09126919
  0
VERTEX
  8
0
 62
7
 10
3.38717821
 20
15.07859271
  0
VERTEX
  8
0
 62
7
 10
3.37037444
 20
15.06722414
  0
VERTEX
  8
0
 62
7
 10
3.33967849
 20
15.05057462
  0
VERTEX
  8
0
 62
7
 10
3.30973797
 20
15.04095151
  0
VERTEX
  8
0
 62
7
 10
3.27768223
 20
15.03652182
  0
VERTEX
  8
0
 62
7
 10
3.24064060
 20
15.03545259
  0
SEQEND
  0
POLYLINE
  8
0
 62
7
 66
1
 70
1
  0
VERTEX
  8
0
 62
7
 10
3.23911000
 20
14.16266000
  0
VERTEX
  8
0
 62
7
 10
3.23533000
 20
14.16266000
  0
VERTEX
  8
0
 62
7
 10
3.19752100
 20
14.16076354
  0
VERTEX
  8
0
 62
7
 10
3.16076544
 20
14.15519598
  0
VERTEX
  8
0
 62
7
 10
3.12525296
 20
14.14614003
  0
VERTEX
  8
0
 62
7
 10
3.09117320
 20
14.13377844
  0
VERTEX
  8
0
 62
7
 10
3.05871582
 20
14.11829391
  0
VERTEX
  8
0
 62
7
 10
3.02807046
 20
14.09986918
  0
VERTEX
  8
0
 62
7
 10
2.99942676
 20
14.07868697
  0
VERTEX
  8
0
 62
7
 10
2.97297438
 20
14.05493000
  0
VERTEX
  8
0
 62
7
 10
2.94890295
 20
14.02878100
  0
VERTEX
  8
0
 62
7
 10
2.92740212
 20
14.00042270
  0
VERTEX
  8
0
 62
7
 10
2.90866154
 20
13.97003781
  0
VERTEX
  8
0
 62
7
 10
2.89287086
 20
13.93780906
  0
VERTEX
  8
0
 62
7
 10
2.88021972
 20
13.90391918
  0
VERTEX
  8
0
 62
7
 10
2.87089776
 20
13.86855090
  0
VERTEX
  8
0
 62
7
 10
2.86509464
 20
13.83188693
  0
VERTEX
  8
0
 62
7
 10
2.86300000
 20
13.79411000
  0
VERTEX
  8
0
 62
7
 10
2.86300000
 20
13.79033000
  0
VERTEX
  8
0
 62
7
 10
2.86489646
 20
13.75252100
  0
VERTEX
  8
0
 62
7
 10
2.87046402
 20
13.71576544
  0
VERTEX
  8
0
 62
7
 10
2.87951997
 20
13.68025296
  0
VERTEX
  8
0
 62
7
 10
2.89188156
 20
13.64617320
  0
VERTEX
  8
0
 62
7
 10
2.90736609
 20
13.61371582
  0
VERTEX
  8
0
 62
7
 10
2.92579082
 20
13.58307046
  0
VERTEX
  8
0
 62
7
 10
2.94697303
 20
13.55442676
  0
VERTEX
  8
0
 62
7
 10
2.97073000
 20
13.52797438
  0
VERTEX
  8
0
 62
7
 10
2.99687900
 20
13.50390295
  0
VERTEX
  8
0
 62
7
 10
3.02523730
 20
13.48240212
  0
VERTEX
  8
0
 62
7
 10
3.05562219
 20
13.46366154
  0
VERTEX
  8
0
 62
7
 10
3.08785094
 20
13.44787086
  0
VERTEX
  8
0
 62
7
 10
3.12174082
 20
13.43521972
  0
VERTEX
  8
0
 62
7
 10
3.15710910
 20
13.42589776
  0
VERTEX
  8
0
 62
7
 10
3.19377307
 20
13.42009464
  0
VERTEX
  8
0
 62
7
 10
3.23155000
 20
13.41800000
  0
VERTEX
  8
0
 62
7
 10
3.23533000
 20
13.41800000
  0
VERTEX
  8
0
 62
7
 10
3.27313900
 20
13.41989646
  0
VERTEX
  8
0
 62
7
 10
3.30989456
 20
13.42546402
  0
VERTEX
  8
0
 62
7
 10
3.34540704
 20
13.43451997
  0
VERTEX
  8
0
 62
7
 10
3.37948680
 20
13.44688156
  0
VERTEX
  8
0
 62
7
 10
3.41194418
 20
13.46236609
  0
VERTEX
  8
0
 62
7
 10
3.44258954
 20
13.48079082
  0
VERTEX
  8
0
 62
7
 10
3.47123324
 20
13.50197303
  0
VERTEX
  8
0
 62
7
 10
3.49768563
 20
13.52573000
  0
VERTEX
  8
0
 62
7
 10
3.52175705
 20
13.55187900
  0
VERTEX
  8
0
 62
7
 10
3.54325788
 20
13.58023730
  0
VERTEX
  8
0
 62
7
 10
3.56199846
 20
13.61062219
  0
VERTEX
  8
0
 62
7
 10
3.57778914
 20
13.64285094
  0
VERTEX
  8
0
 62
7
 10
3.59044028
 20
13.67674082
  0
VERTEX
  8
0
 62
7
 10
3.59976224
 20
13.71210910
  0
VERTEX
  8
0
 62
7
 10
3.60556536
 20
13.74877307
  0
VERTEX
  8
0
 62
7
 10
3.60766000
 20
13.78655000
  0
VERTEX
  8
0
 62
7
 10
3.60766000
 20
13.79033000
  0
VERTEX
  8
0
 62
7
 10
3.60576354
 20
13.82813900
  0
VERTEX
  8
0
 62
7
 10
3.60019598
 20
13.86489456
  0
VERTEX
  8
0
 62
7
 10
3.59114003
 20
13.90040704
  0
VERTEX
  8
0
 62
7
 10
3.57877844
 20
13.93448680
  0
VERTEX
  8
0
 62
7
 10
3.56329391
 20
13.96694418
  0
VERTEX
  8
0
 62
7
 10
3.54486918
 20
13.99758954
  0
VERTEX
  8
0
 62
7
 10
3.52368697
 20
14.02623324
  0
VERTEX
  8
0
 62
7
 10
3.49993000
 20
14.05268563
  0
VERTEX
  8
0
 62
7
 10
3.47378100
 20
14.07675705
  0
VERTEX
  8
0
 62
7
 10
3.44542270
 20
14.09825788
  0
VERTEX
  8
0
 62
7
 10
3.41503781
 20
14.11699846
  0
VERTEX
  8
0
 62
7
 10
3.38280906
 20
14.13278914
  0
VERTEX
  8
0
 62
7
 10
3.34891918
 20
14.14544028
  0
VERTEX
  8
0
 62
7
 10
3.31355090
 20
14.15476224
  0
VERTEX
  8
0
 62
7
 10
3.27688693
 20
14.16056536
  0
VERTEX
  8
0
 62
7
 10
3.23911000
 20
14.16266000
  0
SEQEND
  0
POLYLINE
  8
0
 62
7
 66
1
 70
1
  0
VERTEX
  8
0
 62
7
 10
2.05240236
 20
14.18032328
  0
VERTEX
  8
0
 62
7
 10
2.03935847
 20
14.14357469
  0
VERTEX
  8
0
 62
7
 10
2.02419935
 20
14.11117942
  0
VERTEX
  8
0
 62
7
 10
2.00480979
 20
14.08260284
  0
VERTEX
  8
0
 62
7
 10
1.97907454
 20
14.05731034
  0
VERTEX
  8
0
 62
7
 10
1.96322294
 20
14.04478502
  0
VERTEX
  8
0
 62
7
 10
1.94654036
 20
14.03409267
  0
VERTEX
  8
0
 62
7
 10
1.92910234
 20
14.02523330
  0
VERTEX
  8
0
 62
7
 10
1.91098442
 20
14.01820690
  0
VERTEX
  8
0
 62
7
 10
1.89226216
 20
14.01301347
  0
VERTEX
  8
0
 62
7
 10
1.87301109
 20
14.00965302
  0
VERTEX
  8
0
 62
7
 10
1.85330675
 20
14.00812554
  0
VERTEX
  8
0
 62
7
 10
1.83322470
 20
14.00843103
  0
VERTEX
  8
0
 62
7
 10
1.82548776
 20
14.00639758
  0
VERTEX
  8
0
 62
7
 10
1.81922392
 20
14.00148101
  0
VERTEX
  8
0
 62
7
 10
1.81447096
 20
13.99454053
  0
VERTEX
  8
0
 62
7
 10
1.81126664
 20
13.98643534
  0
VERTEX
  8
0
 62
7
 10
1.80964875
 20
13.97802467
  0
VERTEX
  8
0
 62
7
 10
1.80965504
 20
13.97016770
  0
VERTEX
  8
0
 62
7
 10
1.81132330
 20
13.96372365
  0
VERTEX
  8
0
 62
7
 10
1.81469129
 20
13.95955172
  0
VERTEX
  8
0
 62
7
 10
1.83389200
 20
13.94487520
  0
VERTEX
  8
0
 62
7
 10
1.85286608
 20
13.92706735
  0
VERTEX
  8
0
 62
7
 10
1.86806297
 20
13.91063423
  0
VERTEX
  8
0
 62
7
 10
1.87593211
 20
13.90008190
  0
VERTEX
  8
0
 62
7
 10
1.88784285
 20
13.86988874
  0
VERTEX
  8
0
 62
7
 10
1.89506987
 20
13.84244504
  0
VERTEX
  8
0
 62
7
 10
1.90018166
 20
13.81530684
  0
VERTEX
  8
0
 62
7
 10
1.90574672
 20
13.78603017
  0
VERTEX
  8
0
 62
7
 10
1.91828699
 20
13.73631075
  0
VERTEX
  8
0
 62
7
 10
1.93596423
 20
13.68888254
  0
VERTEX
  8
0
 62
7
 10
1.95968497
 20
13.64420380
  0
VERTEX
  8
0
 62
7
 10
1.99035574
 20
13.60273276
  0
VERTEX
  8
0
 62
7
 10
2.01371136
 20
13.58049522
  0
VERTEX
  8
0
 62
7
 10
2.04061753
 20
13.56230550
  0
VERTEX
  8
0
 62
7
 10
2.06979002
 20
13.54762897
  0
VERTEX
  8
0
 62
7
 10
2.09994457
 20
13.53593103
  0
VERTEX
  8
0
 62
7
 10
2.12248180
 20
13.52919899
  0
VERTEX
  8
0
 62
7
 10
2.14532120
 20
13.52469134
  0
VERTEX
  8
0
 62
7
 10
2.16838723
 20
13.52211213
  0
VERTEX
  8
0
 62
7
 10
2.19160435
 20
13.52116541
  0
VERTEX
  8
0
 62
7
 10
2.21489701
 20
13.52155523
  0
VERTEX
  8
0
 62
7
 10
2.23818968
 20
13.52298565
  0
VERTEX
  8
0
 62
7
 10
2.26140679
 20
13.52516072
  0
VERTEX
  8
0
 62
7
 10
2.28447283
 20
13.52778448
  0
VERTEX
  8
0
 62
7
 10
2.31477060
 20
13.53258331
  0
VERTEX
  8
0
 62
7
 10
2.34464344
 20
13.53944423
  0
VERTEX
  8
0
 62
7
 10
2.37411967
 20
13.54806176
  0
VERTEX
  8
0
 62
7
 10
2.40322763
 20
13.55813039
  0
VERTEX
  8
0
 62
7
 10
2.43199565
 20
13.56934463
  0
VERTEX
  8
0
 62
7
 10
2.46045204
 20
13.58139898
  0
VERTEX
  8
0
 62
7
 10
2.48862515
 20
13.59398794
  0
VERTEX
  8
0
 62
7
 10
2.51654329
 20
13.60680603
  0
VERTEX
  8
0
 62
7
 10
2.58628278
 20
13.63870488
  0
VERTEX
  8
0
 62
7
 10
2.65383150
 20
13.67320043
  0
VERTEX
  8
0
 62
7
 10
2.71881174
 20
13.71197293
  0
VERTEX
  8
0
 62
7
 10
2.78084576
 20
13.75670259
  0
VERTEX
  8
0
 62
7
 10
2.78025401
 20
13.77755267
  0
VERTEX
  8
0
 62
7
 10
2.78094649
 20
13.80069397
  0
VERTEX
  8
0
 62
7
 10
2.78299876
 20
13.82383526
  0
VERTEX
  8
0
 62
7
 10
2.78648637
 20
13.84468534
  0
VERTEX
  8
0
 62
7
 10
2.75908916
 20
13.89030603
  0
VERTEX
  8
0
 62
7
 10
2.74992948
 20
13.89551378
  0
VERTEX
  8
0
 62
7
 10
2.72917383
 20
13.90340416
  0
VERTEX
  8
0
 62
7
 10
2.69965510
 20
13.91337573
  0
VERTEX
  8
0
 62
7
 10
2.66420618
 20
13.92482705
  0
VERTEX
  8
0
 62
7
 10
2.62565997
 20
13.93715666
  0
VERTEX
  8
0
 62
7
 10
2.58684936
 20
13.94976313
  0
VERTEX
  8
0
 62
7
 10
2.55060724
 20
13.96204501
  0
VERTEX
  8
0
 62
7
 10
2.51976649
 20
13.97340086
  0
VERTEX
  8
0
 62
7
 10
2.47806948
 20
13.98930414
  0
VERTEX
  8
0
 62
7
 10
2.43593809
 20
14.00485419
  0
VERTEX
  8
0
 62
7
 10
2.39361784
 20
14.02038514
  0
VERTEX
  8
0
 62
7
 10
2.35135424
 20
14.03623114
  0
VERTEX
  8
0
 62
7
 10
2.30939283
 20
14.05272632
  0
VERTEX
  8
0
 62
7
 10
2.26797910
 20
14.07020481
  0
VERTEX
  8
0
 62
7
 10
2.22735859
 20
14.08900075
  0
VERTEX
  8
0
 62
7
 10
2.18777680
 20
14.10944828
  0
VERTEX
  8
0
 62
7
 10
2.20066960
 20
14.14773707
  0
VERTEX
  8
0
 62
7
 10
2.24471162
 20
14.14112436
  0
VERTEX
  8
0
 62
7
 10
2.28860255
 20
14.13256412
  0
VERTEX
  8
0
 62
7
 10
2.33234240
 20
14.12247639
  0
VERTEX
  8
0
 62
7
 10
2.37593115
 20
14.11128125
  0
VERTEX
  8
0
 62
7
 10
2.41936882
 20
14.09939874
  0
VERTEX
  8
0
 62
7
 10
2.46265540
 20
14.08724892
  0
VERTEX
  8
0
 62
7
 10
2.50579089
 20
14.07525185
  0
VERTEX
  8
0
 62
7
 10
2.54877530
 20
14.06382759
  0
VERTEX
  8
0
 62
7
 10
2.58028335
 20
14.05462771
  0
VERTEX
  8
0
 62
7
 10
2.61681506
 20
14.04307934
  0
VERTEX
  8
0
 62
7
 10
2.65568862
 20
14.03034717
  0
VERTEX
  8
0
 62
7
 10
2.69422224
 20
14.01759591
  0
VERTEX
  8
0
 62
7
 10
2.72973411
 20
14.00599025
  0
VERTEX
  8
0
 62
7
 10
2.75954242
 20
13.99669491
  0
VERTEX
  8
0
 62
7
 10
2.78096538
 20
13.99087458
  0
VERTEX
  8
0
 62
7
 10
2.79132117
 20
13.98969397
  0
VERTEX
  8
0
 62
7
 10
2.84047498
 20
14.01006034
  0
VERTEX
  8
0
 62
7
 10
2.86172796
 20
14.04936746
  0
VERTEX
  8
0
 62
7
 10
2.88721139
 20
14.08500862
  0
VERTEX
  8
0
 62
7
 10
2.87605925
 20
14.12176994
  0
VERTEX
  8
0
 62
7
 10
2.86326402
 20
14.15761476
  0
VERTEX
  8
0
 62
7
 10
2.84899569
 20
14.19269585
  0
VERTEX
  8
0
 62
7
 10
2.83342423
 20
14.22716595
  0
VERTEX
  8
0
 62
7
 10
2.81671961
 20
14.26117780
  0
VERTEX
  8
0
 62
7
 10
2.79905181
 20
14.29488416
  0
VERTEX
  8
0
 62
7
 10
2.78059080
 20
14.32843777
  0
VERTEX
  8
0
 62
7
 10
2.76150656
 20
14.36199138
  0
VERTEX
  8
0
 62
7
 10
2.73097429
 20
14.41530038
  0
VERTEX
  8
0
 62
7
 10
2.69855342
 20
14.46769289
  0
VERTEX
  8
0
 62
7
 10
2.66235536
 20
14.51733594
  0
VERTEX
  8
0
 62
7
 10
2.62049152
 20
14.56239655
  0
VERTEX
  8
0
 62
7
 10
2.60316996
 20
14.57796569
  0
VERTEX
  8
0
 62
7
 10
2.58556512
 20
14.59331526
  0
VERTEX
  8
0
 62
7
 10
2.56754478
 20
14.60814930
  0
VERTEX
  8
0
 62
7
 10
2.54897675
 20
14.62217188
  0
VERTEX
  8
0
 62
7
 10
2.52972883
 20
14.63508702
  0
VERTEX
  8
0
 62
7
 10
2.50966881
 20
14.64659880
  0
VERTEX
  8
0
 62
7
 10
2.48866449
 20
14.65641126
  0
VERTEX
  8
0
 62
7
 10
2.46658368
 20
14.66422845
  0
VERTEX
  8
0
 62
7
 10
2.43523301
 20
14.67228590
  0
VERTEX
  8
0
 62
7
 10
2.40312691
 20
14.67736476
  0
VERTEX
  8
0
 62
7
 10
2.37071863
 20
14.67831944
  0
VERTEX
  8
0
 62
7
 10
2.33846144
 20
14.67400431
  0
VERTEX
  8
0
 62
7
 10
2.31356033
 20
14.66726272
  0
VERTEX
  8
0
 62
7
 10
2.28958462
 20
14.65871680
  0
VERTEX
  8
0
 62
7
 10
2.26647767
 20
14.64847155
  0
VERTEX
  8
0
 62
7
 10
2.24418281
 20
14.63663200
  0
VERTEX
  8
0
 62
7
 10
2.22264340
 20
14.62330316
  0
VERTEX
  8
0
 62
7
 10
2.20180276
 20
14.60859005
  0
VERTEX
  8
0
 62
7
 10
2.18160424
 20
14.59259766
  0
VERTEX
  8
0
 62
7
 10
2.16199119
 20
14.57543103
  0
VERTEX
  8
0
 62
7
 10
2.14039826
 20
14.55537015
  0
VERTEX
  8
0
 62
7
 10
2.12039176
 20
14.53653125
  0
VERTEX
  8
0
 62
7
 10
2.09842111
 20
14.51860884
  0
VERTEX
  8
0
 62
7
 10
2.07093577
 20
14.50129741
  0
VERTEX
  8
0
 62
7
 10
2.05839550
 20
14.49696956
  0
VERTEX
  8
0
 62
7
 10
2.03648781
 20
14.49233621
  0
VERTEX
  8
0
 62
7
 10
2.01065184
 20
14.48892484
  0
VERTEX
  8
0
 62
7
 10
1.98632674
 20
14.48826293
  0
VERTEX
  8
0
 62
7
 10
1.98130938
 20
14.48716346
  0
VERTEX
  8
0
 62
7
 10
1.97625424
 20
14.48313315
  0
VERTEX
  8
0
 62
7
 10
1.97165237
 20
14.47690708
  0
VERTEX
  8
0
 62
7
 10
1.96799479
 20
14.46922037
  0
VERTEX
  8
0
 62
7
 10
1.96577254
 20
14.46080810
  0
VERTEX
  8
0
 62
7
 10
1.96547666
 20
14.45240537
  0
VERTEX
  8
0
 62
7
 10
1.96759818
 20
14.44474730
  0
VERTEX
  8
0
 62
7
 10
1.97262814
 20
14.43856897
  0
VERTEX
  8
0
 62
7
 10
1.98916278
 20
14.42692990
  0
VERTEX
  8
0
 62
7
 10
2.00428098
 20
14.41404021
  0
VERTEX
  8
0
 62
7
 10
2.01792607
 20
14.39994763
  0
VERTEX
  8
0
 62
7
 10
2.03004141
 20
14.38469989
  0
VERTEX
  8
0
 62
7
 10
2.04057032
 20
14.36834473
  0
VERTEX
  8
0
 62
7
 10
2.04945615
 20
14.35092989
  0
VERTEX
  8
0
 62
7
 10
2.05664226
 20
14.33250309
  0
VERTEX
  8
0
 62
7
 10
2.06207196
 20
14.31311207
  0
VERTEX
  8
0
 62
7
 10
2.06871982
 20
14.27896020
  0
VERTEX
  8
0
 62
7
 10
2.06871982
 20
14.24763416
  0
VERTEX
  8
0
 62
7
 10
2.06297849
 20
14.21584988
  0
VERTEX
  8
0
 62
7
 10
2.05240236
 20
14.18032328
  0
SEQEND
  0
POLYLINE
  8
0
 62
7
 66
1
 70
1
  0
VERTEX
  8
0
 62
7
 10
2.49913877
 20
12.78631897
  0
VERTEX
  8
0
 62
7
 10
2.51518710
 20
12.77427893
  0
VERTEX
  8
0
 62
7
 10
2.53007395
 20
12.76240120
  0
VERTEX
  8
0
 62
7
 10
2.54377098
 20
12.75038981
  0
VERTEX
  8
0
 62
7
 10
2.55624987
 20
12.73794881
  0
VERTEX
  8
0
 62
7
 10
2.56748228
 20
12.72478227
  0
VERTEX
  8
0
 62
7
 10
2.57743989
 20
12.71059422
  0
VERTEX
  8
0
 62
7
 10
2.58609438
 20
12.69508872
  0
VERTEX
  8
0
 62
7
 10
2.59341740
 20
12.67796983
  0
VERTEX
  8
0
 62
7
 10
2.60055943
 20
12.65915957
  0
VERTEX
  8
0
 62
7
 10
2.60568067
 20
12.64006290
  0
VERTEX
  8
0
 62
7
 10
2.60880000
 20
12.62077531
  0
VERTEX
  8
0
 62
7
 10
2.60993631
 20
12.60139224
  0
VERTEX
  8
0
 62
7
 10
2.60910847
 20
12.58200918
  0
VERTEX
  8
0
 62
7
 10
2.60633539
 20
12.56272158
  0
VERTEX
  8
0
 62
7
 10
2.60163593
 20
12.54362492
  0
VERTEX
  8
0
 62
7
 10
2.59502900
 20
12.52481466
  0
VERTEX
  8
0
 62
7
 10
2.59451436
 20
12.51673016
  0
VERTEX
  8
0
 62
7
 10
2.59725754
 20
12.50917073
  0
VERTEX
  8
0
 62
7
 10
2.60243701
 20
12.50243232
  0
VERTEX
  8
0
 62
7
 10
2.60923123
 20
12.49681088
  0
VERTEX
  8
0
 62
7
 10
2.61681866
 20
12.49260236
  0
VERTEX
  8
0
 62
7
 10
2.62437776
 20
12.49010271
  0
VERTEX
  8
0
 62
7
 10
2.63108699
 20
12.48960787
  0
VERTEX
  8
0
 62
7
 10
2.63612481
 20
12.49141379
  0
VERTEX
  8
0
 62
7
 10
2.65576619
 20
12.50544114
  0
VERTEX
  8
0
 62
7
 10
2.67842932
 20
12.51809375
  0
VERTEX
  8
0
 62
7
 10
2.69867506
 20
12.52738591
  0
VERTEX
  8
0
 62
7
 10
2.71106423
 20
12.53133190
  0
VERTEX
  8
0
 62
7
 10
2.74361101
 20
12.53329216
  0
VERTEX
  8
0
 62
7
 10
2.77200288
 20
12.53173922
  0
VERTEX
  8
0
 62
7
 10
2.79933713
 20
12.52835331
  0
VERTEX
  8
0
 62
7
 10
2.82871107
 20
12.52481466
  0
VERTEX
  8
0
 62
7
 10
2.85435346
 20
12.52238819
  0
VERTEX
  8
0
 62
7
 10
2.87989197
 20
12.52128873
  0
VERTEX
  8
0
 62
7
 10
2.90529829
 20
12.52162127
  0
VERTEX
  8
0
 62
7
 10
2.93054407
 20
12.52349084
  0
VERTEX
  8
0
 62
7
 10
2.95560099
 20
12.52700245
  0
VERTEX
  8
0
 62
7
 10
2.98044073
 20
12.53226111
  0
VERTEX
  8
0
 62
7
 10
3.00503495
 20
12.53937184
  0
VERTEX
  8
0
 62
7
 10
3.02935532
 20
12.54843966
  0
VERTEX
  8
0
 62
7
 10
3.05762128
 20
12.56395629
  0
VERTEX
  8
0
 62
7
 10
3.08324321
 20
12.58397899
  0
VERTEX
  8
0
 62
7
 10
3.10629665
 20
12.60720939
  0
VERTEX
  8
0
 62
7
 10
3.12685715
 20
12.63234914
  0
VERTEX
  8
0
 62
7
 10
3.14026932
 20
12.65156514
  0
VERTEX
  8
0
 62
7
 10
3.15166069
 20
12.67182173
  0
VERTEX
  8
0
 62
7
 10
3.16127678
 20
12.69293753
  0
VERTEX
  8
0
 62
7
 10
3.16936311
 20
12.71473114
  0
VERTEX
  8
0
 62
7
 10
3.17616520
 20
12.73702119
  0
VERTEX
  8
0
 62
7
 10
3.18192856
 20
12.75962628
  0
VERTEX
  8
0
 62
7
 10
3.18689871
 20
12.78236502
  0
VERTEX
  8
0
 62
7
 10
3.19132117
 20
12.80505603
  0
VERTEX
  8
0
 62
7
 10
3.19620633
 20
12.83540671
  0
VERTEX
  8
0
 62
7
 10
3.19897627
 20
12.86593878
  0
VERTEX
  8
0
 62
7
 10
3.19993316
 20
12.89660450
  0
VERTEX
  8
0
 62
7
 10
3.19937917
 20
12.92735614
  0
VERTEX
  8
0
 62
7
 10
3.19761648
 20
12.95814597
  0
VERTEX
  8
0
 62
7
 10
3.19494727
 20
12.98892625
  0
VERTEX
  8
0
 62
7
 10
3.19167371
 20
13.01964925
  0
VERTEX
  8
0
 62
7
 10
3.18809797
 20
13.05026724
  0
VERTEX
  8
0
 62
7
 10
3.18398083
 20
13.08857195
  0
VERTEX
  8
0
 62
7
 10
3.17933489
 20
13.12651387
  0
VERTEX
  8
0
 62
7
 10
3.17393351
 20
13.16411212
  0
VERTEX
  8
0
 62
7
 10
3.16755006
 20
13.20138578
  0
VERTEX
  8
0
 62
7
 10
3.15995791
 20
13.23835394
  0
VERTEX
  8
0
 62
7
 10
3.15093043
 20
13.27503570
  0
VERTEX
  8
0
 62
7
 10
3.14024099
 20
13.31145014
  0
VERTEX
  8
0
 62
7
 10
3.12766295
 20
13.34761638
  0
VERTEX
  8
0
 62
7
 10
3.08566061
 20
13.36146552
  0
VERTEX
  8
0
 62
7
 10
3.04547133
 20
13.38020259
  0
VERTEX
  8
0
 62
7
 10
2.99390011
 20
13.36879741
  0
VERTEX
  8
0
 62
7
 10
2.97213092
 20
13.34433230
  0
VERTEX
  8
0
 62
7
 10
2.93155132
 20
13.28916487
  0
VERTEX
  8
0
 62
7
 10
2.88387061
 20
13.22330509
  0
VERTEX
  8
0
 62
7
 10
2.84079807
 20
13.16676293
  0
VERTEX
  8
0
 62
7
 10
2.78470682
 20
13.09661348
  0
VERTEX
  8
0
 62
7
 10
2.72869111
 20
13.02592942
  0
VERTEX
  8
0
 62
7
 10
2.67071127
 20
12.95723107
  0
VERTEX
  8
0
 62
7
 10
2.60872760
 20
12.89303879
  0
VERTEX
  8
0
 62
7
 10
2.57649560
 20
12.91666379
  0
VERTEX
  8
0
 62
7
 10
2.59629436
 20
12.95658826
  0
VERTEX
  8
0
 62
7
 10
2.61794395
 20
12.99578718
  0
VERTEX
  8
0
 62
7
 10
2.64102886
 20
13.03437510
  0
VERTEX
  8
0
 62
7
 10
2.66513362
 20
13.07246659
  0
VERTEX
  8
0
 62
7
 10
2.68984273
 20
13.11017622
  0
VERTEX
  8
0
 62
7
 10
2.71474070
 20
13.14761853
  0
VERTEX
  8
0
 62
7
 10
2.73941203
 20
13.18490810
  0
VERTEX
  8
0
 62
7
 10
2.76344125
 20
13.22215948
  0
VERTEX
  8
0
 62
7
 10
2.78196993
 20
13.24932951
  0
VERTEX
  8
0
 62
7
 10
2.80424748
 20
13.28050916
  0
VERTEX
  8
0
 62
7
 10
2.82835695
 20
13.31352179
  0
VERTEX
  8
0
 62
7
 10
2.85238145
 20
13.34619073
  0
VERTEX
  8
0
 62
7
 10
2.87440403
 20
13.37633934
  0
VERTEX
  8
0
 62
7
 10
2.89250778
 20
13.40179095
  0
VERTEX
  8
0
 62
7
 10
2.90477577
 20
13.42036890
  0
VERTEX
  8
0
 62
7
 10
2.90929109
 20
13.42989655
  0
VERTEX
  8
0
 62
7
 10
2.90445629
 20
13.48284914
  0
VERTEX
  8
0
 62
7
 10
2.87413805
 20
13.51543534
  0
VERTEX
  8
0
 62
7
 10
2.84805027
 20
13.55046552
  0
VERTEX
  8
0
 62
7
 10
2.80958433
 20
13.55130086
  0
VERTEX
  8
0
 62
7
 10
2.77148666
 20
13.55027458
  0
VERTEX
  8
0
 62
7
 10
2.73367228
 20
13.54758718
  0
VERTEX
  8
0
 62
7
 10
2.69605620
 20
13.54343912
  0
VERTEX
  8
0
 62
7
 10
2.65855344
 20
13.53803089
  0
VERTEX
  8
0
 62
7
 10
2.62107901
 20
13.53156297
  0
VERTEX
  8
0
 62
7
 10
2.58354792
 20
13.52423585
  0
VERTEX
  8
0
 62
7
 10
2.54587519
 20
13.51625000
  0
VERTEX
  8
0
 62
7
 10
2.51587015
 20
13.51012895
  0
VERTEX
  8
0
 62
7
 10
2.48578012
 20
13.50378832
  0
VERTEX
  8
0
 62
7
 10
2.45574675
 20
13.49693217
  0
VERTEX
  8
0
 62
7
 10
2.42591168
 20
13.48926455
  0
VERTEX
  8
0
 62
7
 10
2.39641656
 20
13.48048950
  0
VERTEX
  8
0
 62
7
 10
2.36740303
 20
13.47031109
  0
VERTEX
  8
0
 62
7
 10
2.33901273
 20
13.45843335
  0
VERTEX
  8
0
 62
7
 10
2.31138732
 20
13.44456034
  0
VERTEX
  8
0
 62
7
 10
2.29137452
 20
13.43287513
  0
VERTEX
  8
0
 62
7
 10
2.27139949
 20
13.42088443
  0
VERTEX
  8
0
 62
7
 10
2.25172663
 20
13.40835911
  0
VERTEX
  8
0
 62
7
 10
2.23262035
 20
13.39507004
  0
VERTEX
  8
0
 62
7
 10
2.21434505
 20
13.38078812
  0
VERTEX
  8
0
 62
7
 10
2.19716514
 20
13.36528421
  0
VERTEX
  8
0
 62
7
 10
2.18134502
 20
13.34832920
  0
VERTEX
  8
0
 62
7
 10
2.16714908
 20
13.32969397
  0
VERTEX
  8
0
 62
7
 10
2.14983697
 20
13.30205933
  0
VERTEX
  8
0
 62
7
 10
2.13501780
 20
13.27297360
  0
VERTEX
  8
0
 62
7
 10
2.12397582
 20
13.24251313
  0
VERTEX
  8
0
 62
7
 10
2.11799527
 20
13.21075431
  0
VERTEX
  8
0
 62
7
 10
2.11688257
 20
13.18497175
  0
VERTEX
  8
0
 62
7
 10
2.11770568
 20
13.15953287
  0
VERTEX
  8
0
 62
7
 10
2.12036073
 20
13.13439948
  0
VERTEX
  8
0
 62
7
 10
2.12474384
 20
13.10953341
  0
VERTEX
  8
0
 62
7
 10
2.13075115
 20
13.08489645
  0
VERTEX
  8
0
 62
7
 10
2.13827877
 20
13.06045043
  0
VERTEX
  8
0
 62
7
 10
2.14722284
 20
13.03615716
  0
VERTEX
  8
0
 62
7
 10
2.15747948
 20
13.01197845
  0
VERTEX
  8
0
 62
7
 10
2.17004493
 20
12.98541305
  0
VERTEX
  8
0
 62
7
 10
2.18185494
 20
12.96075700
  0
VERTEX
  8
0
 62
7
 10
2.19215407
 20
12.93442073
  0
VERTEX
  8
0
 62
7
 10
2.20018689
 20
12.90281466
  0
VERTEX
  8
0
 62
7
 10
2.20018689
 20
12.88969107
  0
VERTEX
  8
0
 62
7
 10
2.19776949
 20
12.86747899
  0
VERTEX
  8
0
 62
7
 10
2.19293469
 20
12.84175370
  0
VERTEX
  8
0
 62
7
 10
2.18568249
 20
12.81809052
  0
VERTEX
  8
0
 62
7
 10
2.18540392
 20
12.81308962
  0
VERTEX
  8
0
 62
7
 10
2.18783548
 20
12.80710540
  0
VERTEX
  8
0
 62
7
 10
2.19243893
 20
12.80083478
  0
VERTEX
  8
0
 62
7
 10
2.19867602
 20
12.79497468
  0
VERTEX
  8
0
 62
7
 10
2.20600848
 20
12.79022199
  0
VERTEX
  8
0
 62
7
 10
2.21389809
 20
12.78727364
  0
VERTEX
  8
0
 62
7
 10
2.22180657
 20
12.78682653
  0
VERTEX
  8
0
 62
7
 10
2.22919570
 20
12.78957759
  0
VERTEX
  8
0
 62
7
 10
2.24531328
 20
12.80183083
  0
VERTEX
  8
0
 62
7
 10
2.26219574
 20
12.81229883
  0
VERTEX
  8
0
 62
7
 10
2.27977698
 20
12.82095295
  0
VERTEX
  8
0
 62
7
 10
2.29799089
 20
12.82776455
  0
VERTEX
  8
0
 62
7
 10
2.31677139
 20
12.83270499
  0
VERTEX
  8
0
 62
7
 10
2.33605236
 20
12.83574562
  0
VERTEX
  8
0
 62
7
 10
2.35576771
 20
12.83685782
  0
VERTEX
  8
0
 62
7
 10
2.37585134
 20
12.83601293
  0
VERTEX
  8
0
 62
7
 10
2.41041262
 20
12.83202876
  0
VERTEX
  8
0
 62
7
 10
2.44021463
 20
12.82246929
  0
VERTEX
  8
0
 62
7
 10
2.46865686
 20
12.80725815
  0
VERTEX
  8
0
 62
7
 10
2.49913877
 20
12.78631897
  0
SEQEND
  0
POLYLINE
  8
0
 62
7
 66
1
 70
1
  0
VERTEX
  8
0
 62
7
 10
3.96338582
 20
12.77998707
  0
VERTEX
  8
0
 62
7
 10
3.97993778
 20
12.79142406
  0
VERTEX
  8
0
 62
7
 10
3.99593260
 20
12.80183001
  0
VERTEX
  8
0
 62
7
 10
4.01164413
 20
12.81109035
  0
VERTEX
  8
0
 62
7
 10
4.02734622
 20
12.81909052
  0
VERTEX
  8
0
 62
7
 10
4.04331271
 20
12.82571596
  0
VERTEX
  8
0
 62
7
 10
4.05981745
 20
12.83085210
  0
VERTEX
  8
0
 62
7
 10
4.07713428
 20
12.83438440
  0
VERTEX
  8
0
 62
7
 10
4.09553706
 20
12.83619828
  0
VERTEX
  8
0
 62
7
 10
4.11565374
 20
12.83704475
  0
VERTEX
  8
0
 62
7
 10
4.13544935
 20
12.83594370
  0
VERTEX
  8
0
 62
7
 10
4.15482948
 20
12.83293329
  0
VERTEX
  8
0
 62
7
 10
4.17369968
 20
12.82805172
  0
VERTEX
  8
0
 62
7
 10
4.19196554
 20
12.82133718
  0
VERTEX
  8
0
 62
7
 10
4.20953261
 20
12.81282786
  0
VERTEX
  8
0
 62
7
 10
4.22630647
 20
12.80256193
  0
VERTEX
  8
0
 62
7
 10
4.24219270
 20
12.79057759
  0
VERTEX
  8
0
 62
7
 10
4.24961645
 20
12.78755923
  0
VERTEX
  8
0
 62
7
 10
4.25761622
 20
12.78781540
  0
VERTEX
  8
0
 62
7
 10
4.26563488
 20
12.79064919
  0
VERTEX
  8
0
 62
7
 10
4.27311528
 20
12.79536369
  0
VERTEX
  8
0
 62
7
 10
4.27950031
 20
12.80126198
  0
VERTEX
  8
0
 62
7
 10
4.28423281
 20
12.80764716
  0
VERTEX
  8
0
 62
7
 10
4.28675566
 20
12.81382231
  0
VERTEX
  8
0
 62
7
 10
4.28651171
 20
12.81909052
  0
VERTEX
  8
0
 62
7
 10
4.27914620
 20
12.84193905
  0
VERTEX
  8
0
 62
7
 10
4.27412253
 20
12.86746067
  0
VERTEX
  8
0
 62
7
 10
4.27166736
 20
12.88977458
  0
VERTEX
  8
0
 62
7
 10
4.27200731
 20
12.90300000
  0
VERTEX
  8
0
 62
7
 10
4.27991422
 20
12.93426239
  0
VERTEX
  8
0
 62
7
 10
4.28993636
 20
12.96063685
  0
VERTEX
  8
0
 62
7
 10
4.30146938
 20
12.98548384
  0
VERTEX
  8
0
 62
7
 10
4.31390892
 20
13.01216379
  0
VERTEX
  8
0
 62
7
 10
4.32416556
 20
13.03584130
  0
VERTEX
  8
0
 62
7
 10
4.33310963
 20
13.05983385
  0
VERTEX
  8
0
 62
7
 10
4.34063725
 20
13.08415099
  0
VERTEX
  8
0
 62
7
 10
4.34664455
 20
13.10880226
  0
VERTEX
  8
0
 62
7
 10
4.35102767
 20
13.13379722
  0
VERTEX
  8
0
 62
7
 10
4.35368272
 20
13.15914541
  0
VERTEX
  8
0
 62
7
 10
4.35450583
 20
13.18485637
  0
VERTEX
  8
0
 62
7
 10
4.35339313
 20
13.21093966
  0
VERTEX
  8
0
 62
7
 10
4.34741258
 20
13.24234207
  0
VERTEX
  8
0
 62
7
 10
4.33637060
 20
13.27275162
  0
VERTEX
  8
0
 62
7
 10
4.32155143
 20
13.30178644
  0
VERTEX
  8
0
 62
7
 10
4.30423932
 20
13.32906466
  0
VERTEX
  8
0
 62
7
 10
4.29004338
 20
13.34776672
  0
VERTEX
  8
0
 62
7
 10
4.27422326
 20
13.36488402
  0
VERTEX
  8
0
 62
7
 10
4.25704335
 20
13.38058841
  0
VERTEX
  8
0
 62
7
 10
4.23876805
 20
13.39505172
  0
VERTEX
  8
0
 62
7
 10
4.21966177
 20
13.40844580
  0
VERTEX
  8
0
 62
7
 10
4.19998891
 20
13.42094248
  0
VERTEX
  8
0
 62
7
 10
4.18001388
 20
13.43271361
  0
VERTEX
  8
0
 62
7
 10
4.16000108
 20
13.44393103
  0
VERTEX
  8
0
 62
7
 10
4.13264007
 20
13.45787246
  0
VERTEX
  8
0
 62
7
 10
4.10443863
 20
13.46992363
  0
VERTEX
  8
0
 62
7
 10
4.07553842
 20
13.48033276
  0
VERTEX
  8
0
 62
7
 10
4.04608107
 20
13.48934806
  0
VERTEX
  8
0
 62
7
 10
4.01620823
 20
13.49721776
  0
VERTEX
  8
0
 62
7
 10
3.98606154
 20
13.50419006
  0
VERTEX
  8
0
 62
7
 10
3.95578266
 20
13.51051318
  0
VERTEX
  8
0
 62
7
 10
3.92551321
 20
13.51643534
  0
VERTEX
  8
0
 62
7
 10
3.88784205
 20
13.52442278
  0
VERTEX
  8
0
 62
7
 10
3.85032198
 20
13.53176105
  0
VERTEX
  8
0
 62
7
 10
3.81287745
 20
13.53825919
  0
VERTEX
  8
0
 62
7
 10
3.77543292
 20
13.54372629
  0
VERTEX
  8
0
 62
7
 10
3.73791285
 20
13.54797141
  0
VERTEX
  8
0
 62
7
 10
3.70024169
 20
13.55080361
  0
VERTEX
  8
0
 62
7
 10
3.66234389
 20
13.55203196
  0
VERTEX
  8
0
 62
7
 10
3.62414393
 20
13.55146552
  0
VERTEX
  8
0
 62
7
 10
3.59805615
 20
13.51541703
  0
VERTEX
  8
0
 62
7
 10
3.56773791
 20
13.48303448
  0
VERTEX
  8
0
 62
7
 10
3.56290311
 20
13.43008190
  0
VERTEX
  8
0
 62
7
 10
3.56715087
 20
13.42055425
  0
VERTEX
  8
0
 62
7
 10
3.57920797
 20
13.40197629
  0
VERTEX
  8
0
 62
7
 10
3.59713860
 20
13.37652468
  0
VERTEX
  8
0
 62
7
 10
3.61900695
 20
13.34637608
  0
VERTEX
  8
0
 62
7
 10
3.64287721
 20
13.31370713
  0
VERTEX
  8
0
 62
7
 10
3.66681357
 20
13.28069450
  0
VERTEX
  8
0
 62
7
 10
3.68888022
 20
13.24951485
  0
VERTEX
  8
0
 62
7
 10
3.70714135
 20
13.22234483
  0
VERTEX
  8
0
 62
7
 10
3.73166947
 20
13.18485955
  0
VERTEX
  8
0
 62
7
 10
3.75666029
 20
13.14746020
  0
VERTEX
  8
0
 62
7
 10
3.78174555
 20
13.11000356
  0
VERTEX
  8
0
 62
7
 10
3.80655695
 20
13.07234644
  0
VERTEX
  8
0
 62
7
 10
3.83072624
 20
13.03434564
  0
VERTEX
  8
0
 62
7
 10
3.85388513
 20
12.99585796
  0
VERTEX
  8
0
 62
7
 10
3.87566534
 20
12.95674019
  0
VERTEX
  8
0
 62
7
 10
3.89569860
 20
12.91684914
  0
VERTEX
  8
0
 62
7
 10
3.86346659
 20
12.89403879
  0
VERTEX
  8
0
 62
7
 10
3.80090376
 20
12.95786193
  0
VERTEX
  8
0
 62
7
 10
3.74249584
 20
13.02642026
  0
VERTEX
  8
0
 62
7
 10
3.68635422
 20
13.09681156
  0
VERTEX
  8
0
 62
7
 10
3.63059033
 20
13.16613362
  0
VERTEX
  8
0
 62
7
 10
3.58787033
 20
13.22280307
  0
VERTEX
  8
0
 62
7
 10
3.54023998
 20
13.28894289
  0
VERTEX
  8
0
 62
7
 10
3.49971075
 20
13.34439036
  0
VERTEX
  8
0
 62
7
 10
3.47829409
 20
13.36898276
  0
VERTEX
  8
0
 62
7
 10
3.42672287
 20
13.38038793
  0
VERTEX
  8
0
 62
7
 10
3.38592924
 20
13.36165086
  0
VERTEX
  8
0
 62
7
 10
3.34453125
 20
13.34780172
  0
VERTEX
  8
0
 62
7
 10
3.33192016
 20
13.31160048
  0
VERTEX
  8
0
 62
7
 10
3.32115045
 20
13.27509375
  0
VERTEX
  8
0
 62
7
 10
3.31202382
 20
13.23828152
  0
VERTEX
  8
0
 62
7
 10
3.30434196
 20
13.20116379
  0
VERTEX
  8
0
 62
7
 10
3.29790658
 20
13.16374057
  0
VERTEX
  8
0
 62
7
 10
3.29251936
 20
13.12601185
  0
VERTEX
  8
0
 62
7
 10
3.28798202
 20
13.08797764
  0
VERTEX
  8
0
 62
7
 10
3.28409623
 20
13.04963793
  0
VERTEX
  8
0
 62
7
 10
3.28048430
 20
13.01928725
  0
VERTEX
  8
0
 62
7
 10
3.27710843
 20
12.98875519
  0
VERTEX
  8
0
 62
7
 10
3.27428026
 20
12.95808946
  0
VERTEX
  8
0
 62
7
 10
3.27231140
 20
12.92733782
  0
VERTEX
  8
0
 62
7
 10
3.27151347
 20
12.89654799
  0
VERTEX
  8
0
 62
7
 10
3.27219809
 20
12.86576771
  0
VERTEX
  8
0
 62
7
 10
3.27467687
 20
12.83504471
  0
VERTEX
  8
0
 62
7
 10
3.27926143
 20
12.80442672
  0
VERTEX
  8
0
 62
7
 10
3.28441257
 20
12.78200302
  0
VERTEX
  8
0
 62
7
 10
3.28979979
 20
12.75945521
  0
VERTEX
  8
0
 62
7
 10
3.29573470
 20
12.73696468
  0
VERTEX
  8
0
 62
7
 10
3.30252891
 20
12.71471282
  0
VERTEX
  8
0
 62
7
 10
3.31049406
 20
12.69288102
  0
VERTEX
  8
0
 62
7
 10
3.31994175
 20
12.67165066
  0
VERTEX
  8
0
 62
7
 10
3.33118361
 20
12.65120313
  0
VERTEX
  8
0
 62
7
 10
3.34453125
 20
12.63171983
  0
VERTEX
  8
0
 62
7
 10
3.36543169
 20
12.60705105
  0
VERTEX
  8
0
 62
7
 10
3.38844736
 20
12.58406250
  0
VERTEX
  8
0
 62
7
 10
3.41388043
 20
12.56412891
  0
VERTEX
  8
0
 62
7
 10
3.44203308
 20
12.54862500
  0
VERTEX
  8
0
 62
7
 10
3.46632197
 20
12.53955719
  0
VERTEX
  8
0
 62
7
 10
3.49084694
 20
12.53244646
  0
VERTEX
  8
0
 62
7
 10
3.51561743
 20
12.52718779
  0
VERTEX
  8
0
 62
7
 10
3.54064288
 20
12.52367619
  0
VERTEX
  8
0
 62
7
 10
3.56593273
 20
12.52180662
  0
VERTEX
  8
0
 62
7
 10
3.59149643
 20
12.52147407
  0
VERTEX
  8
0
 62
7
 10
3.61734341
 20
12.52257354
  0
VERTEX
  8
0
 62
7
 10
3.64348313
 20
12.52500000
  0
VERTEX
  8
0
 62
7
 10
3.67273116
 20
12.52865322
  0
VERTEX
  8
0
 62
7
 10
3.69978842
 20
12.53223006
  0
VERTEX
  8
0
 62
7
 10
3.72790330
 20
12.53382119
  0
VERTEX
  8
0
 62
7
 10
3.76032417
 20
12.53151724
  0
VERTEX
  8
0
 62
7
 10
3.77273853
 20
12.52768582
  0
VERTEX
  8
0
 62
7
 10
3.79316053
 20
12.51858459
  0
VERTEX
  8
0
 62
7
 10
3.81630210
 20
12.50597016
  0
VERTEX
  8
0
 62
7
 10
3.83687519
 20
12.49159914
  0
VERTEX
  8
0
 62
7
 10
3.84138263
 20
12.48979162
  0
VERTEX
  8
0
 62
7
 10
3.84770313
 20
12.49027532
  0
VERTEX
  8
0
 62
7
 10
3.85500569
 20
12.49274475
  0
VERTEX
  8
0
 62
7
 10
3.86245934
 20
12.49689440
  0
VERTEX
  8
0
 62
7
 10
3.86923310
 20
12.50241878
  0
VERTEX
  8
0
 62
7
 10
3.87449599
 20
12.50901239
  0
VERTEX
  8
0
 62
7
 10
3.87741701
 20
12.51636975
  0
VERTEX
  8
0
 62
7
 10
3.87716520
 20
12.52418534
  0
VERTEX
  8
0
 62
7
 10
3.87055669
 20
12.54326451
  0
VERTEX
  8
0
 62
7
 10
3.86584622
 20
12.56256324
  0
VERTEX
  8
0
 62
7
 10
3.86304323
 20
12.58199563
  0
VERTEX
  8
0
 62
7
 10
3.86215717
 20
12.60147575
  0
VERTEX
  8
0
 62
7
 10
3.86319747
 20
12.62091769
  0
VERTEX
  8
0
 62
7
 10
3.86617358
 20
12.64023552
  0
VERTEX
  8
0
 62
7
 10
3.87109494
 20
12.65934332
  0
VERTEX
  8
0
 62
7
 10
3.87797100
 20
12.67815517
  0
VERTEX
  8
0
 62
7
 10
3.89267685
 20
12.70953213
  0
VERTEX
  8
0
 62
7
 10
3.91100881
 20
12.73487554
  0
VERTEX
  8
0
 62
7
 10
3.93417556
 20
12.75731674
  0
VERTEX
  8
0
 62
7
 10
3.96338582
 20
12.77998707
  0
SEQEND
  0
POLYLINE
  8
0
 62
7
 66
1
 70
1
  0
VERTEX
  8
0
 62
7
 10
4.67600000
 20
13.84700000
  0
VERTEX
  8
0
 62
7
 10
4.84187500
 20
13.81075000
  0
VERTEX
  8
0
 62
7
 10
5.01000000
 20
13.77900000
  0
VERTEX
  8
0
 62
7
 10
5.12359375
 20
13.76146875
  0
VERTEX
  8
0
 62
7
 10
5.23775000
 20
13.74825000
  0
VERTEX
  8
0
 62
7
 10
5.35228125
 20
13.73765625
  0
VERTEX
  8
0
 62
7
 10
5.46700000
 20
13.72800000
  0
VERTEX
  8
0
 62
7
 10
5.47500000
 20
13.78100000
  0
VERTEX
  8
0
 62
7
 10
5.36209375
 20
13.79204688
  0
VERTEX
  8
0
 62
7
 10
5.24975000
 20
13.80562500
  0
VERTEX
  8
0
 62
7
 10
5.13778125
 20
13.82164063
  0
VERTEX
  8
0
 62
7
 10
5.02600000
 20
13.84000000
  0
VERTEX
  8
0
 62
7
 10
4.87900000
 20
13.86912500
  0
VERTEX
  8
0
 62
7
 10
4.73200000
 20
13.90200000
  0
VERTEX
  8
0
 62
7
 10
4.74687500
 20
13.92578125
  0
VERTEX
  8
0
 62
7
 10
4.75425000
 20
13.94825000
  0
VERTEX
  8
0
 62
7
 10
4.75675000
 20
13.96584375
  0
VERTEX
  8
0
 62
7
 10
4.75700000
 20
13.97500000
  0
VERTEX
  8
0
 62
7
 10
4.75300000
 20
14.01000000
  0
VERTEX
  8
0
 62
7
 10
4.75039258
 20
14.01847070
  0
VERTEX
  8
0
 62
7
 10
4.74526563
 20
14.03145313
  0
VERTEX
  8
0
 62
7
 10
4.73716211
 20
14.04717773
  0
VERTEX
  8
0
 62
7
 10
4.72562500
 20
14.06387500
  0
VERTEX
  8
0
 62
7
 10
4.71019727
 20
14.07977539
  0
VERTEX
  8
0
 62
7
 10
4.69042188
 20
14.09310938
  0
VERTEX
  8
0
 62
7
 10
4.66584180
 20
14.10210742
  0
VERTEX
  8
0
 62
7
 10
4.63600000
 20
14.10500000
  0
VERTEX
  8
0
 62
7
 10
4.63100000
 20
14.10500000
  0
VERTEX
  8
0
 62
7
 10
4.60884375
 20
14.10667188
  0
VERTEX
  8
0
 62
7
 10
4.58875000
 20
14.11162500
  0
VERTEX
  8
0
 62
7
 10
4.57053125
 20
14.11976563
  0
VERTEX
  8
0
 62
7
 10
4.55400000
 20
14.13100000
  0
VERTEX
  8
0
 62
7
 10
4.54040625
 20
14.14375000
  0
VERTEX
  8
0
 62
7
 10
4.53000000
 20
14.15725000
  0
VERTEX
  8
0
 62
7
 10
4.52109375
 20
14.17487500
  0
VERTEX
  8
0
 62
7
 10
4.51200000
 20
14.20000000
  0
VERTEX
  8
0
 62
7
 10
4.50250000
 20
14.23712500
  0
VERTEX
  8
0
 62
7
 10
4.49900000
 20
14.26300000
  0
VERTEX
  8
0
 62
7
 10
4.54280469
 20
14.29034961
  0
VERTEX
  8
0
 62
7
 10
4.58862500
 20
14.31454688
  0
VERTEX
  8
0
 62
7
 10
4.63632031
 20
14.33543945
  0
VERTEX
  8
0
 62
7
 10
4.68575000
 20
14.35287500
  0
VERTEX
  8
0
 62
7
 10
4.73677344
 20
14.36670117
  0
VERTEX
  8
0
 62
7
 10
4.78925000
 20
14.37676563
  0
VERTEX
  8
0
 62
7
 10
4.84303906
 20
14.38291602
  0
VERTEX
  8
0
 62
7
 10
4.89800000
 20
14.38500000
  0
VERTEX
  8
0
 62
7
 10
4.94948291
 20
14.38316968
  0
VERTEX
  8
0
 62
7
 10
4.99997266
 20
14.37776367
  0
VERTEX
  8
0
 62
7
 10
5.04934326
 20
14.36890942
  0
VERTEX
  8
0
 62
7
 10
5.09746875
 20
14.35673438
  0
VERTEX
  8
0
 62
7
 10
5.14422314
 20
14.34136597
  0
VERTEX
  8
0
 62
7
 10
5.18948047
 20
14.32293164
  0
VERTEX
  8
0
 62
7
 10
5.23311475
 20
14.30155884
  0
VERTEX
  8
0
 62
7
 10
5.27500000
 20
14.27737500
  0
VERTEX
  8
0
 62
7
 10
5.31501025
 20
14.25050757
  0
VERTEX
  8
0
 62
7
 10
5.35301953
 20
14.22108398
  0
VERTEX
  8
0
 62
7
 10
5.38890186
 20
14.18923169
  0
VERTEX
  8
0
 62
7
 10
5.42253125
 20
14.15507813
  0
VERTEX
  8
0
 62
7
 10
5.45378174
 20
14.11875073
  0
VERTEX
  8
0
 62
7
 10
5.48252734
 20
14.08037695
  0
VERTEX
  8
0
 62
7
 10
5.50864209
 20
14.04008423
  0
VERTEX
  8
0
 62
7
 10
5.53200000
 20
13.99800000
  0
VERTEX
  8
0
 62
7
 10
5.55209961
 20
13.96332227
  0
VERTEX
  8
0
 62
7
 10
5.57617188
 20
13.93151563
  0
VERTEX
  8
0
 62
7
 10
5.60387695
 20
13.90291992
  0
VERTEX
  8
0
 62
7
 10
5.63487500
 20
13.87787500
  0
VERTEX
  8
0
 62
7
 10
5.66882617
 20
13.85672070
  0
VERTEX
  8
0
 62
7
 10
5.70539063
 20
13.83979688
  0
VERTEX
  8
0
 62
7
 10
5.74422852
 20
13.82744336
  0
VERTEX
  8
0
 62
7
 10
5.78500000
 20
13.82000000
  0
VERTEX
  8
0
 62
7
 10
5.75312354
 20
13.77156396
  0
VERTEX
  8
0
 62
7
 10
5.71833203
 20
13.72533984
  0
VERTEX
  8
0
 62
7
 10
5.68075732
 20
13.68145361
  0
VERTEX
  8
0
 62
7
 10
5.64053125
 20
13.64003125
  0
VERTEX
  8
0
 62
7
 10
5.59778564
 20
13.60119873
  0
VERTEX
  8
0
 62
7
 10
5.55265234
 20
13.56508203
  0
VERTEX
  8
0
 62
7
 10
5.50526318
 20
13.53180713
  0
VERTEX
  8
0
 62
7
 10
5.45575000
 20
13.50150000
  0
VERTEX
  8
0
 62
7
 10
5.40424463
 20
13.47428662
  0
VERTEX
  8
0
 62
7
 10
5.35087891
 20
13.45029297
  0
VERTEX
  8
0
 62
7
 10
5.29578467
 20
13.42964502
  0
VERTEX
  8
0
 62
7
 10
5.23909375
 20
13.41246875
  0
VERTEX
  8
0
 62
7
 10
5.18093799
 20
13.39889014
  0
VERTEX
  8
0
 62
7
 10
5.12144922
 20
13.38903516
  0
VERTEX
  8
0
 62
7
 10
5.06075928
 20
13.38302979
  0
VERTEX
  8
0
 62
7
 10
4.99900000
 20
13.38100000
  0
VERTEX
  8
0
 62
7
 10
4.93429102
 20
13.38322656
  0
VERTEX
  8
0
 62
7
 10
4.87076563
 20
13.38981250
  0
VERTEX
  8
0
 62
7
 10
4.80857617
 20
13.40061719
  0
VERTEX
  8
0
 62
7
 10
4.74787500
 20
13.41550000
  0
VERTEX
  8
0
 62
7
 10
4.68881445
 20
13.43432031
  0
VERTEX
  8
0
 62
7
 10
4.63154688
 20
13.45693750
  0
VERTEX
  8
0
 62
7
 10
4.57622461
 20
13.48321094
  0
VERTEX
  8
0
 62
7
 10
4.52300000
 20
13.51300000
  0
VERTEX
  8
0
 62
7
 10
4.55400000
 20
13.54200000
  0
VERTEX
  8
0
 62
7
 10
4.57479688
 20
13.56832422
  0
VERTEX
  8
0
 62
7
 10
4.59306250
 20
13.59546875
  0
VERTEX
  8
0
 62
7
 10
4.60898438
 20
13.62331641
  0
VERTEX
  8
0
 62
7
 10
4.62275000
 20
13.65175000
  0
VERTEX
  8
0
 62
7
 10
4.63454688
 20
13.68065234
  0
VERTEX
  8
0
 62
7
 10
4.64456250
 20
13.70990625
  0
VERTEX
  8
0
 62
7
 10
4.65298438
 20
13.73939453
  0
VERTEX
  8
0
 62
7
 10
4.66000000
 20
13.76900000
  0
VERTEX
  8
0
 62
7
 10
4.66500000
 20
13.80100000
  0
VERTEX
  8
0
 62
7
 10
4.67600000
 20
13.84700000
  0
SEQEND
  0
POLYLINE
  8
0
 62
7
 66
1
 70
1
  0
VERTEX
  8
0
 62
7
 10
4.42182084
 20
14.17010345
  0
VERTEX
  8
0
 62
7
 10
4.41611256
 20
14.18946265
  0
VERTEX
  8
0
 62
7
 10
4.41120694
 20
14.20797218
  0
VERTEX
  8
0
 62
7
 10
4.40730227
 20
14.22585164
  0
VERTEX
  8
0
 62
7
 10
4.40459686
 20
14.24332058
  0
VERTEX
  8
0
 62
7
 10
4.40328901
 20
14.26059859
  0
VERTEX
  8
0
 62
7
 10
4.40357702
 20
14.27790524
  0
VERTEX
  8
0
 62
7
 10
4.40565919
 20
14.29546010
  0
VERTEX
  8
0
 62
7
 10
4.40973384
 20
14.31348276
  0
VERTEX
  8
0
 62
7
 10
4.41516197
 20
14.33290719
  0
VERTEX
  8
0
 62
7
 10
4.42233706
 20
14.35141514
  0
VERTEX
  8
0
 62
7
 10
4.43119299
 20
14.36893023
  0
VERTEX
  8
0
 62
7
 10
4.44166367
 20
14.38537608
  0
VERTEX
  8
0
 62
7
 10
4.45368300
 20
14.40067632
  0
VERTEX
  8
0
 62
7
 10
4.46718487
 20
14.41475458
  0
VERTEX
  8
0
 62
7
 10
4.48210320
 20
14.42753448
  0
VERTEX
  8
0
 62
7
 10
4.49837186
 20
14.43893966
  0
VERTEX
  8
0
 62
7
 10
4.50340182
 20
14.44511958
  0
VERTEX
  8
0
 62
7
 10
4.50552334
 20
14.45278879
  0
VERTEX
  8
0
 62
7
 10
4.50522746
 20
14.46122175
  0
VERTEX
  8
0
 62
7
 10
4.50300521
 20
14.46969289
  0
VERTEX
  8
0
 62
7
 10
4.49934763
 20
14.47747666
  0
VERTEX
  8
0
 62
7
 10
4.49474576
 20
14.48384752
  0
VERTEX
  8
0
 62
7
 10
4.48969062
 20
14.48807991
  0
VERTEX
  8
0
 62
7
 10
4.48467326
 20
14.48944828
  0
VERTEX
  8
0
 62
7
 10
4.46070070
 20
14.48963921
  0
VERTEX
  8
0
 62
7
 10
4.43491509
 20
14.49280873
  0
VERTEX
  8
0
 62
7
 10
4.41305776
 20
14.49735298
  0
VERTEX
  8
0
 62
7
 10
4.40087003
 20
14.50166810
  0
VERTEX
  8
0
 62
7
 10
4.37327138
 20
14.51886496
  0
VERTEX
  8
0
 62
7
 10
4.35111187
 20
14.53659644
  0
VERTEX
  8
0
 62
7
 10
4.33106759
 20
14.55539716
  0
VERTEX
  8
0
 62
7
 10
4.30981461
 20
14.57580172
  0
VERTEX
  8
0
 62
7
 10
4.29043134
 20
14.59270105
  0
VERTEX
  8
0
 62
7
 10
4.27033040
 20
14.60850249
  0
VERTEX
  8
0
 62
7
 10
4.24947402
 20
14.62310105
  0
VERTEX
  8
0
 62
7
 10
4.22782444
 20
14.63639170
  0
VERTEX
  8
0
 62
7
 10
4.20534387
 20
14.64826944
  0
VERTEX
  8
0
 62
7
 10
4.18199455
 20
14.65862924
  0
VERTEX
  8
0
 62
7
 10
4.15773870
 20
14.66736610
  0
VERTEX
  8
0
 62
7
 10
4.13253856
 20
14.67437500
  0
VERTEX
  8
0
 62
7
 10
4.10108717
 20
14.67823188
  0
VERTEX
  8
0
 62
7
 10
4.06888034
 20
14.67712446
  0
VERTEX
  8
0
 62
7
 10
4.03667351
 20
14.67219834
  0
VERTEX
  8
0
 62
7
 10
4.00522212
 20
14.66459914
  0
VERTEX
  8
0
 62
7
 10
3.98307521
 20
14.65678195
  0
VERTEX
  8
0
 62
7
 10
3.96191036
 20
14.64696949
  0
VERTEX
  8
0
 62
7
 10
3.94165204
 20
14.63545771
  0
VERTEX
  8
0
 62
7
 10
3.92222470
 20
14.62254256
  0
VERTEX
  8
0
 62
7
 10
3.90355280
 20
14.60851999
  0
VERTEX
  8
0
 62
7
 10
3.88556079
 20
14.59368595
  0
VERTEX
  8
0
 62
7
 10
3.86817313
 20
14.57833638
  0
VERTEX
  8
0
 62
7
 10
3.85131428
 20
14.56276724
  0
VERTEX
  8
0
 62
7
 10
3.80967707
 20
14.51780846
  0
VERTEX
  8
0
 62
7
 10
3.77325238
 20
14.46826724
  0
VERTEX
  8
0
 62
7
 10
3.74060488
 20
14.41567107
  0
VERTEX
  8
0
 62
7
 10
3.71029924
 20
14.36154741
  0
VERTEX
  8
0
 62
7
 10
3.69094902
 20
14.32826429
  0
VERTEX
  8
0
 62
7
 10
3.67228813
 20
14.29492390
  0
VERTEX
  8
0
 62
7
 10
3.65447712
 20
14.26139256
  0
VERTEX
  8
0
 62
7
 10
3.63767650
 20
14.22753664
  0
VERTEX
  8
0
 62
7
 10
3.62204680
 20
14.19322247
  0
VERTEX
  8
0
 62
7
 10
3.60774857
 20
14.15831641
  0
VERTEX
  8
0
 62
7
 10
3.59494233
 20
14.12268479
  0
VERTEX
  8
0
 62
7
 10
3.58378861
 20
14.08619397
  0
VERTEX
  8
0
 62
7
 10
3.60967494
 20
14.05024731
  0
VERTEX
  8
0
 62
7
 10
3.63133082
 20
14.01124569
  0
VERTEX
  8
0
 62
7
 10
3.68048463
 20
13.99006466
  0
VERTEX
  8
0
 62
7
 10
3.69080580
 20
13.99124368
  0
VERTEX
  8
0
 62
7
 10
3.71213747
 20
13.99705287
  0
VERTEX
  8
0
 62
7
 10
3.74181673
 20
14.00631798
  0
VERTEX
  8
0
 62
7
 10
3.77718066
 20
14.01786476
  0
VERTEX
  8
0
 62
7
 10
3.81556634
 20
14.03051897
  0
VERTEX
  8
0
 62
7
 10
3.85431085
 20
14.04310634
  0
VERTEX
  8
0
 62
7
 10
3.89075128
 20
14.05445265
  0
VERTEX
  8
0
 62
7
 10
3.92222470
 20
14.06338362
  0
VERTEX
  8
0
 62
7
 10
3.96547508
 20
14.07507679
  0
VERTEX
  8
0
 62
7
 10
4.00881045
 20
14.08727593
  0
VERTEX
  8
0
 62
7
 10
4.05224025
 20
14.09957054
  0
VERTEX
  8
0
 62
7
 10
4.09577392
 20
14.11155011
  0
VERTEX
  8
0
 62
7
 10
4.13942091
 20
14.12280412
  0
VERTEX
  8
0
 62
7
 10
4.18319066
 20
14.13292208
  0
VERTEX
  8
0
 62
7
 10
4.22709261
 20
14.14149346
  0
VERTEX
  8
0
 62
7
 10
4.27113620
 20
14.14810776
  0
VERTEX
  8
0
 62
7
 10
4.28241740
 20
14.11063362
  0
VERTEX
  8
0
 62
7
 10
4.24307011
 20
14.08988219
  0
VERTEX
  8
0
 62
7
 10
4.20258023
 20
14.07079189
  0
VERTEX
  8
0
 62
7
 10
4.16124047
 20
14.05303814
  0
VERTEX
  8
0
 62
7
 10
4.11934358
 20
14.03629634
  0
VERTEX
  8
0
 62
7
 10
4.07718229
 20
14.02024190
  0
VERTEX
  8
0
 62
7
 10
4.03504932
 20
14.00455024
  0
VERTEX
  8
0
 62
7
 10
3.99323742
 20
13.98889677
  0
VERTEX
  8
0
 62
7
 10
3.95203931
 20
13.97295690
  0
VERTEX
  8
0
 62
7
 10
3.92116394
 20
13.96207043
  0
VERTEX
  8
0
 62
7
 10
3.88483053
 20
13.95001926
  0
VERTEX
  8
0
 62
7
 10
3.84589087
 20
13.93747166
  0
VERTEX
  8
0
 62
7
 10
3.80719672
 20
13.92509591
  0
VERTEX
  8
0
 62
7
 10
3.77159986
 20
13.91356026
  0
VERTEX
  8
0
 62
7
 10
3.74195208
 20
13.90353300
  0
VERTEX
  8
0
 62
7
 10
3.72110515
 20
13.89568240
  0
VERTEX
  8
0
 62
7
 10
3.71191084
 20
13.89067672
  0
VERTEX
  8
0
 62
7
 10
3.68531943
 20
13.84587069
  0
VERTEX
  8
0
 62
7
 10
3.69025496
 20
13.80086099
  0
VERTEX
  8
0
 62
7
 10
3.69096004
 20
13.75707328
  0
VERTEX
  8
0
 62
7
 10
3.75266671
 20
13.71235634
  0
VERTEX
  8
0
 62
7
 10
3.81777285
 20
13.67367295
  0
VERTEX
  8
0
 62
7
 10
3.88574965
 20
13.63941925
  0
VERTEX
  8
0
 62
7
 10
3.95606831
 20
13.60799138
  0
VERTEX
  8
0
 62
7
 10
3.98368743
 20
13.59513669
  0
VERTEX
  8
0
 62
7
 10
4.01158039
 20
13.58244430
  0
VERTEX
  8
0
 62
7
 10
4.03979442
 20
13.57022925
  0
VERTEX
  8
0
 62
7
 10
4.06837672
 20
13.55880657
  0
VERTEX
  8
0
 62
7
 10
4.09737451
 20
13.54849132
  0
VERTEX
  8
0
 62
7
 10
4.12683500
 20
13.53959853
  0
VERTEX
  8
0
 62
7
 10
4.15680542
 20
13.53244325
  0
VERTEX
  8
0
 62
7
 10
4.18733297
 20
13.52734052
  0
VERTEX
  8
0
 62
7
 10
4.21039901
 20
13.52521955
  0
VERTEX
  8
0
 62
7
 10
4.23361612
 20
13.52335634
  0
VERTEX
  8
0
 62
7
 10
4.25690879
 20
13.52208504
  0
VERTEX
  8
0
 62
7
 10
4.28020145
 20
13.52173976
  0
VERTEX
  8
0
 62
7
 10
4.30341857
 20
13.52265466
  0
VERTEX
  8
0
 62
7
 10
4.32648460
 20
13.52516386
  0
VERTEX
  8
0
 62
7
 10
4.34932400
 20
13.52960150
  0
VERTEX
  8
0
 62
7
 10
4.37186123
 20
13.53630172
  0
VERTEX
  8
0
 62
7
 10
4.40190247
 20
13.54834335
  0
VERTEX
  8
0
 62
7
 10
4.43088609
 20
13.56298168
  0
VERTEX
  8
0
 62
7
 10
4.45775449
 20
13.58098047
  0
VERTEX
  8
0
 62
7
 10
4.48145006
 20
13.60310345
  0
VERTEX
  8
0
 62
7
 10
4.51166756
 20
13.64447266
  0
VERTEX
  8
0
 62
7
 10
4.53523722
 20
13.68904957
  0
VERTEX
  8
0
 62
7
 10
4.55306555
 20
13.73668144
  0
VERTEX
  8
0
 62
7
 10
4.56605908
 20
13.78721552
  0
VERTEX
  8
0
 62
7
 10
4.57151082
 20
13.81636490
  0
VERTEX
  8
0
 62
7
 10
4.57643376
 20
13.84322306
  0
VERTEX
  8
0
 62
7
 10
4.58362301
 20
13.87038672
  0
VERTEX
  8
0
 62
7
 10
4.59587369
 20
13.90045259
  0
VERTEX
  8
0
 62
7
 10
4.60317625
 20
13.91101765
  0
VERTEX
  8
0
 62
7
 10
4.61803319
 20
13.92753987
  0
VERTEX
  8
0
 62
7
 10
4.63712059
 20
13.94558957
  0
VERTEX
  8
0
 62
7
 10
4.65711451
 20
13.96073707
  0
VERTEX
  8
0
 62
7
 10
4.66021810
 20
13.96464169
  0
VERTEX
  8
0
 62
7
 10
4.66169749
 20
13.97089480
  0
VERTEX
  8
0
 62
7
 10
4.66159047
 20
13.97863721
  0
VERTEX
  8
0
 62
7
 10
4.65993481
 20
13.98700970
  0
VERTEX
  8
0
 62
7
 10
4.65676826
 20
13.99515307
  0
VERTEX
  8
0
 62
7
 10
4.65212862
 20
14.00220811
  0
VERTEX
  8
0
 62
7
 10
4.64605364
 20
14.00731561
  0
VERTEX
  8
0
 62
7
 10
4.63858110
 20
14.00961638
  0
VERTEX
  8
0
 62
7
 10
4.61846600
 20
14.00907540
  0
VERTEX
  8
0
 62
7
 10
4.59868140
 20
14.01048195
  0
VERTEX
  8
0
 62
7
 10
4.57933118
 20
14.01379785
  0
VERTEX
  8
0
 62
7
 10
4.56051920
 20
14.01898491
  0
VERTEX
  8
0
 62
7
 10
4.54234935
 20
14.02600495
  0
VERTEX
  8
0
 62
7
 10
4.52492550
 20
14.03481977
  0
VERTEX
  8
0
 62
7
 10
4.50835151
 20
14.04539120
  0
VERTEX
  8
0
 62
7
 10
4.49273126
 20
14.05768103
  0
VERTEX
  8
0
 62
7
 10
4.46737373
 20
14.08154789
  0
VERTEX
  8
0
 62
7
 10
4.44881515
 20
14.10686584
  0
VERTEX
  8
0
 62
7
 10
4.43448701
 20
14.13569700
  0
VERTEX
  8
0
 62
7
 10
4.42182084
 20
14.17010345
  0
SEQEND
  0
POLYLINE
  8
0
 62
7
 66
1
  0
VERTEX
  8
0
 62
7
 10
35.39700000
 20
14.41000000
  0
VERTEX
  8
0
 62
7
 10
34.20700000
 20
14.41000000
  0
VERTEX
  8
0
 62
7
 10
34.20700000
 20
15.59000000
  0
VERTEX
  8
0
 62
7
 10
40.59000000
 20
15.59000000
  0
VERTEX
  8
0
 62
7
 10
40.59000000
 20
9.40900000
  0
VERTEX
  8
0
 62
7
 10
39.41000000
 20
9.40900000
  0
VERTEX
  8
0
 62
7
 10
39.41000000
 20
10.63900000
  0
VERTEX
  8
0
 62
7
 10
39.34408984
 20
10.67403711
  0
VERTEX
  8
0
 62
7
 10
39.28003125
 20
10.71192188
  0
VERTEX
  8
0
 62
7
 10
39.21808203
 20
10.75306445
  0
VERTEX
  8
0
 62
7
 10
39.15850000
 20
10.79787500
  0
VERTEX
  8
0
 62
7
 10
39.10154297
 20
10.84676367
  0
VERTEX
  8
0
 62
7
 10
39.04746875
 20
10.90014063
  0
VERTEX
  8
0
 62
7
 10
38.99653516
 20
10.95841602
  0
VERTEX
  8
0
 62
7
 10
38.94900000
 20
11.02200000
  0
VERTEX
  8
0
 62
7
 10
38.92836719
 20
11.05448047
  0
VERTEX
  8
0
 62
7
 10
38.90918750
 20
11.08946875
  0
VERTEX
  8
0
 62
7
 10
38.89141406
 20
11.12666016
  0
VERTEX
  8
0
 62
7
 10
38.87500000
 20
11.16575000
  0
VERTEX
  8
0
 62
7
 10
38.85989844
 20
11.20643359
  0
VERTEX
  8
0
 62
7
 10
38.84606250
 20
11.24840625
  0
VERTEX
  8
0
 62
7
 10
38.83344531
 20
11.29136328
  0
VERTEX
  8
0
 62
7
 10
38.82200000
 20
11.33500000
  0
VERTEX
  8
0
 62
7
 10
38.80348438
 20
11.32735938
  0
VERTEX
  8
0
 62
7
 10
38.78262500
 20
11.32337500
  0
VERTEX
  8
0
 62
7
 10
38.75970313
 20
11.32445313
  0
VERTEX
  8
0
 62
7
 10
38.73500000
 20
11.33200000
  0
VERTEX
  8
0
 62
7
 10
38.66657886
 20
11.36401196
  0
VERTEX
  8
0
 62
7
 10
38.60195898
 20
11.39928320
  0
VERTEX
  8
0
 62
7
 10
38.54116821
 20
11.43779175
  0
VERTEX
  8
0
 62
7
 10
38.48423438
 20
11.47951563
  0
VERTEX
  8
0
 62
7
 10
38.43118530
 20
11.52443286
  0
VERTEX
  8
0
 62
7
 10
38.38204883
 20
11.57252148
  0
VERTEX
  8
0
 62
7
 10
38.33685278
 20
11.62375952
  0
VERTEX
  8
0
 62
7
 10
38.29562500
 20
11.67812500
  0
VERTEX
  8
0
 62
7
 10
38.25839331
 20
11.73559595
  0
VERTEX
  8
0
 62
7
 10
38.22518555
 20
11.79615039
  0
VERTEX
  8
0
 62
7
 10
38.19602954
 20
11.85976636
  0
VERTEX
  8
0
 62
7
 10
38.17095313
 20
11.92642188
  0
VERTEX
  8
0
 62
7
 10
38.14998413
 20
11.99609497
  0
VERTEX
  8
0
 62
7
 10
38.13315039
 20
12.06876367
  0
VERTEX
  8
0
 62
7
 10
38.12047974
 20
12.14440601
  0
VERTEX
  8
0
 62
7
 10
38.11200000
 20
12.22300000
  0
VERTEX
  8
0
 62
7
 10
38.10800000
 20
12.33200000
  0
VERTEX
  8
0
 62
7
 10
38.10900000
 20
12.40500000
  0
VERTEX
  8
0
 62
7
 10
38.09969141
 20
12.40920117
  0
VERTEX
  8
0
 62
7
 10
38.08759375
 20
12.41592188
  0
VERTEX
  8
0
 62
7
 10
38.07394922
 20
12.42533789
  0
VERTEX
  8
0
 62
7
 10
38.06000000
 20
12.43762500
  0
VERTEX
  8
0
 62
7
 10
38.04698828
 20
12.45295898
  0
VERTEX
  8
0
 62
7
 10
38.03615625
 20
12.47151563
  0
VERTEX
  8
0
 62
7
 10
38.02874609
 20
12.49347070
  0
VERTEX
  8
0
 62
7
 10
38.02600000
 20
12.51900000
  0
VERTEX
  8
0
 62
7
 10
38.02762500
 20
12.53800000
  0
VERTEX
  8
0
 62
7
 10
38.03300000
 20
12.55700000
  0
VERTEX
  8
0
 62
7
 10
38.03975000
 20
12.58025000
  0
VERTEX
  8
0
 62
7
 10
38.04200000
 20
12.60200000
  0
VERTEX
  8
0
 62
7
 10
38.03975000
 20
12.62262500
  0
VERTEX
  8
0
 62
7
 10
38.03300000
 20
12.64400000
  0
VERTEX
  8
0
 62
7
 10
38.02585938
 20
12.65998438
  0
VERTEX
  8
0
 62
7
 10
38.01637500
 20
12.67362500
  0
VERTEX
  8
0
 62
7
 10
38.00220313
 20
12.68745313
  0
VERTEX
  8
0
 62
7
 10
37.98100000
 20
12.70400000
  0
VERTEX
  8
0
 62
7
 10
37.95395313
 20
12.72162500
  0
VERTEX
  8
0
 62
7
 10
37.93262500
 20
12.73325000
  0
VERTEX
  8
0
 62
7
 10
37.91448438
 20
12.74000000
  0
VERTEX
  8
0
 62
7
 10
37.89700000
 20
12.74300000
  0
VERTEX
  8
0
 62
7
 10
37.88800000
 20
12.74300000
  0
VERTEX
  8
0
 62
7
 10
37.86873438
 20
12.74132813
  0
VERTEX
  8
0
 62
7
 10
37.85012500
 20
12.73637500
  0
VERTEX
  8
0
 62
7
 10
37.83245313
 20
12.72823438
  0
VERTEX
  8
0
 62
7
 10
37.81600000
 20
12.71700000
  0
VERTEX
  8
0
 62
7
 10
37.79903125
 20
12.70565625
  0
VERTEX
  8
0
 62
7
 10
37.78150000
 20
12.69825000
  0
VERTEX
  8
0
 62
7
 10
37.76396875
 20
12.69421875
  0
VERTEX
  8
0
 62
7
 10
37.74700000
 20
12.69300000
  0
VERTEX
  8
0
 62
7
 10
37.72418750
 20
12.69541406
  0
VERTEX
  8
0
 62
7
 10
37.70137500
 20
12.70237500
  0
VERTEX
  8
0
 62
7
 10
37.67950000
 20
12.71346094
  0
VERTEX
  8
0
 62
7
 10
37.65950000
 20
12.72825000
  0
VERTEX
  8
0
 62
7
 10
37.64231250
 20
12.74632031
  0
VERTEX
  8
0
 62
7
 10
37.62887500
 20
12.76725000
  0
VERTEX
  8
0
 62
7
 10
37.62012500
 20
12.79061719
  0
VERTEX
  8
0
 62
7
 10
37.61700000
 20
12.81600000
  0
VERTEX
  8
0
 62
7
 10
37.61887500
 20
12.83525000
  0
VERTEX
  8
0
 62
7
 10
37.62600000
 20
12.85600000
  0
VERTEX
  8
0
 62
7
 10
37.63200000
 20
12.89300000
  0
VERTEX
  8
0
 62
7
 10
37.62375000
 20
12.92000000
  0
VERTEX
  8
0
 62
7
 10
37.61100000
 20
12.95000000
  0
VERTEX
  8
0
 62
7
 10
37.59900000
 20
12.97300000
  0
VERTEX
  8
0
 62
7
 10
37.57953125
 20
13.02170313
  0
VERTEX
  8
0
 62
7
 10
37.56400000
 20
13.07312500
  0
VERTEX
  8
0
 62
7
 10
37.55371875
 20
13.12698438
  0
VERTEX
  8
0
 62
7
 10
37.55000000
 20
13.18300000
  0
VERTEX
  8
0
 62
7
 10
37.55200000
 20
13.21900000
  0
VERTEX
  8
0
 62
7
 10
37.55540820
 20
13.24368359
  0
VERTEX
  8
0
 62
7
 10
37.56089063
 20
13.26740625
  0
VERTEX
  8
0
 62
7
 10
37.56808398
 20
13.29005078
  0
VERTEX
  8
0
 62
7
 10
37.57662500
 20
13.31150000
  0
VERTEX
  8
0
 62
7
 10
37.58615039
 20
13.33163672
  0
VERTEX
  8
0
 62
7
 10
37.59629688
 20
13.35034375
  0
VERTEX
  8
0
 62
7
 10
37.60670117
 20
13.36750391
  0
VERTEX
  8
0
 62
7
 10
37.61700000
 20
13.38300000
  0
VERTEX
  8
0
 62
7
 10
37.63687500
 20
13.40875000
  0
VERTEX
  8
0
 62
7
 10
37.65900000
 20
13.43300000
  0
VERTEX
  8
0
 62
7
 10
37.62737500
 20
13.43837500
  0
VERTEX
  8
0
 62
7
 10
37.59500000
 20
13.44900000
  0
VERTEX
  8
0
 62
7
 10
37.57400000
 20
13.45700000
  0
VERTEX
  8
0
 62
7
 10
37.51131641
 20
13.41756836
  0
VERTEX
  8
0
 62
7
 10
37.44565625
 20
13.38267188
  0
VERTEX
  8
0
 62
7
 10
37.37723047
 20
13.35253320
  0
VERTEX
  8
0
 62
7
 10
37.30625000
 20
13.32737500
  0
VERTEX
  8
0
 62
7
 10
37.23292578
 20
13.30741992
  0
VERTEX
  8
0
 62
7
 10
37.15746875
 20
13.29289063
  0
VERTEX
  8
0
 62
7
 10
37.08008984
 20
13.28400977
  0
VERTEX
  8
0
 62
7
 10
37.00100000
 20
13.28100000
  0
VERTEX
  8
0
 62
7
 10
36.93254028
 20
13.28325024
  0
VERTEX
  8
0
 62
7
 10
36.86525977
 20
13.28990820
  0
VERTEX
  8
0
 62
7
 10
36.79930640
 20
13.30083472
  0
VERTEX
  8
0
 62
7
 10
36.73482813
 20
13.31589063
  0
VERTEX
  8
0
 62
7
 10
36.67197290
 20
13.33493677
  0
VERTEX
  8
0
 62
7
 10
36.61088867
 20
13.35783398
  0
VERTEX
  8
0
 62
7
 10
36.55172339
 20
13.38444312
  0
VERTEX
  8
0
 62
7
 10
36.49462500
 20
13.41462500
  0
VERTEX
  8
0
 62
7
 10
36.43974146
 20
13.44824048
  0
VERTEX
  8
0
 62
7
 10
36.38722070
 20
13.48515039
  0
VERTEX
  8
0
 62
7
 10
36.33721069
 20
13.52521558
  0
VERTEX
  8
0
 62
7
 10
36.28985938
 20
13.56829688
  0
VERTEX
  8
0
 62
7
 10
36.24531470
 20
13.61425513
  0
VERTEX
  8
0
 62
7
 10
36.20372461
 20
13.66295117
  0
VERTEX
  8
0
 62
7
 10
36.16523706
 20
13.71424585
  0
VERTEX
  8
0
 62
7
 10
36.13000000
 20
13.76800000
  0
VERTEX
  8
0
 62
7
 10
36.04800000
 20
13.90100000
  0
VERTEX
  8
0
 62
7
 10
36.20300000
 20
13.91900000
  0
VERTEX
  8
0
 62
7
 10
36.23098828
 20
13.92416406
  0
VERTEX
  8
0
 62
7
 10
36.25778125
 20
13.93275000
  0
VERTEX
  8
0
 62
7
 10
36.28312109
 20
13.94452344
  0
VERTEX
  8
0
 62
7
 10
36.30675000
 20
13.95925000
  0
VERTEX
  8
0
 62
7
 10
36.32841016
 20
13.97669531
  0
VERTEX
  8
0
 62
7
 10
36.34784375
 20
13.99662500
  0
VERTEX
  8
0
 62
7
 10
36.36479297
 20
14.01880469
  0
VERTEX
  8
0
 62
7
 10
36.37900000
 20
14.04300000
  0
VERTEX
  8
0
 62
7
 10
36.41075000
 20
14.09987500
  0
VERTEX
  8
0
 62
7
 10
36.44700000
 20
14.15300000
  0
VERTEX
  8
0
 62
7
 10
36.35768750
 20
14.13562500
  0
VERTEX
  8
0
 62
7
 10
36.26875000
 20
14.12275000
  0
VERTEX
  8
0
 62
7
 10
36.18093750
 20
14.11475000
  0
VERTEX
  8
0
 62
7
 10
36.09500000
 20
14.11200000
  0
VERTEX
  8
0
 62
7
 10
36.07600000
 20
14.11200000
  0
VERTEX
  8
0
 62
7
 10
36.05700000
 20
14.11200000
  0
VERTEX
  8
0
 62
7
 10
36.01487500
 20
14.11312500
  0
VERTEX
  8
0
 62
7
 10
35.96600000
 20
14.11800000
  0
VERTEX
  8
0
 62
7
 10
35.87379297
 20
14.13620703
  0
VERTEX
  8
0
 62
7
 10
35.78878125
 20
14.15940625
  0
VERTEX
  8
0
 62
7
 10
35.71037891
 20
14.18771484
  0
VERTEX
  8
0
 62
7
 10
35.63800000
 20
14.22125000
  0
VERTEX
  8
0
 62
7
 10
35.57105859
 20
14.26012891
  0
VERTEX
  8
0
 62
7
 10
35.50896875
 20
14.30446875
  0
VERTEX
  8
0
 62
7
 10
35.45114453
 20
14.35438672
  0
VERTEX
  8
0
 62
7
 10
35.39700000
 20
14.41000000
  0
SEQEND
  0
POLYLINE
  8
0
 62
7
 66
1
 70
1
  0
VERTEX
  8
0
 62
7
 10
39.15400000
 20
11.98300000
  0
VERTEX
  8
0
 62
7
 10
39.16191211
 20
11.90819922
  0
VERTEX
  8
0
 62
7
 10
39.17285938
 20
11.83384375
  0
VERTEX
  8
0
 62
7
 10
39.18678320
 20
11.76000391
  0
VERTEX
  8
0
 62
7
 10
39.20362500
 20
11.68675000
  0
VERTEX
  8
0
 62
7
 10
39.22332617
 20
11.61415234
  0
VERTEX
  8
0
 62
7
 10
39.24582813
 20
11.54228125
  0
VERTEX
  8
0
 62
7
 10
39.27107227
 20
11.47120703
  0
VERTEX
  8
0
 62
7
 10
39.29900000
 20
11.40100000
  0
VERTEX
  8
0
 62
7
 10
39.33360547
 20
11.32499219
  0
VERTEX
  8
0
 62
7
 10
39.37203125
 20
11.25137500
  0
VERTEX
  8
0
 62
7
 10
39.41406641
 20
11.18000781
  0
VERTEX
  8
0
 62
7
 10
39.45950000
 20
11.11075000
  0
VERTEX
  8
0
 62
7
 10
39.50812109
 20
11.04346094
  0
VERTEX
  8
0
 62
7
 10
39.55971875
 20
10.97800000
  0
VERTEX
  8
0
 62
7
 10
39.61408203
 20
10.91422656
  0
VERTEX
  8
0
 62
7
 10
39.67100000
 20
10.85200000
  0
VERTEX
  8
0
 62
7
 10
39.70800000
 20
10.88000000
  0
VERTEX
  8
0
 62
7
 10
39.65388281
 20
10.94075000
  0
VERTEX
  8
0
 62
7
 10
39.60318750
 20
11.00431250
  0
VERTEX
  8
0
 62
7
 10
39.55577344
 20
11.07040625
  0
VERTEX
  8
0
 62
7
 10
39.51150000
 20
11.13875000
  0
VERTEX
  8
0
 62
7
 10
39.47022656
 20
11.20906250
  0
VERTEX
  8
0
 62
7
 10
39.43181250
 20
11.28106250
  0
VERTEX
  8
0
 62
7
 10
39.39611719
 20
11.35446875
  0
VERTEX
  8
0
 62
7
 10
39.36300000
 20
11.42900000
  0
VERTEX
  8
0
 62
7
 10
39.33080469
 20
11.51030469
  0
VERTEX
  8
0
 62
7
 10
39.30250000
 20
11.59287500
  0
VERTEX
  8
0
 62
7
 10
39.27813281
 20
11.67657031
  0
VERTEX
  8
0
 62
7
 10
39.25775000
 20
11.76125000
  0
VERTEX
  8
0
 62
7
 10
39.24139844
 20
11.84677344
  0
VERTEX
  8
0
 62
7
 10
39.22912500
 20
11.93300000
  0
VERTEX
  8
0
 62
7
 10
39.22097656
 20
12.01978906
  0
VERTEX
  8
0
 62
7
 10
39.21700000
 20
12.10700000
  0
VERTEX
  8
0
 62
7
 10
39.25210938
 20
12.03625000
  0
VERTEX
  8
0
 62
7
 10
39.29312500
 20
11.96850000
  0
VERTEX
  8
0
 62
7
 10
39.34032813
 20
11.90450000
  0
VERTEX
  8
0
 62
7
 10
39.39400000
 20
11.84500000
  0
VERTEX
  8
0
 62
7
 10
39.45086719
 20
11.79083594
  0
VERTEX
  8
0
 62
7
 10
39.50975000
 20
11.74037500
  0
VERTEX
  8
0
 62
7
 10
39.57069531
 20
11.69403906
  0
VERTEX
  8
0
 62
7
 10
39.63375000
 20
11.65225000
  0
VERTEX
  8
0
 62
7
 10
39.69896094
 20
11.61542969
  0
VERTEX
  8
0
 62
7
 10
39.76637500
 20
11.58400000
  0
VERTEX
  8
0
 62
7
 10
39.83603906
 20
11.55838281
  0
VERTEX
  8
0
 62
7
 10
39.90800000
 20
11.53900000
  0
VERTEX
  8
0
 62
7
 10
39.92033276
 20
11.49362134
  0
VERTEX
  8
0
 62
7
 10
39.92875586
 20
11.44958008
  0
VERTEX
  8
0
 62
7
 10
39.93371899
 20
11.40664331
  0
VERTEX
  8
0
 62
7
 10
39.93567188
 20
11.36457813
  0
VERTEX
  8
0
 62
7
 10
39.93506421
 20
11.32315161
  0
VERTEX
  8
0
 62
7
 10
39.93234570
 20
11.28213086
  0
VERTEX
  8
0
 62
7
 10
39.92796606
 20
11.24128296
  0
VERTEX
  8
0
 62
7
 10
39.92237500
 20
11.20037500
  0
VERTEX
  8
0
 62
7
 10
39.91602222
 20
11.15917407
  0
VERTEX
  8
0
 62
7
 10
39.90935742
 20
11.11744727
  0
VERTEX
  8
0
 62
7
 10
39.90283032
 20
11.07496167
  0
VERTEX
  8
0
 62
7
 10
39.89689063
 20
11.03148438
  0
VERTEX
  8
0
 62
7
 10
39.89198804
 20
10.98678247
  0
VERTEX
  8
0
 62
7
 10
39.88857227
 20
10.94062305
  0
VERTEX
  8
0
 62
7
 10
39.88709302
 20
10.89277319
  0
VERTEX
  8
0
 62
7
 10
39.88800000
 20
10.84300000
  0
VERTEX
  8
0
 62
7
 10
39.89030469
 20
10.82127148
  0
VERTEX
  8
0
 62
7
 10
39.89537500
 20
10.79160938
  0
VERTEX
  8
0
 62
7
 10
39.90269531
 20
10.75667383
  0
VERTEX
  8
0
 62
7
 10
39.91175000
 20
10.71912500
  0
VERTEX
  8
0
 62
7
 10
39.92202344
 20
10.68162305
  0
VERTEX
  8
0
 62
7
 10
39.93300000
 20
10.64682813
  0
VERTEX
  8
0
 62
7
 10
39.94416406
 20
10.61740039
  0
VERTEX
  8
0
 62
7
 10
39.95500000
 20
10.59600000
  0
VERTEX
  8
0
 62
7
 10
39.92157422
 20
10.59422656
  0
VERTEX
  8
0
 62
7
 10
39.88128125
 20
10.59606250
  0
VERTEX
  8
0
 62
7
 10
39.83634766
 20
10.60099219
  0
VERTEX
  8
0
 62
7
 10
39.78900000
 20
10.60850000
  0
VERTEX
  8
0
 62
7
 10
39.74146484
 20
10.61807031
  0
VERTEX
  8
0
 62
7
 10
39.69596875
 20
10.62918750
  0
VERTEX
  8
0
 62
7
 10
39.65473828
 20
10.64133594
  0
VERTEX
  8
0
 62
7
 10
39.62000000
 20
10.65400000
  0
VERTEX
  8
0
 62
7
 10
39.53197852
 20
10.69158008
  0
VERTEX
  8
0
 62
7
 10
39.44739063
 20
10.73207813
  0
VERTEX
  8
0
 62
7
 10
39.36657617
 20
10.77625586
  0
VERTEX
  8
0
 62
7
 10
39.28987500
 20
10.82487500
  0
VERTEX
  8
0
 62
7
 10
39.21762695
 20
10.87869727
  0
VERTEX
  8
0
 62
7
 10
39.15017188
 20
10.93848438
  0
VERTEX
  8
0
 62
7
 10
39.08784961
 20
11.00499805
  0
VERTEX
  8
0
 62
7
 10
39.03100000
 20
11.07900000
  0
VERTEX
  8
0
 62
7
 10
39.00185938
 20
11.12769922
  0
VERTEX
  8
0
 62
7
 10
38.97581250
 20
11.18303125
  0
VERTEX
  8
0
 62
7
 10
38.95267188
 20
11.24384766
  0
VERTEX
  8
0
 62
7
 10
38.93225000
 20
11.30900000
  0
VERTEX
  8
0
 62
7
 10
38.91435938
 20
11.37733984
  0
VERTEX
  8
0
 62
7
 10
38.89881250
 20
11.44771875
  0
VERTEX
  8
0
 62
7
 10
38.88542188
 20
11.51898828
  0
VERTEX
  8
0
 62
7
 10
38.87400000
 20
11.59000000
  0
VERTEX
  8
0
 62
7
 10
38.89609375
 20
11.62914063
  0
VERTEX
  8
0
 62
7
 10
38.92100000
 20
11.66687500
  0
VERTEX
  8
0
 62
7
 10
38.94740625
 20
11.70292188
  0
VERTEX
  8
0
 62
7
 10
38.97400000
 20
11.73700000
  0
VERTEX
  8
0
 62
7
 10
38.99200000
 20
11.75800000
  0
VERTEX
  8
0
 62
7
 10
39.03896875
 20
11.81565625
  0
VERTEX
  8
0
 62
7
 10
39.08200000
 20
11.87125000
  0
VERTEX
  8
0
 62
7
 10
39.12053125
 20
11.92646875
  0
VERTEX
  8
0
 62
7
 10
39.15400000
 20
11.98300000
  0
SEQEND
  0
POLYLINE
  8
0
 62
7
 66
1
 70
1
  0
VERTEX
  8
0
 62
7
 10
39.52600000
 20
12.68800000
  0
VERTEX
  8
0
 62
7
 10
39.58560938
 20
12.61532813
  0
VERTEX
  8
0
 62
7
 10
39.63987500
 20
12.53862500
  0
VERTEX
  8
0
 62
7
 10
39.68870313
 20
12.45835938
  0
VERTEX
  8
0
 62
7
 10
39.73200000
 20
12.37500000
  0
VERTEX
  8
0
 62
7
 10
39.75018750
 20
12.33012500
  0
VERTEX
  8
0
 62
7
 10
39.76500000
 20
12.28450000
  0
VERTEX
  8
0
 62
7
 10
39.77756250
 20
12.23887500
  0
VERTEX
  8
0
 62
7
 10
39.78900000
 20
12.19400000
  0
VERTEX
  8
0
 62
7
 10
39.80008008
 20
12.14763672
  0
VERTEX
  8
0
 62
7
 10
39.81182813
 20
12.10228125
  0
VERTEX
  8
0
 62
7
 10
39.82463086
 20
12.05791016
  0
VERTEX
  8
0
 62
7
 10
39.83887500
 20
12.01450000
  0
VERTEX
  8
0
 62
7
 10
39.85494727
 20
11.97202734
  0
VERTEX
  8
0
 62
7
 10
39.87323438
 20
11.93046875
  0
VERTEX
  8
0
 62
7
 10
39.89412305
 20
11.88980078
  0
VERTEX
  8
0
 62
7
 10
39.91800000
 20
11.85000000
  0
VERTEX
  8
0
 62
7
 10
39.87900000
 20
11.82700000
  0
VERTEX
  8
0
 62
7
 10
39.85326172
 20
11.86902930
  0
VERTEX
  8
0
 62
7
 10
39.82871875
 20
11.91179688
  0
VERTEX
  8
0
 62
7
 10
39.80562891
 20
11.95519727
  0
VERTEX
  8
0
 62
7
 10
39.78425000
 20
11.99912500
  0
VERTEX
  8
0
 62
7
 10
39.76483984
 20
12.04347461
  0
VERTEX
  8
0
 62
7
 10
39.74765625
 20
12.08814063
  0
VERTEX
  8
0
 62
7
 10
39.73295703
 20
12.13301758
  0
VERTEX
  8
0
 62
7
 10
39.72100000
 20
12.17800000
  0
VERTEX
  8
0
 62
7
 10
39.70990625
 20
12.22223438
  0
VERTEX
  8
0
 62
7
 10
39.69825000
 20
12.26487500
  0
VERTEX
  8
0
 62
7
 10
39.68471875
 20
12.30582813
  0
VERTEX
  8
0
 62
7
 10
39.66800000
 20
12.34500000
  0
VERTEX
  8
0
 62
7
 10
39.62975000
 20
12.41996875
  0
VERTEX
  8
0
 62
7
 10
39.58700000
 20
12.49175000
  0
VERTEX
  8
0
 62
7
 10
39.53975000
 20
12.56015625
  0
VERTEX
  8
0
 62
7
 10
39.48800000
 20
12.62500000
  0
VERTEX
  8
0
 62
7
 10
39.48500000
 20
12.60000000
  0
VERTEX
  8
0
 62
7
 10
39.48664453
 20
12.56037305
  0
VERTEX
  8
0
 62
7
 10
39.48390625
 20
12.52673438
  0
VERTEX
  8
0
 62
7
 10
39.47765234
 20
12.49869727
  0
VERTEX
  8
0
 62
7
 10
39.46875000
 20
12.47587500
  0
VERTEX
  8
0
 62
7
 10
39.45806641
 20
12.45788086
  0
VERTEX
  8
0
 62
7
 10
39.44646875
 20
12.44432813
  0
VERTEX
  8
0
 62
7
 10
39.43482422
 20
12.43483008
  0
VERTEX
  8
0
 62
7
 10
39.42400000
 20
12.42900000
  0
VERTEX
  8
0
 62
7
 10
39.41668945
 20
12.42583398
  0
VERTEX
  8
0
 62
7
 10
39.40864063
 20
12.42204688
  0
VERTEX
  8
0
 62
7
 10
39.39930273
 20
12.41833008
  0
VERTEX
  8
0
 62
7
 10
39.38812500
 20
12.41537500
  0
VERTEX
  8
0
 62
7
 10
39.37455664
 20
12.41387305
  0
VERTEX
  8
0
 62
7
 10
39.35804688
 20
12.41451563
  0
VERTEX
  8
0
 62
7
 10
39.33804492
 20
12.41799414
  0
VERTEX
  8
0
 62
7
 10
39.31400000
 20
12.42500000
  0
VERTEX
  8
0
 62
7
 10
39.26800000
 20
12.43800000
  0
VERTEX
  8
0
 62
7
 10
39.25500000
 20
12.43900000
  0
VERTEX
  8
0
 62
7
 10
39.21000000
 20
12.43500000
  0
VERTEX
  8
0
 62
7
 10
39.19000000
 20
12.43300000
  0
VERTEX
  8
0
 62
7
 10
39.20208789
 20
12.35835156
  0
VERTEX
  8
0
 62
7
 10
39.21901563
 20
12.28412500
  0
VERTEX
  8
0
 62
7
 10
39.24102930
 20
12.21102344
  0
VERTEX
  8
0
 62
7
 10
39.26837500
 20
12.13975000
  0
VERTEX
  8
0
 62
7
 10
39.30129883
 20
12.07100781
  0
VERTEX
  8
0
 62
7
 10
39.34004688
 20
12.00550000
  0
VERTEX
  8
0
 62
7
 10
39.38486523
 20
11.94392969
  0
VERTEX
  8
0
 62
7
 10
39.43600000
 20
11.88700000
  0
VERTEX
  8
0
 62
7
 10
39.46949292
 20
11.85449365
  0
VERTEX
  8
0
 62
7
 10
39.50359961
 20
11.82340234
  0
VERTEX
  8
0
 62
7
 10
39.53832446
 20
11.79380518
  0
VERTEX
  8
0
 62
7
 10
39.57367188
 20
11.76578125
  0
VERTEX
  8
0
 62
7
 10
39.60964624
 20
11.73940967
  0
VERTEX
  8
0
 62
7
 10
39.64625195
 20
11.71476953
  0
VERTEX
  8
0
 62
7
 10
39.68349341
 20
11.69193994
  0
VERTEX
  8
0
 62
7
 10
39.72137500
 20
11.67100000
  0
VERTEX
  8
0
 62
7
 10
39.75990112
 20
11.65202881
  0
VERTEX
  8
0
 62
7
 10
39.79907617
 20
11.63510547
  0
VERTEX
  8
0
 62
7
 10
39.83890454
 20
11.62030908
  0
VERTEX
  8
0
 62
7
 10
39.87939063
 20
11.60771875
  0
VERTEX
  8
0
 62
7
 10
39.92053882
 20
11.59741357
  0
VERTEX
  8
0
 62
7
 10
39.96235352
 20
11.58947266
  0
VERTEX
  8
0
 62
7
 10
40.00483911
 20
11.58397510
  0
VERTEX
  8
0
 62
7
 10
40.04800000
 20
11.58100000
  0
VERTEX
  8
0
 62
7
 10
40.04037109
 20
11.61587695
  0
VERTEX
  8
0
 62
7
 10
40.03928125
 20
11.65020313
  0
VERTEX
  8
0
 62
7
 10
40.04367578
 20
11.68427148
  0
VERTEX
  8
0
 62
7
 10
40.05250000
 20
11.71837500
  0
VERTEX
  8
0
 62
7
 10
40.06469922
 20
11.75280664
  0
VERTEX
  8
0
 62
7
 10
40.07921875
 20
11.78785938
  0
VERTEX
  8
0
 62
7
 10
40.09500391
 20
11.82382617
  0
VERTEX
  8
0
 62
7
 10
40.11100000
 20
11.86100000
  0
VERTEX
  8
0
 62
7
 10
40.12914380
 20
11.90633130
  0
VERTEX
  8
0
 62
7
 10
40.14519727
 20
11.95224414
  0
VERTEX
  8
0
 62
7
 10
40.15896851
 20
11.99861694
  0
VERTEX
  8
0
 62
7
 10
40.17026563
 20
12.04532813
  0
VERTEX
  8
0
 62
7
 10
40.17889673
 20
12.09225610
  0
VERTEX
  8
0
 62
7
 10
40.18466992
 20
12.13927930
  0
VERTEX
  8
0
 62
7
 10
40.18739331
 20
12.18627612
  0
VERTEX
  8
0
 62
7
 10
40.18687500
 20
12.23312500
  0
VERTEX
  8
0
 62
7
 10
40.18292310
 20
12.27970435
  0
VERTEX
  8
0
 62
7
 10
40.17534570
 20
12.32589258
  0
VERTEX
  8
0
 62
7
 10
40.16395093
 20
12.37156812
  0
VERTEX
  8
0
 62
7
 10
40.14854688
 20
12.41660938
  0
VERTEX
  8
0
 62
7
 10
40.12894165
 20
12.46089478
  0
VERTEX
  8
0
 62
7
 10
40.10494336
 20
12.50430273
  0
VERTEX
  8
0
 62
7
 10
40.07636011
 20
12.54671167
  0
VERTEX
  8
0
 62
7
 10
40.04300000
 20
12.58800000
  0
VERTEX
  8
0
 62
7
 10
40.00589063
 20
12.62684375
  0
VERTEX
  8
0
 62
7
 10
39.96437500
 20
12.66550000
  0
VERTEX
  8
0
 62
7
 10
39.91967188
 20
12.70190625
  0
VERTEX
  8
0
 62
7
 10
39.87300000
 20
12.73400000
  0
VERTEX
  8
0
 62
7
 10
39.85256250
 20
12.71646875
  0
VERTEX
  8
0
 62
7
 10
39.82950000
 20
12.70325000
  0
VERTEX
  8
0
 62
7
 10
39.80493750
 20
12.69490625
  0
VERTEX
  8
0
 62
7
 10
39.78000000
 20
12.69200000
  0
VERTEX
  8
0
 62
7
 10
39.76303125
 20
12.69334375
  0
VERTEX
  8
0
 62
7
 10
39.74550000
 20
12.69750000
  0
VERTEX
  8
0
 62
7
 10
39.72796875
 20
12.70465625
  0
VERTEX
  8
0
 62
7
 10
39.71100000
 20
12.71500000
  0
VERTEX
  8
0
 62
7
 10
39.69339063
 20
12.72739063
  0
VERTEX
  8
0
 62
7
 10
39.67512500
 20
12.73612500
  0
VERTEX
  8
0
 62
7
 10
39.65629688
 20
12.74129688
  0
VERTEX
  8
0
 62
7
 10
39.63700000
 20
12.74300000
  0
VERTEX
  8
0
 62
7
 10
39.62900000
 20
12.74200000
  0
VERTEX
  8
0
 62
7
 10
39.61139063
 20
12.74025000
  0
VERTEX
  8
0
 62
7
 10
39.59537500
 20
12.73550000
  0
VERTEX
  8
0
 62
7
 10
39.57767188
 20
12.72625000
  0
VERTEX
  8
0
 62
7
 10
39.55500000
 20
12.71100000
  0
VERTEX
  8
0
 62
7
 10
39.52600000
 20
12.68800000
  0
SEQEND
  0
POLYLINE
  8
0
 62
7
 66
1
 70
1
  0
VERTEX
  8
0
 62
7
 10
38.73300000
 20
12.58100000
  0
VERTEX
  8
0
 62
7
 10
38.71568750
 20
12.45896875
  0
VERTEX
  8
0
 62
7
 10
38.70325000
 20
12.33675000
  0
VERTEX
  8
0
 62
7
 10
38.69643750
 20
12.21340625
  0
VERTEX
  8
0
 62
7
 10
38.69600000
 20
12.08800000
  0
VERTEX
  8
0
 62
7
 10
38.69734375
 20
12.00673438
  0
VERTEX
  8
0
 62
7
 10
38.69925000
 20
11.92162500
  0
VERTEX
  8
0
 62
7
 10
38.70303125
 20
11.83670313
  0
VERTEX
  8
0
 62
7
 10
38.71000000
 20
11.75600000
  0
VERTEX
  8
0
 62
7
 10
38.67000000
 20
11.74400000
  0
VERTEX
  8
0
 62
7
 10
38.66100000
 20
11.82620313
  0
VERTEX
  8
0
 62
7
 10
38.65275000
 20
11.91262500
  0
VERTEX
  8
0
 62
7
 10
38.64637500
 20
11.99923438
  0
VERTEX
  8
0
 62
7
 10
38.64300000
 20
12.08200000
  0
VERTEX
  8
0
 62
7
 10
38.64210938
 20
12.18839063
  0
VERTEX
  8
0
 62
7
 10
38.64412500
 20
12.29337500
  0
VERTEX
  8
0
 62
7
 10
38.64932813
 20
12.39742188
  0
VERTEX
  8
0
 62
7
 10
38.65800000
 20
12.50100000
  0
VERTEX
  8
0
 62
7
 10
38.62787500
 20
12.47962500
  0
VERTEX
  8
0
 62
7
 10
38.59400000
 20
12.46200000
  0
VERTEX
  8
0
 62
7
 10
38.54901563
 20
12.44598438
  0
VERTEX
  8
0
 62
7
 10
38.50412500
 20
12.43512500
  0
VERTEX
  8
0
 62
7
 10
38.45942188
 20
12.42895313
  0
VERTEX
  8
0
 62
7
 10
38.41500000
 20
12.42700000
  0
VERTEX
  8
0
 62
7
 10
38.38012500
 20
12.42837500
  0
VERTEX
  8
0
 62
7
 10
38.34600000
 20
12.43200000
  0
VERTEX
  8
0
 62
7
 10
38.31400000
 20
12.43600000
  0
VERTEX
  8
0
 62
7
 10
38.27200000
 20
12.43900000
  0
VERTEX
  8
0
 62
7
 10
38.25800000
 20
12.43900000
  0
VERTEX
  8
0
 62
7
 10
38.22400000
 20
12.42100000
  0
VERTEX
  8
0
 62
7
 10
38.21100000
 20
12.41100000
  0
VERTEX
  8
0
 62
7
 10
38.20850000
 20
12.31500000
  0
VERTEX
  8
0
 62
7
 10
38.21200000
 20
12.23100000
  0
VERTEX
  8
0
 62
7
 10
38.21978394
 20
12.15913916
  0
VERTEX
  8
0
 62
7
 10
38.23147461
 20
12.09050391
  0
VERTEX
  8
0
 62
7
 10
38.24701782
 20
12.02501514
  0
VERTEX
  8
0
 62
7
 10
38.26635938
 20
11.96259375
  0
VERTEX
  8
0
 62
7
 10
38.28944507
 20
11.90316064
  0
VERTEX
  8
0
 62
7
 10
38.31622070
 20
11.84663672
  0
VERTEX
  8
0
 62
7
 10
38.34663208
 20
11.79294287
  0
VERTEX
  8
0
 62
7
 10
38.38062500
 20
11.74200000
  0
VERTEX
  8
0
 62
7
 10
38.41814526
 20
11.69372900
  0
VERTEX
  8
0
 62
7
 10
38.45913867
 20
11.64805078
  0
VERTEX
  8
0
 62
7
 10
38.50355103
 20
11.60488623
  0
VERTEX
  8
0
 62
7
 10
38.55132813
 20
11.56415625
  0
VERTEX
  8
0
 62
7
 10
38.60241577
 20
11.52578174
  0
VERTEX
  8
0
 62
7
 10
38.65675977
 20
11.48968359
  0
VERTEX
  8
0
 62
7
 10
38.71430591
 20
11.45578271
  0
VERTEX
  8
0
 62
7
 10
38.77500000
 20
11.42400000
  0
VERTEX
  8
0
 62
7
 10
38.77514063
 20
11.43442188
  0
VERTEX
  8
0
 62
7
 10
38.77612500
 20
11.46012500
  0
VERTEX
  8
0
 62
7
 10
38.77879688
 20
11.49276563
  0
VERTEX
  8
0
 62
7
 10
38.78400000
 20
11.52400000
  0
VERTEX
  8
0
 62
7
 10
38.79486328
 20
11.55935352
  0
VERTEX
  8
0
 62
7
 10
38.80903125
 20
11.59401563
  0
VERTEX
  8
0
 62
7
 10
38.82587109
 20
11.62776367
  0
VERTEX
  8
0
 62
7
 10
38.84475000
 20
11.66037500
  0
VERTEX
  8
0
 62
7
 10
38.86503516
 20
11.69162695
  0
VERTEX
  8
0
 62
7
 10
38.88609375
 20
11.72129688
  0
VERTEX
  8
0
 62
7
 10
38.90729297
 20
11.74916211
  0
VERTEX
  8
0
 62
7
 10
38.92800000
 20
11.77500000
  0
VERTEX
  8
0
 62
7
 10
38.95439209
 20
11.80719580
  0
VERTEX
  8
0
 62
7
 10
38.97952734
 20
11.83798828
  0
VERTEX
  8
0
 62
7
 10
39.00334424
 20
11.86768506
  0
VERTEX
  8
0
 62
7
 10
39.02578125
 20
11.89659375
  0
VERTEX
  8
0
 62
7
 10
39.04677686
 20
11.92502197
  0
VERTEX
  8
0
 62
7
 10
39.06626953
 20
11.95327734
  0
VERTEX
  8
0
 62
7
 10
39.08419775
 20
11.98166748
  0
VERTEX
  8
0
 62
7
 10
39.10050000
 20
12.01050000
  0
VERTEX
  8
0
 62
7
 10
39.11511475
 20
12.04008252
  0
VERTEX
  8
0
 62
7
 10
39.12798047
 20
12.07072266
  0
VERTEX
  8
0
 62
7
 10
39.13903564
 20
12.10272803
  0
VERTEX
  8
0
 62
7
 10
39.14821875
 20
12.13640625
  0
VERTEX
  8
0
 62
7
 10
39.15546826
 20
12.17206494
  0
VERTEX
  8
0
 62
7
 10
39.16072266
 20
12.21001172
  0
VERTEX
  8
0
 62
7
 10
39.16392041
 20
12.25055420
  0
VERTEX
  8
0
 62
7
 10
39.16500000
 20
12.29400000
  0
VERTEX
  8
0
 62
7
 10
39.16400000
 20
12.36337500
  0
VERTEX
  8
0
 62
7
 10
39.16000000
 20
12.42900000
  0
VERTEX
  8
0
 62
7
 10
39.11100000
 20
12.42700000
  0
VERTEX
  8
0
 62
7
 10
39.06743750
 20
12.42895313
  0
VERTEX
  8
0
 62
7
 10
39.02275000
 20
12.43512500
  0
VERTEX
  8
0
 62
7
 10
38.97768750
 20
12.44598438
  0
VERTEX
  8
0
 62
7
 10
38.93300000
 20
12.46200000
  0
VERTEX
  8
0
 62
7
 10
38.91025977
 20
12.47308984
  0
VERTEX
  8
0
 62
7
 10
38.88926563
 20
12.48584375
  0
VERTEX
  8
0
 62
7
 10
38.86998242
 20
12.49986328
  0
VERTEX
  8
0
 62
7
 10
38.85237500
 20
12.51475000
  0
VERTEX
  8
0
 62
7
 10
38.83640820
 20
12.53010547
  0
VERTEX
  8
0
 62
7
 10
38.82204688
 20
12.54553125
  0
VERTEX
  8
0
 62
7
 10
38.80925586
 20
12.56062891
  0
VERTEX
  8
0
 62
7
 10
38.79800000
 20
12.57500000
  0
VERTEX
  8
0
 62
7
 10
38.77900000
 20
12.60162500
  0
VERTEX
  8
0
 62
7
 10
38.76300000
 20
12.62900000
  0
VERTEX
  8
0
 62
7
 10
38.74950000
 20
12.60462500
  0
VERTEX
  8
0
 62
7
 10
38.73300000
 20
12.58100000
  0
SEQEND
  0
POLYLINE
  8
0
 62
7
 66
1
 70
1
  0
VERTEX
  8
0
 62
7
 10
36.82700000
 20
14.50900000
  0
VERTEX
  8
0
 62
7
 10
36.84950000
 20
14.46575000
  0
VERTEX
  8
0
 62
7
 10
36.87500000
 20
14.42400000
  0
VERTEX
  8
0
 62
7
 10
36.79013281
 20
14.37814063
  0
VERTEX
  8
0
 62
7
 10
36.69856250
 20
14.33687500
  0
VERTEX
  8
0
 62
7
 10
36.60183594
 20
14.30067188
  0
VERTEX
  8
0
 62
7
 10
36.50150000
 20
14.27000000
  0
VERTEX
  8
0
 62
7
 10
36.39910156
 20
14.24532813
  0
VERTEX
  8
0
 62
7
 10
36.29618750
 20
14.22712500
  0
VERTEX
  8
0
 62
7
 10
36.19430469
 20
14.21585938
  0
VERTEX
  8
0
 62
7
 10
36.09500000
 20
14.21200000
  0
VERTEX
  8
0
 62
7
 10
36.06721875
 20
14.21179688
  0
VERTEX
  8
0
 62
7
 10
36.04000000
 20
14.21187500
  0
VERTEX
  8
0
 62
7
 10
36.01203125
 20
14.21326563
  0
VERTEX
  8
0
 62
7
 10
35.98200000
 20
14.21700000
  0
VERTEX
  8
0
 62
7
 10
35.91097534
 20
14.23036694
  0
VERTEX
  8
0
 62
7
 10
35.84467773
 20
14.24691992
  0
VERTEX
  8
0
 62
7
 10
35.78277173
 20
14.26677466
  0
VERTEX
  8
0
 62
7
 10
35.72492188
 20
14.29004688
  0
VERTEX
  8
0
 62
7
 10
35.67079272
 20
14.31685229
  0
VERTEX
  8
0
 62
7
 10
35.62004883
 20
14.34730664
  0
VERTEX
  8
0
 62
7
 10
35.57235474
 20
14.38152563
  0
VERTEX
  8
0
 62
7
 10
35.52737500
 20
14.41962500
  0
VERTEX
  8
0
 62
7
 10
35.48477417
 20
14.46172046
  0
VERTEX
  8
0
 62
7
 10
35.44421680
 20
14.50792773
  0
VERTEX
  8
0
 62
7
 10
35.40536743
 20
14.55836255
  0
VERTEX
  8
0
 62
7
 10
35.36789063
 20
14.61314063
  0
VERTEX
  8
0
 62
7
 10
35.33145093
 20
14.67237769
  0
VERTEX
  8
0
 62
7
 10
35.29571289
 20
14.73618945
  0
VERTEX
  8
0
 62
7
 10
35.26034106
 20
14.80469165
  0
VERTEX
  8
0
 62
7
 10
35.22500000
 20
14.87800000
  0
VERTEX
  8
0
 62
7
 10
35.23717773
 20
14.88166797
  0
VERTEX
  8
0
 62
7
 10
35.27010938
 20
14.89196875
  0
VERTEX
  8
0
 62
7
 10
35.31839258
 20
14.90784766
  0
VERTEX
  8
0
 62
7
 10
35.37662500
 20
14.92825000
  0
VERTEX
  8
0
 62
7
 10
35.43940430
 20
14.95212109
  0
VERTEX
  8
0
 62
7
 10
35.50132813
 20
14.97840625
  0
VERTEX
  8
0
 62
7
 10
35.55699414
 20
15.00605078
  0
VERTEX
  8
0
 62
7
 10
35.60100000
 20
15.03400000
  0
VERTEX
  8
0
 62
7
 10
35.65562891
 20
15.07155273
  0
VERTEX
  8
0
 62
7
 10
35.71346875
 20
15.10398438
  0
VERTEX
  8
0
 62
7
 10
35.77407422
 20
15.13133008
  0
VERTEX
  8
0
 62
7
 10
35.83700000
 20
15.15362500
  0
VERTEX
  8
0
 62
7
 10
35.90180078
 20
15.17090430
  0
VERTEX
  8
0
 62
7
 10
35.96803125
 20
15.18320313
  0
VERTEX
  8
0
 62
7
 10
36.03524609
 20
15.19055664
  0
VERTEX
  8
0
 62
7
 10
36.10300000
 20
15.19300000
  0
VERTEX
  8
0
 62
7
 10
36.16199219
 20
15.19215430
  0
VERTEX
  8
0
 62
7
 10
36.21643750
 20
15.18923438
  0
VERTEX
  8
0
 62
7
 10
36.26703906
 20
15.18366602
  0
VERTEX
  8
0
 62
7
 10
36.31450000
 20
15.17487500
  0
VERTEX
  8
0
 62
7
 10
36.35952344
 20
15.16228711
  0
VERTEX
  8
0
 62
7
 10
36.40281250
 20
15.14532813
  0
VERTEX
  8
0
 62
7
 10
36.44507031
 20
15.12342383
  0
VERTEX
  8
0
 62
7
 10
36.48700000
 20
15.09600000
  0
VERTEX
  8
0
 62
7
 10
36.64000000
 20
14.93000000
  0
VERTEX
  8
0
 62
7
 10
36.64587500
 20
14.92228320
  0
VERTEX
  8
0
 62
7
 10
36.65662500
 20
14.90614063
  0
VERTEX
  8
0
 62
7
 10
36.67093750
 20
14.88308398
  0
VERTEX
  8
0
 62
7
 10
36.68750000
 20
14.85462500
  0
VERTEX
  8
0
 62
7
 10
36.70500000
 20
14.82227539
  0
VERTEX
  8
0
 62
7
 10
36.72212500
 20
14.78754688
  0
VERTEX
  8
0
 62
7
 10
36.73756250
 20
14.75195117
  0
VERTEX
  8
0
 62
7
 10
36.75000000
 20
14.71700000
  0
VERTEX
  8
0
 62
7
 10
36.78900000
 20
14.59800000
  0
VERTEX
  8
0
 62
7
 10
36.69751563
 20
14.62851563
  0
VERTEX
  8
0
 62
7
 10
36.60462500
 20
14.65537500
  0
VERTEX
  8
0
 62
7
 10
36.51042188
 20
14.67829688
  0
VERTEX
  8
0
 62
7
 10
36.41500000
 20
14.69700000
  0
VERTEX
  8
0
 62
7
 10
36.34903125
 20
14.70676563
  0
VERTEX
  8
0
 62
7
 10
36.28325000
 20
14.71287500
  0
VERTEX
  8
0
 62
7
 10
36.21784375
 20
14.71654688
  0
VERTEX
  8
0
 62
7
 10
36.15300000
 20
14.71900000
  0
VERTEX
  8
0
 62
7
 10
36.09487500
 20
14.72065625
  0
VERTEX
  8
0
 62
7
 10
36.03750000
 20
14.72325000
  0
VERTEX
  8
0
 62
7
 10
35.98087500
 20
14.72771875
  0
VERTEX
  8
0
 62
7
 10
35.92500000
 20
14.73500000
  0
VERTEX
  8
0
 62
7
 10
35.82301563
 20
14.74948438
  0
VERTEX
  8
0
 62
7
 10
35.72037500
 20
14.76462500
  0
VERTEX
  8
0
 62
7
 10
35.61829688
 20
14.78295313
  0
VERTEX
  8
0
 62
7
 10
35.51800000
 20
14.80700000
  0
VERTEX
  8
0
 62
7
 10
35.50700000
 20
14.76800000
  0
VERTEX
  8
0
 62
7
 10
35.60820313
 20
14.74065625
  0
VERTEX
  8
0
 62
7
 10
35.71062500
 20
14.71500000
  0
VERTEX
  8
0
 62
7
 10
35.81398438
 20
14.69234375
  0
VERTEX
  8
0
 62
7
 10
35.91800000
 20
14.67400000
  0
VERTEX
  8
0
 62
7
 10
35.97676563
 20
14.66573438
  0
VERTEX
  8
0
 62
7
 10
36.03487500
 20
14.65812500
  0
VERTEX
  8
0
 62
7
 10
36.09279688
 20
14.65220313
  0
VERTEX
  8
0
 62
7
 10
36.15100000
 20
14.64900000
  0
VERTEX
  8
0
 62
7
 10
36.21512500
 20
14.64657813
  0
VERTEX
  8
0
 62
7
 10
36.27850000
 20
14.64312500
  0
VERTEX
  8
0
 62
7
 10
36.34112500
 20
14.63760938
  0
VERTEX
  8
0
 62
7
 10
36.40300000
 20
14.62900000
  0
VERTEX
  8
0
 62
7
 10
36.51073438
 20
14.60631250
  0
VERTEX
  8
0
 62
7
 10
36.61762500
 20
14.57875000
  0
VERTEX
  8
0
 62
7
 10
36.72320313
 20
14.54631250
  0
VERTEX
  8
0
 62
7
 10
36.82700000
 20
14.50900000
  0
SEQEND
  0
POLYLINE
  8
0
 62
7
 66
1
 70
1
  0
VERTEX
  8
0
 62
7
 10
35.32400000
 20
14.50100000
  0
VERTEX
  8
0
 62
7
 10
35.30378906
 20
14.52962695
  0
VERTEX
  8
0
 62
7
 10
35.28325000
 20
14.55920313
  0
VERTEX
  8
0
 62
7
 10
35.26289844
 20
14.58964648
  0
VERTEX
  8
0
 62
7
 10
35.24325000
 20
14.62087500
  0
VERTEX
  8
0
 62
7
 10
35.22482031
 20
14.65280664
  0
VERTEX
  8
0
 62
7
 10
35.20812500
 20
14.68535938
  0
VERTEX
  8
0
 62
7
 10
35.19367969
 20
14.71845117
  0
VERTEX
  8
0
 62
7
 10
35.18200000
 20
14.75200000
  0
VERTEX
  8
0
 62
7
 10
34.54700000
 20
14.75000000
  0
VERTEX
  8
0
 62
7
 10
34.54700000
 20
15.25000000
  0
VERTEX
  8
0
 62
7
 10
40.25000000
 20
15.25000000
  0
VERTEX
  8
0
 62
7
 10
40.25000000
 20
9.74900000
  0
VERTEX
  8
0
 62
7
 10
39.75000000
 20
9.74900000
  0
VERTEX
  8
0
 62
7
 10
39.75000000
 20
10.51700000
  0
VERTEX
  8
0
 62
7
 10
39.71780664
 20
10.52010938
  0
VERTEX
  8
0
 62
7
 10
39.68576563
 20
10.52725000
  0
VERTEX
  8
0
 62
7
 10
39.65393555
 20
10.53739063
  0
VERTEX
  8
0
 62
7
 10
39.62237500
 20
10.54950000
  0
VERTEX
  8
0
 62
7
 10
39.59114258
 20
10.56254688
  0
VERTEX
  8
0
 62
7
 10
39.56029688
 20
10.57550000
  0
VERTEX
  8
0
 62
7
 10
39.52989648
 20
10.58732813
  0
VERTEX
  8
0
 62
7
 10
39.50000000
 20
10.59700000
  0
VERTEX
  8
0
 62
7
 10
39.50000000
 20
9.49900000
  0
VERTEX
  8
0
 62
7
 10
40.50000000
 20
9.49900000
  0
VERTEX
  8
0
 62
7
 10
40.50000000
 20
15.50000000
  0
VERTEX
  8
0
 62
7
 10
34.29700000
 20
15.50000000
  0
VERTEX
  8
0
 62
7
 10
34.29700000
 20
14.50000000
  0
VERTEX
  8
0
 62
7
 10
35.32400000
 20
14.50100000
  0
SEQEND
  0
POLYLINE
  8
0
 62
7
 66
1
 70
1
  0
VERTEX
  8
0
 62
7
 10
37.59200000
 20
14.61400000
  0
VERTEX
  8
0
 62
7
 10
37.56025781
 20
14.64732422
  0
VERTEX
  8
0
 62
7
 10
37.52725000
 20
14.67903125
  0
VERTEX
  8
0
 62
7
 10
37.49292969
 20
14.70909766
  0
VERTEX
  8
0
 62
7
 10
37.45725000
 20
14.73750000
  0
VERTEX
  8
0
 62
7
 10
37.42016406
 20
14.76421484
  0
VERTEX
  8
0
 62
7
 10
37.38162500
 20
14.78921875
  0
VERTEX
  8
0
 62
7
 10
37.34158594
 20
14.81248828
  0
VERTEX
  8
0
 62
7
 10
37.30000000
 20
14.83400000
  0
VERTEX
  8
0
 62
7
 10
37.25642383
 20
14.85375391
  0
VERTEX
  8
0
 62
7
 10
37.21257813
 20
14.87165625
  0
VERTEX
  8
0
 62
7
 10
37.16828711
 20
14.88754297
  0
VERTEX
  8
0
 62
7
 10
37.12337500
 20
14.90125000
  0
VERTEX
  8
0
 62
7
 10
37.07766602
 20
14.91261328
  0
VERTEX
  8
0
 62
7
 10
37.03098438
 20
14.92146875
  0
VERTEX
  8
0
 62
7
 10
36.98315430
 20
14.92765234
  0
VERTEX
  8
0
 62
7
 10
36.93400000
 20
14.93100000
  0
VERTEX
  8
0
 62
7
 10
36.94000000
 20
14.97500000
  0
VERTEX
  8
0
 62
7
 10
36.99187891
 20
14.97263086
  0
VERTEX
  8
0
 62
7
 10
37.04078125
 20
14.96898438
  0
VERTEX
  8
0
 62
7
 10
37.08748047
 20
14.96362695
  0
VERTEX
  8
0
 62
7
 10
37.13275000
 20
14.95612500
  0
VERTEX
  8
0
 62
7
 10
37.17736328
 20
14.94604492
  0
VERTEX
  8
0
 62
7
 10
37.22209375
 20
14.93295313
  0
VERTEX
  8
0
 62
7
 10
37.26771484
 20
14.91641602
  0
VERTEX
  8
0
 62
7
 10
37.31500000
 20
14.89600000
  0
VERTEX
  8
0
 62
7
 10
37.36055078
 20
14.87351367
  0
VERTEX
  8
0
 62
7
 10
37.40490625
 20
14.84885938
  0
VERTEX
  8
0
 62
7
 10
37.44799609
 20
14.82211914
  0
VERTEX
  8
0
 62
7
 10
37.48975000
 20
14.79337500
  0
VERTEX
  8
0
 62
7
 10
37.53009766
 20
14.76270898
  0
VERTEX
  8
0
 62
7
 10
37.56896875
 20
14.73020313
  0
VERTEX
  8
0
 62
7
 10
37.60629297
 20
14.69593945
  0
VERTEX
  8
0
 62
7
 10
37.64200000
 20
14.66000000
  0
VERTEX
  8
0
 62
7
 10
37.66323438
 20
14.67792773
  0
VERTEX
  8
0
 62
7
 10
37.68568750
 20
14.69485938
  0
VERTEX
  8
0
 62
7
 10
37.70935938
 20
14.71064258
  0
VERTEX
  8
0
 62
7
 10
37.73425000
 20
14.72512500
  0
VERTEX
  8
0
 62
7
 10
37.76035938
 20
14.73815430
  0
VERTEX
  8
0
 62
7
 10
37.78768750
 20
14.74957813
  0
VERTEX
  8
0
 62
7
 10
37.81623438
 20
14.75924414
  0
VERTEX
  8
0
 62
7
 10
37.84600000
 20
14.76700000
  0
VERTEX
  8
0
 62
7
 10
37.87675000
 20
14.77325000
  0
VERTEX
  8
0
 62
7
 10
37.90600000
 20
14.77500000
  0
VERTEX
  8
0
 62
7
 10
37.93704688
 20
14.77345313
  0
VERTEX
  8
0
 62
7
 10
37.96687500
 20
14.76937500
  0
VERTEX
  8
0
 62
7
 10
37.99501563
 20
14.76360938
  0
VERTEX
  8
0
 62
7
 10
38.02100000
 20
14.75700000
  0
VERTEX
  8
0
 62
7
 10
38.04737500
 20
14.74812500
  0
VERTEX
  8
0
 62
7
 10
38.07300000
 20
14.73700000
  0
VERTEX
  8
0
 62
7
 10
38.07900000
 20
14.74200000
  0
VERTEX
  8
0
 62
7
 10
38.07600000
 20
14.78700000
  0
VERTEX
  8
0
 62
7
 10
38.07600000
 20
14.79400000
  0
VERTEX
  8
0
 62
7
 10
38.07700000
 20
14.80600000
  0
VERTEX
  8
0
 62
7
 10
38.04013770
 20
14.84411792
  0
VERTEX
  8
0
 62
7
 10
38.00091406
 20
14.88144336
  0
VERTEX
  8
0
 62
7
 10
37.95949902
 20
14.91774634
  0
VERTEX
  8
0
 62
7
 10
37.91606250
 20
14.95279688
  0
VERTEX
  8
0
 62
7
 10
37.87077441
 20
14.98636499
  0
VERTEX
  8
0
 62
7
 10
37.82380469
 20
15.01822070
  0
VERTEX
  8
0
 62
7
 10
37.77532324
 20
15.04813403
  0
VERTEX
  8
0
 62
7
 10
37.72550000
 20
15.07587500
  0
VERTEX
  8
0
 62
7
 10
37.67450488
 20
15.10121362
  0
VERTEX
  8
0
 62
7
 10
37.62250781
 20
15.12391992
  0
VERTEX
  8
0
 62
7
 10
37.56967871
 20
15.14376392
  0
VERTEX
  8
0
 62
7
 10
37.51618750
 20
15.16051563
  0
VERTEX
  8
0
 62
7
 10
37.46220410
 20
15.17394507
  0
VERTEX
  8
0
 62
7
 10
37.40789844
 20
15.18382227
  0
VERTEX
  8
0
 62
7
 10
37.35344043
 20
15.18991724
  0
VERTEX
  8
0
 62
7
 10
37.29900000
 20
15.19200000
  0
VERTEX
  8
0
 62
7
 10
37.21133008
 20
15.18838672
  0
VERTEX
  8
0
 62
7
 10
37.12432813
 20
15.17771875
  0
VERTEX
  8
0
 62
7
 10
37.03875586
 20
15.16025391
  0
VERTEX
  8
0
 62
7
 10
36.95537500
 20
15.13625000
  0
VERTEX
  8
0
 62
7
 10
36.87494727
 20
15.10596484
  0
VERTEX
  8
0
 62
7
 10
36.79823438
 20
15.06965625
  0
VERTEX
  8
0
 62
7
 10
36.72599805
 20
15.02758203
  0
VERTEX
  8
0
 62
7
 10
36.65900000
 20
14.98000000
  0
VERTEX
  8
0
 62
7
 10
36.69109180
 20
14.96038477
  0
VERTEX
  8
0
 62
7
 10
36.71998438
 20
14.93764063
  0
VERTEX
  8
0
 62
7
 10
36.74585352
 20
14.91191992
  0
VERTEX
  8
0
 62
7
 10
36.76887500
 20
14.88337500
  0
VERTEX
  8
0
 62
7
 10
36.78922461
 20
14.85215820
  0
VERTEX
  8
0
 62
7
 10
36.80707813
 20
14.81842188
  0
VERTEX
  8
0
 62
7
 10
36.82261133
 20
14.78231836
  0
VERTEX
  8
0
 62
7
 10
36.83600000
 20
14.74400000
  0
VERTEX
  8
0
 62
7
 10
36.85138477
 20
14.69547656
  0
VERTEX
  8
0
 62
7
 10
36.86720313
 20
14.64831250
  0
VERTEX
  8
0
 62
7
 10
36.88407617
 20
14.60274219
  0
VERTEX
  8
0
 62
7
 10
36.90262500
 20
14.55900000
  0
VERTEX
  8
0
 62
7
 10
36.92347070
 20
14.51732031
  0
VERTEX
  8
0
 62
7
 10
36.94723438
 20
14.47793750
  0
VERTEX
  8
0
 62
7
 10
36.97453711
 20
14.44108594
  0
VERTEX
  8
0
 62
7
 10
37.00600000
 20
14.40700000
  0
VERTEX
  8
0
 62
7
 10
37.07350000
 20
14.41600000
  0
VERTEX
  8
0
 62
7
 10
37.14400000
 20
14.41900000
  0
VERTEX
  8
0
 62
7
 10
37.18533789
 20
14.41797461
  0
VERTEX
  8
0
 62
7
 10
37.22607813
 20
14.41492188
  0
VERTEX
  8
0
 62
7
 10
37.26618555
 20
14.40987695
  0
VERTEX
  8
0
 62
7
 10
37.30562500
 20
14.40287500
  0
VERTEX
  8
0
 62
7
 10
37.34436133
 20
14.39395117
  0
VERTEX
  8
0
 62
7
 10
37.38235938
 20
14.38314063
  0
VERTEX
  8
0
 62
7
 10
37.41958398
 20
14.37047852
  0
VERTEX
  8
0
 62
7
 10
37.45600000
 20
14.35600000
  0
VERTEX
  8
0
 62
7
 10
37.44800000
 20
14.36200000
  0
VERTEX
  8
0
 62
7
 10
37.42346875
 20
14.38400000
  0
VERTEX
  8
0
 62
7
 10
37.40850000
 20
14.40900000
  0
VERTEX
  8
0
 62
7
 10
37.40103125
 20
14.43400000
  0
VERTEX
  8
0
 62
7
 10
37.39900000
 20
14.45600000
  0
VERTEX
  8
0
 62
7
 10
37.40100000
 20
14.47850000
  0
VERTEX
  8
0
 62
7
 10
37.40600000
 20
14.49800000
  0
VERTEX
  8
0
 62
7
 10
37.40652271
 20
14.49970215
  0
VERTEX
  8
0
 62
7
 10
37.40774414
 20
14.50313281
  0
VERTEX
  8
0
 62
7
 10
37.40970679
 20
14.50802832
  0
VERTEX
  8
0
 62
7
 10
37.41245313
 20
14.51412500
  0
VERTEX
  8
0
 62
7
 10
37.41602563
 20
14.52115918
  0
VERTEX
  8
0
 62
7
 10
37.42046680
 20
14.52886719
  0
VERTEX
  8
0
 62
7
 10
37.42581909
 20
14.53698535
  0
VERTEX
  8
0
 62
7
 10
37.43212500
 20
14.54525000
  0
VERTEX
  8
0
 62
7
 10
37.43942700
 20
14.55339746
  0
VERTEX
  8
0
 62
7
 10
37.44776758
 20
14.56116406
  0
VERTEX
  8
0
 62
7
 10
37.45718921
 20
14.56828613
  0
VERTEX
  8
0
 62
7
 10
37.46773438
 20
14.57450000
  0
VERTEX
  8
0
 62
7
 10
37.47944556
 20
14.57954199
  0
VERTEX
  8
0
 62
7
 10
37.49236523
 20
14.58314844
  0
VERTEX
  8
0
 62
7
 10
37.50653589
 20
14.58505566
  0
VERTEX
  8
0
 62
7
 10
37.52200000
 20
14.58500000
  0
VERTEX
  8
0
 62
7
 10
37.56000000
 20
14.58900000
  0
VERTEX
  8
0
 62
7
 10
37.59200000
 20
14.61400000
  0
SEQEND
  0
POLYLINE
  8
0
 62
7
 66
1
 70
1
  0
VERTEX
  8
0
 62
7
 10
38.75935940
 20
15.03545259
  0
VERTEX
  8
0
 62
7
 10
38.79791190
 20
15.03652182
  0
VERTEX
  8
0
 62
7
 10
38.83329157
 20
15.04095151
  0
VERTEX
  8
0
 62
7
 10
38.86655601
 20
15.05057462
  0
VERTEX
  8
0
 62
7
 10
38.89876284
 20
15.06722414
  0
VERTEX
  8
0
 62
7
 10
38.91556660
 20
15.07859271
  0
VERTEX
  8
0
 62
7
 10
38.93090671
 20
15.09126919
  0
VERTEX
  8
0
 62
7
 10
38.94475483
 20
15.10518675
  0
VERTEX
  8
0
 62
7
 10
38.95708263
 20
15.12027856
  0
VERTEX
  8
0
 62
7
 10
38.96786178
 20
15.13647778
  0
VERTEX
  8
0
 62
7
 10
38.97706396
 20
15.15371761
  0
VERTEX
  8
0
 62
7
 10
38.98466083
 20
15.17193119
  0
VERTEX
  8
0
 62
7
 10
38.99062406
 20
15.19105172
  0
VERTEX
  8
0
 62
7
 10
38.99478999
 20
15.19777263
  0
VERTEX
  8
0
 62
7
 10
39.00128833
 20
15.20220232
  0
VERTEX
  8
0
 62
7
 10
39.00927865
 20
15.20456991
  0
VERTEX
  8
0
 62
7
 10
39.01792055
 20
15.20510453
  0
VERTEX
  8
0
 62
7
 10
39.02637358
 20
15.20403529
  0
VERTEX
  8
0
 62
7
 10
39.03379733
 20
15.20159133
  0
VERTEX
  8
0
 62
7
 10
39.03935137
 20
15.19800175
  0
VERTEX
  8
0
 62
7
 10
39.04219528
 20
15.19349569
  0
VERTEX
  8
0
 62
7
 10
39.05026587
 20
15.17076172
  0
VERTEX
  8
0
 62
7
 10
39.06143376
 20
15.14726401
  0
VERTEX
  8
0
 62
7
 10
39.07245056
 20
15.12773774
  0
VERTEX
  8
0
 62
7
 10
39.08006789
 20
15.11691810
  0
VERTEX
  8
0
 62
7
 10
39.10507288
 20
15.09622077
  0
VERTEX
  8
0
 62
7
 10
39.12902025
 20
15.08086961
  0
VERTEX
  8
0
 62
7
 10
39.15326980
 20
15.06765692
  0
VERTEX
  8
0
 62
7
 10
39.17918132
 20
15.05337500
  0
VERTEX
  8
0
 62
7
 10
39.22274489
 20
15.02591857
  0
VERTEX
  8
0
 62
7
 10
39.26238019
 20
14.99441433
  0
VERTEX
  8
0
 62
7
 10
39.29748286
 20
14.95817491
  0
VERTEX
  8
0
 62
7
 10
39.32744856
 20
14.91651293
  0
VERTEX
  8
0
 62
7
 10
39.34151229
 20
14.88717262
  0
VERTEX
  8
0
 62
7
 10
39.35051459
 20
14.85592295
  0
VERTEX
  8
0
 62
7
 10
39.35543752
 20
14.82360405
  0
VERTEX
  8
0
 62
7
 10
39.35726317
 20
14.79105603
  0
VERTEX
  8
0
 62
7
 10
39.35667141
 20
14.76772062
  0
VERTEX
  8
0
 62
7
 10
39.35388888
 20
14.74474798
  0
VERTEX
  8
0
 62
7
 10
39.34921775
 20
14.72211902
  0
VERTEX
  8
0
 62
7
 10
39.34296021
 20
14.69981466
  0
VERTEX
  8
0
 62
7
 10
39.33541842
 20
14.67781578
  0
VERTEX
  8
0
 62
7
 10
39.32689457
 20
14.65610331
  0
VERTEX
  8
0
 62
7
 10
39.31769082
 20
14.63465815
  0
VERTEX
  8
0
 62
7
 10
39.30810935
 20
14.61346121
  0
VERTEX
  8
0
 62
7
 10
39.29410700
 20
14.58597932
  0
VERTEX
  8
0
 62
7
 10
39.27828215
 20
14.55964305
  0
VERTEX
  8
0
 62
7
 10
39.26092755
 20
14.53429964
  0
VERTEX
  8
0
 62
7
 10
39.24233591
 20
14.50979634
  0
VERTEX
  8
0
 62
7
 10
39.22279997
 20
14.48598040
  0
VERTEX
  8
0
 62
7
 10
39.20261248
 20
14.46269908
  0
VERTEX
  8
0
 62
7
 10
39.18206614
 20
14.43979964
  0
VERTEX
  8
0
 62
7
 10
39.16145371
 20
14.41712931
  0
VERTEX
  8
0
 62
7
 10
39.10921519
 20
14.36076536
  0
VERTEX
  8
0
 62
7
 10
39.05539026
 20
14.30715086
  0
VERTEX
  8
0
 62
7
 10
38.99839248
 20
14.25720232
  0
VERTEX
  8
0
 62
7
 10
38.93663545
 20
14.21183621
  0
VERTEX
  8
0
 62
7
 10
38.91705702
 20
14.21905354
  0
VERTEX
  8
0
 62
7
 10
38.89483456
 20
14.22558351
  0
VERTEX
  8
0
 62
7
 10
38.87215884
 20
14.23073875
  0
VERTEX
  8
0
 62
7
 10
38.85122062
 20
14.23383190
  0
VERTEX
  8
0
 62
7
 10
38.81657121
 20
14.27375000
  0
VERTEX
  8
0
 62
7
 10
38.81444655
 20
14.28403502
  0
VERTEX
  8
0
 62
7
 10
38.81332283
 20
14.30623438
  0
VERTEX
  8
0
 62
7
 10
38.81291678
 20
14.33744585
  0
VERTEX
  8
0
 62
7
 10
38.81294511
 20
14.37476724
  0
VERTEX
  8
0
 62
7
 10
38.81312453
 20
14.41529634
  0
VERTEX
  8
0
 62
7
 10
38.81317174
 20
14.45613093
  0
VERTEX
  8
0
 62
7
 10
38.81280347
 20
14.49436880
  0
VERTEX
  8
0
 62
7
 10
38.81173641
 20
14.52710776
  0
VERTEX
  8
0
 62
7
 10
38.80940243
 20
14.57161148
  0
VERTEX
  8
0
 62
7
 10
38.80756892
 20
14.61643979
  0
VERTEX
  8
0
 62
7
 10
38.80582983
 20
14.66145903
  0
VERTEX
  8
0
 62
7
 10
38.80377914
 20
14.70653556
  0
VERTEX
  8
0
 62
7
 10
38.80101077
 20
14.75153571
  0
VERTEX
  8
0
 62
7
 10
38.79711869
 20
14.79632584
  0
VERTEX
  8
0
 62
7
 10
38.79169685
 20
14.84077228
  0
VERTEX
  8
0
 62
7
 10
38.78433921
 20
14.88474138
  0
VERTEX
  8
0
 62
7
 10
38.74404919
 20
14.88474138
  0
VERTEX
  8
0
 62
7
 10
38.73669155
 20
14.84077228
  0
VERTEX
  8
0
 62
7
 10
38.73126971
 20
14.79632584
  0
VERTEX
  8
0
 62
7
 10
38.72737763
 20
14.75153571
  0
VERTEX
  8
0
 62
7
 10
38.72460926
 20
14.70653556
  0
VERTEX
  8
0
 62
7
 10
38.72255857
 20
14.66145903
  0
VERTEX
  8
0
 62
7
 10
38.72081948
 20
14.61643979
  0
VERTEX
  8
0
 62
7
 10
38.71898597
 20
14.57161148
  0
VERTEX
  8
0
 62
7
 10
38.71665199
 20
14.52710776
  0
VERTEX
  8
0
 62
7
 10
38.71558493
 20
14.49436880
  0
VERTEX
  8
0
 62
7
 10
38.71521665
 20
14.45613093
  0
VERTEX
  8
0
 62
7
 10
38.71526387
 20
14.41529634
  0
VERTEX
  8
0
 62
7
 10
38.71544329
 20
14.37476724
  0
VERTEX
  8
0
 62
7
 10
38.71547162
 20
14.33744585
  0
VERTEX
  8
0
 62
7
 10
38.71506557
 20
14.30623438
  0
VERTEX
  8
0
 62
7
 10
38.71394185
 20
14.28403502
  0
VERTEX
  8
0
 62
7
 10
38.71181719
 20
14.27375000
  0
VERTEX
  8
0
 62
7
 10
38.67716778
 20
14.23383190
  0
VERTEX
  8
0
 62
7
 10
38.65622956
 20
14.23073875
  0
VERTEX
  8
0
 62
7
 10
38.63355384
 20
14.22558351
  0
VERTEX
  8
0
 62
7
 10
38.61133138
 20
14.21905354
  0
VERTEX
  8
0
 62
7
 10
38.59175295
 20
14.21183621
  0
VERTEX
  8
0
 62
7
 10
38.52999592
 20
14.25720232
  0
VERTEX
  8
0
 62
7
 10
38.47299814
 20
14.30715086
  0
VERTEX
  8
0
 62
7
 10
38.41917321
 20
14.36076536
  0
VERTEX
  8
0
 62
7
 10
38.36693469
 20
14.41712931
  0
VERTEX
  8
0
 62
7
 10
38.34632226
 20
14.43979964
  0
VERTEX
  8
0
 62
7
 10
38.32577592
 20
14.46269908
  0
VERTEX
  8
0
 62
7
 10
38.30558843
 20
14.48598040
  0
VERTEX
  8
0
 62
7
 10
38.28605249
 20
14.50979634
  0
VERTEX
  8
0
 62
7
 10
38.26746085
 20
14.53429964
  0
VERTEX
  8
0
 62
7
 10
38.25010625
 20
14.55964305
  0
VERTEX
  8
0
 62
7
 10
38.23428140
 20
14.58597932
  0
VERTEX
  8
0
 62
7
 10
38.22027905
 20
14.61346121
  0
VERTEX
  8
0
 62
7
 10
38.21069758
 20
14.63465815
  0
VERTEX
  8
0
 62
7
 10
38.20149383
 20
14.65610331
  0
VERTEX
  8
0
 62
7
 10
38.19296997
 20
14.67781578
  0
VERTEX
  8
0
 62
7
 10
38.18542819
 20
14.69981466
  0
VERTEX
  8
0
 62
7
 10
38.17917065
 20
14.72211902
  0
VERTEX
  8
0
 62
7
 10
38.17449952
 20
14.74474798
  0
VERTEX
  8
0
 62
7
 10
38.17171699
 20
14.76772062
  0
VERTEX
  8
0
 62
7
 10
38.17112523
 20
14.79105603
  0
VERTEX
  8
0
 62
7
 10
38.17295088
 20
14.82360405
  0
VERTEX
  8
0
 62
7
 10
38.17787381
 20
14.85592295
  0
VERTEX
  8
0
 62
7
 10
38.18687611
 20
14.88717262
  0
VERTEX
  8
0
 62
7
 10
38.20093984
 20
14.91651293
  0
VERTEX
  8
0
 62
7
 10
38.23090554
 20
14.95817491
  0
VERTEX
  8
0
 62
7
 10
38.26600821
 20
14.99441433
  0
VERTEX
  8
0
 62
7
 10
38.30564351
 20
15.02591857
  0
VERTEX
  8
0
 62
7
 10
38.34920708
 20
15.05337500
  0
VERTEX
  8
0
 62
7
 10
38.37511860
 20
15.06765692
  0
VERTEX
  8
0
 62
7
 10
38.39936815
 20
15.08086961
  0
VERTEX
  8
0
 62
7
 10
38.42331552
 20
15.09622077
  0
VERTEX
  8
0
 62
7
 10
38.44832051
 20
15.11691810
  0
VERTEX
  8
0
 62
7
 10
38.45593784
 20
15.12773774
  0
VERTEX
  8
0
 62
7
 10
38.46695464
 20
15.14726401
  0
VERTEX
  8
0
 62
7
 10
38.47812253
 20
15.17076172
  0
VERTEX
  8
0
 62
7
 10
38.48619312
 20
15.19349569
  0
VERTEX
  8
0
 62
7
 10
38.48903703
 20
15.19800175
  0
VERTEX
  8
0
 62
7
 10
38.49459107
 20
15.20159133
  0
VERTEX
  8
0
 62
7
 10
38.50201482
 20
15.20403529
  0
VERTEX
  8
0
 62
7
 10
38.51046785
 20
15.20510453
  0
VERTEX
  8
0
 62
7
 10
38.51910975
 20
15.20456991
  0
VERTEX
  8
0
 62
7
 10
38.52710007
 20
15.20220232
  0
VERTEX
  8
0
 62
7
 10
38.53359841
 20
15.19777263
  0
VERTEX
  8
0
 62
7
 10
38.53776434
 20
15.19105172
  0
VERTEX
  8
0
 62
7
 10
38.54372757
 20
15.17193119
  0
VERTEX
  8
0
 62
7
 10
38.55132444
 20
15.15371761
  0
VERTEX
  8
0
 62
7
 10
38.56052662
 20
15.13647778
  0
VERTEX
  8
0
 62
7
 10
38.57130577
 20
15.12027856
  0
VERTEX
  8
0
 62
7
 10
38.58363357
 20
15.10518675
  0
VERTEX
  8
0
 62
7
 10
38.59748169
 20
15.09126919
  0
VERTEX
  8
0
 62
7
 10
38.61282179
 20
15.07859271
  0
VERTEX
  8
0
 62
7
 10
38.62962556
 20
15.06722414
  0
VERTEX
  8
0
 62
7
 10
38.66032151
 20
15.05057462
  0
VERTEX
  8
0
 62
7
 10
38.69026203
 20
15.04095151
  0
VERTEX
  8
0
 62
7
 10
38.72231777
 20
15.03652182
  0
VERTEX
  8
0
 62
7
 10
38.75935940
 20
15.03545259
  0
SEQEND
  0
POLYLINE
  8
0
 62
7
 66
1
 70
1
  0
VERTEX
  8
0
 62
7
 10
38.76089000
 20
14.16266000
  0
VERTEX
  8
0
 62
7
 10
38.76467000
 20
14.16266000
  0
VERTEX
  8
0
 62
7
 10
38.80247900
 20
14.16076354
  0
VERTEX
  8
0
 62
7
 10
38.83923456
 20
14.15519598
  0
VERTEX
  8
0
 62
7
 10
38.87474704
 20
14.14614003
  0
VERTEX
  8
0
 62
7
 10
38.90882680
 20
14.13377844
  0
VERTEX
  8
0
 62
7
 10
38.94128418
 20
14.11829391
  0
VERTEX
  8
0
 62
7
 10
38.97192954
 20
14.09986918
  0
VERTEX
  8
0
 62
7
 10
39.00057324
 20
14.07868697
  0
VERTEX
  8
0
 62
7
 10
39.02702563
 20
14.05493000
  0
VERTEX
  8
0
 62
7
 10
39.05109705
 20
14.02878100
  0
VERTEX
  8
0
 62
7
 10
39.07259788
 20
14.00042270
  0
VERTEX
  8
0
 62
7
 10
39.09133846
 20
13.97003781
  0
VERTEX
  8
0
 62
7
 10
39.10712914
 20
13.93780906
  0
VERTEX
  8
0
 62
7
 10
39.11978028
 20
13.90391918
  0
VERTEX
  8
0
 62
7
 10
39.12910224
 20
13.86855090
  0
VERTEX
  8
0
 62
7
 10
39.13490536
 20
13.83188693
  0
VERTEX
  8
0
 62
7
 10
39.13700000
 20
13.79411000
  0
VERTEX
  8
0
 62
7
 10
39.13700000
 20
13.79033000
  0
VERTEX
  8
0
 62
7
 10
39.13510354
 20
13.75252100
  0
VERTEX
  8
0
 62
7
 10
39.12953598
 20
13.71576544
  0
VERTEX
  8
0
 62
7
 10
39.12048003
 20
13.68025296
  0
VERTEX
  8
0
 62
7
 10
39.10811844
 20
13.64617320
  0
VERTEX
  8
0
 62
7
 10
39.09263391
 20
13.61371582
  0
VERTEX
  8
0
 62
7
 10
39.07420918
 20
13.58307046
  0
VERTEX
  8
0
 62
7
 10
39.05302697
 20
13.55442676
  0
VERTEX
  8
0
 62
7
 10
39.02927000
 20
13.52797438
  0
VERTEX
  8
0
 62
7
 10
39.00312100
 20
13.50390295
  0
VERTEX
  8
0
 62
7
 10
38.97476270
 20
13.48240212
  0
VERTEX
  8
0
 62
7
 10
38.94437781
 20
13.46366154
  0
VERTEX
  8
0
 62
7
 10
38.91214906
 20
13.44787086
  0
VERTEX
  8
0
 62
7
 10
38.87825918
 20
13.43521972
  0
VERTEX
  8
0
 62
7
 10
38.84289090
 20
13.42589776
  0
VERTEX
  8
0
 62
7
 10
38.80622693
 20
13.42009464
  0
VERTEX
  8
0
 62
7
 10
38.76845000
 20
13.41800000
  0
VERTEX
  8
0
 62
7
 10
38.76467000
 20
13.41800000
  0
VERTEX
  8
0
 62
7
 10
38.72686100
 20
13.41989646
  0
VERTEX
  8
0
 62
7
 10
38.69010544
 20
13.42546402
  0
VERTEX
  8
0
 62
7
 10
38.65459296
 20
13.43451997
  0
VERTEX
  8
0
 62
7
 10
38.62051320
 20
13.44688156
  0
VERTEX
  8
0
 62
7
 10
38.58805582
 20
13.46236609
  0
VERTEX
  8
0
 62
7
 10
38.55741046
 20
13.48079082
  0
VERTEX
  8
0
 62
7
 10
38.52876676
 20
13.50197303
  0
VERTEX
  8
0
 62
7
 10
38.50231438
 20
13.52573000
  0
VERTEX
  8
0
 62
7
 10
38.47824295
 20
13.55187900
  0
VERTEX
  8
0
 62
7
 10
38.45674212
 20
13.58023730
  0
VERTEX
  8
0
 62
7
 10
38.43800154
 20
13.61062219
  0
VERTEX
  8
0
 62
7
 10
38.42221086
 20
13.64285094
  0
VERTEX
  8
0
 62
7
 10
38.40955972
 20
13.67674082
  0
VERTEX
  8
0
 62
7
 10
38.40023776
 20
13.71210910
  0
VERTEX
  8
0
 62
7
 10
38.39443464
 20
13.74877307
  0
VERTEX
  8
0
 62
7
 10
38.39234000
 20
13.78655000
  0
VERTEX
  8
0
 62
7
 10
38.39234000
 20
13.79033000
  0
VERTEX
  8
0
 62
7
 10
38.39423646
 20
13.82813900
  0
VERTEX
  8
0
 62
7
 10
38.39980402
 20
13.86489456
  0
VERTEX
  8
0
 62
7
 10
38.40885997
 20
13.90040704
  0
VERTEX
  8
0
 62
7
 10
38.42122156
 20
13.93448680
  0
VERTEX
  8
0
 62
7
 10
38.43670609
 20
13.96694418
  0
VERTEX
  8
0
 62
7
 10
38.45513082
 20
13.99758954
  0
VERTEX
  8
0
 62
7
 10
38.47631303
 20
14.02623324
  0
VERTEX
  8
0
 62
7
 10
38.50007000
 20
14.05268563
  0
VERTEX
  8
0
 62
7
 10
38.52621900
 20
14.07675705
  0
VERTEX
  8
0
 62
7
 10
38.55457730
 20
14.09825788
  0
VERTEX
  8
0
 62
7
 10
38.58496219
 20
14.11699846
  0
VERTEX
  8
0
 62
7
 10
38.61719094
 20
14.13278914
  0
VERTEX
  8
0
 62
7
 10
38.65108082
 20
14.14544028
  0
VERTEX
  8
0
 62
7
 10
38.68644910
 20
14.15476224
  0
VERTEX
  8
0
 62
7
 10
38.72311307
 20
14.16056536
  0
VERTEX
  8
0
 62
7
 10
38.76089000
 20
14.16266000
  0
SEQEND
  0
POLYLINE
  8
0
 62
7
 66
1
 70
1
  0
VERTEX
  8
0
 62
7
 10
39.94759764
 20
14.18032328
  0
VERTEX
  8
0
 62
7
 10
39.96064153
 20
14.14357469
  0
VERTEX
  8
0
 62
7
 10
39.97580065
 20
14.11117942
  0
VERTEX
  8
0
 62
7
 10
39.99519021
 20
14.08260284
  0
VERTEX
  8
0
 62
7
 10
40.02092546
 20
14.05731034
  0
VERTEX
  8
0
 62
7
 10
40.03677706
 20
14.04478502
  0
VERTEX
  8
0
 62
7
 10
40.05345964
 20
14.03409267
  0
VERTEX
  8
0
 62
7
 10
40.07089766
 20
14.02523330
  0
VERTEX
  8
0
 62
7
 10
40.08901558
 20
14.01820690
  0
VERTEX
  8
0
 62
7
 10
40.10773784
 20
14.01301347
  0
VERTEX
  8
0
 62
7
 10
40.12698891
 20
14.00965302
  0
VERTEX
  8
0
 62
7
 10
40.14669325
 20
14.00812554
  0
VERTEX
  8
0
 62
7
 10
40.16677530
 20
14.00843103
  0
VERTEX
  8
0
 62
7
 10
40.17451224
 20
14.00639758
  0
VERTEX
  8
0
 62
7
 10
40.18077608
 20
14.00148101
  0
VERTEX
  8
0
 62
7
 10
40.18552904
 20
13.99454053
  0
VERTEX
  8
0
 62
7
 10
40.18873336
 20
13.98643534
  0
VERTEX
  8
0
 62
7
 10
40.19035125
 20
13.97802467
  0
VERTEX
  8
0
 62
7
 10
40.19034496
 20
13.97016770
  0
VERTEX
  8
0
 62
7
 10
40.18867670
 20
13.96372365
  0
VERTEX
  8
0
 62
7
 10
40.18530871
 20
13.95955172
  0
VERTEX
  8
0
 62
7
 10
40.16610800
 20
13.94487520
  0
VERTEX
  8
0
 62
7
 10
40.14713392
 20
13.92706735
  0
VERTEX
  8
0
 62
7
 10
40.13193703
 20
13.91063423
  0
VERTEX
  8
0
 62
7
 10
40.12406789
 20
13.90008190
  0
VERTEX
  8
0
 62
7
 10
40.11215715
 20
13.86988874
  0
VERTEX
  8
0
 62
7
 10
40.10493013
 20
13.84244504
  0
VERTEX
  8
0
 62
7
 10
40.09981834
 20
13.81530684
  0
VERTEX
  8
0
 62
7
 10
40.09425328
 20
13.78603017
  0
VERTEX
  8
0
 62
7
 10
40.08171301
 20
13.73631075
  0
VERTEX
  8
0
 62
7
 10
40.06403577
 20
13.68888254
  0
VERTEX
  8
0
 62
7
 10
40.04031503
 20
13.64420380
  0
VERTEX
  8
0
 62
7
 10
40.00964426
 20
13.60273276
  0
VERTEX
  8
0
 62
7
 10
39.98628864
 20
13.58049522
  0
VERTEX
  8
0
 62
7
 10
39.95938247
 20
13.56230550
  0
VERTEX
  8
0
 62
7
 10
39.93020998
 20
13.54762897
  0
VERTEX
  8
0
 62
7
 10
39.90005543
 20
13.53593103
  0
VERTEX
  8
0
 62
7
 10
39.87751820
 20
13.52919899
  0
VERTEX
  8
0
 62
7
 10
39.85467880
 20
13.52469134
  0
VERTEX
  8
0
 62
7
 10
39.83161277
 20
13.52211213
  0
VERTEX
  8
0
 62
7
 10
39.80839565
 20
13.52116541
  0
VERTEX
  8
0
 62
7
 10
39.78510299
 20
13.52155523
  0
VERTEX
  8
0
 62
7
 10
39.76181032
 20
13.52298565
  0
VERTEX
  8
0
 62
7
 10
39.73859321
 20
13.52516072
  0
VERTEX
  8
0
 62
7
 10
39.71552717
 20
13.52778448
  0
VERTEX
  8
0
 62
7
 10
39.68522940
 20
13.53258331
  0
VERTEX
  8
0
 62
7
 10
39.65535656
 20
13.53944423
  0
VERTEX
  8
0
 62
7
 10
39.62588033
 20
13.54806176
  0
VERTEX
  8
0
 62
7
 10
39.59677237
 20
13.55813039
  0
VERTEX
  8
0
 62
7
 10
39.56800435
 20
13.56934463
  0
VERTEX
  8
0
 62
7
 10
39.53954796
 20
13.58139898
  0
VERTEX
  8
0
 62
7
 10
39.51137485
 20
13.59398794
  0
VERTEX
  8
0
 62
7
 10
39.48345671
 20
13.60680603
  0
VERTEX
  8
0
 62
7
 10
39.41371722
 20
13.63870488
  0
VERTEX
  8
0
 62
7
 10
39.34616850
 20
13.67320043
  0
VERTEX
  8
0
 62
7
 10
39.28118826
 20
13.71197293
  0
VERTEX
  8
0
 62
7
 10
39.21915424
 20
13.75670259
  0
VERTEX
  8
0
 62
7
 10
39.21974599
 20
13.77755267
  0
VERTEX
  8
0
 62
7
 10
39.21905351
 20
13.80069397
  0
VERTEX
  8
0
 62
7
 10
39.21700124
 20
13.82383526
  0
VERTEX
  8
0
 62
7
 10
39.21351363
 20
13.84468534
  0
VERTEX
  8
0
 62
7
 10
39.24091084
 20
13.89030603
  0
VERTEX
  8
0
 62
7
 10
39.25007052
 20
13.89551378
  0
VERTEX
  8
0
 62
7
 10
39.27082617
 20
13.90340416
  0
VERTEX
  8
0
 62
7
 10
39.30034490
 20
13.91337573
  0
VERTEX
  8
0
 62
7
 10
39.33579382
 20
13.92482705
  0
VERTEX
  8
0
 62
7
 10
39.37434003
 20
13.93715666
  0
VERTEX
  8
0
 62
7
 10
39.41315064
 20
13.94976313
  0
VERTEX
  8
0
 62
7
 10
39.44939276
 20
13.96204501
  0
VERTEX
  8
0
 62
7
 10
39.48023351
 20
13.97340086
  0
VERTEX
  8
0
 62
7
 10
39.52193052
 20
13.98930414
  0
VERTEX
  8
0
 62
7
 10
39.56406191
 20
14.00485419
  0
VERTEX
  8
0
 62
7
 10
39.60638216
 20
14.02038514
  0
VERTEX
  8
0
 62
7
 10
39.64864576
 20
14.03623114
  0
VERTEX
  8
0
 62
7
 10
39.69060717
 20
14.05272632
  0
VERTEX
  8
0
 62
7
 10
39.73202090
 20
14.07020481
  0
VERTEX
  8
0
 62
7
 10
39.77264141
 20
14.08900075
  0
VERTEX
  8
0
 62
7
 10
39.81222320
 20
14.10944828
  0
VERTEX
  8
0
 62
7
 10
39.79933040
 20
14.14773707
  0
VERTEX
  8
0
 62
7
 10
39.75528838
 20
14.14112436
  0
VERTEX
  8
0
 62
7
 10
39.71139745
 20
14.13256412
  0
VERTEX
  8
0
 62
7
 10
39.66765760
 20
14.12247639
  0
VERTEX
  8
0
 62
7
 10
39.62406885
 20
14.11128125
  0
VERTEX
  8
0
 62
7
 10
39.58063118
 20
14.09939874
  0
VERTEX
  8
0
 62
7
 10
39.53734460
 20
14.08724892
  0
VERTEX
  8
0
 62
7
 10
39.49420911
 20
14.07525185
  0
VERTEX
  8
0
 62
7
 10
39.45122470
 20
14.06382759
  0
VERTEX
  8
0
 62
7
 10
39.41971665
 20
14.05462771
  0
VERTEX
  8
0
 62
7
 10
39.38318494
 20
14.04307934
  0
VERTEX
  8
0
 62
7
 10
39.34431138
 20
14.03034717
  0
VERTEX
  8
0
 62
7
 10
39.30577776
 20
14.01759591
  0
VERTEX
  8
0
 62
7
 10
39.27026589
 20
14.00599025
  0
VERTEX
  8
0
 62
7
 10
39.24045758
 20
13.99669491
  0
VERTEX
  8
0
 62
7
 10
39.21903462
 20
13.99087458
  0
VERTEX
  8
0
 62
7
 10
39.20867883
 20
13.98969397
  0
VERTEX
  8
0
 62
7
 10
39.15952502
 20
14.01006034
  0
VERTEX
  8
0
 62
7
 10
39.13827204
 20
14.04936746
  0
VERTEX
  8
0
 62
7
 10
39.11278861
 20
14.08500862
  0
VERTEX
  8
0
 62
7
 10
39.12394075
 20
14.12176994
  0
VERTEX
  8
0
 62
7
 10
39.13673598
 20
14.15761476
  0
VERTEX
  8
0
 62
7
 10
39.15100431
 20
14.19269585
  0
VERTEX
  8
0
 62
7
 10
39.16657577
 20
14.22716595
  0
VERTEX
  8
0
 62
7
 10
39.18328039
 20
14.26117780
  0
VERTEX
  8
0
 62
7
 10
39.20094819
 20
14.29488416
  0
VERTEX
  8
0
 62
7
 10
39.21940920
 20
14.32843777
  0
VERTEX
  8
0
 62
7
 10
39.23849344
 20
14.36199138
  0
VERTEX
  8
0
 62
7
 10
39.26902571
 20
14.41530038
  0
VERTEX
  8
0
 62
7
 10
39.30144658
 20
14.46769289
  0
VERTEX
  8
0
 62
7
 10
39.33764464
 20
14.51733594
  0
VERTEX
  8
0
 62
7
 10
39.37950848
 20
14.56239655
  0
VERTEX
  8
0
 62
7
 10
39.39683004
 20
14.57796569
  0
VERTEX
  8
0
 62
7
 10
39.41443488
 20
14.59331526
  0
VERTEX
  8
0
 62
7
 10
39.43245522
 20
14.60814930
  0
VERTEX
  8
0
 62
7
 10
39.45102325
 20
14.62217188
  0
VERTEX
  8
0
 62
7
 10
39.47027117
 20
14.63508702
  0
VERTEX
  8
0
 62
7
 10
39.49033119
 20
14.64659880
  0
VERTEX
  8
0
 62
7
 10
39.51133551
 20
14.65641126
  0
VERTEX
  8
0
 62
7
 10
39.53341632
 20
14.66422845
  0
VERTEX
  8
0
 62
7
 10
39.56476699
 20
14.67228590
  0
VERTEX
  8
0
 62
7
 10
39.59687309
 20
14.67736476
  0
VERTEX
  8
0
 62
7
 10
39.62928137
 20
14.67831944
  0
VERTEX
  8
0
 62
7
 10
39.66153856
 20
14.67400431
  0
VERTEX
  8
0
 62
7
 10
39.68643967
 20
14.66726272
  0
VERTEX
  8
0
 62
7
 10
39.71041538
 20
14.65871680
  0
VERTEX
  8
0
 62
7
 10
39.73352233
 20
14.64847155
  0
VERTEX
  8
0
 62
7
 10
39.75581719
 20
14.63663200
  0
VERTEX
  8
0
 62
7
 10
39.77735660
 20
14.62330316
  0
VERTEX
  8
0
 62
7
 10
39.79819724
 20
14.60859005
  0
VERTEX
  8
0
 62
7
 10
39.81839576
 20
14.59259766
  0
VERTEX
  8
0
 62
7
 10
39.83800881
 20
14.57543103
  0
VERTEX
  8
0
 62
7
 10
39.85960174
 20
14.55537015
  0
VERTEX
  8
0
 62
7
 10
39.87960824
 20
14.53653125
  0
VERTEX
  8
0
 62
7
 10
39.90157889
 20
14.51860884
  0
VERTEX
  8
0
 62
7
 10
39.92906423
 20
14.50129741
  0
VERTEX
  8
0
 62
7
 10
39.94160450
 20
14.49696956
  0
VERTEX
  8
0
 62
7
 10
39.96351219
 20
14.49233621
  0
VERTEX
  8
0
 62
7
 10
39.98934816
 20
14.48892484
  0
VERTEX
  8
0
 62
7
 10
40.01367326
 20
14.48826293
  0
VERTEX
  8
0
 62
7
 10
40.01869062
 20
14.48716346
  0
VERTEX
  8
0
 62
7
 10
40.02374576
 20
14.48313315
  0
VERTEX
  8
0
 62
7
 10
40.02834763
 20
14.47690708
  0
VERTEX
  8
0
 62
7
 10
40.03200521
 20
14.46922037
  0
VERTEX
  8
0
 62
7
 10
40.03422746
 20
14.46080810
  0
VERTEX
  8
0
 62
7
 10
40.03452334
 20
14.45240537
  0
VERTEX
  8
0
 62
7
 10
40.03240182
 20
14.44474730
  0
VERTEX
  8
0
 62
7
 10
40.02737186
 20
14.43856897
  0
VERTEX
  8
0
 62
7
 10
40.01083722
 20
14.42692990
  0
VERTEX
  8
0
 62
7
 10
39.99571902
 20
14.41404021
  0
VERTEX
  8
0
 62
7
 10
39.98207393
 20
14.39994763
  0
VERTEX
  8
0
 62
7
 10
39.96995859
 20
14.38469989
  0
VERTEX
  8
0
 62
7
 10
39.95942968
 20
14.36834473
  0
VERTEX
  8
0
 62
7
 10
39.95054385
 20
14.35092989
  0
VERTEX
  8
0
 62
7
 10
39.94335774
 20
14.33250309
  0
VERTEX
  8
0
 62
7
 10
39.93792804
 20
14.31311207
  0
VERTEX
  8
0
 62
7
 10
39.93128018
 20
14.27896020
  0
VERTEX
  8
0
 62
7
 10
39.93128018
 20
14.24763416
  0
VERTEX
  8
0
 62
7
 10
39.93702151
 20
14.21584988
  0
VERTEX
  8
0
 62
7
 10
39.94759764
 20
14.18032328
  0
SEQEND
  0
POLYLINE
  8
0
 62
7
 66
1
 70
1
  0
VERTEX
  8
0
 62
7
 10
39.50086123
 20
12.78631897
  0
VERTEX
  8
0
 62
7
 10
39.48481290
 20
12.77427893
  0
VERTEX
  8
0
 62
7
 10
39.46992605
 20
12.76240120
  0
VERTEX
  8
0
 62
7
 10
39.45622902
 20
12.75038981
  0
VERTEX
  8
0
 62
7
 10
39.44375013
 20
12.73794881
  0
VERTEX
  8
0
 62
7
 10
39.43251772
 20
12.72478227
  0
VERTEX
  8
0
 62
7
 10
39.42256011
 20
12.71059422
  0
VERTEX
  8
0
 62
7
 10
39.41390562
 20
12.69508872
  0
VERTEX
  8
0
 62
7
 10
39.40658260
 20
12.67796983
  0
VERTEX
  8
0
 62
7
 10
39.39944057
 20
12.65915957
  0
VERTEX
  8
0
 62
7
 10
39.39431933
 20
12.64006290
  0
VERTEX
  8
0
 62
7
 10
39.39120000
 20
12.62077531
  0
VERTEX
  8
0
 62
7
 10
39.39006369
 20
12.60139224
  0
VERTEX
  8
0
 62
7
 10
39.39089153
 20
12.58200918
  0
VERTEX
  8
0
 62
7
 10
39.39366461
 20
12.56272158
  0
VERTEX
  8
0
 62
7
 10
39.39836407
 20
12.54362492
  0
VERTEX
  8
0
 62
7
 10
39.40497100
 20
12.52481466
  0
VERTEX
  8
0
 62
7
 10
39.40548564
 20
12.51673016
  0
VERTEX
  8
0
 62
7
 10
39.40274246
 20
12.50917073
  0
VERTEX
  8
0
 62
7
 10
39.39756299
 20
12.50243232
  0
VERTEX
  8
0
 62
7
 10
39.39076877
 20
12.49681088
  0
VERTEX
  8
0
 62
7
 10
39.38318134
 20
12.49260236
  0
VERTEX
  8
0
 62
7
 10
39.37562224
 20
12.49010271
  0
VERTEX
  8
0
 62
7
 10
39.36891301
 20
12.48960787
  0
VERTEX
  8
0
 62
7
 10
39.36387519
 20
12.49141379
  0
VERTEX
  8
0
 62
7
 10
39.34423381
 20
12.50544114
  0
VERTEX
  8
0
 62
7
 10
39.32157068
 20
12.51809375
  0
VERTEX
  8
0
 62
7
 10
39.30132494
 20
12.52738591
  0
VERTEX
  8
0
 62
7
 10
39.28893577
 20
12.53133190
  0
VERTEX
  8
0
 62
7
 10
39.25638899
 20
12.53329216
  0
VERTEX
  8
0
 62
7
 10
39.22799712
 20
12.53173922
  0
VERTEX
  8
0
 62
7
 10
39.20066287
 20
12.52835331
  0
VERTEX
  8
0
 62
7
 10
39.17128893
 20
12.52481466
  0
VERTEX
  8
0
 62
7
 10
39.14564654
 20
12.52238819
  0
VERTEX
  8
0
 62
7
 10
39.12010803
 20
12.52128873
  0
VERTEX
  8
0
 62
7
 10
39.09470171
 20
12.52162127
  0
VERTEX
  8
0
 62
7
 10
39.06945593
 20
12.52349084
  0
VERTEX
  8
0
 62
7
 10
39.04439901
 20
12.52700245
  0
VERTEX
  8
0
 62
7
 10
39.01955927
 20
12.53226111
  0
VERTEX
  8
0
 62
7
 10
38.99496505
 20
12.53937184
  0
VERTEX
  8
0
 62
7
 10
38.97064468
 20
12.54843966
  0
VERTEX
  8
0
 62
7
 10
38.94237872
 20
12.56395629
  0
VERTEX
  8
0
 62
7
 10
38.91675679
 20
12.58397899
  0
VERTEX
  8
0
 62
7
 10
38.89370335
 20
12.60720939
  0
VERTEX
  8
0
 62
7
 10
38.87314285
 20
12.63234914
  0
VERTEX
  8
0
 62
7
 10
38.85973068
 20
12.65156514
  0
VERTEX
  8
0
 62
7
 10
38.84833931
 20
12.67182173
  0
VERTEX
  8
0
 62
7
 10
38.83872322
 20
12.69293753
  0
VERTEX
  8
0
 62
7
 10
38.83063689
 20
12.71473114
  0
VERTEX
  8
0
 62
7
 10
38.82383480
 20
12.73702119
  0
VERTEX
  8
0
 62
7
 10
38.81807144
 20
12.75962628
  0
VERTEX
  8
0
 62
7
 10
38.81310129
 20
12.78236502
  0
VERTEX
  8
0
 62
7
 10
38.80867883
 20
12.80505603
  0
VERTEX
  8
0
 62
7
 10
38.80379367
 20
12.83540671
  0
VERTEX
  8
0
 62
7
 10
38.80102373
 20
12.86593878
  0
VERTEX
  8
0
 62
7
 10
38.80006684
 20
12.89660450
  0
VERTEX
  8
0
 62
7
 10
38.80062083
 20
12.92735614
  0
VERTEX
  8
0
 62
7
 10
38.80238352
 20
12.95814597
  0
VERTEX
  8
0
 62
7
 10
38.80505273
 20
12.98892625
  0
VERTEX
  8
0
 62
7
 10
38.80832629
 20
13.01964925
  0
VERTEX
  8
0
 62
7
 10
38.81190203
 20
13.05026724
  0
VERTEX
  8
0
 62
7
 10
38.81601917
 20
13.08857195
  0
VERTEX
  8
0
 62
7
 10
38.82066511
 20
13.12651387
  0
VERTEX
  8
0
 62
7
 10
38.82606649
 20
13.16411212
  0
VERTEX
  8
0
 62
7
 10
38.83244994
 20
13.20138578
  0
VERTEX
  8
0
 62
7
 10
38.84004209
 20
13.23835394
  0
VERTEX
  8
0
 62
7
 10
38.84906957
 20
13.27503570
  0
VERTEX
  8
0
 62
7
 10
38.85975901
 20
13.31145014
  0
VERTEX
  8
0
 62
7
 10
38.87233705
 20
13.34761638
  0
VERTEX
  8
0
 62
7
 10
38.91433939
 20
13.36146552
  0
VERTEX
  8
0
 62
7
 10
38.95452867
 20
13.38020259
  0
VERTEX
  8
0
 62
7
 10
39.00609989
 20
13.36879741
  0
VERTEX
  8
0
 62
7
 10
39.02786908
 20
13.34433230
  0
VERTEX
  8
0
 62
7
 10
39.06844868
 20
13.28916487
  0
VERTEX
  8
0
 62
7
 10
39.11612939
 20
13.22330509
  0
VERTEX
  8
0
 62
7
 10
39.15920193
 20
13.16676293
  0
VERTEX
  8
0
 62
7
 10
39.21529318
 20
13.09661348
  0
VERTEX
  8
0
 62
7
 10
39.27130889
 20
13.02592942
  0
VERTEX
  8
0
 62
7
 10
39.32928873
 20
12.95723107
  0
VERTEX
  8
0
 62
7
 10
39.39127240
 20
12.89303879
  0
VERTEX
  8
0
 62
7
 10
39.42350440
 20
12.91666379
  0
VERTEX
  8
0
 62
7
 10
39.40370564
 20
12.95658826
  0
VERTEX
  8
0
 62
7
 10
39.38205605
 20
12.99578718
  0
VERTEX
  8
0
 62
7
 10
39.35897114
 20
13.03437510
  0
VERTEX
  8
0
 62
7
 10
39.33486638
 20
13.07246659
  0
VERTEX
  8
0
 62
7
 10
39.31015727
 20
13.11017622
  0
VERTEX
  8
0
 62
7
 10
39.28525930
 20
13.14761853
  0
VERTEX
  8
0
 62
7
 10
39.26058797
 20
13.18490810
  0
VERTEX
  8
0
 62
7
 10
39.23655875
 20
13.22215948
  0
VERTEX
  8
0
 62
7
 10
39.21803007
 20
13.24932951
  0
VERTEX
  8
0
 62
7
 10
39.19575252
 20
13.28050916
  0
VERTEX
  8
0
 62
7
 10
39.17164305
 20
13.31352179
  0
VERTEX
  8
0
 62
7
 10
39.14761855
 20
13.34619073
  0
VERTEX
  8
0
 62
7
 10
39.12559597
 20
13.37633934
  0
VERTEX
  8
0
 62
7
 10
39.10749222
 20
13.40179095
  0
VERTEX
  8
0
 62
7
 10
39.09522423
 20
13.42036890
  0
VERTEX
  8
0
 62
7
 10
39.09070891
 20
13.42989655
  0
VERTEX
  8
0
 62
7
 10
39.09554371
 20
13.48284914
  0
VERTEX
  8
0
 62
7
 10
39.12586195
 20
13.51543534
  0
VERTEX
  8
0
 62
7
 10
39.15194973
 20
13.55046552
  0
VERTEX
  8
0
 62
7
 10
39.19041567
 20
13.55130086
  0
VERTEX
  8
0
 62
7
 10
39.22851334
 20
13.55027458
  0
VERTEX
  8
0
 62
7
 10
39.26632772
 20
13.54758718
  0
VERTEX
  8
0
 62
7
 10
39.30394380
 20
13.54343912
  0
VERTEX
  8
0
 62
7
 10
39.34144656
 20
13.53803089
  0
VERTEX
  8
0
 62
7
 10
39.37892099
 20
13.53156297
  0
VERTEX
  8
0
 62
7
 10
39.41645208
 20
13.52423585
  0
VERTEX
  8
0
 62
7
 10
39.45412481
 20
13.51625000
  0
VERTEX
  8
0
 62
7
 10
39.48412985
 20
13.51012895
  0
VERTEX
  8
0
 62
7
 10
39.51421988
 20
13.50378832
  0
VERTEX
  8
0
 62
7
 10
39.54425325
 20
13.49693217
  0
VERTEX
  8
0
 62
7
 10
39.57408832
 20
13.48926455
  0
VERTEX
  8
0
 62
7
 10
39.60358344
 20
13.48048950
  0
VERTEX
  8
0
 62
7
 10
39.63259697
 20
13.47031109
  0
VERTEX
  8
0
 62
7
 10
39.66098727
 20
13.45843335
  0
VERTEX
  8
0
 62
7
 10
39.68861268
 20
13.44456034
  0
VERTEX
  8
0
 62
7
 10
39.70862548
 20
13.43287513
  0
VERTEX
  8
0
 62
7
 10
39.72860051
 20
13.42088443
  0
VERTEX
  8
0
 62
7
 10
39.74827337
 20
13.40835911
  0
VERTEX
  8
0
 62
7
 10
39.76737965
 20
13.39507004
  0
VERTEX
  8
0
 62
7
 10
39.78565495
 20
13.38078812
  0
VERTEX
  8
0
 62
7
 10
39.80283486
 20
13.36528421
  0
VERTEX
  8
0
 62
7
 10
39.81865498
 20
13.34832920
  0
VERTEX
  8
0
 62
7
 10
39.83285092
 20
13.32969397
  0
VERTEX
  8
0
 62
7
 10
39.85016303
 20
13.30205933
  0
VERTEX
  8
0
 62
7
 10
39.86498220
 20
13.27297360
  0
VERTEX
  8
0
 62
7
 10
39.87602418
 20
13.24251313
  0
VERTEX
  8
0
 62
7
 10
39.88200473
 20
13.21075431
  0
VERTEX
  8
0
 62
7
 10
39.88311743
 20
13.18497175
  0
VERTEX
  8
0
 62
7
 10
39.88229432
 20
13.15953287
  0
VERTEX
  8
0
 62
7
 10
39.87963927
 20
13.13439948
  0
VERTEX
  8
0
 62
7
 10
39.87525616
 20
13.10953341
  0
VERTEX
  8
0
 62
7
 10
39.86924885
 20
13.08489645
  0
VERTEX
  8
0
 62
7
 10
39.86172123
 20
13.06045043
  0
VERTEX
  8
0
 62
7
 10
39.85277716
 20
13.03615716
  0
VERTEX
  8
0
 62
7
 10
39.84252052
 20
13.01197845
  0
VERTEX
  8
0
 62
7
 10
39.82995507
 20
12.98541305
  0
VERTEX
  8
0
 62
7
 10
39.81814506
 20
12.96075700
  0
VERTEX
  8
0
 62
7
 10
39.80784593
 20
12.93442073
  0
VERTEX
  8
0
 62
7
 10
39.79981311
 20
12.90281466
  0
VERTEX
  8
0
 62
7
 10
39.79981311
 20
12.88969107
  0
VERTEX
  8
0
 62
7
 10
39.80223051
 20
12.86747899
  0
VERTEX
  8
0
 62
7
 10
39.80706531
 20
12.84175370
  0
VERTEX
  8
0
 62
7
 10
39.81431751
 20
12.81809052
  0
VERTEX
  8
0
 62
7
 10
39.81459608
 20
12.81308962
  0
VERTEX
  8
0
 62
7
 10
39.81216452
 20
12.80710540
  0
VERTEX
  8
0
 62
7
 10
39.80756107
 20
12.80083478
  0
VERTEX
  8
0
 62
7
 10
39.80132398
 20
12.79497468
  0
VERTEX
  8
0
 62
7
 10
39.79399152
 20
12.79022199
  0
VERTEX
  8
0
 62
7
 10
39.78610191
 20
12.78727364
  0
VERTEX
  8
0
 62
7
 10
39.77819343
 20
12.78682653
  0
VERTEX
  8
0
 62
7
 10
39.77080430
 20
12.78957759
  0
VERTEX
  8
0
 62
7
 10
39.75468672
 20
12.80183083
  0
VERTEX
  8
0
 62
7
 10
39.73780426
 20
12.81229883
  0
VERTEX
  8
0
 62
7
 10
39.72022302
 20
12.82095295
  0
VERTEX
  8
0
 62
7
 10
39.70200911
 20
12.82776455
  0
VERTEX
  8
0
 62
7
 10
39.68322861
 20
12.83270499
  0
VERTEX
  8
0
 62
7
 10
39.66394764
 20
12.83574562
  0
VERTEX
  8
0
 62
7
 10
39.64423229
 20
12.83685782
  0
VERTEX
  8
0
 62
7
 10
39.62414866
 20
12.83601293
  0
VERTEX
  8
0
 62
7
 10
39.58958738
 20
12.83202876
  0
VERTEX
  8
0
 62
7
 10
39.55978537
 20
12.82246929
  0
VERTEX
  8
0
 62
7
 10
39.53134314
 20
12.80725815
  0
VERTEX
  8
0
 62
7
 10
39.50086123
 20
12.78631897
  0
SEQEND
  0
POLYLINE
  8
0
 62
7
 66
1
 70
1
  0
VERTEX
  8
0
 62
7
 10
38.03661418
 20
12.77998707
  0
VERTEX
  8
0
 62
7
 10
38.02006222
 20
12.79142406
  0
VERTEX
  8
0
 62
7
 10
38.00406740
 20
12.80183001
  0
VERTEX
  8
0
 62
7
 10
37.98835587
 20
12.81109035
  0
VERTEX
  8
0
 62
7
 10
37.97265378
 20
12.81909052
  0
VERTEX
  8
0
 62
7
 10
37.95668729
 20
12.82571596
  0
VERTEX
  8
0
 62
7
 10
37.94018255
 20
12.83085210
  0
VERTEX
  8
0
 62
7
 10
37.92286572
 20
12.83438440
  0
VERTEX
  8
0
 62
7
 10
37.90446294
 20
12.83619828
  0
VERTEX
  8
0
 62
7
 10
37.88434626
 20
12.83704475
  0
VERTEX
  8
0
 62
7
 10
37.86455065
 20
12.83594370
  0
VERTEX
  8
0
 62
7
 10
37.84517052
 20
12.83293329
  0
VERTEX
  8
0
 62
7
 10
37.82630032
 20
12.82805172
  0
VERTEX
  8
0
 62
7
 10
37.80803446
 20
12.82133718
  0
VERTEX
  8
0
 62
7
 10
37.79046739
 20
12.81282786
  0
VERTEX
  8
0
 62
7
 10
37.77369353
 20
12.80256193
  0
VERTEX
  8
0
 62
7
 10
37.75780730
 20
12.79057759
  0
VERTEX
  8
0
 62
7
 10
37.75038355
 20
12.78755923
  0
VERTEX
  8
0
 62
7
 10
37.74238378
 20
12.78781540
  0
VERTEX
  8
0
 62
7
 10
37.73436512
 20
12.79064919
  0
VERTEX
  8
0
 62
7
 10
37.72688472
 20
12.79536369
  0
VERTEX
  8
0
 62
7
 10
37.72049969
 20
12.80126198
  0
VERTEX
  8
0
 62
7
 10
37.71576719
 20
12.80764716
  0
VERTEX
  8
0
 62
7
 10
37.71324434
 20
12.81382231
  0
VERTEX
  8
0
 62
7
 10
37.71348829
 20
12.81909052
  0
VERTEX
  8
0
 62
7
 10
37.72085380
 20
12.84193905
  0
VERTEX
  8
0
 62
7
 10
37.72587747
 20
12.86746067
  0
VERTEX
  8
0
 62
7
 10
37.72833264
 20
12.88977458
  0
VERTEX
  8
0
 62
7
 10
37.72799269
 20
12.90300000
  0
VERTEX
  8
0
 62
7
 10
37.72008578
 20
12.93426239
  0
VERTEX
  8
0
 62
7
 10
37.71006364
 20
12.96063685
  0
VERTEX
  8
0
 62
7
 10
37.69853062
 20
12.98548384
  0
VERTEX
  8
0
 62
7
 10
37.68609108
 20
13.01216379
  0
VERTEX
  8
0
 62
7
 10
37.67583444
 20
13.03584130
  0
VERTEX
  8
0
 62
7
 10
37.66689037
 20
13.05983385
  0
VERTEX
  8
0
 62
7
 10
37.65936275
 20
13.08415099
  0
VERTEX
  8
0
 62
7
 10
37.65335545
 20
13.10880226
  0
VERTEX
  8
0
 62
7
 10
37.64897233
 20
13.13379722
  0
VERTEX
  8
0
 62
7
 10
37.64631728
 20
13.15914541
  0
VERTEX
  8
0
 62
7
 10
37.64549417
 20
13.18485637
  0
VERTEX
  8
0
 62
7
 10
37.64660687
 20
13.21093966
  0
VERTEX
  8
0
 62
7
 10
37.65258742
 20
13.24234207
  0
VERTEX
  8
0
 62
7
 10
37.66362940
 20
13.27275162
  0
VERTEX
  8
0
 62
7
 10
37.67844857
 20
13.30178644
  0
VERTEX
  8
0
 62
7
 10
37.69576068
 20
13.32906466
  0
VERTEX
  8
0
 62
7
 10
37.70995662
 20
13.34776672
  0
VERTEX
  8
0
 62
7
 10
37.72577674
 20
13.36488402
  0
VERTEX
  8
0
 62
7
 10
37.74295665
 20
13.38058841
  0
VERTEX
  8
0
 62
7
 10
37.76123195
 20
13.39505172
  0
VERTEX
  8
0
 62
7
 10
37.78033823
 20
13.40844580
  0
VERTEX
  8
0
 62
7
 10
37.80001109
 20
13.42094248
  0
VERTEX
  8
0
 62
7
 10
37.81998612
 20
13.43271361
  0
VERTEX
  8
0
 62
7
 10
37.83999892
 20
13.44393103
  0
VERTEX
  8
0
 62
7
 10
37.86735993
 20
13.45787246
  0
VERTEX
  8
0
 62
7
 10
37.89556137
 20
13.46992363
  0
VERTEX
  8
0
 62
7
 10
37.92446158
 20
13.48033276
  0
VERTEX
  8
0
 62
7
 10
37.95391893
 20
13.48934806
  0
VERTEX
  8
0
 62
7
 10
37.98379177
 20
13.49721776
  0
VERTEX
  8
0
 62
7
 10
38.01393846
 20
13.50419006
  0
VERTEX
  8
0
 62
7
 10
38.04421734
 20
13.51051318
  0
VERTEX
  8
0
 62
7
 10
38.07448679
 20
13.51643534
  0
VERTEX
  8
0
 62
7
 10
38.11215795
 20
13.52442278
  0
VERTEX
  8
0
 62
7
 10
38.14967802
 20
13.53176105
  0
VERTEX
  8
0
 62
7
 10
38.18712255
 20
13.53825919
  0
VERTEX
  8
0
 62
7
 10
38.22456708
 20
13.54372629
  0
VERTEX
  8
0
 62
7
 10
38.26208715
 20
13.54797141
  0
VERTEX
  8
0
 62
7
 10
38.29975831
 20
13.55080361
  0
VERTEX
  8
0
 62
7
 10
38.33765611
 20
13.55203196
  0
VERTEX
  8
0
 62
7
 10
38.37585607
 20
13.55146552
  0
VERTEX
  8
0
 62
7
 10
38.40194385
 20
13.51541703
  0
VERTEX
  8
0
 62
7
 10
38.43226209
 20
13.48303448
  0
VERTEX
  8
0
 62
7
 10
38.43709689
 20
13.43008190
  0
VERTEX
  8
0
 62
7
 10
38.43284913
 20
13.42055425
  0
VERTEX
  8
0
 62
7
 10
38.42079203
 20
13.40197629
  0
VERTEX
  8
0
 62
7
 10
38.40286140
 20
13.37652468
  0
VERTEX
  8
0
 62
7
 10
38.38099305
 20
13.34637608
  0
VERTEX
  8
0
 62
7
 10
38.35712279
 20
13.31370713
  0
VERTEX
  8
0
 62
7
 10
38.33318643
 20
13.28069450
  0
VERTEX
  8
0
 62
7
 10
38.31111978
 20
13.24951485
  0
VERTEX
  8
0
 62
7
 10
38.29285865
 20
13.22234483
  0
VERTEX
  8
0
 62
7
 10
38.26833053
 20
13.18485955
  0
VERTEX
  8
0
 62
7
 10
38.24333971
 20
13.14746020
  0
VERTEX
  8
0
 62
7
 10
38.21825445
 20
13.11000356
  0
VERTEX
  8
0
 62
7
 10
38.19344305
 20
13.07234644
  0
VERTEX
  8
0
 62
7
 10
38.16927376
 20
13.03434564
  0
VERTEX
  8
0
 62
7
 10
38.14611487
 20
12.99585796
  0
VERTEX
  8
0
 62
7
 10
38.12433466
 20
12.95674019
  0
VERTEX
  8
0
 62
7
 10
38.10430140
 20
12.91684914
  0
VERTEX
  8
0
 62
7
 10
38.13653341
 20
12.89403879
  0
VERTEX
  8
0
 62
7
 10
38.19909624
 20
12.95786193
  0
VERTEX
  8
0
 62
7
 10
38.25750416
 20
13.02642026
  0
VERTEX
  8
0
 62
7
 10
38.31364578
 20
13.09681156
  0
VERTEX
  8
0
 62
7
 10
38.36940967
 20
13.16613362
  0
VERTEX
  8
0
 62
7
 10
38.41212967
 20
13.22280307
  0
VERTEX
  8
0
 62
7
 10
38.45976002
 20
13.28894289
  0
VERTEX
  8
0
 62
7
 10
38.50028925
 20
13.34439036
  0
VERTEX
  8
0
 62
7
 10
38.52170591
 20
13.36898276
  0
VERTEX
  8
0
 62
7
 10
38.57327713
 20
13.38038793
  0
VERTEX
  8
0
 62
7
 10
38.61407076
 20
13.36165086
  0
VERTEX
  8
0
 62
7
 10
38.65546875
 20
13.34780172
  0
VERTEX
  8
0
 62
7
 10
38.66807984
 20
13.31160048
  0
VERTEX
  8
0
 62
7
 10
38.67884955
 20
13.27509375
  0
VERTEX
  8
0
 62
7
 10
38.68797618
 20
13.23828152
  0
VERTEX
  8
0
 62
7
 10
38.69565804
 20
13.20116379
  0
VERTEX
  8
0
 62
7
 10
38.70209342
 20
13.16374057
  0
VERTEX
  8
0
 62
7
 10
38.70748064
 20
13.12601185
  0
VERTEX
  8
0
 62
7
 10
38.71201798
 20
13.08797764
  0
VERTEX
  8
0
 62
7
 10
38.71590377
 20
13.04963793
  0
VERTEX
  8
0
 62
7
 10
38.71951570
 20
13.01928725
  0
VERTEX
  8
0
 62
7
 10
38.72289157
 20
12.98875519
  0
VERTEX
  8
0
 62
7
 10
38.72571974
 20
12.95808946
  0
VERTEX
  8
0
 62
7
 10
38.72768860
 20
12.92733782
  0
VERTEX
  8
0
 62
7
 10
38.72848653
 20
12.89654799
  0
VERTEX
  8
0
 62
7
 10
38.72780191
 20
12.86576771
  0
VERTEX
  8
0
 62
7
 10
38.72532313
 20
12.83504471
  0
VERTEX
  8
0
 62
7
 10
38.72073857
 20
12.80442672
  0
VERTEX
  8
0
 62
7
 10
38.71558743
 20
12.78200302
  0
VERTEX
  8
0
 62
7
 10
38.71020021
 20
12.75945521
  0
VERTEX
  8
0
 62
7
 10
38.70426530
 20
12.73696468
  0
VERTEX
  8
0
 62
7
 10
38.69747109
 20
12.71471282
  0
VERTEX
  8
0
 62
7
 10
38.68950594
 20
12.69288102
  0
VERTEX
  8
0
 62
7
 10
38.68005825
 20
12.67165066
  0
VERTEX
  8
0
 62
7
 10
38.66881639
 20
12.65120313
  0
VERTEX
  8
0
 62
7
 10
38.65546875
 20
12.63171983
  0
VERTEX
  8
0
 62
7
 10
38.63456831
 20
12.60705105
  0
VERTEX
  8
0
 62
7
 10
38.61155264
 20
12.58406250
  0
VERTEX
  8
0
 62
7
 10
38.58611957
 20
12.56412891
  0
VERTEX
  8
0
 62
7
 10
38.55796692
 20
12.54862500
  0
VERTEX
  8
0
 62
7
 10
38.53367803
 20
12.53955719
  0
VERTEX
  8
0
 62
7
 10
38.50915306
 20
12.53244646
  0
VERTEX
  8
0
 62
7
 10
38.48438257
 20
12.52718779
  0
VERTEX
  8
0
 62
7
 10
38.45935712
 20
12.52367619
  0
VERTEX
  8
0
 62
7
 10
38.43406727
 20
12.52180662
  0
VERTEX
  8
0
 62
7
 10
38.40850357
 20
12.52147407
  0
VERTEX
  8
0
 62
7
 10
38.38265659
 20
12.52257354
  0
VERTEX
  8
0
 62
7
 10
38.35651687
 20
12.52500000
  0
VERTEX
  8
0
 62
7
 10
38.32726884
 20
12.52865322
  0
VERTEX
  8
0
 62
7
 10
38.30021158
 20
12.53223006
  0
VERTEX
  8
0
 62
7
 10
38.27209670
 20
12.53382119
  0
VERTEX
  8
0
 62
7
 10
38.23967583
 20
12.53151724
  0
VERTEX
  8
0
 62
7
 10
38.22726147
 20
12.52768582
  0
VERTEX
  8
0
 62
7
 10
38.20683947
 20
12.51858459
  0
VERTEX
  8
0
 62
7
 10
38.18369790
 20
12.50597016
  0
VERTEX
  8
0
 62
7
 10
38.16312481
 20
12.49159914
  0
VERTEX
  8
0
 62
7
 10
38.15861737
 20
12.48979162
  0
VERTEX
  8
0
 62
7
 10
38.15229687
 20
12.49027532
  0
VERTEX
  8
0
 62
7
 10
38.14499431
 20
12.49274475
  0
VERTEX
  8
0
 62
7
 10
38.13754066
 20
12.49689440
  0
VERTEX
  8
0
 62
7
 10
38.13076690
 20
12.50241878
  0
VERTEX
  8
0
 62
7
 10
38.12550401
 20
12.50901239
  0
VERTEX
  8
0
 62
7
 10
38.12258299
 20
12.51636975
  0
VERTEX
  8
0
 62
7
 10
38.12283480
 20
12.52418534
  0
VERTEX
  8
0
 62
7
 10
38.12944331
 20
12.54326451
  0
VERTEX
  8
0
 62
7
 10
38.13415378
 20
12.56256324
  0
VERTEX
  8
0
 62
7
 10
38.13695677
 20
12.58199563
  0
VERTEX
  8
0
 62
7
 10
38.13784283
 20
12.60147575
  0
VERTEX
  8
0
 62
7
 10
38.13680253
 20
12.62091769
  0
VERTEX
  8
0
 62
7
 10
38.13382642
 20
12.64023552
  0
VERTEX
  8
0
 62
7
 10
38.12890506
 20
12.65934332
  0
VERTEX
  8
0
 62
7
 10
38.12202900
 20
12.67815517
  0
VERTEX
  8
0
 62
7
 10
38.10732315
 20
12.70953213
  0
VERTEX
  8
0
 62
7
 10
38.08899119
 20
12.73487554
  0
VERTEX
  8
0
 62
7
 10
38.06582444
 20
12.75731674
  0
VERTEX
  8
0
 62
7
 10
38.03661418
 20
12.77998707
  0
SEQEND
  0
POLYLINE
  8
0
 62
7
 66
1
 70
1
  0
VERTEX
  8
0
 62
7
 10
37.32400000
 20
13.84700000
  0
VERTEX
  8
0
 62
7
 10
37.15812500
 20
13.81075000
  0
VERTEX
  8
0
 62
7
 10
36.99000000
 20
13.77900000
  0
VERTEX
  8
0
 62
7
 10
36.87640625
 20
13.76146875
  0
VERTEX
  8
0
 62
7
 10
36.76225000
 20
13.74825000
  0
VERTEX
  8
0
 62
7
 10
36.64771875
 20
13.73765625
  0
VERTEX
  8
0
 62
7
 10
36.53300000
 20
13.72800000
  0
VERTEX
  8
0
 62
7
 10
36.52500000
 20
13.78100000
  0
VERTEX
  8
0
 62
7
 10
36.63790625
 20
13.79204688
  0
VERTEX
  8
0
 62
7
 10
36.75025000
 20
13.80562500
  0
VERTEX
  8
0
 62
7
 10
36.86221875
 20
13.82164063
  0
VERTEX
  8
0
 62
7
 10
36.97400000
 20
13.84000000
  0
VERTEX
  8
0
 62
7
 10
37.12100000
 20
13.86912500
  0
VERTEX
  8
0
 62
7
 10
37.26800000
 20
13.90200000
  0
VERTEX
  8
0
 62
7
 10
37.25312500
 20
13.92578125
  0
VERTEX
  8
0
 62
7
 10
37.24575000
 20
13.94825000
  0
VERTEX
  8
0
 62
7
 10
37.24325000
 20
13.96584375
  0
VERTEX
  8
0
 62
7
 10
37.24300000
 20
13.97500000
  0
VERTEX
  8
0
 62
7
 10
37.24700000
 20
14.01000000
  0
VERTEX
  8
0
 62
7
 10
37.24960742
 20
14.01847070
  0
VERTEX
  8
0
 62
7
 10
37.25473438
 20
14.03145313
  0
VERTEX
  8
0
 62
7
 10
37.26283789
 20
14.04717773
  0
VERTEX
  8
0
 62
7
 10
37.27437500
 20
14.06387500
  0
VERTEX
  8
0
 62
7
 10
37.28980273
 20
14.07977539
  0
VERTEX
  8
0
 62
7
 10
37.30957813
 20
14.09310938
  0
VERTEX
  8
0
 62
7
 10
37.33415820
 20
14.10210742
  0
VERTEX
  8
0
 62
7
 10
37.36400000
 20
14.10500000
  0
VERTEX
  8
0
 62
7
 10
37.36900000
 20
14.10500000
  0
VERTEX
  8
0
 62
7
 10
37.39115625
 20
14.10667188
  0
VERTEX
  8
0
 62
7
 10
37.41125000
 20
14.11162500
  0
VERTEX
  8
0
 62
7
 10
37.42946875
 20
14.11976563
  0
VERTEX
  8
0
 62
7
 10
37.44600000
 20
14.13100000
  0
VERTEX
  8
0
 62
7
 10
37.45959375
 20
14.14375000
  0
VERTEX
  8
0
 62
7
 10
37.47000000
 20
14.15725000
  0
VERTEX
  8
0
 62
7
 10
37.47890625
 20
14.17487500
  0
VERTEX
  8
0
 62
7
 10
37.48800000
 20
14.20000000
  0
VERTEX
  8
0
 62
7
 10
37.49750000
 20
14.23712500
  0
VERTEX
  8
0
 62
7
 10
37.50100000
 20
14.26300000
  0
VERTEX
  8
0
 62
7
 10
37.45719531
 20
14.29034961
  0
VERTEX
  8
0
 62
7
 10
37.41137500
 20
14.31454688
  0
VERTEX
  8
0
 62
7
 10
37.36367969
 20
14.33543945
  0
VERTEX
  8
0
 62
7
 10
37.31425000
 20
14.35287500
  0
VERTEX
  8
0
 62
7
 10
37.26322656
 20
14.36670117
  0
VERTEX
  8
0
 62
7
 10
37.21075000
 20
14.37676563
  0
VERTEX
  8
0
 62
7
 10
37.15696094
 20
14.38291602
  0
VERTEX
  8
0
 62
7
 10
37.10200000
 20
14.38500000
  0
VERTEX
  8
0
 62
7
 10
37.05051709
 20
14.38316968
  0
VERTEX
  8
0
 62
7
 10
37.00002734
 20
14.37776367
  0
VERTEX
  8
0
 62
7
 10
36.95065674
 20
14.36890942
  0
VERTEX
  8
0
 62
7
 10
36.90253125
 20
14.35673438
  0
VERTEX
  8
0
 62
7
 10
36.85577686
 20
14.34136597
  0
VERTEX
  8
0
 62
7
 10
36.81051953
 20
14.32293164
  0
VERTEX
  8
0
 62
7
 10
36.76688525
 20
14.30155884
  0
VERTEX
  8
0
 62
7
 10
36.72500000
 20
14.27737500
  0
VERTEX
  8
0
 62
7
 10
36.68498975
 20
14.25050757
  0
VERTEX
  8
0
 62
7
 10
36.64698047
 20
14.22108398
  0
VERTEX
  8
0
 62
7
 10
36.61109814
 20
14.18923169
  0
VERTEX
  8
0
 62
7
 10
36.57746875
 20
14.15507813
  0
VERTEX
  8
0
 62
7
 10
36.54621826
 20
14.11875073
  0
VERTEX
  8
0
 62
7
 10
36.51747266
 20
14.08037695
  0
VERTEX
  8
0
 62
7
 10
36.49135791
 20
14.04008423
  0
VERTEX
  8
0
 62
7
 10
36.46800000
 20
13.99800000
  0
VERTEX
  8
0
 62
7
 10
36.44790039
 20
13.96332227
  0
VERTEX
  8
0
 62
7
 10
36.42382813
 20
13.93151563
  0
VERTEX
  8
0
 62
7
 10
36.39612305
 20
13.90291992
  0
VERTEX
  8
0
 62
7
 10
36.36512500
 20
13.87787500
  0
VERTEX
  8
0
 62
7
 10
36.33117383
 20
13.85672070
  0
VERTEX
  8
0
 62
7
 10
36.29460938
 20
13.83979688
  0
VERTEX
  8
0
 62
7
 10
36.25577148
 20
13.82744336
  0
VERTEX
  8
0
 62
7
 10
36.21500000
 20
13.82000000
  0
VERTEX
  8
0
 62
7
 10
36.24687646
 20
13.77156396
  0
VERTEX
  8
0
 62
7
 10
36.28166797
 20
13.72533984
  0
VERTEX
  8
0
 62
7
 10
36.31924268
 20
13.68145361
  0
VERTEX
  8
0
 62
7
 10
36.35946875
 20
13.64003125
  0
VERTEX
  8
0
 62
7
 10
36.40221436
 20
13.60119873
  0
VERTEX
  8
0
 62
7
 10
36.44734766
 20
13.56508203
  0
VERTEX
  8
0
 62
7
 10
36.49473682
 20
13.53180713
  0
VERTEX
  8
0
 62
7
 10
36.54425000
 20
13.50150000
  0
VERTEX
  8
0
 62
7
 10
36.59575537
 20
13.47428662
  0
VERTEX
  8
0
 62
7
 10
36.64912109
 20
13.45029297
  0
VERTEX
  8
0
 62
7
 10
36.70421533
 20
13.42964502
  0
VERTEX
  8
0
 62
7
 10
36.76090625
 20
13.41246875
  0
VERTEX
  8
0
 62
7
 10
36.81906201
 20
13.39889014
  0
VERTEX
  8
0
 62
7
 10
36.87855078
 20
13.38903516
  0
VERTEX
  8
0
 62
7
 10
36.93924072
 20
13.38302979
  0
VERTEX
  8
0
 62
7
 10
37.00100000
 20
13.38100000
  0
VERTEX
  8
0
 62
7
 10
37.06570898
 20
13.38322656
  0
VERTEX
  8
0
 62
7
 10
37.12923438
 20
13.38981250
  0
VERTEX
  8
0
 62
7
 10
37.19142383
 20
13.40061719
  0
VERTEX
  8
0
 62
7
 10
37.25212500
 20
13.41550000
  0
VERTEX
  8
0
 62
7
 10
37.31118555
 20
13.43432031
  0
VERTEX
  8
0
 62
7
 10
37.36845313
 20
13.45693750
  0
VERTEX
  8
0
 62
7
 10
37.42377539
 20
13.48321094
  0
VERTEX
  8
0
 62
7
 10
37.47700000
 20
13.51300000
  0
VERTEX
  8
0
 62
7
 10
37.44600000
 20
13.54200000
  0
VERTEX
  8
0
 62
7
 10
37.42520313
 20
13.56832422
  0
VERTEX
  8
0
 62
7
 10
37.40693750
 20
13.59546875
  0
VERTEX
  8
0
 62
7
 10
37.39101563
 20
13.62331641
  0
VERTEX
  8
0
 62
7
 10
37.37725000
 20
13.65175000
  0
VERTEX
  8
0
 62
7
 10
37.36545313
 20
13.68065234
  0
VERTEX
  8
0
 62
7
 10
37.35543750
 20
13.70990625
  0
VERTEX
  8
0
 62
7
 10
37.34701563
 20
13.73939453
  0
VERTEX
  8
0
 62
7
 10
37.34000000
 20
13.76900000
  0
VERTEX
  8
0
 62
7
 10
37.33500000
 20
13.80100000
  0
VERTEX
  8
0
 62
7
 10
37.32400000
 20
13.84700000
  0
SEQEND
  0
POLYLINE
  8
0
 62
7
 66
1
 70
1
  0
VERTEX
  8
0
 62
7
 10
37.57817916
 20
14.17010345
  0
VERTEX
  8
0
 62
7
 10
37.58388744
 20
14.18946265
  0
VERTEX
  8
0
 62
7
 10
37.58879306
 20
14.20797218
  0
VERTEX
  8
0
 62
7
 10
37.59269773
 20
14.22585164
  0
VERTEX
  8
0
 62
7
 10
37.59540314
 20
14.24332058
  0
VERTEX
  8
0
 62
7
 10
37.59671099
 20
14.26059859
  0
VERTEX
  8
0
 62
7
 10
37.59642298
 20
14.27790524
  0
VERTEX
  8
0
 62
7
 10
37.59434081
 20
14.29546010
  0
VERTEX
  8
0
 62
7
 10
37.59026616
 20
14.31348276
  0
VERTEX
  8
0
 62
7
 10
37.58483803
 20
14.33290719
  0
VERTEX
  8
0
 62
7
 10
37.57766294
 20
14.35141514
  0
VERTEX
  8
0
 62
7
 10
37.56880701
 20
14.36893023
  0
VERTEX
  8
0
 62
7
 10
37.55833633
 20
14.38537608
  0
VERTEX
  8
0
 62
7
 10
37.54631700
 20
14.40067632
  0
VERTEX
  8
0
 62
7
 10
37.53281513
 20
14.41475458
  0
VERTEX
  8
0
 62
7
 10
37.51789680
 20
14.42753448
  0
VERTEX
  8
0
 62
7
 10
37.50162814
 20
14.43893966
  0
VERTEX
  8
0
 62
7
 10
37.49659818
 20
14.44511958
  0
VERTEX
  8
0
 62
7
 10
37.49447666
 20
14.45278879
  0
VERTEX
  8
0
 62
7
 10
37.49477254
 20
14.46122175
  0
VERTEX
  8
0
 62
7
 10
37.49699479
 20
14.46969289
  0
VERTEX
  8
0
 62
7
 10
37.50065237
 20
14.47747666
  0
VERTEX
  8
0
 62
7
 10
37.50525424
 20
14.48384752
  0
VERTEX
  8
0
 62
7
 10
37.51030938
 20
14.48807991
  0
VERTEX
  8
0
 62
7
 10
37.51532674
 20
14.48944828
  0
VERTEX
  8
0
 62
7
 10
37.53929930
 20
14.48963921
  0
VERTEX
  8
0
 62
7
 10
37.56508491
 20
14.49280873
  0
VERTEX
  8
0
 62
7
 10
37.58694224
 20
14.49735298
  0
VERTEX
  8
0
 62
7
 10
37.59912997
 20
14.50166810
  0
VERTEX
  8
0
 62
7
 10
37.62672862
 20
14.51886496
  0
VERTEX
  8
0
 62
7
 10
37.64888813
 20
14.53659644
  0
VERTEX
  8
0
 62
7
 10
37.66893241
 20
14.55539716
  0
VERTEX
  8
0
 62
7
 10
37.69018539
 20
14.57580172
  0
VERTEX
  8
0
 62
7
 10
37.70956866
 20
14.59270105
  0
VERTEX
  8
0
 62
7
 10
37.72966960
 20
14.60850249
  0
VERTEX
  8
0
 62
7
 10
37.75052598
 20
14.62310105
  0
VERTEX
  8
0
 62
7
 10
37.77217556
 20
14.63639170
  0
VERTEX
  8
0
 62
7
 10
37.79465613
 20
14.64826944
  0
VERTEX
  8
0
 62
7
 10
37.81800545
 20
14.65862924
  0
VERTEX
  8
0
 62
7
 10
37.84226130
 20
14.66736610
  0
VERTEX
  8
0
 62
7
 10
37.86746144
 20
14.67437500
  0
VERTEX
  8
0
 62
7
 10
37.89891283
 20
14.67823188
  0
VERTEX
  8
0
 62
7
 10
37.93111966
 20
14.67712446
  0
VERTEX
  8
0
 62
7
 10
37.96332649
 20
14.67219834
  0
VERTEX
  8
0
 62
7
 10
37.99477788
 20
14.66459914
  0
VERTEX
  8
0
 62
7
 10
38.01692479
 20
14.65678195
  0
VERTEX
  8
0
 62
7
 10
38.03808964
 20
14.64696949
  0
VERTEX
  8
0
 62
7
 10
38.05834796
 20
14.63545771
  0
VERTEX
  8
0
 62
7
 10
38.07777530
 20
14.62254256
  0
VERTEX
  8
0
 62
7
 10
38.09644720
 20
14.60851999
  0
VERTEX
  8
0
 62
7
 10
38.11443921
 20
14.59368595
  0
VERTEX
  8
0
 62
7
 10
38.13182687
 20
14.57833638
  0
VERTEX
  8
0
 62
7
 10
38.14868572
 20
14.56276724
  0
VERTEX
  8
0
 62
7
 10
38.19032293
 20
14.51780846
  0
VERTEX
  8
0
 62
7
 10
38.22674762
 20
14.46826724
  0
VERTEX
  8
0
 62
7
 10
38.25939512
 20
14.41567107
  0
VERTEX
  8
0
 62
7
 10
38.28970076
 20
14.36154741
  0
VERTEX
  8
0
 62
7
 10
38.30905098
 20
14.32826429
  0
VERTEX
  8
0
 62
7
 10
38.32771187
 20
14.29492390
  0
VERTEX
  8
0
 62
7
 10
38.34552288
 20
14.26139256
  0
VERTEX
  8
0
 62
7
 10
38.36232350
 20
14.22753664
  0
VERTEX
  8
0
 62
7
 10
38.37795320
 20
14.19322247
  0
VERTEX
  8
0
 62
7
 10
38.39225143
 20
14.15831641
  0
VERTEX
  8
0
 62
7
 10
38.40505767
 20
14.12268479
  0
VERTEX
  8
0
 62
7
 10
38.41621139
 20
14.08619397
  0
VERTEX
  8
0
 62
7
 10
38.39032506
 20
14.05024731
  0
VERTEX
  8
0
 62
7
 10
38.36866918
 20
14.01124569
  0
VERTEX
  8
0
 62
7
 10
38.31951537
 20
13.99006466
  0
VERTEX
  8
0
 62
7
 10
38.30919420
 20
13.99124368
  0
VERTEX
  8
0
 62
7
 10
38.28786253
 20
13.99705287
  0
VERTEX
  8
0
 62
7
 10
38.25818327
 20
14.00631798
  0
VERTEX
  8
0
 62
7
 10
38.22281934
 20
14.01786476
  0
VERTEX
  8
0
 62
7
 10
38.18443366
 20
14.03051897
  0
VERTEX
  8
0
 62
7
 10
38.14568915
 20
14.04310634
  0
VERTEX
  8
0
 62
7
 10
38.10924872
 20
14.05445265
  0
VERTEX
  8
0
 62
7
 10
38.07777530
 20
14.06338362
  0
VERTEX
  8
0
 62
7
 10
38.03452492
 20
14.07507679
  0
VERTEX
  8
0
 62
7
 10
37.99118955
 20
14.08727593
  0
VERTEX
  8
0
 62
7
 10
37.94775975
 20
14.09957054
  0
VERTEX
  8
0
 62
7
 10
37.90422608
 20
14.11155011
  0
VERTEX
  8
0
 62
7
 10
37.86057909
 20
14.12280412
  0
VERTEX
  8
0
 62
7
 10
37.81680934
 20
14.13292208
  0
VERTEX
  8
0
 62
7
 10
37.77290739
 20
14.14149346
  0
VERTEX
  8
0
 62
7
 10
37.72886380
 20
14.14810776
  0
VERTEX
  8
0
 62
7
 10
37.71758260
 20
14.11063362
  0
VERTEX
  8
0
 62
7
 10
37.75692989
 20
14.08988219
  0
VERTEX
  8
0
 62
7
 10
37.79741977
 20
14.07079189
  0
VERTEX
  8
0
 62
7
 10
37.83875953
 20
14.05303814
  0
VERTEX
  8
0
 62
7
 10
37.88065642
 20
14.03629634
  0
VERTEX
  8
0
 62
7
 10
37.92281771
 20
14.02024190
  0
VERTEX
  8
0
 62
7
 10
37.96495068
 20
14.00455024
  0
VERTEX
  8
0
 62
7
 10
38.00676258
 20
13.98889677
  0
VERTEX
  8
0
 62
7
 10
38.04796069
 20
13.97295690
  0
VERTEX
  8
0
 62
7
 10
38.07883606
 20
13.96207043
  0
VERTEX
  8
0
 62
7
 10
38.11516947
 20
13.95001926
  0
VERTEX
  8
0
 62
7
 10
38.15410913
 20
13.93747166
  0
VERTEX
  8
0
 62
7
 10
38.19280328
 20
13.92509591
  0
VERTEX
  8
0
 62
7
 10
38.22840014
 20
13.91356026
  0
VERTEX
  8
0
 62
7
 10
38.25804792
 20
13.90353300
  0
VERTEX
  8
0
 62
7
 10
38.27889485
 20
13.89568240
  0
VERTEX
  8
0
 62
7
 10
38.28808916
 20
13.89067672
  0
VERTEX
  8
0
 62
7
 10
38.31468057
 20
13.84587069
  0
VERTEX
  8
0
 62
7
 10
38.30974504
 20
13.80086099
  0
VERTEX
  8
0
 62
7
 10
38.30903996
 20
13.75707328
  0
VERTEX
  8
0
 62
7
 10
38.24733329
 20
13.71235634
  0
VERTEX
  8
0
 62
7
 10
38.18222715
 20
13.67367295
  0
VERTEX
  8
0
 62
7
 10
38.11425035
 20
13.63941925
  0
VERTEX
  8
0
 62
7
 10
38.04393169
 20
13.60799138
  0
VERTEX
  8
0
 62
7
 10
38.01631257
 20
13.59513669
  0
VERTEX
  8
0
 62
7
 10
37.98841961
 20
13.58244430
  0
VERTEX
  8
0
 62
7
 10
37.96020558
 20
13.57022925
  0
VERTEX
  8
0
 62
7
 10
37.93162328
 20
13.55880657
  0
VERTEX
  8
0
 62
7
 10
37.90262549
 20
13.54849132
  0
VERTEX
  8
0
 62
7
 10
37.87316500
 20
13.53959853
  0
VERTEX
  8
0
 62
7
 10
37.84319458
 20
13.53244325
  0
VERTEX
  8
0
 62
7
 10
37.81266703
 20
13.52734052
  0
VERTEX
  8
0
 62
7
 10
37.78960099
 20
13.52521955
  0
VERTEX
  8
0
 62
7
 10
37.76638388
 20
13.52335634
  0
VERTEX
  8
0
 62
7
 10
37.74309121
 20
13.52208504
  0
VERTEX
  8
0
 62
7
 10
37.71979855
 20
13.52173976
  0
VERTEX
  8
0
 62
7
 10
37.69658143
 20
13.52265466
  0
VERTEX
  8
0
 62
7
 10
37.67351540
 20
13.52516386
  0
VERTEX
  8
0
 62
7
 10
37.65067600
 20
13.52960150
  0
VERTEX
  8
0
 62
7
 10
37.62813877
 20
13.53630172
  0
VERTEX
  8
0
 62
7
 10
37.59809753
 20
13.54834335
  0
VERTEX
  8
0
 62
7
 10
37.56911391
 20
13.56298168
  0
VERTEX
  8
0
 62
7
 10
37.54224551
 20
13.58098047
  0
VERTEX
  8
0
 62
7
 10
37.51854994
 20
13.60310345
  0
VERTEX
  8
0
 62
7
 10
37.48833244
 20
13.64447266
  0
VERTEX
  8
0
 62
7
 10
37.46476278
 20
13.68904957
  0
VERTEX
  8
0
 62
7
 10
37.44693445
 20
13.73668144
  0
VERTEX
  8
0
 62
7
 10
37.43394092
 20
13.78721552
  0
VERTEX
  8
0
 62
7
 10
37.42848918
 20
13.81636490
  0
VERTEX
  8
0
 62
7
 10
37.42356624
 20
13.84322306
  0
VERTEX
  8
0
 62
7
 10
37.41637699
 20
13.87038672
  0
VERTEX
  8
0
 62
7
 10
37.40412631
 20
13.90045259
  0
VERTEX
  8
0
 62
7
 10
37.39682375
 20
13.91101765
  0
VERTEX
  8
0
 62
7
 10
37.38196681
 20
13.92753987
  0
VERTEX
  8
0
 62
7
 10
37.36287941
 20
13.94558957
  0
VERTEX
  8
0
 62
7
 10
37.34288549
 20
13.96073707
  0
VERTEX
  8
0
 62
7
 10
37.33978190
 20
13.96464169
  0
VERTEX
  8
0
 62
7
 10
37.33830251
 20
13.97089480
  0
VERTEX
  8
0
 62
7
 10
37.33840953
 20
13.97863721
  0
VERTEX
  8
0
 62
7
 10
37.34006519
 20
13.98700970
  0
VERTEX
  8
0
 62
7
 10
37.34323174
 20
13.99515307
  0
VERTEX
  8
0
 62
7
 10
37.34787138
 20
14.00220811
  0
VERTEX
  8
0
 62
7
 10
37.35394636
 20
14.00731561
  0
VERTEX
  8
0
 62
7
 10
37.36141890
 20
14.00961638
  0
VERTEX
  8
0
 62
7
 10
37.38153400
 20
14.00907540
  0
VERTEX
  8
0
 62
7
 10
37.40131860
 20
14.01048195
  0
VERTEX
  8
0
 62
7
 10
37.42066882
 20
14.01379785
  0
VERTEX
  8
0
 62
7
 10
37.43948080
 20
14.01898491
  0
VERTEX
  8
0
 62
7
 10
37.45765065
 20
14.02600495
  0
VERTEX
  8
0
 62
7
 10
37.47507450
 20
14.03481977
  0
VERTEX
  8
0
 62
7
 10
37.49164849
 20
14.04539120
  0
VERTEX
  8
0
 62
7
 10
37.50726874
 20
14.05768103
  0
VERTEX
  8
0
 62
7
 10
37.53262627
 20
14.08154789
  0
VERTEX
  8
0
 62
7
 10
37.55118485
 20
14.10686584
  0
VERTEX
  8
0
 62
7
 10
37.56551299
 20
14.13569700
  0
VERTEX
  8
0
 62
7
 10
37.57817916
 20
14.17010345
  0
SEQEND
  0
POLYLINE
  8
0
 62
7
 66
1
 70
1
  0
VERTEX
  8
0
 62
7
 10
36.68400000
 20
.90000000
  0
VERTEX
  8
0
 62
7
 10
23.88400000
 20
.90000000
  0
VERTEX
  8
0
 62
7
 10
23.88400000
 20
7.70000000
  0
VERTEX
  8
0
 62
7
 10
36.68400000
 20
7.70000000
  0
VERTEX
  8
0
 62
7
 10
36.68400000
 20
.90000000
  0
SEQEND
  0
POLYLINE
  8
0
 62
7
 66
1
 70
1
  0
VERTEX
  8
0
 62
7
 10
36.58400000
 20
1.00000000
  0
VERTEX
  8
0
 62
7
 10
23.98400000
 20
1.00000000
  0
VERTEX
  8
0
 62
7
 10
23.98400000
 20
7.60000000
  0
VERTEX
  8
0
 62
7
 10
36.58400000
 20
7.60000000
  0
VERTEX
  8
0
 62
7
 10
36.58400000
 20
1.00000000
  0
SEQEND
  0
POLYLINE
  8
0
 62
7
 66
1
 70
1
  0
VERTEX
  8
0
 62
7
 10
36.38400000
 20
1.20000000
  0
VERTEX
  8
0
 62
7
 10
24.18400000
 20
1.20000000
  0
VERTEX
  8
0
 62
7
 10
24.18400000
 20
7.40000000
  0
VERTEX
  8
0
 62
7
 10
36.38400000
 20
7.40000000
  0
VERTEX
  8
0
 62
7
 10
36.38400000
 20
1.20000000
  0
SEQEND
  0
POLYLINE
  8
0
 62
7
 66
1
 70
1
  0
VERTEX
  8
0
 62
7
 10
36.28400000
 20
1.30000000
  0
VERTEX
  8
0
 62
7
 10
24.28400000
 20
1.30000000
  0
VERTEX
  8
0
 62
7
 10
24.28400000
 20
7.30000000
  0
VERTEX
  8
0
 62
7
 10
36.28400000
 20
7.30000000
  0
VERTEX
  8
0
 62
7
 10
36.28400000
 20
1.30000000
  0
SEQEND
  0
ENDSEC
  0
EOF
