  0
SECTION
  2
ENTITIES
  0
POLYLINE
  8
0
 62
7
 66
1
 70
1
  0
VERTEX
  8
0
 62
7
 10
.00000000
 20
.00176471
  0
VERTEX
  8
0
 62
7
 10
.00000000
 20
15.92558824
  0
VERTEX
  8
0
 62
7
 10
.67268872
 20
15.92831004
  0
VERTEX
  8
0
 62
7
 10
1.34480664
 20
15.93644359
  0
VERTEX
  8
0
 62
7
 10
2.01605640
 20
15.94994105
  0
VERTEX
  8
0
 62
7
 10
2.68614063
 20
15.96875460
  0
VERTEX
  8
0
 62
7
 10
3.35476196
 20
15.99283641
  0
VERTEX
  8
0
 62
7
 10
4.02162305
 20
16.02213867
  0
VERTEX
  8
0
 62
7
 10
4.68642651
 20
16.05661355
  0
VERTEX
  8
0
 62
7
 10
5.34887500
 20
16.09621324
  0
VERTEX
  8
0
 62
7
 10
6.00867114
 20
16.14088989
  0
VERTEX
  8
0
 62
7
 10
6.66551758
 20
16.19059570
  0
VERTEX
  8
0
 62
7
 10
7.31911694
 20
16.24528284
  0
VERTEX
  8
0
 62
7
 10
7.96917188
 20
16.30490349
  0
VERTEX
  8
0
 62
7
 10
8.61538501
 20
16.36940983
  0
VERTEX
  8
0
 62
7
 10
9.25745898
 20
16.43875402
  0
VERTEX
  8
0
 62
7
 10
9.89509644
 20
16.51288826
  0
VERTEX
  8
0
 62
7
 10
10.52800000
 20
16.59176471
  0
VERTEX
  8
0
 62
7
 10
11.16106934
 20
16.67055197
  0
VERTEX
  8
0
 62
7
 10
11.79757031
 20
16.74443417
  0
VERTEX
  8
0
 62
7
 10
12.43737988
 20
16.81338673
  0
VERTEX
  8
0
 62
7
 10
13.08037500
 20
16.87738511
  0
VERTEX
  8
0
 62
7
 10
13.72643262
 20
16.93640474
  0
VERTEX
  8
0
 62
7
 10
14.37542969
 20
16.99042107
  0
VERTEX
  8
0
 62
7
 10
15.02724316
 20
17.03940954
  0
VERTEX
  8
0
 62
7
 10
15.68175000
 20
17.08334559
  0
VERTEX
  8
0
 62
7
 10
16.33882715
 20
17.12220466
  0
VERTEX
  8
0
 62
7
 10
16.99835156
 20
17.15596220
  0
VERTEX
  8
0
 62
7
 10
17.66020020
 20
17.18459365
  0
VERTEX
  8
0
 62
7
 10
18.32425000
 20
17.20807445
  0
VERTEX
  8
0
 62
7
 10
18.99037793
 20
17.22638004
  0
VERTEX
  8
0
 62
7
 10
19.65846094
 20
17.23948587
  0
VERTEX
  8
0
 62
7
 10
20.32837598
 20
17.24736737
  0
VERTEX
  8
0
 62
7
 10
21.00000000
 20
17.25000000
  0
VERTEX
  8
0
 62
7
 10
21.67903247
 20
17.24730598
  0
VERTEX
  8
0
 62
7
 10
22.35629102
 20
17.23924288
  0
VERTEX
  8
0
 62
7
 10
23.03164233
 20
17.22583913
  0
VERTEX
  8
0
 62
7
 10
23.70495313
 20
17.20712316
  0
VERTEX
  8
0
 62
7
 10
24.37609009
 20
17.18312342
  0
VERTEX
  8
0
 62
7
 10
25.04491992
 20
17.15386834
  0
VERTEX
  8
0
 62
7
 10
25.71130933
 20
17.11938635
  0
VERTEX
  8
0
 62
7
 10
26.37512500
 20
17.07970588
  0
VERTEX
  8
0
 62
7
 10
27.03623364
 20
17.03485538
  0
VERTEX
  8
0
 62
7
 10
27.69450195
 20
16.98486328
  0
VERTEX
  8
0
 62
7
 10
28.34979663
 20
16.92975801
  0
VERTEX
  8
0
 62
7
 10
29.00198438
 20
16.86956801
  0
VERTEX
  8
0
 62
7
 10
29.65093188
 20
16.80432172
  0
VERTEX
  8
0
 62
7
 10
30.29650586
 20
16.73404756
  0
VERTEX
  8
0
 62
7
 10
30.93857300
 20
16.65877398
  0
VERTEX
  8
0
 62
7
 10
31.57700000
 20
16.57852941
  0
VERTEX
  8
0
 62
7
 10
32.21446655
 20
16.49834753
  0
VERTEX
  8
0
 62
7
 10
32.85221680
 20
16.42355411
  0
VERTEX
  8
0
 62
7
 10
33.49058911
 20
16.35411944
  0
VERTEX
  8
0
 62
7
 10
34.12992188
 20
16.29001379
  0
VERTEX
  8
0
 62
7
 10
34.77055347
 20
16.23120742
  0
VERTEX
  8
0
 62
7
 10
35.41282227
 20
16.17767061
  0
VERTEX
  8
0
 62
7
 10
36.05706665
 20
16.12937364
  0
VERTEX
  8
0
 62
7
 10
36.70362500
 20
16.08628676
  0
VERTEX
  8
0
 62
7
 10
37.35283569
 20
16.04838027
  0
VERTEX
  8
0
 62
7
 10
38.00503711
 20
16.01562443
  0
VERTEX
  8
0
 62
7
 10
38.66056763
 20
15.98798950
  0
VERTEX
  8
0
 62
7
 10
39.31976563
 20
15.96544577
  0
VERTEX
  8
0
 62
7
 10
39.98296948
 20
15.94796351
  0
VERTEX
  8
0
 62
7
 10
40.65051758
 20
15.93551298
  0
VERTEX
  8
0
 62
7
 10
41.32274829
 20
15.92806447
  0
VERTEX
  8
0
 62
7
 10
42.00000000
 20
15.92558824
  0
VERTEX
  8
0
 62
7
 10
42.00000000
 20
.00176471
  0
VERTEX
  8
0
 62
7
 10
.00000000
 20
.00176471
  0
SEQEND
  0
POLYLINE
  8
0
 62
7
 66
1
 70
1
  0
VERTEX
  8
0
 62
7
 10
9.10000000
 20
9.30000000
  0
VERTEX
  8
0
 62
7
 10
32.90000000
 20
9.30000000
  0
VERTEX
  8
0
 62
7
 10
32.90000000
 20
14.10000000
  0
VERTEX
  8
0
 62
7
 10
9.10000000
 20
14.10000000
  0
VERTEX
  8
0
 62
7
 10
9.10000000
 20
9.30000000
  0
SEQEND
  0
POLYLINE
  8
0
 62
7
 66
1
 70
1
  0
VERTEX
  8
0
 62
7
 10
9.20000000
 20
9.40000000
  0
VERTEX
  8
0
 62
7
 10
32.80000000
 20
9.40000000
  0
VERTEX
  8
0
 62
7
 10
32.80000000
 20
14.00000000
  0
VERTEX
  8
0
 62
7
 10
9.20000000
 20
14.00000000
  0
VERTEX
  8
0
 62
7
 10
9.20000000
 20
9.40000000
  0
SEQEND
  0
POLYLINE
  8
0
 62
7
 66
1
 70
1
  0
VERTEX
  8
0
 62
7
 10
9.40000000
 20
9.60000000
  0
VERTEX
  8
0
 62
7
 10
32.60000000
 20
9.60000000
  0
VERTEX
  8
0
 62
7
 10
32.60000000
 20
13.80000000
  0
VERTEX
  8
0
 62
7
 10
9.40000000
 20
13.80000000
  0
VERTEX
  8
0
 62
7
 10
9.40000000
 20
9.60000000
  0
SEQEND
  0
POLYLINE
  8
0
 62
7
 66
1
 70
1
  0
VERTEX
  8
0
 62
7
 10
9.50000000
 20
9.70000000
  0
VERTEX
  8
0
 62
7
 10
32.50000000
 20
9.70000000
  0
VERTEX
  8
0
 62
7
 10
32.50000000
 20
13.70000000
  0
VERTEX
  8
0
 62
7
 10
9.50000000
 20
13.70000000
  0
VERTEX
  8
0
 62
7
 10
9.50000000
 20
9.70000000
  0
SEQEND
  0
POLYLINE
  8
0
 62
7
 66
1
 70
1
  0
VERTEX
  8
0
 62
7
 10
3.10000000
 20
1.25000000
  0
VERTEX
  8
0
 62
7
 10
17.90000000
 20
1.25000000
  0
VERTEX
  8
0
 62
7
 10
17.90000000
 20
8.05000000
  0
VERTEX
  8
0
 62
7
 10
3.10000000
 20
8.05000000
  0
VERTEX
  8
0
 62
7
 10
3.10000000
 20
1.25000000
  0
SEQEND
  0
POLYLINE
  8
0
 62
7
 66
1
 70
1
  0
VERTEX
  8
0
 62
7
 10
3.20000000
 20
1.35000000
  0
VERTEX
  8
0
 62
7
 10
17.80000000
 20
1.35000000
  0
VERTEX
  8
0
 62
7
 10
17.80000000
 20
7.95000000
  0
VERTEX
  8
0
 62
7
 10
3.20000000
 20
7.95000000
  0
VERTEX
  8
0
 62
7
 10
3.20000000
 20
1.35000000
  0
SEQEND
  0
POLYLINE
  8
0
 62
7
 66
1
 70
1
  0
VERTEX
  8
0
 62
7
 10
3.40000000
 20
1.55000000
  0
VERTEX
  8
0
 62
7
 10
17.60000000
 20
1.55000000
  0
VERTEX
  8
0
 62
7
 10
17.60000000
 20
7.75000000
  0
VERTEX
  8
0
 62
7
 10
3.40000000
 20
7.75000000
  0
VERTEX
  8
0
 62
7
 10
3.40000000
 20
1.55000000
  0
SEQEND
  0
POLYLINE
  8
0
 62
7
 66
1
 70
1
  0
VERTEX
  8
0
 62
7
 10
3.50000000
 20
1.65000000
  0
VERTEX
  8
0
 62
7
 10
17.50000000
 20
1.65000000
  0
VERTEX
  8
0
 62
7
 10
17.50000000
 20
7.65000000
  0
VERTEX
  8
0
 62
7
 10
3.50000000
 20
7.65000000
  0
VERTEX
  8
0
 62
7
 10
3.50000000
 20
1.65000000
  0
SEQEND
  0
POLYLINE
  8
0
 62
7
 66
1
 70
1
  0
VERTEX
  8
0
 62
7
 10
38.90000000
 20
1.25000000
  0
VERTEX
  8
0
 62
7
 10
24.10000000
 20
1.25000000
  0
VERTEX
  8
0
 62
7
 10
24.10000000
 20
8.05000000
  0
VERTEX
  8
0
 62
7
 10
38.90000000
 20
8.05000000
  0
VERTEX
  8
0
 62
7
 10
38.90000000
 20
1.25000000
  0
SEQEND
  0
POLYLINE
  8
0
 62
7
 66
1
 70
1
  0
VERTEX
  8
0
 62
7
 10
38.80000000
 20
1.35000000
  0
VERTEX
  8
0
 62
7
 10
24.20000000
 20
1.35000000
  0
VERTEX
  8
0
 62
7
 10
24.20000000
 20
7.95000000
  0
VERTEX
  8
0
 62
7
 10
38.80000000
 20
7.95000000
  0
VERTEX
  8
0
 62
7
 10
38.80000000
 20
1.35000000
  0
SEQEND
  0
POLYLINE
  8
0
 62
7
 66
1
 70
1
  0
VERTEX
  8
0
 62
7
 10
38.60000000
 20
1.55000000
  0
VERTEX
  8
0
 62
7
 10
24.40000000
 20
1.55000000
  0
VERTEX
  8
0
 62
7
 10
24.40000000
 20
7.75000000
  0
VERTEX
  8
0
 62
7
 10
38.60000000
 20
7.75000000
  0
VERTEX
  8
0
 62
7
 10
38.60000000
 20
1.55000000
  0
SEQEND
  0
POLYLINE
  8
0
 62
7
 66
1
 70
1
  0
VERTEX
  8
0
 62
7
 10
38.50000000
 20
1.65000000
  0
VERTEX
  8
0
 62
7
 10
24.50000000
 20
1.65000000
  0
VERTEX
  8
0
 62
7
 10
24.50000000
 20
7.65000000
  0
VERTEX
  8
0
 62
7
 10
38.50000000
 20
7.65000000
  0
VERTEX
  8
0
 62
7
 10
38.50000000
 20
1.65000000
  0
SEQEND
  0
ENDSEC
  0
EOF
