  0
SECTION
  2
ENTITIES
  0
POLYLINE
  8
0
 62
7
 66
1
 70
1
  0
VERTEX
  8
0
 62
7
 10
20.99994228
 20
-.00058094
  0
VERTEX
  8
0
 62
7
 10
42.00000000
 20
-.00058094
  0
VERTEX
  8
0
 62
7
 10
42.00000000
 20
14.92669690
  0
VERTEX
  8
0
 62
7
 10
41.89540075
 20
14.94666267
  0
VERTEX
  8
0
 62
7
 10
41.79977028
 20
14.97224959
  0
VERTEX
  8
0
 62
7
 10
41.71223358
 20
15.00369328
  0
VERTEX
  8
0
 62
7
 10
41.63191565
 20
15.04122937
  0
VERTEX
  8
0
 62
7
 10
41.55794149
 20
15.08509346
  0
VERTEX
  8
0
 62
7
 10
41.48943610
 20
15.13552118
  0
VERTEX
  8
0
 62
7
 10
41.42552446
 20
15.19274814
  0
VERTEX
  8
0
 62
7
 10
41.36533159
 20
15.25700996
  0
VERTEX
  8
0
 62
7
 10
41.31999553
 20
15.31147122
  0
VERTEX
  8
0
 62
7
 10
41.28001885
 20
15.36669544
  0
VERTEX
  8
0
 62
7
 10
41.24507345
 20
15.42631784
  0
VERTEX
  8
0
 62
7
 10
41.21483118
 20
15.49397367
  0
VERTEX
  8
0
 62
7
 10
41.18896392
 20
15.57329818
  0
VERTEX
  8
0
 62
7
 10
41.16714354
 20
15.66792658
  0
VERTEX
  8
0
 62
7
 10
41.14904193
 20
15.78149414
  0
VERTEX
  8
0
 62
7
 10
41.13433095
 20
15.91763607
  0
VERTEX
  8
0
 62
7
 10
40.59461725
 20
15.98997576
  0
VERTEX
  8
0
 62
7
 10
40.05350132
 20
16.06032691
  0
VERTEX
  8
0
 62
7
 10
39.51101649
 20
16.12868688
  0
VERTEX
  8
0
 62
7
 10
38.96719609
 20
16.19505304
  0
VERTEX
  8
0
 62
7
 10
38.42207344
 20
16.25942276
  0
VERTEX
  8
0
 62
7
 10
37.87568186
 20
16.32179342
  0
VERTEX
  8
0
 62
7
 10
37.32805468
 20
16.38216239
  0
VERTEX
  8
0
 62
7
 10
36.77922523
 20
16.44052703
  0
VERTEX
  8
0
 62
7
 10
36.22922683
 20
16.49688471
  0
VERTEX
  8
0
 62
7
 10
35.67809281
 20
16.55123281
  0
VERTEX
  8
0
 62
7
 10
35.12585649
 20
16.60356870
  0
VERTEX
  8
0
 62
7
 10
34.57255120
 20
16.65388974
  0
VERTEX
  8
0
 62
7
 10
34.01821026
 20
16.70219331
  0
VERTEX
  8
0
 62
7
 10
33.46286700
 20
16.74847677
  0
VERTEX
  8
0
 62
7
 10
32.90655474
 20
16.79273750
  0
VERTEX
  8
0
 62
7
 10
32.34930681
 20
16.83497287
  0
VERTEX
  8
0
 62
7
 10
31.79115653
 20
16.87518025
  0
VERTEX
  8
0
 62
7
 10
31.23213723
 20
16.91335701
  0
VERTEX
  8
0
 62
7
 10
30.67228224
 20
16.94950052
  0
VERTEX
  8
0
 62
7
 10
30.11162488
 20
16.98360814
  0
VERTEX
  8
0
 62
7
 10
29.55019847
 20
17.01567725
  0
VERTEX
  8
0
 62
7
 10
28.98803634
 20
17.04570523
  0
VERTEX
  8
0
 62
7
 10
28.42517181
 20
17.07368943
  0
VERTEX
  8
0
 62
7
 10
27.86163822
 20
17.09962724
  0
VERTEX
  8
0
 62
7
 10
27.29746889
 20
17.12351601
  0
VERTEX
  8
0
 62
7
 10
26.73269713
 20
17.14535313
  0
VERTEX
  8
0
 62
7
 10
26.16735628
 20
17.16513595
  0
VERTEX
  8
0
 62
7
 10
25.60147967
 20
17.18286186
  0
VERTEX
  8
0
 62
7
 10
25.03510061
 20
17.19852822
  0
VERTEX
  8
0
 62
7
 10
24.46825243
 20
17.21213241
  0
VERTEX
  8
0
 62
7
 10
23.90096846
 20
17.22367178
  0
VERTEX
  8
0
 62
7
 10
23.33328203
 20
17.23314372
  0
VERTEX
  8
0
 62
7
 10
22.75016584
 20
17.24068348
  0
VERTEX
  8
0
 62
7
 10
22.16661215
 20
17.24606902
  0
VERTEX
  8
0
 62
7
 10
21.58305846
 20
17.24930034
  0
VERTEX
  8
0
 62
7
 10
20.99994228
 20
17.25037745
  0
VERTEX
  8
0
 62
7
 10
20.41682609
 20
17.24930034
  0
VERTEX
  8
0
 62
7
 10
19.83327241
 20
17.24606902
  0
VERTEX
  8
0
 62
7
 10
19.24971872
 20
17.24068348
  0
VERTEX
  8
0
 62
7
 10
18.66660253
 20
17.23314372
  0
VERTEX
  8
0
 62
7
 10
18.09891610
 20
17.22367178
  0
VERTEX
  8
0
 62
7
 10
17.53163213
 20
17.21213241
  0
VERTEX
  8
0
 62
7
 10
16.96478395
 20
17.19852822
  0
VERTEX
  8
0
 62
7
 10
16.39840489
 20
17.18286186
  0
VERTEX
  8
0
 62
7
 10
15.83252827
 20
17.16513595
  0
VERTEX
  8
0
 62
7
 10
15.26718743
 20
17.14535313
  0
VERTEX
  8
0
 62
7
 10
14.70241567
 20
17.12351601
  0
VERTEX
  8
0
 62
7
 10
14.13824634
 20
17.09962724
  0
VERTEX
  8
0
 62
7
 10
13.57471274
 20
17.07368943
  0
VERTEX
  8
0
 62
7
 10
13.01184822
 20
17.04570523
  0
VERTEX
  8
0
 62
7
 10
12.44968609
 20
17.01567725
  0
VERTEX
  8
0
 62
7
 10
11.88825968
 20
16.98360814
  0
VERTEX
  8
0
 62
7
 10
11.32760232
 20
16.94950052
  0
VERTEX
  8
0
 62
7
 10
10.76774732
 20
16.91335701
  0
VERTEX
  8
0
 62
7
 10
10.20872803
 20
16.87518025
  0
VERTEX
  8
0
 62
7
 10
9.65057775
 20
16.83497287
  0
VERTEX
  8
0
 62
7
 10
9.09332982
 20
16.79273750
  0
VERTEX
  8
0
 62
7
 10
8.53701756
 20
16.74847677
  0
VERTEX
  8
0
 62
7
 10
7.98167430
 20
16.70219331
  0
VERTEX
  8
0
 62
7
 10
7.42733336
 20
16.65388974
  0
VERTEX
  8
0
 62
7
 10
6.87402807
 20
16.60356870
  0
VERTEX
  8
0
 62
7
 10
6.32179175
 20
16.55123281
  0
VERTEX
  8
0
 62
7
 10
5.77065772
 20
16.49688471
  0
VERTEX
  8
0
 62
7
 10
5.22065932
 20
16.44052703
  0
VERTEX
  8
0
 62
7
 10
4.67182987
 20
16.38216239
  0
VERTEX
  8
0
 62
7
 10
4.12420270
 20
16.32179342
  0
VERTEX
  8
0
 62
7
 10
3.57781112
 20
16.25942276
  0
VERTEX
  8
0
 62
7
 10
3.03268847
 20
16.19505304
  0
VERTEX
  8
0
 62
7
 10
2.48886806
 20
16.12868688
  0
VERTEX
  8
0
 62
7
 10
1.94638323
 20
16.06032691
  0
VERTEX
  8
0
 62
7
 10
1.40526731
 20
15.98997576
  0
VERTEX
  8
0
 62
7
 10
.86555360
 20
15.91763607
  0
VERTEX
  8
0
 62
7
 10
.85084263
 20
15.78149414
  0
VERTEX
  8
0
 62
7
 10
.83274101
 20
15.66792658
  0
VERTEX
  8
0
 62
7
 10
.81092064
 20
15.57329818
  0
VERTEX
  8
0
 62
7
 10
.78505338
 20
15.49397367
  0
VERTEX
  8
0
 62
7
 10
.75481111
 20
15.42631784
  0
VERTEX
  8
0
 62
7
 10
.71986570
 20
15.36669544
  0
VERTEX
  8
0
 62
7
 10
.67988903
 20
15.31147122
  0
VERTEX
  8
0
 62
7
 10
.63455297
 20
15.25700996
  0
VERTEX
  8
0
 62
7
 10
.57436009
 20
15.19274814
  0
VERTEX
  8
0
 62
7
 10
.51044846
 20
15.13552118
  0
VERTEX
  8
0
 62
7
 10
.44194306
 20
15.08509346
  0
VERTEX
  8
0
 62
7
 10
.36796890
 20
15.04122937
  0
VERTEX
  8
0
 62
7
 10
.28765097
 20
15.00369328
  0
VERTEX
  8
0
 62
7
 10
.20011427
 20
14.97224959
  0
VERTEX
  8
0
 62
7
 10
.10448380
 20
14.94666267
  0
VERTEX
  8
0
 62
7
 10
-.00011544
 20
14.92669690
  0
VERTEX
  8
0
 62
7
 10
-.00011544
 20
-.00058094
  0
VERTEX
  8
0
 62
7
 10
20.99994228
 20
-.00058094
  0
SEQEND
  0
POLYLINE
  8
0
 62
7
 66
1
 70
1
  0
VERTEX
  8
0
 62
7
 10
21.13550000
 20
14.50100000
  0
VERTEX
  8
0
 62
7
 10
22.04876667
 20
14.49700000
  0
VERTEX
  8
0
 62
7
 10
22.04876667
 20
13.58800000
  0
VERTEX
  8
0
 62
7
 10
21.13550000
 20
13.58800000
  0
VERTEX
  8
0
 62
7
 10
21.13550000
 20
14.50100000
  0
SEQEND
  0
POLYLINE
  8
0
 62
7
 66
1
 70
1
  0
VERTEX
  8
0
 62
7
 10
25.04996667
 20
14.44700000
  0
VERTEX
  8
0
 62
7
 10
25.95221643
 20
14.42051733
  0
VERTEX
  8
0
 62
7
 10
26.85321322
 20
14.38870117
  0
VERTEX
  8
0
 62
7
 10
27.75280326
 20
14.35156177
  0
VERTEX
  8
0
 62
7
 10
28.65083281
 20
14.30910938
  0
VERTEX
  8
0
 62
7
 10
29.54714810
 20
14.26135425
  0
VERTEX
  8
0
 62
7
 10
30.44159538
 20
14.20830664
  0
VERTEX
  8
0
 62
7
 10
31.33402087
 20
14.14997681
  0
VERTEX
  8
0
 62
7
 10
32.22427083
 20
14.08637500
  0
VERTEX
  8
0
 62
7
 10
33.11219150
 20
14.01751147
  0
VERTEX
  8
0
 62
7
 10
33.99762910
 20
13.94339648
  0
VERTEX
  8
0
 62
7
 10
34.88042989
 20
13.86404028
  0
VERTEX
  8
0
 62
7
 10
35.76044010
 20
13.77945313
  0
VERTEX
  8
0
 62
7
 10
36.63750598
 20
13.68964526
  0
VERTEX
  8
0
 62
7
 10
37.51147376
 20
13.59462695
  0
VERTEX
  8
0
 62
7
 10
38.38218969
 20
13.49440845
  0
VERTEX
  8
0
 62
7
 10
39.24950000
 20
13.38900000
  0
VERTEX
  8
0
 62
7
 10
39.24950000
 20
2.74900000
  0
VERTEX
  8
0
 62
7
 10
20.99870000
 20
2.74900000
  0
VERTEX
  8
0
 62
7
 10
2.75013333
 20
2.74900000
  0
VERTEX
  8
0
 62
7
 10
2.75013333
 20
13.38900000
  0
VERTEX
  8
0
 62
7
 10
3.61744364
 20
13.49440845
  0
VERTEX
  8
0
 62
7
 10
4.48815957
 20
13.59462695
  0
VERTEX
  8
0
 62
7
 10
5.36212735
 20
13.68964526
  0
VERTEX
  8
0
 62
7
 10
6.23919323
 20
13.77945313
  0
VERTEX
  8
0
 62
7
 10
7.11920344
 20
13.86404028
  0
VERTEX
  8
0
 62
7
 10
8.00200423
 20
13.94339648
  0
VERTEX
  8
0
 62
7
 10
8.88744184
 20
14.01751147
  0
VERTEX
  8
0
 62
7
 10
9.77536250
 20
14.08637500
  0
VERTEX
  8
0
 62
7
 10
10.66561246
 20
14.14997681
  0
VERTEX
  8
0
 62
7
 10
11.55803796
 20
14.20830664
  0
VERTEX
  8
0
 62
7
 10
12.45248523
 20
14.26135425
  0
VERTEX
  8
0
 62
7
 10
13.34880052
 20
14.30910938
  0
VERTEX
  8
0
 62
7
 10
14.24683007
 20
14.35156177
  0
VERTEX
  8
0
 62
7
 10
15.14642012
 20
14.38870117
  0
VERTEX
  8
0
 62
7
 10
16.04741690
 20
14.42051733
  0
VERTEX
  8
0
 62
7
 10
16.94966667
 20
14.44700000
  0
VERTEX
  8
0
 62
7
 10
16.99551979
 20
14.51287500
  0
VERTEX
  8
0
 62
7
 10
17.05184167
 20
14.58175000
  0
VERTEX
  8
0
 62
7
 10
17.11235104
 20
14.64725000
  0
VERTEX
  8
0
 62
7
 10
17.17076667
 20
14.70300000
  0
VERTEX
  8
0
 62
7
 10
16.23800159
 20
14.67673950
  0
VERTEX
  8
0
 62
7
 10
15.30660072
 20
14.64483789
  0
VERTEX
  8
0
 62
7
 10
14.37672436
 20
14.60730249
  0
VERTEX
  8
0
 62
7
 10
13.44853281
 20
14.56414063
  0
VERTEX
  8
0
 62
7
 10
12.52218639
 20
14.51535962
  0
VERTEX
  8
0
 62
7
 10
11.59784538
 20
14.46096680
  0
VERTEX
  8
0
 62
7
 10
10.67567009
 20
14.40096948
  0
VERTEX
  8
0
 62
7
 10
9.75582083
 20
14.33537500
  0
VERTEX
  8
0
 62
7
 10
8.83845790
 20
14.26419067
  0
VERTEX
  8
0
 62
7
 10
7.92374160
 20
14.18742383
  0
VERTEX
  8
0
 62
7
 10
7.01183223
 20
14.10508179
  0
VERTEX
  8
0
 62
7
 10
6.10289010
 20
14.01717188
  0
VERTEX
  8
0
 62
7
 10
5.19707551
 20
13.92370142
  0
VERTEX
  8
0
 62
7
 10
4.29454876
 20
13.82467773
  0
VERTEX
  8
0
 62
7
 10
3.39547016
 20
13.72010815
  0
VERTEX
  8
0
 62
7
 10
2.50000000
 20
13.61000000
  0
VERTEX
  8
0
 62
7
 10
2.50000000
 20
2.49900000
  0
VERTEX
  8
0
 62
7
 10
20.99870000
 20
2.49900000
  0
VERTEX
  8
0
 62
7
 10
39.49963333
 20
2.49900000
  0
VERTEX
  8
0
 62
7
 10
39.49963333
 20
13.61000000
  0
VERTEX
  8
0
 62
7
 10
38.60416318
 20
13.72010815
  0
VERTEX
  8
0
 62
7
 10
37.70508457
 20
13.82467773
  0
VERTEX
  8
0
 62
7
 10
36.80255782
 20
13.92370142
  0
VERTEX
  8
0
 62
7
 10
35.89674323
 20
14.01717188
  0
VERTEX
  8
0
 62
7
 10
34.98780110
 20
14.10508179
  0
VERTEX
  8
0
 62
7
 10
34.07589173
 20
14.18742383
  0
VERTEX
  8
0
 62
7
 10
33.16117543
 20
14.26419067
  0
VERTEX
  8
0
 62
7
 10
32.24381250
 20
14.33537500
  0
VERTEX
  8
0
 62
7
 10
31.32396324
 20
14.40096948
  0
VERTEX
  8
0
 62
7
 10
30.40178796
 20
14.46096680
  0
VERTEX
  8
0
 62
7
 10
29.47744695
 20
14.51535962
  0
VERTEX
  8
0
 62
7
 10
28.55110052
 20
14.56414063
  0
VERTEX
  8
0
 62
7
 10
27.62290898
 20
14.60730249
  0
VERTEX
  8
0
 62
7
 10
26.69303262
 20
14.64483789
  0
VERTEX
  8
0
 62
7
 10
25.76163175
 20
14.67673950
  0
VERTEX
  8
0
 62
7
 10
24.82886667
 20
14.70300000
  0
VERTEX
  8
0
 62
7
 10
24.88728229
 20
14.64725000
  0
VERTEX
  8
0
 62
7
 10
24.94779167
 20
14.58175000
  0
VERTEX
  8
0
 62
7
 10
25.00411354
 20
14.51287500
  0
VERTEX
  8
0
 62
7
 10
25.04996667
 20
14.44700000
  0
SEQEND
  0
POLYLINE
  8
0
 62
7
 66
1
 70
1
  0
VERTEX
  8
0
 62
7
 10
24.05600000
 20
12.14600000
  0
VERTEX
  8
0
 62
7
 10
24.05737500
 20
12.18137500
  0
VERTEX
  8
0
 62
7
 10
24.06100000
 20
12.21600000
  0
VERTEX
  8
0
 62
7
 10
24.06287695
 20
12.22717969
  0
VERTEX
  8
0
 62
7
 10
24.06682813
 20
12.23737500
  0
VERTEX
  8
0
 62
7
 10
24.07258398
 20
12.24644531
  0
VERTEX
  8
0
 62
7
 10
24.07987500
 20
12.25425000
  0
VERTEX
  8
0
 62
7
 10
24.08843164
 20
12.26064844
  0
VERTEX
  8
0
 62
7
 10
24.09798438
 20
12.26550000
  0
VERTEX
  8
0
 62
7
 10
24.10826367
 20
12.26866406
  0
VERTEX
  8
0
 62
7
 10
24.11900000
 20
12.27000000
  0
VERTEX
  8
0
 62
7
 10
24.15700000
 20
12.27100000
  0
VERTEX
  8
0
 62
7
 10
24.14071875
 20
12.30587500
  0
VERTEX
  8
0
 62
7
 10
24.12200000
 20
12.34000000
  0
VERTEX
  8
0
 62
7
 10
24.10103125
 20
12.37337500
  0
VERTEX
  8
0
 62
7
 10
24.07800000
 20
12.40600000
  0
VERTEX
  8
0
 62
7
 10
23.49100000
 20
12.40600000
  0
VERTEX
  8
0
 62
7
 10
23.49100000
 20
13.32500000
  0
VERTEX
  8
0
 62
7
 10
23.93300000
 20
13.32500000
  0
VERTEX
  8
0
 62
7
 10
23.92850000
 20
13.36750000
  0
VERTEX
  8
0
 62
7
 10
23.92700000
 20
13.41000000
  0
VERTEX
  8
0
 62
7
 10
23.92700000
 20
13.44500000
  0
VERTEX
  8
0
 62
7
 10
23.92947656
 20
13.45802734
  0
VERTEX
  8
0
 62
7
 10
23.93387500
 20
13.46990625
  0
VERTEX
  8
0
 62
7
 10
23.94014844
 20
13.48033203
  0
VERTEX
  8
0
 62
7
 10
23.94825000
 20
13.48900000
  0
VERTEX
  8
0
 62
7
 10
23.95813281
 20
13.49560547
  0
VERTEX
  8
0
 62
7
 10
23.96975000
 20
13.49984375
  0
VERTEX
  8
0
 62
7
 10
23.98305469
 20
13.50141016
  0
VERTEX
  8
0
 62
7
 10
23.99800000
 20
13.50000000
  0
VERTEX
  8
0
 62
7
 10
23.98587500
 20
13.54400000
  0
VERTEX
  8
0
 62
7
 10
23.97600000
 20
13.58800000
  0
VERTEX
  8
0
 62
7
 10
23.49100000
 20
13.58800000
  0
VERTEX
  8
0
 62
7
 10
23.49100000
 20
13.73600000
  0
VERTEX
  8
0
 62
7
 10
23.45886719
 20
13.73743359
  0
VERTEX
  8
0
 62
7
 10
23.42631250
 20
13.74034375
  0
VERTEX
  8
0
 62
7
 10
23.39347656
 20
13.74489453
  0
VERTEX
  8
0
 62
7
 10
23.36050000
 20
13.75125000
  0
VERTEX
  8
0
 62
7
 10
23.32752344
 20
13.75957422
  0
VERTEX
  8
0
 62
7
 10
23.29468750
 20
13.77003125
  0
VERTEX
  8
0
 62
7
 10
23.26213281
 20
13.78278516
  0
VERTEX
  8
0
 62
7
 10
23.23000000
 20
13.79800000
  0
VERTEX
  8
0
 62
7
 10
23.23000000
 20
13.58800000
  0
VERTEX
  8
0
 62
7
 10
22.31200000
 20
13.58800000
  0
VERTEX
  8
0
 62
7
 10
22.31200000
 20
14.49500000
  0
VERTEX
  8
0
 62
7
 10
22.73800000
 20
14.49300000
  0
VERTEX
  8
0
 62
7
 10
22.75000000
 20
14.52450000
  0
VERTEX
  8
0
 62
7
 10
22.76500000
 20
14.55600000
  0
VERTEX
  8
0
 62
7
 10
22.75900000
 20
14.57925000
  0
VERTEX
  8
0
 62
7
 10
22.75600000
 20
14.60400000
  0
VERTEX
  8
0
 62
7
 10
22.75900000
 20
14.61700000
  0
VERTEX
  8
0
 62
7
 10
22.76167383
 20
14.63336328
  0
VERTEX
  8
0
 62
7
 10
22.76632813
 20
14.64796875
  0
VERTEX
  8
0
 62
7
 10
22.77241211
 20
14.66083984
  0
VERTEX
  8
0
 62
7
 10
22.77937500
 20
14.67200000
  0
VERTEX
  8
0
 62
7
 10
22.78666602
 20
14.68147266
  0
VERTEX
  8
0
 62
7
 10
22.79373438
 20
14.68928125
  0
VERTEX
  8
0
 62
7
 10
22.80002930
 20
14.69544922
  0
VERTEX
  8
0
 62
7
 10
22.80500000
 20
14.70000000
  0
VERTEX
  8
0
 62
7
 10
22.81900000
 20
14.71300000
  0
VERTEX
  8
0
 62
7
 10
22.83700000
 20
14.74000000
  0
VERTEX
  8
0
 62
7
 10
21.91800000
 20
14.74812500
  0
VERTEX
  8
0
 62
7
 10
20.99900000
 20
14.75100000
  0
VERTEX
  8
0
 62
7
 10
20.08100000
 20
14.74812500
  0
VERTEX
  8
0
 62
7
 10
19.16300000
 20
14.74000000
  0
VERTEX
  8
0
 62
7
 10
19.18100000
 20
14.71300000
  0
VERTEX
  8
0
 62
7
 10
19.19400000
 20
14.70000000
  0
VERTEX
  8
0
 62
7
 10
19.19901367
 20
14.69544922
  0
VERTEX
  8
0
 62
7
 10
19.20542188
 20
14.68928125
  0
VERTEX
  8
0
 62
7
 10
19.21265039
 20
14.68147266
  0
VERTEX
  8
0
 62
7
 10
19.22012500
 20
14.67200000
  0
VERTEX
  8
0
 62
7
 10
19.22727148
 20
14.66083984
  0
VERTEX
  8
0
 62
7
 10
19.23351563
 20
14.64796875
  0
VERTEX
  8
0
 62
7
 10
19.23828320
 20
14.63336328
  0
VERTEX
  8
0
 62
7
 10
19.24100000
 20
14.61700000
  0
VERTEX
  8
0
 62
7
 10
19.24300000
 20
14.60400000
  0
VERTEX
  8
0
 62
7
 10
19.24037500
 20
14.57925000
  0
VERTEX
  8
0
 62
7
 10
19.23400000
 20
14.55600000
  0
VERTEX
  8
0
 62
7
 10
19.24937500
 20
14.52450000
  0
VERTEX
  8
0
 62
7
 10
19.26100000
 20
14.49300000
  0
VERTEX
  8
0
 62
7
 10
19.68800000
 20
14.49500000
  0
VERTEX
  8
0
 62
7
 10
19.68800000
 20
13.58800000
  0
VERTEX
  8
0
 62
7
 10
18.77000000
 20
13.58800000
  0
VERTEX
  8
0
 62
7
 10
18.77000000
 20
13.79800000
  0
VERTEX
  8
0
 62
7
 10
18.73782617
 20
13.78278516
  0
VERTEX
  8
0
 62
7
 10
18.70517188
 20
13.77003125
  0
VERTEX
  8
0
 62
7
 10
18.67221289
 20
13.75957422
  0
VERTEX
  8
0
 62
7
 10
18.63912500
 20
13.75125000
  0
VERTEX
  8
0
 62
7
 10
18.60608398
 20
13.74489453
  0
VERTEX
  8
0
 62
7
 10
18.57326563
 20
13.74034375
  0
VERTEX
  8
0
 62
7
 10
18.54084570
 20
13.73743359
  0
VERTEX
  8
0
 62
7
 10
18.50900000
 20
13.73600000
  0
VERTEX
  8
0
 62
7
 10
18.50900000
 20
13.58800000
  0
VERTEX
  8
0
 62
7
 10
18.02400000
 20
13.58800000
  0
VERTEX
  8
0
 62
7
 10
18.00200000
 20
13.50000000
  0
VERTEX
  8
0
 62
7
 10
18.01694531
 20
13.50141016
  0
VERTEX
  8
0
 62
7
 10
18.03025000
 20
13.49984375
  0
VERTEX
  8
0
 62
7
 10
18.04186719
 20
13.49560547
  0
VERTEX
  8
0
 62
7
 10
18.05175000
 20
13.48900000
  0
VERTEX
  8
0
 62
7
 10
18.05985156
 20
13.48033203
  0
VERTEX
  8
0
 62
7
 10
18.06612500
 20
13.46990625
  0
VERTEX
  8
0
 62
7
 10
18.07052344
 20
13.45802734
  0
VERTEX
  8
0
 62
7
 10
18.07300000
 20
13.44500000
  0
VERTEX
  8
0
 62
7
 10
18.07300000
 20
13.41000000
  0
VERTEX
  8
0
 62
7
 10
18.07137500
 20
13.36750000
  0
VERTEX
  8
0
 62
7
 10
18.06600000
 20
13.32500000
  0
VERTEX
  8
0
 62
7
 10
18.50900000
 20
13.32500000
  0
VERTEX
  8
0
 62
7
 10
18.50900000
 20
12.40600000
  0
VERTEX
  8
0
 62
7
 10
17.92100000
 20
12.40600000
  0
VERTEX
  8
0
 62
7
 10
17.89854688
 20
12.37337500
  0
VERTEX
  8
0
 62
7
 10
17.87787500
 20
12.34000000
  0
VERTEX
  8
0
 62
7
 10
17.85926563
 20
12.30587500
  0
VERTEX
  8
0
 62
7
 10
17.84300000
 20
12.27100000
  0
VERTEX
  8
0
 62
7
 10
17.88100000
 20
12.27000000
  0
VERTEX
  8
0
 62
7
 10
17.89173633
 20
12.26866406
  0
VERTEX
  8
0
 62
7
 10
17.90201563
 20
12.26550000
  0
VERTEX
  8
0
 62
7
 10
17.91156836
 20
12.26064844
  0
VERTEX
  8
0
 62
7
 10
17.92012500
 20
12.25425000
  0
VERTEX
  8
0
 62
7
 10
17.92741602
 20
12.24644531
  0
VERTEX
  8
0
 62
7
 10
17.93317188
 20
12.23737500
  0
VERTEX
  8
0
 62
7
 10
17.93712305
 20
12.22717969
  0
VERTEX
  8
0
 62
7
 10
17.93900000
 20
12.21600000
  0
VERTEX
  8
0
 62
7
 10
17.94400000
 20
12.14300000
  0
VERTEX
  8
0
 62
7
 10
18.50900000
 20
12.14300000
  0
VERTEX
  8
0
 62
7
 10
18.50900000
 20
11.62000000
  0
VERTEX
  8
0
 62
7
 10
18.52200000
 20
11.60700000
  0
VERTEX
  8
0
 62
7
 10
18.54200000
 20
11.62800000
  0
VERTEX
  8
0
 62
7
 10
18.55612500
 20
11.63978125
  0
VERTEX
  8
0
 62
7
 10
18.57325000
 20
11.64650000
  0
VERTEX
  8
0
 62
7
 10
18.59150000
 20
11.64796875
  0
VERTEX
  8
0
 62
7
 10
18.60900000
 20
11.64400000
  0
VERTEX
  8
0
 62
7
 10
18.65089063
 20
11.62657813
  0
VERTEX
  8
0
 62
7
 10
18.69212500
 20
11.60737500
  0
VERTEX
  8
0
 62
7
 10
18.73204688
 20
11.58648438
  0
VERTEX
  8
0
 62
7
 10
18.77000000
 20
11.56400000
  0
VERTEX
  8
0
 62
7
 10
18.77000000
 20
12.14300000
  0
VERTEX
  8
0
 62
7
 10
19.68800000
 20
12.14300000
  0
VERTEX
  8
0
 62
7
 10
19.68800000
 20
11.93700000
  0
VERTEX
  8
0
 62
7
 10
19.70800000
 20
11.98300000
  0
VERTEX
  8
0
 62
7
 10
19.71640430
 20
11.99726172
  0
VERTEX
  8
0
 62
7
 10
19.72760938
 20
12.00784375
  0
VERTEX
  8
0
 62
7
 10
19.74085352
 20
12.01481641
  0
VERTEX
  8
0
 62
7
 10
19.75537500
 20
12.01825000
  0
VERTEX
  8
0
 62
7
 10
19.77041211
 20
12.01821484
  0
VERTEX
  8
0
 62
7
 10
19.78520313
 20
12.01478125
  0
VERTEX
  8
0
 62
7
 10
19.79898633
 20
12.00801953
  0
VERTEX
  8
0
 62
7
 10
19.81100000
 20
11.99800000
  0
VERTEX
  8
0
 62
7
 10
19.83356250
 20
11.97228125
  0
VERTEX
  8
0
 62
7
 10
19.85350000
 20
11.95275000
  0
VERTEX
  8
0
 62
7
 10
19.87118750
 20
11.94034375
  0
VERTEX
  8
0
 62
7
 10
19.88700000
 20
11.93600000
  0
VERTEX
  8
0
 62
7
 10
19.90400000
 20
11.93975000
  0
VERTEX
  8
0
 62
7
 10
19.91950000
 20
11.94800000
  0
VERTEX
  8
0
 62
7
 10
19.93425000
 20
11.96075000
  0
VERTEX
  8
0
 62
7
 10
19.94900000
 20
11.97800000
  0
VERTEX
  8
0
 62
7
 10
19.94900000
 20
12.14300000
  0
VERTEX
  8
0
 62
7
 10
20.86200000
 20
12.14300000
  0
VERTEX
  8
0
 62
7
 10
20.86200000
 20
11.09200000
  0
VERTEX
  8
0
 62
7
 10
20.87795313
 20
11.07154688
  0
VERTEX
  8
0
 62
7
 10
20.89437500
 20
11.05662500
  0
VERTEX
  8
0
 62
7
 10
20.91135938
 20
11.04714063
  0
VERTEX
  8
0
 62
7
 10
20.92900000
 20
11.04300000
  0
VERTEX
  8
0
 62
7
 10
20.94893750
 20
11.03765430
  0
VERTEX
  8
0
 62
7
 10
20.96437500
 20
11.02704688
  0
VERTEX
  8
0
 62
7
 10
20.97512500
 20
11.01257227
  0
VERTEX
  8
0
 62
7
 10
20.98100000
 20
10.99562500
  0
VERTEX
  8
0
 62
7
 10
20.98181250
 20
10.97759961
  0
VERTEX
  8
0
 62
7
 10
20.97737500
 20
10.95989063
  0
VERTEX
  8
0
 62
7
 10
20.96750000
 20
10.94389258
  0
VERTEX
  8
0
 62
7
 10
20.95200000
 20
10.93100000
  0
VERTEX
  8
0
 62
7
 10
20.92331250
 20
10.91107813
  0
VERTEX
  8
0
 62
7
 10
20.89800000
 20
10.88787500
  0
VERTEX
  8
0
 62
7
 10
20.87718750
 20
10.86223438
  0
VERTEX
  8
0
 62
7
 10
20.86200000
 20
10.83500000
  0
VERTEX
  8
0
 62
7
 10
20.86200000
 20
10.70300000
  0
VERTEX
  8
0
 62
7
 10
20.87682813
 20
10.67784375
  0
VERTEX
  8
0
 62
7
 10
20.89437500
 20
10.65625000
  0
VERTEX
  8
0
 62
7
 10
20.91473438
 20
10.63803125
  0
VERTEX
  8
0
 62
7
 10
20.93800000
 20
10.62300000
  0
VERTEX
  8
0
 62
7
 10
20.95315430
 20
10.61166797
  0
VERTEX
  8
0
 62
7
 10
20.96342188
 20
10.59721875
  0
VERTEX
  8
0
 62
7
 10
20.96888477
 20
10.58084766
  0
VERTEX
  8
0
 62
7
 10
20.96962500
 20
10.56375000
  0
VERTEX
  8
0
 62
7
 10
20.96572461
 20
10.54712109
  0
VERTEX
  8
0
 62
7
 10
20.95726563
 20
10.53215625
  0
VERTEX
  8
0
 62
7
 10
20.94433008
 20
10.52005078
  0
VERTEX
  8
0
 62
7
 10
20.92700000
 20
10.51200000
  0
VERTEX
  8
0
 62
7
 10
20.90742188
 20
10.50456250
  0
VERTEX
  8
0
 62
7
 10
20.88962500
 20
10.49450000
  0
VERTEX
  8
0
 62
7
 10
20.87426563
 20
10.48218750
  0
VERTEX
  8
0
 62
7
 10
20.86200000
 20
10.46800000
  0
VERTEX
  8
0
 62
7
 10
20.86200000
 20
10.40600000
  0
VERTEX
  8
0
 62
7
 10
20.87226563
 20
10.38178125
  0
VERTEX
  8
0
 62
7
 10
20.88412500
 20
10.36000000
  0
VERTEX
  8
0
 62
7
 10
20.89617188
 20
10.34271875
  0
VERTEX
  8
0
 62
7
 10
20.90700000
 20
10.33200000
  0
VERTEX
  8
0
 62
7
 10
20.91928711
 20
10.32051563
  0
VERTEX
  8
0
 62
7
 10
20.92767188
 20
10.30687500
  0
VERTEX
  8
0
 62
7
 10
20.93218945
 20
10.29192188
  0
VERTEX
  8
0
 62
7
 10
20.93287500
 20
10.27650000
  0
VERTEX
  8
0
 62
7
 10
20.92976367
 20
10.26145313
  0
VERTEX
  8
0
 62
7
 10
20.92289063
 20
10.24762500
  0
VERTEX
  8
0
 62
7
 10
20.91229102
 20
10.23585938
  0
VERTEX
  8
0
 62
7
 10
20.89800000
 20
10.22700000
  0
VERTEX
  8
0
 62
7
 10
20.86200000
 20
10.21100000
  0
VERTEX
  8
0
 62
7
 10
20.86200000
 20
9.70200000
  0
VERTEX
  8
0
 62
7
 10
20.93612500
 20
9.69162500
  0
VERTEX
  8
0
 62
7
 10
21.01100000
 20
9.68800000
  0
VERTEX
  8
0
 62
7
 10
21.07475000
 20
9.69100000
  0
VERTEX
  8
0
 62
7
 10
21.13700000
 20
9.70000000
  0
VERTEX
  8
0
 62
7
 10
21.13700000
 20
10.21100000
  0
VERTEX
  8
0
 62
7
 10
21.10100000
 20
10.22700000
  0
VERTEX
  8
0
 62
7
 10
21.08703906
 20
10.23585938
  0
VERTEX
  8
0
 62
7
 10
21.07668750
 20
10.24762500
  0
VERTEX
  8
0
 62
7
 10
21.06999219
 20
10.26145313
  0
VERTEX
  8
0
 62
7
 10
21.06700000
 20
10.27650000
  0
VERTEX
  8
0
 62
7
 10
21.06775781
 20
10.29192188
  0
VERTEX
  8
0
 62
7
 10
21.07231250
 20
10.30687500
  0
VERTEX
  8
0
 62
7
 10
21.08071094
 20
10.32051563
  0
VERTEX
  8
0
 62
7
 10
21.09300000
 20
10.33200000
  0
VERTEX
  8
0
 62
7
 10
21.10381250
 20
10.34271875
  0
VERTEX
  8
0
 62
7
 10
21.11575000
 20
10.36000000
  0
VERTEX
  8
0
 62
7
 10
21.12731250
 20
10.38178125
  0
VERTEX
  8
0
 62
7
 10
21.13700000
 20
10.40600000
  0
VERTEX
  8
0
 62
7
 10
21.13700000
 20
10.46800000
  0
VERTEX
  8
0
 62
7
 10
21.12515625
 20
10.48218750
  0
VERTEX
  8
0
 62
7
 10
21.10975000
 20
10.49450000
  0
VERTEX
  8
0
 62
7
 10
21.09171875
 20
10.50456250
  0
VERTEX
  8
0
 62
7
 10
21.07200000
 20
10.51200000
  0
VERTEX
  8
0
 62
7
 10
21.05495703
 20
10.52005078
  0
VERTEX
  8
0
 62
7
 10
21.04215625
 20
10.53215625
  0
VERTEX
  8
0
 62
7
 10
21.03371484
 20
10.54712109
  0
VERTEX
  8
0
 62
7
 10
21.02975000
 20
10.56375000
  0
VERTEX
  8
0
 62
7
 10
21.03037891
 20
10.58084766
  0
VERTEX
  8
0
 62
7
 10
21.03571875
 20
10.59721875
  0
VERTEX
  8
0
 62
7
 10
21.04588672
 20
10.61166797
  0
VERTEX
  8
0
 62
7
 10
21.06100000
 20
10.62300000
  0
VERTEX
  8
0
 62
7
 10
21.08468750
 20
10.63803125
  0
VERTEX
  8
0
 62
7
 10
21.10500000
 20
10.65625000
  0
VERTEX
  8
0
 62
7
 10
21.12231250
 20
10.67784375
  0
VERTEX
  8
0
 62
7
 10
21.13700000
 20
10.70300000
  0
VERTEX
  8
0
 62
7
 10
21.13700000
 20
10.83500000
  0
VERTEX
  8
0
 62
7
 10
21.12239063
 20
10.86223438
  0
VERTEX
  8
0
 62
7
 10
21.10187500
 20
10.88787500
  0
VERTEX
  8
0
 62
7
 10
21.07667188
 20
10.91107813
  0
VERTEX
  8
0
 62
7
 10
21.04800000
 20
10.93100000
  0
VERTEX
  8
0
 62
7
 10
21.03249805
 20
10.94389258
  0
VERTEX
  8
0
 62
7
 10
21.02260938
 20
10.95989063
  0
VERTEX
  8
0
 62
7
 10
21.01813477
 20
10.97759961
  0
VERTEX
  8
0
 62
7
 10
21.01887500
 20
10.99562500
  0
VERTEX
  8
0
 62
7
 10
21.02463086
 20
11.01257227
  0
VERTEX
  8
0
 62
7
 10
21.03520313
 20
11.02704688
  0
VERTEX
  8
0
 62
7
 10
21.05039258
 20
11.03765430
  0
VERTEX
  8
0
 62
7
 10
21.07000000
 20
11.04300000
  0
VERTEX
  8
0
 62
7
 10
21.08820313
 20
11.04714063
  0
VERTEX
  8
0
 62
7
 10
21.10537500
 20
11.05662500
  0
VERTEX
  8
0
 62
7
 10
21.12160938
 20
11.07154688
  0
VERTEX
  8
0
 62
7
 10
21.13700000
 20
11.09200000
  0
VERTEX
  8
0
 62
7
 10
21.13700000
 20
12.14300000
  0
VERTEX
  8
0
 62
7
 10
22.05100000
 20
12.14300000
  0
VERTEX
  8
0
 62
7
 10
22.05100000
 20
11.97800000
  0
VERTEX
  8
0
 62
7
 10
22.06575000
 20
11.96075000
  0
VERTEX
  8
0
 62
7
 10
22.08050000
 20
11.94800000
  0
VERTEX
  8
0
 62
7
 10
22.09600000
 20
11.93975000
  0
VERTEX
  8
0
 62
7
 10
22.11300000
 20
11.93600000
  0
VERTEX
  8
0
 62
7
 10
22.11500000
 20
11.93600000
  0
VERTEX
  8
0
 62
7
 10
22.13064063
 20
11.94034375
  0
VERTEX
  8
0
 62
7
 10
22.14787500
 20
11.95275000
  0
VERTEX
  8
0
 62
7
 10
22.16717188
 20
11.97228125
  0
VERTEX
  8
0
 62
7
 10
22.18900000
 20
11.99800000
  0
VERTEX
  8
0
 62
7
 10
22.20101367
 20
12.00801953
  0
VERTEX
  8
0
 62
7
 10
22.21479688
 20
12.01478125
  0
VERTEX
  8
0
 62
7
 10
22.22958789
 20
12.01821484
  0
VERTEX
  8
0
 62
7
 10
22.24462500
 20
12.01825000
  0
VERTEX
  8
0
 62
7
 10
22.25914648
 20
12.01481641
  0
VERTEX
  8
0
 62
7
 10
22.27239063
 20
12.00784375
  0
VERTEX
  8
0
 62
7
 10
22.28359570
 20
11.99726172
  0
VERTEX
  8
0
 62
7
 10
22.29200000
 20
11.98300000
  0
VERTEX
  8
0
 62
7
 10
22.31200000
 20
11.93700000
  0
VERTEX
  8
0
 62
7
 10
22.31200000
 20
12.14300000
  0
VERTEX
  8
0
 62
7
 10
23.23000000
 20
12.14300000
  0
VERTEX
  8
0
 62
7
 10
23.23000000
 20
11.56400000
  0
VERTEX
  8
0
 62
7
 10
23.26795313
 20
11.58648438
  0
VERTEX
  8
0
 62
7
 10
23.30787500
 20
11.60737500
  0
VERTEX
  8
0
 62
7
 10
23.34910938
 20
11.62657813
  0
VERTEX
  8
0
 62
7
 10
23.39100000
 20
11.64400000
  0
VERTEX
  8
0
 62
7
 10
23.40850000
 20
11.64796875
  0
VERTEX
  8
0
 62
7
 10
23.42675000
 20
11.64650000
  0
VERTEX
  8
0
 62
7
 10
23.44387500
 20
11.63978125
  0
VERTEX
  8
0
 62
7
 10
23.45800000
 20
11.62800000
  0
VERTEX
  8
0
 62
7
 10
23.47800000
 20
11.60700000
  0
VERTEX
  8
0
 62
7
 10
23.49100000
 20
11.62000000
  0
VERTEX
  8
0
 62
7
 10
23.49100000
 20
12.14300000
  0
VERTEX
  8
0
 62
7
 10
24.05600000
 20
12.14600000
  0
SEQEND
  0
POLYLINE
  8
0
 62
7
 66
1
 70
1
  0
VERTEX
  8
0
 62
7
 10
24.07500000
 20
14.47000000
  0
VERTEX
  8
0
 62
7
 10
24.08015430
 20
14.48098242
  0
VERTEX
  8
0
 62
7
 10
24.08717188
 20
14.49054688
  0
VERTEX
  8
0
 62
7
 10
24.09575977
 20
14.49849414
  0
VERTEX
  8
0
 62
7
 10
24.10562500
 20
14.50462500
  0
VERTEX
  8
0
 62
7
 10
24.11647461
 20
14.50874023
  0
VERTEX
  8
0
 62
7
 10
24.12801563
 20
14.51064063
  0
VERTEX
  8
0
 62
7
 10
24.13995508
 20
14.51012695
  0
VERTEX
  8
0
 62
7
 10
24.15200000
 20
14.50700000
  0
VERTEX
  8
0
 62
7
 10
24.16500000
 20
14.50200000
  0
VERTEX
  8
0
 62
7
 10
24.16300000
 20
14.55400000
  0
VERTEX
  8
0
 62
7
 10
24.16587500
 20
14.61987500
  0
VERTEX
  8
0
 62
7
 10
24.17400000
 20
14.68500000
  0
VERTEX
  8
0
 62
7
 10
24.18000000
 20
14.71800000
  0
VERTEX
  8
0
 62
7
 10
23.81400000
 20
14.72500000
  0
VERTEX
  8
0
 62
7
 10
23.84650000
 20
14.68850000
  0
VERTEX
  8
0
 62
7
 10
23.87600000
 20
14.64900000
  0
VERTEX
  8
0
 62
7
 10
23.90490625
 20
14.60390625
  0
VERTEX
  8
0
 62
7
 10
23.93025000
 20
14.55975000
  0
VERTEX
  8
0
 62
7
 10
23.95221875
 20
14.51596875
  0
VERTEX
  8
0
 62
7
 10
23.97100000
 20
14.47200000
  0
VERTEX
  8
0
 62
7
 10
24.07500000
 20
14.47000000
  0
SEQEND
  0
POLYLINE
  8
0
 62
7
 66
1
 70
1
  0
VERTEX
  8
0
 62
7
 10
21.22000000
 20
9.53300000
  0
VERTEX
  8
0
 62
7
 10
21.26909375
 20
9.54806250
  0
VERTEX
  8
0
 62
7
 10
21.32325000
 20
9.57250000
  0
VERTEX
  8
0
 62
7
 10
21.37778125
 20
9.60443750
  0
VERTEX
  8
0
 62
7
 10
21.42800000
 20
9.64200000
  0
VERTEX
  8
0
 62
7
 10
21.45258203
 20
9.66473633
  0
VERTEX
  8
0
 62
7
 10
21.47596875
 20
9.68870313
  0
VERTEX
  8
0
 62
7
 10
21.49799609
 20
9.71391211
  0
VERTEX
  8
0
 62
7
 10
21.51850000
 20
9.74037500
  0
VERTEX
  8
0
 62
7
 10
21.53731641
 20
9.76810352
  0
VERTEX
  8
0
 62
7
 10
21.55428125
 20
9.79710938
  0
VERTEX
  8
0
 62
7
 10
21.56923047
 20
9.82740430
  0
VERTEX
  8
0
 62
7
 10
21.58200000
 20
9.85900000
  0
VERTEX
  8
0
 62
7
 10
21.59628125
 20
9.89795313
  0
VERTEX
  8
0
 62
7
 10
21.60775000
 20
9.93812500
  0
VERTEX
  8
0
 62
7
 10
21.61659375
 20
9.97923438
  0
VERTEX
  8
0
 62
7
 10
21.62300000
 20
10.02100000
  0
VERTEX
  8
0
 62
7
 10
21.59650000
 20
10.00987500
  0
VERTEX
  8
0
 62
7
 10
21.56700000
 20
10.00100000
  0
VERTEX
  8
0
 62
7
 10
21.53837500
 20
9.99587500
  0
VERTEX
  8
0
 62
7
 10
21.50900000
 20
9.99300000
  0
VERTEX
  8
0
 62
7
 10
21.49329688
 20
9.94078125
  0
VERTEX
  8
0
 62
7
 10
21.47187500
 20
9.89100000
  0
VERTEX
  8
0
 62
7
 10
21.44501563
 20
9.84421875
  0
VERTEX
  8
0
 62
7
 10
21.41300000
 20
9.80100000
  0
VERTEX
  8
0
 62
7
 10
21.39222852
 20
9.77820312
  0
VERTEX
  8
0
 62
7
 10
21.36926563
 20
9.75587500
  0
VERTEX
  8
0
 62
7
 10
21.34463867
 20
9.73448437
  0
VERTEX
  8
0
 62
7
 10
21.31887500
 20
9.71450000
  0
VERTEX
  8
0
 62
7
 10
21.29250195
 20
9.69639062
  0
VERTEX
  8
0
 62
7
 10
21.26604688
 20
9.68062500
  0
VERTEX
  8
0
 62
7
 10
21.24003711
 20
9.66767188
  0
VERTEX
  8
0
 62
7
 10
21.21500000
 20
9.65800000
  0
VERTEX
  8
0
 62
7
 10
21.16145117
 20
9.64335742
  0
VERTEX
  8
0
 62
7
 10
21.10685938
 20
9.63367187
  0
VERTEX
  8
0
 62
7
 10
21.05168164
 20
9.62855664
  0
VERTEX
  8
0
 62
7
 10
20.99637500
 20
9.62762500
  0
VERTEX
  8
0
 62
7
 10
20.94139648
 20
9.63049023
  0
VERTEX
  8
0
 62
7
 10
20.88720313
 20
9.63676563
  0
VERTEX
  8
0
 62
7
 10
20.83425195
 20
9.64606445
  0
VERTEX
  8
0
 62
7
 10
20.78300000
 20
9.65800000
  0
VERTEX
  8
0
 62
7
 10
20.76005859
 20
9.66594922
  0
VERTEX
  8
0
 62
7
 10
20.73521875
 20
9.67809375
  0
VERTEX
  8
0
 62
7
 10
20.70920703
 20
9.69375391
  0
VERTEX
  8
0
 62
7
 10
20.68275000
 20
9.71225000
  0
VERTEX
  8
0
 62
7
 10
20.65657422
 20
9.73290234
  0
VERTEX
  8
0
 62
7
 10
20.63140625
 20
9.75503125
  0
VERTEX
  8
0
 62
7
 10
20.60797266
 20
9.77795703
  0
VERTEX
  8
0
 62
7
 10
20.58700000
 20
9.80100000
  0
VERTEX
  8
0
 62
7
 10
20.55498438
 20
9.84421875
  0
VERTEX
  8
0
 62
7
 10
20.52812500
 20
9.89100000
  0
VERTEX
  8
0
 62
7
 10
20.50670313
 20
9.94078125
  0
VERTEX
  8
0
 62
7
 10
20.49100000
 20
9.99300000
  0
VERTEX
  8
0
 62
7
 10
20.46162500
 20
9.99587500
  0
VERTEX
  8
0
 62
7
 10
20.43300000
 20
10.00100000
  0
VERTEX
  8
0
 62
7
 10
20.40350000
 20
10.00987500
  0
VERTEX
  8
0
 62
7
 10
20.37700000
 20
10.02100000
  0
VERTEX
  8
0
 62
7
 10
20.38340625
 20
9.97923438
  0
VERTEX
  8
0
 62
7
 10
20.39225000
 20
9.93812500
  0
VERTEX
  8
0
 62
7
 10
20.40371875
 20
9.89795313
  0
VERTEX
  8
0
 62
7
 10
20.41800000
 20
9.85900000
  0
VERTEX
  8
0
 62
7
 10
20.43064063
 20
9.82731836
  0
VERTEX
  8
0
 62
7
 10
20.44525000
 20
9.79679688
  0
VERTEX
  8
0
 62
7
 10
20.46173438
 20
9.76747070
  0
VERTEX
  8
0
 62
7
 10
20.48000000
 20
9.73937500
  0
VERTEX
  8
0
 62
7
 10
20.49995313
 20
9.71254492
  0
VERTEX
  8
0
 62
7
 10
20.52150000
 20
9.68701563
  0
VERTEX
  8
0
 62
7
 10
20.54454688
 20
9.66282227
  0
VERTEX
  8
0
 62
7
 10
20.56900000
 20
9.64000000
  0
VERTEX
  8
0
 62
7
 10
20.62023438
 20
9.60275000
  0
VERTEX
  8
0
 62
7
 10
20.67737500
 20
9.57150000
  0
VERTEX
  8
0
 62
7
 10
20.73507813
 20
9.54775000
  0
VERTEX
  8
0
 62
7
 10
20.78800000
 20
9.53300000
  0
VERTEX
  8
0
 62
7
 10
20.84048242
 20
9.52364844
  0
VERTEX
  8
0
 62
7
 10
20.89360938
 20
9.51668750
  0
VERTEX
  8
0
 62
7
 10
20.94727539
 20
9.51225781
  0
VERTEX
  8
0
 62
7
 10
21.00137500
 20
9.51050000
  0
VERTEX
  8
0
 62
7
 10
21.05580273
 20
9.51155469
  0
VERTEX
  8
0
 62
7
 10
21.11045313
 20
9.51556250
  0
VERTEX
  8
0
 62
7
 10
21.16522070
 20
9.52266406
  0
VERTEX
  8
0
 62
7
 10
21.22000000
 20
9.53300000
  0
SEQEND
  0
POLYLINE
  8
0
 62
7
 66
1
 70
1
  0
VERTEX
  8
0
 62
7
 10
22.08800000
 20
11.16000000
  0
VERTEX
  8
0
 62
7
 10
22.07149844
 20
11.14039886
  0
VERTEX
  8
0
 62
7
 10
22.05107453
 20
11.12400843
  0
VERTEX
  8
0
 62
7
 10
22.02756030
 20
11.11166110
  0
VERTEX
  8
0
 62
7
 10
22.00178774
 20
11.10418928
  0
VERTEX
  8
0
 62
7
 10
21.97559919
 20
11.10375326
  0
VERTEX
  8
0
 62
7
 10
21.94917291
 20
11.10831167
  0
VERTEX
  8
0
 62
7
 10
21.92369750
 20
11.11810232
  0
VERTEX
  8
0
 62
7
 10
21.90036156
 20
11.13336307
  0
VERTEX
  8
0
 62
7
 10
21.89639960
 20
11.10597301
  0
VERTEX
  8
0
 62
7
 10
21.88673241
 20
11.07977209
  0
VERTEX
  8
0
 62
7
 10
21.87183544
 20
11.05594948
  0
VERTEX
  8
0
 62
7
 10
21.85218412
 20
11.03569431
  0
VERTEX
  8
0
 62
7
 10
21.82387591
 20
11.01359596
  0
VERTEX
  8
0
 62
7
 10
21.79116993
 20
10.99875142
  0
VERTEX
  8
0
 62
7
 10
21.75537362
 20
10.99127960
  0
VERTEX
  8
0
 62
7
 10
21.71779443
 20
10.99129942
  0
VERTEX
  8
0
 62
7
 10
21.73578173
 20
10.95804290
  0
VERTEX
  8
0
 62
7
 10
21.74568663
 20
10.92217024
  0
VERTEX
  8
0
 62
7
 10
21.74703369
 20
10.88534627
  0
VERTEX
  8
0
 62
7
 10
21.73934749
 20
10.84923578
  0
VERTEX
  8
0
 62
7
 10
21.72064704
 20
10.81308566
  0
VERTEX
  8
0
 62
7
 10
21.69624136
 20
10.78454609
  0
VERTEX
  8
0
 62
7
 10
21.71288160
 20
10.73666303
  0
VERTEX
  8
0
 62
7
 10
21.72286574
 20
10.68687733
  0
VERTEX
  8
0
 62
7
 10
21.72619378
 20
10.65508742
  0
VERTEX
  8
0
 62
7
 10
21.72666922
 20
10.62282185
  0
VERTEX
  8
0
 62
7
 10
21.72429204
 20
10.59055628
  0
VERTEX
  8
0
 62
7
 10
21.71906225
 20
10.55876637
  0
VERTEX
  8
0
 62
7
 10
21.74313116
 20
10.54503170
  0
VERTEX
  8
0
 62
7
 10
21.76422860
 20
10.52879982
  0
VERTEX
  8
0
 62
7
 10
21.78271115
 20
10.51042747
  0
VERTEX
  8
0
 62
7
 10
21.79893537
 20
10.49027140
  0
VERTEX
  8
0
 62
7
 10
21.81414930
 20
10.46500198
  0
VERTEX
  8
0
 62
7
 10
21.82555975
 20
10.43747319
  0
VERTEX
  8
0
 62
7
 10
21.83316671
 20
10.40875525
  0
VERTEX
  8
0
 62
7
 10
21.83697019
 20
10.37991839
  0
VERTEX
  8
0
 62
7
 10
21.87617379
 20
10.37970038
  0
VERTEX
  8
0
 62
7
 10
21.91383222
 20
10.37341771
  0
VERTEX
  8
0
 62
7
 10
21.94982663
 20
10.36118929
  0
VERTEX
  8
0
 62
7
 10
21.98403816
 20
10.34313405
  0
VERTEX
  8
0
 62
7
 10
22.01032577
 20
10.32394912
  0
VERTEX
  8
0
 62
7
 10
22.03364190
 20
10.30095891
  0
VERTEX
  8
0
 62
7
 10
22.05339228
 20
10.27463908
  0
VERTEX
  8
0
 62
7
 10
22.06898259
 20
10.24546530
  0
VERTEX
  8
0
 62
7
 10
22.08492948
 20
10.26030984
  0
VERTEX
  8
0
 62
7
 10
22.10242154
 20
10.27194368
  0
VERTEX
  8
0
 62
7
 10
22.12157761
 20
10.27953441
  0
VERTEX
  8
0
 62
7
 10
22.14251657
 20
10.28224963
  0
VERTEX
  8
0
 62
7
 10
22.15981053
 20
10.28326041
  0
VERTEX
  8
0
 62
7
 10
22.17722335
 20
10.28082265
  0
VERTEX
  8
0
 62
7
 10
22.19439844
 20
10.27529311
  0
VERTEX
  8
0
 62
7
 10
22.21097925
 20
10.26702853
  0
VERTEX
  8
0
 62
7
 10
22.22712424
 20
10.29263487
  0
VERTEX
  8
0
 62
7
 10
22.24980646
 20
10.31205763
  0
VERTEX
  8
0
 62
7
 10
22.27748075
 20
10.32482116
  0
VERTEX
  8
0
 62
7
 10
22.30860195
 20
10.33044980
  0
VERTEX
  8
0
 62
7
 10
22.33039273
 20
10.33064799
  0
VERTEX
  8
0
 62
7
 10
22.35170808
 20
10.32727873
  0
VERTEX
  8
0
 62
7
 10
22.37207256
 20
10.32010420
  0
VERTEX
  8
0
 62
7
 10
22.39101073
 20
10.30888657
  0
VERTEX
  8
0
 62
7
 10
22.38599885
 20
10.33861529
  0
VERTEX
  8
0
 62
7
 10
22.38799964
 20
10.36786835
  0
VERTEX
  8
0
 62
7
 10
22.39689424
 20
10.39521877
  0
VERTEX
  8
0
 62
7
 10
22.41256379
 20
10.41923957
  0
VERTEX
  8
0
 62
7
 10
22.42851068
 20
10.43319225
  0
VERTEX
  8
0
 62
7
 10
22.44600274
 20
10.44429098
  0
VERTEX
  8
0
 62
7
 10
22.46515881
 20
10.45206008
  0
VERTEX
  8
0
 62
7
 10
22.48609777
 20
10.45602391
  0
VERTEX
  8
0
 62
7
 10
22.48435451
 20
10.49566220
  0
VERTEX
  8
0
 62
7
 10
22.49116908
 20
10.53339786
  0
VERTEX
  8
0
 62
7
 10
22.50269839
 20
10.55496109
  0
VERTEX
  8
0
 62
7
 10
22.51684259
 20
10.57367037
  0
VERTEX
  8
0
 62
7
 10
22.53431483
 20
10.58905002
  0
VERTEX
  8
0
 62
7
 10
22.55582828
 20
10.60062440
  0
VERTEX
  8
0
 62
7
 10
22.52771817
 20
10.62276239
  0
VERTEX
  8
0
 62
7
 10
22.50685845
 20
10.65025155
  0
VERTEX
  8
0
 62
7
 10
22.49431884
 20
10.68178381
  0
VERTEX
  8
0
 62
7
 10
22.49116908
 20
10.71605111
  0
VERTEX
  8
0
 62
7
 10
22.49283311
 20
10.73569189
  0
VERTEX
  8
0
 62
7
 10
22.49782518
 20
10.75426243
  0
VERTEX
  8
0
 62
7
 10
22.50614529
 20
10.77116816
  0
VERTEX
  8
0
 62
7
 10
22.51779346
 20
10.78581451
  0
VERTEX
  8
0
 62
7
 10
22.49986559
 20
10.80260133
  0
VERTEX
  8
0
 62
7
 10
22.48657321
 20
10.82212319
  0
VERTEX
  8
0
 62
7
 10
22.47874834
 20
10.84378552
  0
VERTEX
  8
0
 62
7
 10
22.47722298
 20
10.86699374
  0
VERTEX
  8
0
 62
7
 10
22.47755975
 20
10.88213556
  0
VERTEX
  8
0
 62
7
 10
22.48181886
 20
10.89680173
  0
VERTEX
  8
0
 62
7
 10
22.48916829
 20
10.91051658
  0
VERTEX
  8
0
 62
7
 10
22.49877605
 20
10.92280445
  0
VERTEX
  8
0
 62
7
 10
22.47835214
 20
10.93025645
  0
VERTEX
  8
0
 62
7
 10
22.46089971
 20
10.94246505
  0
VERTEX
  8
0
 62
7
 10
22.44653760
 20
10.95847892
  0
VERTEX
  8
0
 62
7
 10
22.43538468
 20
10.97734674
  0
VERTEX
  8
0
 62
7
 10
22.42904555
 20
10.99789920
  0
VERTEX
  8
0
 62
7
 10
22.42746076
 20
11.01904623
  0
VERTEX
  8
0
 62
7
 10
22.43110577
 20
11.03995543
  0
VERTEX
  8
0
 62
7
 10
22.44045599
 20
11.05979439
  0
VERTEX
  8
0
 62
7
 10
22.40733400
 20
11.05690080
  0
VERTEX
  8
0
 62
7
 10
22.37516289
 20
11.06137993
  0
VERTEX
  8
0
 62
7
 10
22.34489351
 20
11.07299395
  0
VERTEX
  8
0
 62
7
 10
22.31747674
 20
11.09150503
  0
VERTEX
  8
0
 62
7
 10
22.29592368
 20
11.11544656
  0
VERTEX
  8
0
 62
7
 10
22.27817410
 20
11.14224204
  0
VERTEX
  8
0
 62
7
 10
22.25775019
 20
11.12638673
  0
VERTEX
  8
0
 62
7
 10
22.23364166
 20
11.11528801
  0
VERTEX
  8
0
 62
7
 10
22.20739367
 20
11.10942154
  0
VERTEX
  8
0
 62
7
 10
22.18055139
 20
11.10926298
  0
VERTEX
  8
0
 62
7
 10
22.15307520
 20
11.11415831
  0
VERTEX
  8
0
 62
7
 10
22.12809504
 20
11.12464264
  0
VERTEX
  8
0
 62
7
 10
22.10620521
 20
11.14012140
  0
VERTEX
  8
0
 62
7
 10
22.08800000
 20
11.16000000
  0
SEQEND
  0
POLYLINE
  8
0
 62
7
 66
1
 70
1
  0
VERTEX
  8
0
 62
7
 10
21.97700000
 20
10.98900000
  0
VERTEX
  8
0
 62
7
 10
21.98944056
 20
10.97371944
  0
VERTEX
  8
0
 62
7
 10
22.00520916
 20
10.96379005
  0
VERTEX
  8
0
 62
7
 10
22.02335494
 20
10.95885508
  0
VERTEX
  8
0
 62
7
 10
22.04292702
 20
10.95855779
  0
VERTEX
  8
0
 62
7
 10
22.05903239
 20
10.96250180
  0
VERTEX
  8
0
 62
7
 10
22.07383031
 20
10.97013217
  0
VERTEX
  8
0
 62
7
 10
22.08553790
 20
10.98085433
  0
VERTEX
  8
0
 62
7
 10
22.09237228
 20
10.99407370
  0
VERTEX
  8
0
 62
7
 10
22.14308538
 20
10.96997362
  0
VERTEX
  8
0
 62
7
 10
22.20520892
 20
10.98265787
  0
VERTEX
  8
0
 62
7
 10
22.22771285
 20
10.94587354
  0
VERTEX
  8
0
 62
7
 10
22.25592201
 20
10.91289448
  0
VERTEX
  8
0
 62
7
 10
22.27957491
 20
10.89045920
  0
VERTEX
  8
0
 62
7
 10
22.30631814
 20
10.87230486
  0
VERTEX
  8
0
 62
7
 10
22.33543855
 20
10.85795580
  0
VERTEX
  8
0
 62
7
 10
22.36622298
 20
10.84693636
  0
VERTEX
  8
0
 62
7
 10
22.35271270
 20
10.82448126
  0
VERTEX
  8
0
 62
7
 10
22.34276818
 20
10.79952896
  0
VERTEX
  8
0
 62
7
 10
22.33662714
 20
10.77291184
  0
VERTEX
  8
0
 62
7
 10
22.33452730
 20
10.74546233
  0
VERTEX
  8
0
 62
7
 10
22.33430939
 20
10.72265049
  0
VERTEX
  8
0
 62
7
 10
22.33753839
 20
10.69995757
  0
VERTEX
  8
0
 62
7
 10
22.34433315
 20
10.67750247
  0
VERTEX
  8
0
 62
7
 10
22.35481254
 20
10.65540412
  0
VERTEX
  8
0
 62
7
 10
22.33183317
 20
10.62924285
  0
VERTEX
  8
0
 62
7
 10
22.31550989
 20
10.59832498
  0
VERTEX
  8
0
 62
7
 10
22.30823969
 20
10.57277810
  0
VERTEX
  8
0
 62
7
 10
22.30584271
 20
10.54616099
  0
VERTEX
  8
0
 62
7
 10
22.30891323
 20
10.51930604
  0
VERTEX
  8
0
 62
7
 10
22.31804555
 20
10.49304567
  0
VERTEX
  8
0
 62
7
 10
22.28710264
 20
10.49615728
  0
VERTEX
  8
0
 62
7
 10
22.25687288
 20
10.49605818
  0
VERTEX
  8
0
 62
7
 10
22.22711856
 20
10.49286730
  0
VERTEX
  8
0
 62
7
 10
22.19760195
 20
10.48670355
  0
VERTEX
  8
0
 62
7
 10
22.16657980
 20
10.47623904
  0
VERTEX
  8
0
 62
7
 10
22.13674624
 20
10.46196925
  0
VERTEX
  8
0
 62
7
 10
22.10881442
 20
10.44389419
  0
VERTEX
  8
0
 62
7
 10
22.08349749
 20
10.42201385
  0
VERTEX
  8
0
 62
7
 10
22.00235655
 20
10.48924040
  0
VERTEX
  8
0
 62
7
 10
21.94039149
 20
10.52475631
  0
VERTEX
  8
0
 62
7
 10
21.87557382
 20
10.55266167
  0
VERTEX
  8
0
 62
7
 10
21.88904448
 20
10.57321412
  0
VERTEX
  8
0
 62
7
 10
21.89680992
 20
10.59626379
  0
VERTEX
  8
0
 62
7
 10
21.89839471
 20
10.62097827
  0
VERTEX
  8
0
 62
7
 10
21.89332340
 20
10.64652515
  0
VERTEX
  8
0
 62
7
 10
21.88458728
 20
10.66549207
  0
VERTEX
  8
0
 62
7
 10
21.87192881
 20
10.68219961
  0
VERTEX
  8
0
 62
7
 10
21.85570458
 20
10.69629102
  0
VERTEX
  8
0
 62
7
 10
21.83627117
 20
10.70740956
  0
VERTEX
  8
0
 62
7
 10
21.85267368
 20
10.72158025
  0
VERTEX
  8
0
 62
7
 10
21.86669902
 20
10.73896165
  0
VERTEX
  8
0
 62
7
 10
21.87692088
 20
10.75895916
  0
VERTEX
  8
0
 62
7
 10
21.88191295
 20
10.78097824
  0
VERTEX
  8
0
 62
7
 10
21.88080360
 20
10.80482067
  0
VERTEX
  8
0
 62
7
 10
21.87398903
 20
10.82806853
  0
VERTEX
  8
0
 62
7
 10
21.86194467
 20
10.84965158
  0
VERTEX
  8
0
 62
7
 10
21.84514596
 20
10.86849959
  0
VERTEX
  8
0
 62
7
 10
21.87935996
 20
10.87492595
  0
VERTEX
  8
0
 62
7
 10
21.90657616
 20
10.88376033
  0
VERTEX
  8
0
 62
7
 10
21.92776026
 20
10.89503247
  0
VERTEX
  8
0
 62
7
 10
21.94387801
 20
10.90877209
  0
VERTEX
  8
0
 62
7
 10
21.95589513
 20
10.92500893
  0
VERTEX
  8
0
 62
7
 10
21.96477735
 20
10.94377271
  0
VERTEX
  8
0
 62
7
 10
21.97149040
 20
10.96509315
  0
VERTEX
  8
0
 62
7
 10
21.97700000
 20
10.98900000
  0
SEQEND
  0
POLYLINE
  8
0
 62
7
 66
1
 70
1
  0
VERTEX
  8
0
 62
7
 10
21.83100000
 20
10.32100000
  0
VERTEX
  8
0
 62
7
 10
21.81103125
 20
10.32706250
  0
VERTEX
  8
0
 62
7
 10
21.79425000
 20
10.33875000
  0
VERTEX
  8
0
 62
7
 10
21.78234375
 20
10.35531250
  0
VERTEX
  8
0
 62
7
 10
21.77700000
 20
10.37600000
  0
VERTEX
  8
0
 62
7
 10
21.77418750
 20
10.39762500
  0
VERTEX
  8
0
 62
7
 10
21.76875000
 20
10.41850000
  0
VERTEX
  8
0
 62
7
 10
21.76068750
 20
10.43787500
  0
VERTEX
  8
0
 62
7
 10
21.75000000
 20
10.45500000
  0
VERTEX
  8
0
 62
7
 10
21.73814063
 20
10.47040625
  0
VERTEX
  8
0
 62
7
 10
21.72487500
 20
10.48375000
  0
VERTEX
  8
0
 62
7
 10
21.70992188
 20
10.49521875
  0
VERTEX
  8
0
 62
7
 10
21.69300000
 20
10.50500000
  0
VERTEX
  8
0
 62
7
 10
21.67673438
 20
10.51657813
  0
VERTEX
  8
0
 62
7
 10
21.66487500
 20
10.53237500
  0
VERTEX
  8
0
 62
7
 10
21.65882813
 20
10.55098438
  0
VERTEX
  8
0
 62
7
 10
21.66000000
 20
10.57100000
  0
VERTEX
  8
0
 62
7
 10
21.66537500
 20
10.60125000
  0
VERTEX
  8
0
 62
7
 10
21.66700000
 20
10.63300000
  0
VERTEX
  8
0
 62
7
 10
21.66300000
 20
10.67900000
  0
VERTEX
  8
0
 62
7
 10
21.65500000
 20
10.72050000
  0
VERTEX
  8
0
 62
7
 10
21.64100000
 20
10.76200000
  0
VERTEX
  8
0
 62
7
 10
21.63657813
 20
10.77992188
  0
VERTEX
  8
0
 62
7
 10
21.63712500
 20
10.79812500
  0
VERTEX
  8
0
 62
7
 10
21.64310938
 20
10.81501563
  0
VERTEX
  8
0
 62
7
 10
21.65500000
 20
10.82900000
  0
VERTEX
  8
0
 62
7
 10
21.67125000
 20
10.84687500
  0
VERTEX
  8
0
 62
7
 10
21.68300000
 20
10.87000000
  0
VERTEX
  8
0
 62
7
 10
21.68662500
 20
10.88325000
  0
VERTEX
  8
0
 62
7
 10
21.68800000
 20
10.89800000
  0
VERTEX
  8
0
 62
7
 10
21.68671875
 20
10.91312500
  0
VERTEX
  8
0
 62
7
 10
21.68300000
 20
10.92825000
  0
VERTEX
  8
0
 62
7
 10
21.67703125
 20
10.94300000
  0
VERTEX
  8
0
 62
7
 10
21.66900000
 20
10.95700000
  0
VERTEX
  8
0
 62
7
 10
21.66135547
 20
10.97309766
  0
VERTEX
  8
0
 62
7
 10
21.65903125
 20
10.98940625
  0
VERTEX
  8
0
 62
7
 10
21.66144141
 20
11.00519922
  0
VERTEX
  8
0
 62
7
 10
21.66800000
 20
11.01975000
  0
VERTEX
  8
0
 62
7
 10
21.67812109
 20
11.03233203
  0
VERTEX
  8
0
 62
7
 10
21.69121875
 20
11.04221875
  0
VERTEX
  8
0
 62
7
 10
21.70670703
 20
11.04868359
  0
VERTEX
  8
0
 62
7
 10
21.72400000
 20
11.05100000
  0
VERTEX
  8
0
 62
7
 10
21.73600000
 20
11.05000000
  0
VERTEX
  8
0
 62
7
 10
21.75715625
 20
11.05201563
  0
VERTEX
  8
0
 62
7
 10
21.77700000
 20
11.05787500
  0
VERTEX
  8
0
 62
7
 10
21.79534375
 20
11.06729688
  0
VERTEX
  8
0
 62
7
 10
21.81200000
 20
11.08000000
  0
VERTEX
  8
0
 62
7
 10
21.82837500
 20
11.09925000
  0
VERTEX
  8
0
 62
7
 10
21.83800000
 20
11.12000000
  0
VERTEX
  8
0
 62
7
 10
21.79925000
 20
11.18225000
  0
VERTEX
  8
0
 62
7
 10
21.75300000
 20
11.24000000
  0
VERTEX
  8
0
 62
7
 10
21.72320313
 20
11.27064063
  0
VERTEX
  8
0
 62
7
 10
21.69162500
 20
11.29987500
  0
VERTEX
  8
0
 62
7
 10
21.65723438
 20
11.32592188
  0
VERTEX
  8
0
 62
7
 10
21.61900000
 20
11.34700000
  0
VERTEX
  8
0
 62
7
 10
21.59581641
 20
11.35701758
  0
VERTEX
  8
0
 62
7
 10
21.57209375
 20
11.36526563
  0
VERTEX
  8
0
 62
7
 10
21.54794922
 20
11.37166211
  0
VERTEX
  8
0
 62
7
 10
21.52350000
 20
11.37612500
  0
VERTEX
  8
0
 62
7
 10
21.49886328
 20
11.37857227
  0
VERTEX
  8
0
 62
7
 10
21.47415625
 20
11.37892188
  0
VERTEX
  8
0
 62
7
 10
21.44949609
 20
11.37709180
  0
VERTEX
  8
0
 62
7
 10
21.42500000
 20
11.37300000
  0
VERTEX
  8
0
 62
7
 10
21.38600000
 20
11.36031250
  0
VERTEX
  8
0
 62
7
 10
21.34925000
 20
11.34200000
  0
VERTEX
  8
0
 62
7
 10
21.31587500
 20
11.31843750
  0
VERTEX
  8
0
 62
7
 10
21.28700000
 20
11.29000000
  0
VERTEX
  8
0
 62
7
 10
21.26860938
 20
11.26250000
  0
VERTEX
  8
0
 62
7
 10
21.25462500
 20
11.23275000
  0
VERTEX
  8
0
 62
7
 10
21.24382813
 20
11.20112500
  0
VERTEX
  8
0
 62
7
 10
21.23500000
 20
11.16800000
  0
VERTEX
  8
0
 62
7
 10
21.22000000
 20
11.12462500
  0
VERTEX
  8
0
 62
7
 10
21.20200000
 20
11.08500000
  0
VERTEX
  8
0
 62
7
 10
21.19133789
 20
11.06654883
  0
VERTEX
  8
0
 62
7
 10
21.17951563
 20
11.04895313
  0
VERTEX
  8
0
 62
7
 10
21.16640430
 20
11.03259961
  0
VERTEX
  8
0
 62
7
 10
21.15187500
 20
11.01787500
  0
VERTEX
  8
0
 62
7
 10
21.13579883
 20
11.00516602
  0
VERTEX
  8
0
 62
7
 10
21.11804688
 20
10.99485938
  0
VERTEX
  8
0
 62
7
 10
21.09849023
 20
10.98734180
  0
VERTEX
  8
0
 62
7
 10
21.07700000
 20
10.98300000
  0
VERTEX
  8
0
 62
7
 10
21.11367188
 20
10.95828125
  0
VERTEX
  8
0
 62
7
 10
21.14537500
 20
10.92850000
  0
VERTEX
  8
0
 62
7
 10
21.17164063
 20
10.89496875
  0
VERTEX
  8
0
 62
7
 10
21.19200000
 20
10.85900000
  0
VERTEX
  8
0
 62
7
 10
21.20396875
 20
10.81960938
  0
VERTEX
  8
0
 62
7
 10
21.20975000
 20
10.78012500
  0
VERTEX
  8
0
 62
7
 10
21.20915625
 20
10.74157813
  0
VERTEX
  8
0
 62
7
 10
21.20200000
 20
10.70500000
  0
VERTEX
  8
0
 62
7
 10
21.18293750
 20
10.66253125
  0
VERTEX
  8
0
 62
7
 10
21.15750000
 20
10.62550000
  0
VERTEX
  8
0
 62
7
 10
21.12606250
 20
10.59446875
  0
VERTEX
  8
0
 62
7
 10
21.08900000
 20
10.57000000
  0
VERTEX
  8
0
 62
7
 10
21.12059375
 20
10.55721875
  0
VERTEX
  8
0
 62
7
 10
21.14900000
 20
10.53900000
  0
VERTEX
  8
0
 62
7
 10
21.17365625
 20
10.51628125
  0
VERTEX
  8
0
 62
7
 10
21.19400000
 20
10.49000000
  0
VERTEX
  8
0
 62
7
 10
21.20137305
 20
10.46629688
  0
VERTEX
  8
0
 62
7
 10
21.20235938
 20
10.43837500
  0
VERTEX
  8
0
 62
7
 10
21.19788477
 20
10.40801563
  0
VERTEX
  8
0
 62
7
 10
21.18887500
 20
10.37700000
  0
VERTEX
  8
0
 62
7
 10
21.17625586
 20
10.34710938
  0
VERTEX
  8
0
 62
7
 10
21.16095313
 20
10.32012500
  0
VERTEX
  8
0
 62
7
 10
21.14389258
 20
10.29782813
  0
VERTEX
  8
0
 62
7
 10
21.12600000
 20
10.28200000
  0
VERTEX
  8
0
 62
7
 10
21.16546875
 20
10.26393750
  0
VERTEX
  8
0
 62
7
 10
21.20100000
 20
10.24475000
  0
VERTEX
  8
0
 62
7
 10
21.23203125
 20
10.22293750
  0
VERTEX
  8
0
 62
7
 10
21.25800000
 20
10.19700000
  0
VERTEX
  8
0
 62
7
 10
21.28150000
 20
10.16501563
  0
VERTEX
  8
0
 62
7
 10
21.30650000
 20
10.13462500
  0
VERTEX
  8
0
 62
7
 10
21.33450000
 20
10.10742188
  0
VERTEX
  8
0
 62
7
 10
21.36700000
 20
10.08500000
  0
VERTEX
  8
0
 62
7
 10
21.38914453
 20
10.07445117
  0
VERTEX
  8
0
 62
7
 10
21.41196875
 20
10.06604688
  0
VERTEX
  8
0
 62
7
 10
21.43530859
 20
10.05977539
  0
VERTEX
  8
0
 62
7
 10
21.45900000
 20
10.05562500
  0
VERTEX
  8
0
 62
7
 10
21.48287891
 20
10.05358398
  0
VERTEX
  8
0
 62
7
 10
21.50678125
 20
10.05364063
  0
VERTEX
  8
0
 62
7
 10
21.53054297
 20
10.05578320
  0
VERTEX
  8
0
 62
7
 10
21.55400000
 20
10.06000000
  0
VERTEX
  8
0
 62
7
 10
21.58748438
 20
10.07073438
  0
VERTEX
  8
0
 62
7
 10
21.61787500
 20
10.08662500
  0
VERTEX
  8
0
 62
7
 10
21.64582813
 20
10.10570313
  0
VERTEX
  8
0
 62
7
 10
21.67200000
 20
10.12600000
  0
VERTEX
  8
0
 62
7
 10
21.70062500
 20
10.14909375
  0
VERTEX
  8
0
 62
7
 10
21.72550000
 20
10.17425000
  0
VERTEX
  8
0
 62
7
 10
21.74737500
 20
10.20053125
  0
VERTEX
  8
0
 62
7
 10
21.76700000
 20
10.22700000
  0
VERTEX
  8
0
 62
7
 10
21.80087500
 20
10.27287500
  0
VERTEX
  8
0
 62
7
 10
21.83100000
 20
10.32100000
  0
SEQEND
  0
POLYLINE
  8
0
 62
7
 66
1
 70
1
  0
VERTEX
  8
0
 62
7
 10
22.33600000
 20
11.16400000
  0
VERTEX
  8
0
 62
7
 10
22.40900000
 20
11.23800000
  0
VERTEX
  8
0
 62
7
 10
22.44521875
 20
11.27581250
  0
VERTEX
  8
0
 62
7
 10
22.48050000
 20
11.31475000
  0
VERTEX
  8
0
 62
7
 10
22.51278125
 20
11.35556250
  0
VERTEX
  8
0
 62
7
 10
22.54000000
 20
11.39900000
  0
VERTEX
  8
0
 62
7
 10
22.55518555
 20
11.42847852
  0
VERTEX
  8
0
 62
7
 10
22.56904688
 20
11.45839063
  0
VERTEX
  8
0
 62
7
 10
22.58129102
 20
11.48870117
  0
VERTEX
  8
0
 62
7
 10
22.59162500
 20
11.51937500
  0
VERTEX
  8
0
 62
7
 10
22.59975586
 20
11.55037695
  0
VERTEX
  8
0
 62
7
 10
22.60539063
 20
11.58167188
  0
VERTEX
  8
0
 62
7
 10
22.60823633
 20
11.61322461
  0
VERTEX
  8
0
 62
7
 10
22.60800000
 20
11.64500000
  0
VERTEX
  8
0
 62
7
 10
22.60551563
 20
11.67216992
  0
VERTEX
  8
0
 62
7
 10
22.60106250
 20
11.69885938
  0
VERTEX
  8
0
 62
7
 10
22.59464063
 20
11.72496289
  0
VERTEX
  8
0
 62
7
 10
22.58625000
 20
11.75037500
  0
VERTEX
  8
0
 62
7
 10
22.57589063
 20
11.77499023
  0
VERTEX
  8
0
 62
7
 10
22.56356250
 20
11.79870313
  0
VERTEX
  8
0
 62
7
 10
22.54926563
 20
11.82140820
  0
VERTEX
  8
0
 62
7
 10
22.53300000
 20
11.84300000
  0
VERTEX
  8
0
 62
7
 10
22.51546875
 20
11.82603125
  0
VERTEX
  8
0
 62
7
 10
22.49400000
 20
11.81375000
  0
VERTEX
  8
0
 62
7
 10
22.47028125
 20
11.80559375
  0
VERTEX
  8
0
 62
7
 10
22.44600000
 20
11.80100000
  0
VERTEX
  8
0
 62
7
 10
22.41253125
 20
11.80034375
  0
VERTEX
  8
0
 62
7
 10
22.38300000
 20
11.80550000
  0
VERTEX
  8
0
 62
7
 10
22.35571875
 20
11.81590625
  0
VERTEX
  8
0
 62
7
 10
22.32900000
 20
11.83100000
  0
VERTEX
  8
0
 62
7
 10
22.29856250
 20
11.85735938
  0
VERTEX
  8
0
 62
7
 10
22.27300000
 20
11.88887500
  0
VERTEX
  8
0
 62
7
 10
22.25193750
 20
11.92395313
  0
VERTEX
  8
0
 62
7
 10
22.23500000
 20
11.96100000
  0
VERTEX
  8
0
 62
7
 10
22.22466602
 20
11.94770898
  0
VERTEX
  8
0
 62
7
 10
22.21307813
 20
11.93323438
  0
VERTEX
  8
0
 62
7
 10
22.20010742
 20
11.91854883
  0
VERTEX
  8
0
 62
7
 10
22.18562500
 20
11.90462500
  0
VERTEX
  8
0
 62
7
 10
22.16950195
 20
11.89243555
  0
VERTEX
  8
0
 62
7
 10
22.15160938
 20
11.88295313
  0
VERTEX
  8
0
 62
7
 10
22.13181836
 20
11.87715039
  0
VERTEX
  8
0
 62
7
 10
22.11000000
 20
11.87600000
  0
VERTEX
  8
0
 62
7
 10
22.08765039
 20
11.87916016
  0
VERTEX
  8
0
 62
7
 10
22.06770313
 20
11.88590625
  0
VERTEX
  8
0
 62
7
 10
22.04993555
 20
11.89551172
  0
VERTEX
  8
0
 62
7
 10
22.03412500
 20
11.90725000
  0
VERTEX
  8
0
 62
7
 10
22.02004883
 20
11.92039453
  0
VERTEX
  8
0
 62
7
 10
22.00748438
 20
11.93421875
  0
VERTEX
  8
0
 62
7
 10
21.99620898
 20
11.94799609
  0
VERTEX
  8
0
 62
7
 10
21.98600000
 20
11.96100000
  0
VERTEX
  8
0
 62
7
 10
21.96948438
 20
11.92395313
  0
VERTEX
  8
0
 62
7
 10
21.94837500
 20
11.88887500
  0
VERTEX
  8
0
 62
7
 10
21.92257813
 20
11.85735938
  0
VERTEX
  8
0
 62
7
 10
21.89200000
 20
11.83100000
  0
VERTEX
  8
0
 62
7
 10
21.86528125
 20
11.81590625
  0
VERTEX
  8
0
 62
7
 10
21.83800000
 20
11.80550000
  0
VERTEX
  8
0
 62
7
 10
21.80846875
 20
11.80034375
  0
VERTEX
  8
0
 62
7
 10
21.77500000
 20
11.80100000
  0
VERTEX
  8
0
 62
7
 10
21.75114063
 20
11.80559375
  0
VERTEX
  8
0
 62
7
 10
21.72737500
 20
11.81375000
  0
VERTEX
  8
0
 62
7
 10
21.70567188
 20
11.82603125
  0
VERTEX
  8
0
 62
7
 10
21.68800000
 20
11.84300000
  0
VERTEX
  8
0
 62
7
 10
21.67173438
 20
11.82140820
  0
VERTEX
  8
0
 62
7
 10
21.65743750
 20
11.79870313
  0
VERTEX
  8
0
 62
7
 10
21.64510938
 20
11.77499023
  0
VERTEX
  8
0
 62
7
 10
21.63475000
 20
11.75037500
  0
VERTEX
  8
0
 62
7
 10
21.62635938
 20
11.72496289
  0
VERTEX
  8
0
 62
7
 10
21.61993750
 20
11.69885938
  0
VERTEX
  8
0
 62
7
 10
21.61548438
 20
11.67216992
  0
VERTEX
  8
0
 62
7
 10
21.61300000
 20
11.64500000
  0
VERTEX
  8
0
 62
7
 10
21.61280469
 20
11.61322461
  0
VERTEX
  8
0
 62
7
 10
21.61575000
 20
11.58167188
  0
VERTEX
  8
0
 62
7
 10
21.62150781
 20
11.55037695
  0
VERTEX
  8
0
 62
7
 10
21.62975000
 20
11.51937500
  0
VERTEX
  8
0
 62
7
 10
21.64014844
 20
11.48870117
  0
VERTEX
  8
0
 62
7
 10
21.65237500
 20
11.45839063
  0
VERTEX
  8
0
 62
7
 10
21.66610156
 20
11.42847852
  0
VERTEX
  8
0
 62
7
 10
21.68100000
 20
11.39900000
  0
VERTEX
  8
0
 62
7
 10
21.70821875
 20
11.35556250
  0
VERTEX
  8
0
 62
7
 10
21.74050000
 20
11.31475000
  0
VERTEX
  8
0
 62
7
 10
21.77578125
 20
11.27581250
  0
VERTEX
  8
0
 62
7
 10
21.81200000
 20
11.23800000
  0
VERTEX
  8
0
 62
7
 10
21.86500000
 20
11.18300000
  0
VERTEX
  8
0
 62
7
 10
21.88218750
 20
11.19153125
  0
VERTEX
  8
0
 62
7
 10
21.90125000
 20
11.19425000
  0
VERTEX
  8
0
 62
7
 10
21.92068750
 20
11.19059375
  0
VERTEX
  8
0
 62
7
 10
21.93900000
 20
11.18000000
  0
VERTEX
  8
0
 62
7
 10
21.94942188
 20
11.17270313
  0
VERTEX
  8
0
 62
7
 10
21.96087500
 20
11.16737500
  0
VERTEX
  8
0
 62
7
 10
21.97289063
 20
11.16410938
  0
VERTEX
  8
0
 62
7
 10
21.98500000
 20
11.16300000
  0
VERTEX
  8
0
 62
7
 10
21.99300000
 20
11.16400000
  0
VERTEX
  8
0
 62
7
 10
22.00565625
 20
11.16728125
  0
VERTEX
  8
0
 62
7
 10
22.01775000
 20
11.17375000
  0
VERTEX
  8
0
 62
7
 10
22.02871875
 20
11.18284375
  0
VERTEX
  8
0
 62
7
 10
22.03800000
 20
11.19400000
  0
VERTEX
  8
0
 62
7
 10
22.04778906
 20
11.20520117
  0
VERTEX
  8
0
 62
7
 10
22.05950000
 20
11.21329688
  0
VERTEX
  8
0
 62
7
 10
22.07252344
 20
11.21827539
  0
VERTEX
  8
0
 62
7
 10
22.08625000
 20
11.22012500
  0
VERTEX
  8
0
 62
7
 10
22.10007031
 20
11.21883398
  0
VERTEX
  8
0
 62
7
 10
22.11337500
 20
11.21439063
  0
VERTEX
  8
0
 62
7
 10
22.12555469
 20
11.20678320
  0
VERTEX
  8
0
 62
7
 10
22.13600000
 20
11.19600000
  0
VERTEX
  8
0
 62
7
 10
22.14599805
 20
11.18515039
  0
VERTEX
  8
0
 62
7
 10
22.15767188
 20
11.17670313
  0
VERTEX
  8
0
 62
7
 10
22.17054102
 20
11.17081055
  0
VERTEX
  8
0
 62
7
 10
22.18412500
 20
11.16762500
  0
VERTEX
  8
0
 62
7
 10
22.19794336
 20
11.16729883
  0
VERTEX
  8
0
 62
7
 10
22.21151563
 20
11.16998438
  0
VERTEX
  8
0
 62
7
 10
22.22436133
 20
11.17583398
  0
VERTEX
  8
0
 62
7
 10
22.23600000
 20
11.18500000
  0
VERTEX
  8
0
 62
7
 10
22.24731055
 20
11.19332617
  0
VERTEX
  8
0
 62
7
 10
22.26048438
 20
11.19817188
  0
VERTEX
  8
0
 62
7
 10
22.27475977
 20
11.19971289
  0
VERTEX
  8
0
 62
7
 10
22.28937500
 20
11.19812500
  0
VERTEX
  8
0
 62
7
 10
22.30356836
 20
11.19358398
  0
VERTEX
  8
0
 62
7
 10
22.31657813
 20
11.18626563
  0
VERTEX
  8
0
 62
7
 10
22.32764258
 20
11.17634570
  0
VERTEX
  8
0
 62
7
 10
22.33600000
 20
11.16400000
  0
SEQEND
  0
POLYLINE
  8
0
 62
7
 66
1
 70
1
  0
VERTEX
  8
0
 62
7
 10
23.04300000
 20
11.18900000
  0
VERTEX
  8
0
 62
7
 10
23.05612500
 20
11.14912500
  0
VERTEX
  8
0
 62
7
 10
23.07300000
 20
11.11300000
  0
VERTEX
  8
0
 62
7
 10
23.09125000
 20
11.08350000
  0
VERTEX
  8
0
 62
7
 10
23.11025000
 20
11.06225000
  0
VERTEX
  8
0
 62
7
 10
23.13037500
 20
11.04887500
  0
VERTEX
  8
0
 62
7
 10
23.15200000
 20
11.04300000
  0
VERTEX
  8
0
 62
7
 10
23.17189453
 20
11.03765430
  0
VERTEX
  8
0
 62
7
 10
23.18721875
 20
11.02704688
  0
VERTEX
  8
0
 62
7
 10
23.19780859
 20
11.01257227
  0
VERTEX
  8
0
 62
7
 10
23.20350000
 20
10.99562500
  0
VERTEX
  8
0
 62
7
 10
23.20412891
 20
10.97759961
  0
VERTEX
  8
0
 62
7
 10
23.19953125
 20
10.95989063
  0
VERTEX
  8
0
 62
7
 10
23.18954297
 20
10.94389258
  0
VERTEX
  8
0
 62
7
 10
23.17400000
 20
10.93100000
  0
VERTEX
  8
0
 62
7
 10
23.14504688
 20
10.91107813
  0
VERTEX
  8
0
 62
7
 10
23.12012500
 20
10.88787500
  0
VERTEX
  8
0
 62
7
 10
23.09989063
 20
10.86223438
  0
VERTEX
  8
0
 62
7
 10
23.08500000
 20
10.83500000
  0
VERTEX
  8
0
 62
7
 10
23.07425000
 20
10.80012500
  0
VERTEX
  8
0
 62
7
 10
23.07100000
 20
10.76600000
  0
VERTEX
  8
0
 62
7
 10
23.07250000
 20
10.74387500
  0
VERTEX
  8
0
 62
7
 10
23.07700000
 20
10.72400000
  0
VERTEX
  8
0
 62
7
 10
23.09096875
 20
10.69176563
  0
VERTEX
  8
0
 62
7
 10
23.11000000
 20
10.66412500
  0
VERTEX
  8
0
 62
7
 10
23.13353125
 20
10.64117188
  0
VERTEX
  8
0
 62
7
 10
23.16100000
 20
10.62300000
  0
VERTEX
  8
0
 62
7
 10
23.17615430
 20
10.61166797
  0
VERTEX
  8
0
 62
7
 10
23.18642188
 20
10.59721875
  0
VERTEX
  8
0
 62
7
 10
23.19188477
 20
10.58084766
  0
VERTEX
  8
0
 62
7
 10
23.19262500
 20
10.56375000
  0
VERTEX
  8
0
 62
7
 10
23.18872461
 20
10.54712109
  0
VERTEX
  8
0
 62
7
 10
23.18026563
 20
10.53215625
  0
VERTEX
  8
0
 62
7
 10
23.16733008
 20
10.52005078
  0
VERTEX
  8
0
 62
7
 10
23.15000000
 20
10.51200000
  0
VERTEX
  8
0
 62
7
 10
23.12781250
 20
10.50331250
  0
VERTEX
  8
0
 62
7
 10
23.10825000
 20
10.49125000
  0
VERTEX
  8
0
 62
7
 10
23.09206250
 20
10.47656250
  0
VERTEX
  8
0
 62
7
 10
23.08000000
 20
10.46000000
  0
VERTEX
  8
0
 62
7
 10
23.07800000
 20
10.44700000
  0
VERTEX
  8
0
 62
7
 10
23.07887500
 20
10.43287500
  0
VERTEX
  8
0
 62
7
 10
23.08200000
 20
10.41800000
  0
VERTEX
  8
0
 62
7
 10
23.11511523
 20
10.42148438
  0
VERTEX
  8
0
 62
7
 10
23.14892188
 20
10.42075000
  0
VERTEX
  8
0
 62
7
 10
23.18298633
 20
10.41589063
  0
VERTEX
  8
0
 62
7
 10
23.21687500
 20
10.40700000
  0
VERTEX
  8
0
 62
7
 10
23.25015430
 20
10.39417188
  0
VERTEX
  8
0
 62
7
 10
23.28239063
 20
10.37750000
  0
VERTEX
  8
0
 62
7
 10
23.31315039
 20
10.35707813
  0
VERTEX
  8
0
 62
7
 10
23.34200000
 20
10.33300000
  0
VERTEX
  8
0
 62
7
 10
23.36390430
 20
10.31060547
  0
VERTEX
  8
0
 62
7
 10
23.38260938
 20
10.28640625
  0
VERTEX
  8
0
 62
7
 10
23.39847852
 20
10.26075391
  0
VERTEX
  8
0
 62
7
 10
23.41187500
 20
10.23400000
  0
VERTEX
  8
0
 62
7
 10
23.42316211
 20
10.20649609
  0
VERTEX
  8
0
 62
7
 10
23.43270313
 20
10.17859375
  0
VERTEX
  8
0
 62
7
 10
23.44086133
 20
10.15064453
  0
VERTEX
  8
0
 62
7
 10
23.44800000
 20
10.12300000
  0
VERTEX
  8
0
 62
7
 10
23.45690625
 20
10.08167188
  0
VERTEX
  8
0
 62
7
 10
23.46150000
 20
10.04062500
  0
VERTEX
  8
0
 62
7
 10
23.46234375
 20
10.00051563
  0
VERTEX
  8
0
 62
7
 10
23.46000000
 20
9.96200000
  0
VERTEX
  8
0
 62
7
 10
23.62700000
 20
9.99700000
  0
VERTEX
  8
0
 62
7
 10
23.66507813
 20
9.96375000
  0
VERTEX
  8
0
 62
7
 10
23.69762500
 20
9.92600000
  0
VERTEX
  8
0
 62
7
 10
23.72360938
 20
9.88450000
  0
VERTEX
  8
0
 62
7
 10
23.74200000
 20
9.84000000
  0
VERTEX
  8
0
 62
7
 10
23.74628516
 20
9.82483984
  0
VERTEX
  8
0
 62
7
 10
23.74928125
 20
9.80946875
  0
VERTEX
  8
0
 62
7
 10
23.75082422
 20
9.79405078
  0
VERTEX
  8
0
 62
7
 10
23.75075000
 20
9.77875000
  0
VERTEX
  8
0
 62
7
 10
23.74889453
 20
9.76373047
  0
VERTEX
  8
0
 62
7
 10
23.74509375
 20
9.74915625
  0
VERTEX
  8
0
 62
7
 10
23.73918359
 20
9.73519141
  0
VERTEX
  8
0
 62
7
 10
23.73100000
 20
9.72200000
  0
VERTEX
  8
0
 62
7
 10
23.66700000
 20
9.63700000
  0
VERTEX
  8
0
 62
7
 10
23.71448633
 20
9.61273438
  0
VERTEX
  8
0
 62
7
 10
23.76282813
 20
9.59400000
  0
VERTEX
  8
0
 62
7
 10
23.81147461
 20
9.58089063
  0
VERTEX
  8
0
 62
7
 10
23.85987500
 20
9.57350000
  0
VERTEX
  8
0
 62
7
 10
23.90747852
 20
9.57192187
  0
VERTEX
  8
0
 62
7
 10
23.95373438
 20
9.57625000
  0
VERTEX
  8
0
 62
7
 10
23.99809180
 20
9.58657813
  0
VERTEX
  8
0
 62
7
 10
24.04000000
 20
9.60300000
  0
VERTEX
  8
0
 62
7
 10
24.08087500
 20
9.62564063
  0
VERTEX
  8
0
 62
7
 10
24.11725000
 20
9.65437500
  0
VERTEX
  8
0
 62
7
 10
24.14800000
 20
9.68892188
  0
VERTEX
  8
0
 62
7
 10
24.17200000
 20
9.72900000
  0
VERTEX
  8
0
 62
7
 10
24.18775000
 20
9.76792188
  0
VERTEX
  8
0
 62
7
 10
24.19750000
 20
9.80937500
  0
VERTEX
  8
0
 62
7
 10
24.20125000
 20
9.85289063
  0
VERTEX
  8
0
 62
7
 10
24.19900000
 20
9.89800000
  0
VERTEX
  8
0
 62
7
 10
24.32200000
 20
9.90200000
  0
VERTEX
  8
0
 62
7
 10
24.32112500
 20
9.94010547
  0
VERTEX
  8
0
 62
7
 10
24.31631250
 20
9.97846875
  0
VERTEX
  8
0
 62
7
 10
24.30765625
 20
10.01678516
  0
VERTEX
  8
0
 62
7
 10
24.29525000
 20
10.05475000
  0
VERTEX
  8
0
 62
7
 10
24.27918750
 20
10.09205859
  0
VERTEX
  8
0
 62
7
 10
24.25956250
 20
10.12840625
  0
VERTEX
  8
0
 62
7
 10
24.23646875
 20
10.16348828
  0
VERTEX
  8
0
 62
7
 10
24.21000000
 20
10.19700000
  0
VERTEX
  8
0
 62
7
 10
24.17621875
 20
10.23371875
  0
VERTEX
  8
0
 62
7
 10
24.13925000
 20
10.26725000
  0
VERTEX
  8
0
 62
7
 10
24.09890625
 20
10.29740625
  0
VERTEX
  8
0
 62
7
 10
24.05500000
 20
10.32400000
  0
VERTEX
  8
0
 62
7
 10
23.95400000
 20
10.39000000
  0
VERTEX
  8
0
 62
7
 10
23.94560547
 20
10.39817188
  0
VERTEX
  8
0
 62
7
 10
23.94178125
 20
10.40775000
  0
VERTEX
  8
0
 62
7
 10
23.94194141
 20
10.41770313
  0
VERTEX
  8
0
 62
7
 10
23.94550000
 20
10.42700000
  0
VERTEX
  8
0
 62
7
 10
23.95187109
 20
10.43460938
  0
VERTEX
  8
0
 62
7
 10
23.96046875
 20
10.43950000
  0
VERTEX
  8
0
 62
7
 10
23.97070703
 20
10.44064063
  0
VERTEX
  8
0
 62
7
 10
23.98200000
 20
10.43700000
  0
VERTEX
  8
0
 62
7
 10
24.04712500
 20
10.39875000
  0
VERTEX
  8
0
 62
7
 10
24.11000000
 20
10.35600000
  0
VERTEX
  8
0
 62
7
 10
24.15342188
 20
10.32232813
  0
VERTEX
  8
0
 62
7
 10
24.19562500
 20
10.28687500
  0
VERTEX
  8
0
 62
7
 10
24.23501563
 20
10.24898438
  0
VERTEX
  8
0
 62
7
 10
24.27000000
 20
10.20800000
  0
VERTEX
  8
0
 62
7
 10
24.29617188
 20
10.17160938
  0
VERTEX
  8
0
 62
7
 10
24.31887500
 20
10.13362500
  0
VERTEX
  8
0
 62
7
 10
24.33989063
 20
10.09507813
  0
VERTEX
  8
0
 62
7
 10
24.36100000
 20
10.05700000
  0
VERTEX
  8
0
 62
7
 10
24.37889063
 20
10.02281250
  0
VERTEX
  8
0
 62
7
 10
24.39612500
 20
9.98825000
  0
VERTEX
  8
0
 62
7
 10
24.41429688
 20
9.95406250
  0
VERTEX
  8
0
 62
7
 10
24.43500000
 20
9.92100000
  0
VERTEX
  8
0
 62
7
 10
24.47551563
 20
9.86359375
  0
VERTEX
  8
0
 62
7
 10
24.52137500
 20
9.80975000
  0
VERTEX
  8
0
 62
7
 10
24.57154688
 20
9.75928125
  0
VERTEX
  8
0
 62
7
 10
24.62500000
 20
9.71200000
  0
VERTEX
  8
0
 62
7
 10
24.67331250
 20
9.67351563
  0
VERTEX
  8
0
 62
7
 10
24.72350000
 20
9.63887500
  0
VERTEX
  8
0
 62
7
 10
24.77518750
 20
9.60779688
  0
VERTEX
  8
0
 62
7
 10
24.82800000
 20
9.58000000
  0
VERTEX
  8
0
 62
7
 10
24.84800000
 20
9.68600000
  0
VERTEX
  8
0
 62
7
 10
24.88923828
 20
9.64632227
  0
VERTEX
  8
0
 62
7
 10
24.93321875
 20
9.60989063
  0
VERTEX
  8
0
 62
7
 10
24.97958984
 20
9.57685742
  0
VERTEX
  8
0
 62
7
 10
25.02800000
 20
9.54737500
  0
VERTEX
  8
0
 62
7
 10
25.07809766
 20
9.52159570
  0
VERTEX
  8
0
 62
7
 10
25.12953125
 20
9.49967188
  0
VERTEX
  8
0
 62
7
 10
25.18194922
 20
9.48175586
  0
VERTEX
  8
0
 62
7
 10
25.23500000
 20
9.46800000
  0
VERTEX
  8
0
 62
7
 10
25.28864063
 20
9.45885937
  0
VERTEX
  8
0
 62
7
 10
25.34162500
 20
9.45412500
  0
VERTEX
  8
0
 62
7
 10
25.39404688
 20
9.45407813
  0
VERTEX
  8
0
 62
7
 10
25.44600000
 20
9.45900000
  0
VERTEX
  8
0
 62
7
 10
25.42515625
 20
9.49792187
  0
VERTEX
  8
0
 62
7
 10
25.40900000
 20
9.53787500
  0
VERTEX
  8
0
 62
7
 10
25.39734375
 20
9.57839063
  0
VERTEX
  8
0
 62
7
 10
25.39000000
 20
9.61900000
  0
VERTEX
  8
0
 62
7
 10
25.38760938
 20
9.65756250
  0
VERTEX
  8
0
 62
7
 10
25.39037500
 20
9.69500000
  0
VERTEX
  8
0
 62
7
 10
25.39745313
 20
9.73093750
  0
VERTEX
  8
0
 62
7
 10
25.40800000
 20
9.76500000
  0
VERTEX
  8
0
 62
7
 10
25.48800000
 20
9.78300000
  0
VERTEX
  8
0
 62
7
 10
25.46717188
 20
9.83456250
  0
VERTEX
  8
0
 62
7
 10
25.44062500
 20
9.88500000
  0
VERTEX
  8
0
 62
7
 10
25.40826563
 20
9.93318750
  0
VERTEX
  8
0
 62
7
 10
25.37000000
 20
9.97800000
  0
VERTEX
  8
0
 62
7
 10
25.34665625
 20
10.00498438
  0
VERTEX
  8
0
 62
7
 10
25.32050000
 20
10.03037500
  0
VERTEX
  8
0
 62
7
 10
25.29209375
 20
10.05407813
  0
VERTEX
  8
0
 62
7
 10
25.26200000
 20
10.07600000
  0
VERTEX
  8
0
 62
7
 10
25.25209375
 20
10.08645508
  0
VERTEX
  8
0
 62
7
 10
25.24687500
 20
10.09945313
  0
VERTEX
  8
0
 62
7
 10
25.24596875
 20
10.11331836
  0
VERTEX
  8
0
 62
7
 10
25.24900000
 20
10.12637500
  0
VERTEX
  8
0
 62
7
 10
25.25559375
 20
10.13694727
  0
VERTEX
  8
0
 62
7
 10
25.26537500
 20
10.14335938
  0
VERTEX
  8
0
 62
7
 10
25.27796875
 20
10.14393555
  0
VERTEX
  8
0
 62
7
 10
25.29300000
 20
10.13700000
  0
VERTEX
  8
0
 62
7
 10
25.33264063
 20
10.10639063
  0
VERTEX
  8
0
 62
7
 10
25.37012500
 20
10.07212500
  0
VERTEX
  8
0
 62
7
 10
25.40479688
 20
10.03504688
  0
VERTEX
  8
0
 62
7
 10
25.43600000
 20
9.99600000
  0
VERTEX
  8
0
 62
7
 10
25.46360938
 20
9.95029687
  0
VERTEX
  8
0
 62
7
 10
25.48587500
 20
9.90262500
  0
VERTEX
  8
0
 62
7
 10
25.50645313
 20
9.85439063
  0
VERTEX
  8
0
 62
7
 10
25.52900000
 20
9.80700000
  0
VERTEX
  8
0
 62
7
 10
25.54801563
 20
9.77057813
  0
VERTEX
  8
0
 62
7
 10
25.56712500
 20
9.73387500
  0
VERTEX
  8
0
 62
7
 10
25.58792188
 20
9.69773438
  0
VERTEX
  8
0
 62
7
 10
25.61200000
 20
9.66300000
  0
VERTEX
  8
0
 62
7
 10
25.63647266
 20
9.63302930
  0
VERTEX
  8
0
 62
7
 10
25.66321875
 20
9.60473438
  0
VERTEX
  8
0
 62
7
 10
25.69198047
 20
9.57829102
  0
VERTEX
  8
0
 62
7
 10
25.72250000
 20
9.55387500
  0
VERTEX
  8
0
 62
7
 10
25.75451953
 20
9.53166211
  0
VERTEX
  8
0
 62
7
 10
25.78778125
 20
9.51182812
  0
VERTEX
  8
0
 62
7
 10
25.82202734
 20
9.49454883
  0
VERTEX
  8
0
 62
7
 10
25.85700000
 20
9.48000000
  0
VERTEX
  8
0
 62
7
 10
25.89989063
 20
9.46525000
  0
VERTEX
  8
0
 62
7
 10
25.94287500
 20
9.45425000
  0
VERTEX
  8
0
 62
7
 10
25.98567188
 20
9.44737500
  0
VERTEX
  8
0
 62
7
 10
26.02800000
 20
9.44500000
  0
VERTEX
  8
0
 62
7
 10
26.03800000
 20
9.53000000
  0
VERTEX
  8
0
 62
7
 10
26.11737500
 20
9.49582812
  0
VERTEX
  8
0
 62
7
 10
26.19675000
 20
9.46812500
  0
VERTEX
  8
0
 62
7
 10
26.27650000
 20
9.44660938
  0
VERTEX
  8
0
 62
7
 10
26.35700000
 20
9.43100000
  0
VERTEX
  8
0
 62
7
 10
26.42620313
 20
9.42270313
  0
VERTEX
  8
0
 62
7
 10
26.49512500
 20
9.41937500
  0
VERTEX
  8
0
 62
7
 10
26.56273438
 20
9.42185938
  0
VERTEX
  8
0
 62
7
 10
26.62800000
 20
9.43100000
  0
VERTEX
  8
0
 62
7
 10
26.68690625
 20
9.44650000
  0
VERTEX
  8
0
 62
7
 10
26.74225000
 20
9.46725000
  0
VERTEX
  8
0
 62
7
 10
26.79421875
 20
9.49287500
  0
VERTEX
  8
0
 62
7
 10
26.84300000
 20
9.52300000
  0
VERTEX
  8
0
 62
7
 10
26.78876563
 20
9.54060938
  0
VERTEX
  8
0
 62
7
 10
26.73612500
 20
9.56487500
  0
VERTEX
  8
0
 62
7
 10
26.68592188
 20
9.59570313
  0
VERTEX
  8
0
 62
7
 10
26.63900000
 20
9.63300000
  0
VERTEX
  8
0
 62
7
 10
26.60512500
 20
9.67031250
  0
VERTEX
  8
0
 62
7
 10
26.57650000
 20
9.71175000
  0
VERTEX
  8
0
 62
7
 10
26.55012500
 20
9.75506250
  0
VERTEX
  8
0
 62
7
 10
26.52300000
 20
9.79800000
  0
VERTEX
  8
0
 62
7
 10
26.48050000
 20
9.86525000
  0
VERTEX
  8
0
 62
7
 10
26.44100000
 20
9.93400000
  0
VERTEX
  8
0
 62
7
 10
26.52600000
 20
10.00500000
  0
VERTEX
  8
0
 62
7
 10
26.49715234
 20
10.03835547
  0
VERTEX
  8
0
 62
7
 10
26.46621875
 20
10.07009375
  0
VERTEX
  8
0
 62
7
 10
26.43336328
 20
10.10009766
  0
VERTEX
  8
0
 62
7
 10
26.39875000
 20
10.12825000
  0
VERTEX
  8
0
 62
7
 10
26.36254297
 20
10.15443359
  0
VERTEX
  8
0
 62
7
 10
26.32490625
 20
10.17853125
  0
VERTEX
  8
0
 62
7
 10
26.28600391
 20
10.20042578
  0
VERTEX
  8
0
 62
7
 10
26.24600000
 20
10.22000000
  0
VERTEX
  8
0
 62
7
 10
26.19148438
 20
10.24148438
  0
VERTEX
  8
0
 62
7
 10
26.13612500
 20
10.25762500
  0
VERTEX
  8
0
 62
7
 10
26.08020313
 20
10.27020313
  0
VERTEX
  8
0
 62
7
 10
26.02400000
 20
10.28100000
  0
VERTEX
  8
0
 62
7
 10
25.96178125
 20
10.29082813
  0
VERTEX
  8
0
 62
7
 10
25.89975000
 20
10.29812500
  0
VERTEX
  8
0
 62
7
 10
25.83809375
 20
10.30335938
  0
VERTEX
  8
0
 62
7
 10
25.77700000
 20
10.30700000
  0
VERTEX
  8
0
 62
7
 10
25.73856250
 20
10.30731250
  0
VERTEX
  8
0
 62
7
 10
25.69975000
 20
10.30650000
  0
VERTEX
  8
0
 62
7
 10
25.66056250
 20
10.30643750
  0
VERTEX
  8
0
 62
7
 10
25.62100000
 20
10.30900000
  0
VERTEX
  8
0
 62
7
 10
25.61288477
 20
10.31042578
  0
VERTEX
  8
0
 62
7
 10
25.60407813
 20
10.31253125
  0
VERTEX
  8
0
 62
7
 10
25.59538867
 20
10.31543359
  0
VERTEX
  8
0
 62
7
 10
25.58762500
 20
10.31925000
  0
VERTEX
  8
0
 62
7
 10
25.58159570
 20
10.32409766
  0
VERTEX
  8
0
 62
7
 10
25.57810938
 20
10.33009375
  0
VERTEX
  8
0
 62
7
 10
25.57797461
 20
10.33735547
  0
VERTEX
  8
0
 62
7
 10
25.58200000
 20
10.34600000
  0
VERTEX
  8
0
 62
7
 10
25.58976172
 20
10.35442773
  0
VERTEX
  8
0
 62
7
 10
25.59928125
 20
10.35923438
  0
VERTEX
  8
0
 62
7
 10
25.61016016
 20
10.36120508
  0
VERTEX
  8
0
 62
7
 10
25.62200000
 20
10.36112500
  0
VERTEX
  8
0
 62
7
 10
25.63440234
 20
10.35977930
  0
VERTEX
  8
0
 62
7
 10
25.64696875
 20
10.35795313
  0
VERTEX
  8
0
 62
7
 10
25.65930078
 20
10.35643164
  0
VERTEX
  8
0
 62
7
 10
25.67100000
 20
10.35600000
  0
VERTEX
  8
0
 62
7
 10
25.70553125
 20
10.35664063
  0
VERTEX
  8
0
 62
7
 10
25.74100000
 20
10.35512500
  0
VERTEX
  8
0
 62
7
 10
25.77646875
 20
10.35304688
  0
VERTEX
  8
0
 62
7
 10
25.81100000
 20
10.35200000
  0
VERTEX
  8
0
 62
7
 10
25.83995313
 20
10.35150000
  0
VERTEX
  8
0
 62
7
 10
25.86937500
 20
10.35100000
  0
VERTEX
  8
0
 62
7
 10
25.89860938
 20
10.35200000
  0
VERTEX
  8
0
 62
7
 10
25.92700000
 20
10.35600000
  0
VERTEX
  8
0
 62
7
 10
25.95237500
 20
10.36087500
  0
VERTEX
  8
0
 62
7
 10
25.97700000
 20
10.36725000
  0
VERTEX
  8
0
 62
7
 10
26.00012500
 20
10.37625000
  0
VERTEX
  8
0
 62
7
 10
26.02100000
 20
10.38900000
  0
VERTEX
  8
0
 62
7
 10
26.03545313
 20
10.40417188
  0
VERTEX
  8
0
 62
7
 10
26.04737500
 20
10.42112500
  0
VERTEX
  8
0
 62
7
 10
26.05685938
 20
10.43976563
  0
VERTEX
  8
0
 62
7
 10
26.06400000
 20
10.46000000
  0
VERTEX
  8
0
 62
7
 10
25.96700000
 20
10.54900000
  0
VERTEX
  8
0
 62
7
 10
25.97825000
 20
10.58525000
  0
VERTEX
  8
0
 62
7
 10
25.99400000
 20
10.62000000
  0
VERTEX
  8
0
 62
7
 10
26.00987500
 20
10.64454688
  0
VERTEX
  8
0
 62
7
 10
26.02875000
 20
10.66712500
  0
VERTEX
  8
0
 62
7
 10
26.05025000
 20
10.68764063
  0
VERTEX
  8
0
 62
7
 10
26.07400000
 20
10.70600000
  0
VERTEX
  8
0
 62
7
 10
26.04745313
 20
10.74964063
  0
VERTEX
  8
0
 62
7
 10
26.01612500
 20
10.79037500
  0
VERTEX
  8
0
 62
7
 10
25.98048438
 20
10.82792188
  0
VERTEX
  8
0
 62
7
 10
25.94100000
 20
10.86200000
  0
VERTEX
  8
0
 62
7
 10
25.90221875
 20
10.89067188
  0
VERTEX
  8
0
 62
7
 10
25.86100000
 20
10.91512500
  0
VERTEX
  8
0
 62
7
 10
25.81753125
 20
10.93526563
  0
VERTEX
  8
0
 62
7
 10
25.77200000
 20
10.95100000
  0
VERTEX
  8
0
 62
7
 10
25.72300000
 20
11.05600000
  0
VERTEX
  8
0
 62
7
 10
25.68102734
 20
11.06532617
  0
VERTEX
  8
0
 62
7
 10
25.63865625
 20
11.07229688
  0
VERTEX
  8
0
 62
7
 10
25.59633203
 20
11.07690039
  0
VERTEX
  8
0
 62
7
 10
25.55450000
 20
11.07912500
  0
VERTEX
  8
0
 62
7
 10
25.51360547
 20
11.07895898
  0
VERTEX
  8
0
 62
7
 10
25.47409375
 20
11.07639063
  0
VERTEX
  8
0
 62
7
 10
25.43641016
 20
11.07140820
  0
VERTEX
  8
0
 62
7
 10
25.40100000
 20
11.06400000
  0
VERTEX
  8
0
 62
7
 10
25.30737500
 20
11.04062500
  0
VERTEX
  8
0
 62
7
 10
25.23100000
 20
11.01800000
  0
VERTEX
  8
0
 62
7
 10
25.11200000
 20
10.96900000
  0
VERTEX
  8
0
 62
7
 10
25.09864063
 20
10.96374414
  0
VERTEX
  8
0
 62
7
 10
25.08556250
 20
10.95826563
  0
VERTEX
  8
0
 62
7
 10
25.07276563
 20
10.95337305
  0
VERTEX
  8
0
 62
7
 10
25.06025000
 20
10.94987500
  0
VERTEX
  8
0
 62
7
 10
25.04801563
 20
10.94858008
  0
VERTEX
  8
0
 62
7
 10
25.03606250
 20
10.95029688
  0
VERTEX
  8
0
 62
7
 10
25.02439063
 20
10.95583398
  0
VERTEX
  8
0
 62
7
 10
25.01300000
 20
10.96600000
  0
VERTEX
  8
0
 62
7
 10
25.00610547
 20
10.97611914
  0
VERTEX
  8
0
 62
7
 10
25.00246875
 20
10.98676563
  0
VERTEX
  8
0
 62
7
 10
25.00178516
 20
10.99762305
  0
VERTEX
  8
0
 62
7
 10
25.00375000
 20
11.00837500
  0
VERTEX
  8
0
 62
7
 10
25.00805859
 20
11.01870508
  0
VERTEX
  8
0
 62
7
 10
25.01440625
 20
11.02829688
  0
VERTEX
  8
0
 62
7
 10
25.02248828
 20
11.03683398
  0
VERTEX
  8
0
 62
7
 10
25.03200000
 20
11.04400000
  0
VERTEX
  8
0
 62
7
 10
25.05860938
 20
11.05484375
  0
VERTEX
  8
0
 62
7
 10
25.08737500
 20
11.05950000
  0
VERTEX
  8
0
 62
7
 10
25.11820313
 20
11.06115625
  0
VERTEX
  8
0
 62
7
 10
25.15100000
 20
11.06300000
  0
VERTEX
  8
0
 62
7
 10
25.18442188
 20
11.06620313
  0
VERTEX
  8
0
 62
7
 10
25.21662500
 20
11.07212500
  0
VERTEX
  8
0
 62
7
 10
25.24676563
 20
11.08198438
  0
VERTEX
  8
0
 62
7
 10
25.27400000
 20
11.09700000
  0
VERTEX
  8
0
 62
7
 10
25.29567188
 20
11.11439063
  0
VERTEX
  8
0
 62
7
 10
25.31312500
 20
11.13487500
  0
VERTEX
  8
0
 62
7
 10
25.32701563
 20
11.15817188
  0
VERTEX
  8
0
 62
7
 10
25.33800000
 20
11.18400000
  0
VERTEX
  8
0
 62
7
 10
25.17000000
 20
11.26300000
  0
VERTEX
  8
0
 62
7
 10
25.18943750
 20
11.29050000
  0
VERTEX
  8
0
 62
7
 10
25.21150000
 20
11.31575000
  0
VERTEX
  8
0
 62
7
 10
25.23581250
 20
11.33837500
  0
VERTEX
  8
0
 62
7
 10
25.26200000
 20
11.35800000
  0
VERTEX
  8
0
 62
7
 10
25.29571875
 20
11.37621875
  0
VERTEX
  8
0
 62
7
 10
25.33075000
 20
11.39050000
  0
VERTEX
  8
0
 62
7
 10
25.36690625
 20
11.40103125
  0
VERTEX
  8
0
 62
7
 10
25.40400000
 20
11.40800000
  0
VERTEX
  8
0
 62
7
 10
25.34231250
 20
11.44635938
  0
VERTEX
  8
0
 62
7
 10
25.27875000
 20
11.47862500
  0
VERTEX
  8
0
 62
7
 10
25.21331250
 20
11.50432813
  0
VERTEX
  8
0
 62
7
 10
25.14600000
 20
11.52300000
  0
VERTEX
  8
0
 62
7
 10
25.08621875
 20
11.53270313
  0
VERTEX
  8
0
 62
7
 10
25.02700000
 20
11.53612500
  0
VERTEX
  8
0
 62
7
 10
24.96853125
 20
11.53523438
  0
VERTEX
  8
0
 62
7
 10
24.91100000
 20
11.53200000
  0
VERTEX
  8
0
 62
7
 10
24.86271875
 20
11.52635938
  0
VERTEX
  8
0
 62
7
 10
24.81425000
 20
11.51837500
  0
VERTEX
  8
0
 62
7
 10
24.76615625
 20
11.50795313
  0
VERTEX
  8
0
 62
7
 10
24.71900000
 20
11.49500000
  0
VERTEX
  8
0
 62
7
 10
24.67200000
 20
11.59400000
  0
VERTEX
  8
0
 62
7
 10
24.62992578
 20
11.59503906
  0
VERTEX
  8
0
 62
7
 10
24.58853125
 20
11.59368750
  0
VERTEX
  8
0
 62
7
 10
24.54793359
 20
11.58999219
  0
VERTEX
  8
0
 62
7
 10
24.50825000
 20
11.58400000
  0
VERTEX
  8
0
 62
7
 10
24.46959766
 20
11.57575781
  0
VERTEX
  8
0
 62
7
 10
24.43209375
 20
11.56531250
  0
VERTEX
  8
0
 62
7
 10
24.39585547
 20
11.55271094
  0
VERTEX
  8
0
 62
7
 10
24.36100000
 20
11.53800000
  0
VERTEX
  8
0
 62
7
 10
24.31235938
 20
11.51139063
  0
VERTEX
  8
0
 62
7
 10
24.26737500
 20
11.47962500
  0
VERTEX
  8
0
 62
7
 10
24.22445313
 20
11.44504688
  0
VERTEX
  8
0
 62
7
 10
24.18200000
 20
11.41000000
  0
VERTEX
  8
0
 62
7
 10
24.03300000
 20
11.26700000
  0
VERTEX
  8
0
 62
7
 10
23.99823438
 20
11.23696875
  0
VERTEX
  8
0
 62
7
 10
23.96637500
 20
11.21125000
  0
VERTEX
  8
0
 62
7
 10
23.93357813
 20
11.18965625
  0
VERTEX
  8
0
 62
7
 10
23.89600000
 20
11.17200000
  0
VERTEX
  8
0
 62
7
 10
23.88230664
 20
11.16684570
  0
VERTEX
  8
0
 62
7
 10
23.86782813
 20
11.16170313
  0
VERTEX
  8
0
 62
7
 10
23.85309180
 20
11.15742773
  0
VERTEX
  8
0
 62
7
 10
23.83862500
 20
11.15487500
  0
VERTEX
  8
0
 62
7
 10
23.82495508
 20
11.15490039
  0
VERTEX
  8
0
 62
7
 10
23.81260938
 20
11.15835938
  0
VERTEX
  8
0
 62
7
 10
23.80211523
 20
11.16610742
  0
VERTEX
  8
0
 62
7
 10
23.79400000
 20
11.17900000
  0
VERTEX
  8
0
 62
7
 10
23.78870313
 20
11.19357813
  0
VERTEX
  8
0
 62
7
 10
23.78687500
 20
11.20637500
  0
VERTEX
  8
0
 62
7
 10
23.78935938
 20
11.21823438
  0
VERTEX
  8
0
 62
7
 10
23.79700000
 20
11.23000000
  0
VERTEX
  8
0
 62
7
 10
23.81164063
 20
11.24495313
  0
VERTEX
  8
0
 62
7
 10
23.82637500
 20
11.25512500
  0
VERTEX
  8
0
 62
7
 10
23.84242188
 20
11.26248438
  0
VERTEX
  8
0
 62
7
 10
23.86100000
 20
11.26900000
  0
VERTEX
  8
0
 62
7
 10
23.90226563
 20
11.28257813
  0
VERTEX
  8
0
 62
7
 10
23.93837500
 20
11.29737500
  0
VERTEX
  8
0
 62
7
 10
23.97054688
 20
11.31498438
  0
VERTEX
  8
0
 62
7
 10
24.00000000
 20
11.33700000
  0
VERTEX
  8
0
 62
7
 10
24.02776563
 20
11.36495313
  0
VERTEX
  8
0
 62
7
 10
24.05112500
 20
11.39637500
  0
VERTEX
  8
0
 62
7
 10
24.07017188
 20
11.43135938
  0
VERTEX
  8
0
 62
7
 10
24.08500000
 20
11.47000000
  0
VERTEX
  8
0
 62
7
 10
23.98400000
 20
11.51900000
  0
VERTEX
  8
0
 62
7
 10
24.01100000
 20
11.56600000
  0
VERTEX
  8
0
 62
7
 10
24.03190625
 20
11.59085938
  0
VERTEX
  8
0
 62
7
 10
24.05450000
 20
11.61412500
  0
VERTEX
  8
0
 62
7
 10
24.07934375
 20
11.63532813
  0
VERTEX
  8
0
 62
7
 10
24.10700000
 20
11.65400000
  0
VERTEX
  8
0
 62
7
 10
24.04953711
 20
11.67143555
  0
VERTEX
  8
0
 62
7
 10
23.99210938
 20
11.68398438
  0
VERTEX
  8
0
 62
7
 10
23.93503320
 20
11.69163477
  0
VERTEX
  8
0
 62
7
 10
23.87862500
 20
11.69437500
  0
VERTEX
  8
0
 62
7
 10
23.82320117
 20
11.69219336
  0
VERTEX
  8
0
 62
7
 10
23.76907813
 20
11.68507813
  0
VERTEX
  8
0
 62
7
 10
23.71657227
 20
11.67301758
  0
VERTEX
  8
0
 62
7
 10
23.66600000
 20
11.65600000
  0
VERTEX
  8
0
 62
7
 10
23.61182813
 20
11.63051563
  0
VERTEX
  8
0
 62
7
 10
23.56187500
 20
11.59912500
  0
VERTEX
  8
0
 62
7
 10
23.51623438
 20
11.56192188
  0
VERTEX
  8
0
 62
7
 10
23.47500000
 20
11.51900000
  0
VERTEX
  8
0
 62
7
 10
23.41300000
 20
11.58800000
  0
VERTEX
  8
0
 62
7
 10
23.36392578
 20
11.56729688
  0
VERTEX
  8
0
 62
7
 10
23.31646875
 20
11.54425000
  0
VERTEX
  8
0
 62
7
 10
23.27065234
 20
11.51895313
  0
VERTEX
  8
0
 62
7
 10
23.22650000
 20
11.49150000
  0
VERTEX
  8
0
 62
7
 10
23.18403516
 20
11.46198438
  0
VERTEX
  8
0
 62
7
 10
23.14328125
 20
11.43050000
  0
VERTEX
  8
0
 62
7
 10
23.10426172
 20
11.39714063
  0
VERTEX
  8
0
 62
7
 10
23.06700000
 20
11.36200000
  0
VERTEX
  8
0
 62
7
 10
23.00400000
 20
11.29400000
  0
VERTEX
  8
0
 62
7
 10
23.01782813
 20
11.26676563
  0
VERTEX
  8
0
 62
7
 10
23.02837500
 20
11.23962500
  0
VERTEX
  8
0
 62
7
 10
23.03648438
 20
11.21342188
  0
VERTEX
  8
0
 62
7
 10
23.04300000
 20
11.18900000
  0
SEQEND
  0
POLYLINE
  8
0
 62
7
 66
1
  0
VERTEX
  8
0
 62
7
 10
23.18930098
 20
10.94814740
  0
VERTEX
  8
0
 62
7
 10
23.29247042
 20
10.95357785
  0
VERTEX
  8
0
 62
7
 10
23.39659074
 20
10.95639217
  0
VERTEX
  8
0
 62
7
 10
23.50166193
 20
10.95635253
  0
VERTEX
  8
0
 62
7
 10
23.60768399
 20
10.95322110
  0
VERTEX
  8
0
 62
7
 10
23.75245402
 20
10.94594748
  0
VERTEX
  8
0
 62
7
 10
23.89769948
 20
10.93403617
  0
VERTEX
  8
0
 62
7
 10
24.04342038
 20
10.91522780
  0
VERTEX
  8
0
 62
7
 10
24.18961672
 20
10.88726298
  0
VERTEX
  8
0
 62
7
 10
24.34007217
 20
10.84800126
  0
VERTEX
  8
0
 62
7
 10
24.48898244
 20
10.80053440
  0
VERTEX
  8
0
 62
7
 10
24.63622870
 20
10.74474350
  0
VERTEX
  8
0
 62
7
 10
24.78169207
 20
10.68050965
  0
VERTEX
  8
0
 62
7
 10
24.89439251
 20
10.62381202
  0
VERTEX
  8
0
 62
7
 10
25.00508721
 20
10.56226862
  0
VERTEX
  8
0
 62
7
 10
25.11355330
 20
10.49602807
  0
VERTEX
  8
0
 62
7
 10
25.21956793
 20
10.42523904
  0
VERTEX
  8
0
 62
7
 10
25.32290824
 20
10.35005015
  0
VERTEX
  8
0
 62
7
 10
25.42335136
 20
10.27061006
  0
VERTEX
  8
0
 62
7
 10
25.52067444
 20
10.18706740
  0
VERTEX
  8
0
 62
7
 10
25.61465461
 20
10.09957082
  0
SEQEND
  0
POLYLINE
  8
0
 62
7
 66
1
 70
1
  0
VERTEX
  8
0
 62
7
 10
26.56400000
 20
10.05300000
  0
VERTEX
  8
0
 62
7
 10
26.57105469
 20
10.04235742
  0
VERTEX
  8
0
 62
7
 10
26.57637500
 20
10.03029688
  0
VERTEX
  8
0
 62
7
 10
26.57982031
 20
10.01736914
  0
VERTEX
  8
0
 62
7
 10
26.58125000
 20
10.00412500
  0
VERTEX
  8
0
 62
7
 10
26.58052344
 20
9.99111523
  0
VERTEX
  8
0
 62
7
 10
26.57750000
 20
9.97889063
  0
VERTEX
  8
0
 62
7
 10
26.57203906
 20
9.96800195
  0
VERTEX
  8
0
 62
7
 10
26.56400000
 20
9.95900000
  0
VERTEX
  8
0
 62
7
 10
26.51800000
 20
9.92000000
  0
VERTEX
  8
0
 62
7
 10
26.53400000
 20
9.89200000
  0
VERTEX
  8
0
 62
7
 10
26.58662500
 20
9.89725000
  0
VERTEX
  8
0
 62
7
 10
26.63700000
 20
9.90700000
  0
VERTEX
  8
0
 62
7
 10
26.67426758
 20
9.91631641
  0
VERTEX
  8
0
 62
7
 10
26.71032813
 20
9.92771875
  0
VERTEX
  8
0
 62
7
 10
26.74519336
 20
9.94113672
  0
VERTEX
  8
0
 62
7
 10
26.77887500
 20
9.95650000
  0
VERTEX
  8
0
 62
7
 10
26.81138477
 20
9.97373828
  0
VERTEX
  8
0
 62
7
 10
26.84273438
 20
9.99278125
  0
VERTEX
  8
0
 62
7
 10
26.87293555
 20
10.01355859
  0
VERTEX
  8
0
 62
7
 10
26.90200000
 20
10.03600000
  0
VERTEX
  8
0
 62
7
 10
26.94000000
 20
10.07262500
  0
VERTEX
  8
0
 62
7
 10
26.97425000
 20
10.11225000
  0
VERTEX
  8
0
 62
7
 10
27.00437500
 20
10.15525000
  0
VERTEX
  8
0
 62
7
 10
27.03000000
 20
10.20200000
  0
VERTEX
  8
0
 62
7
 10
27.04015625
 20
10.22861914
  0
VERTEX
  8
0
 62
7
 10
27.04881250
 20
10.25595313
  0
VERTEX
  8
0
 62
7
 10
27.05587500
 20
10.28396680
  0
VERTEX
  8
0
 62
7
 10
27.06125000
 20
10.31262500
  0
VERTEX
  8
0
 62
7
 10
27.06484375
 20
10.34189258
  0
VERTEX
  8
0
 62
7
 10
27.06656250
 20
10.37173438
  0
VERTEX
  8
0
 62
7
 10
27.06631250
 20
10.40211523
  0
VERTEX
  8
0
 62
7
 10
27.06400000
 20
10.43300000
  0
VERTEX
  8
0
 62
7
 10
27.06035742
 20
10.46982227
  0
VERTEX
  8
0
 62
7
 10
27.05398438
 20
10.50670313
  0
VERTEX
  8
0
 62
7
 10
27.04496289
 20
10.54351367
  0
VERTEX
  8
0
 62
7
 10
27.03337500
 20
10.58012500
  0
VERTEX
  8
0
 62
7
 10
27.01930273
 20
10.61640820
  0
VERTEX
  8
0
 62
7
 10
27.00282813
 20
10.65223438
  0
VERTEX
  8
0
 62
7
 10
26.98403320
 20
10.68747461
  0
VERTEX
  8
0
 62
7
 10
26.96300000
 20
10.72200000
  0
VERTEX
  8
0
 62
7
 10
26.92495313
 20
10.77676563
  0
VERTEX
  8
0
 62
7
 10
26.88137500
 20
10.82787500
  0
VERTEX
  8
0
 62
7
 10
26.83235938
 20
10.87429688
  0
VERTEX
  8
0
 62
7
 10
26.77800000
 20
10.91500000
  0
VERTEX
  8
0
 62
7
 10
26.71567188
 20
10.94939063
  0
VERTEX
  8
0
 62
7
 10
26.65212500
 20
10.97487500
  0
VERTEX
  8
0
 62
7
 10
26.58801563
 20
10.99192188
  0
VERTEX
  8
0
 62
7
 10
26.52400000
 20
11.00100000
  0
VERTEX
  8
0
 62
7
 10
26.49241797
 20
11.00305859
  0
VERTEX
  8
0
 62
7
 10
26.46146875
 20
11.00321875
  0
VERTEX
  8
0
 62
7
 10
26.43122266
 20
11.00145703
  0
VERTEX
  8
0
 62
7
 10
26.40175000
 20
10.99775000
  0
VERTEX
  8
0
 62
7
 10
26.37312109
 20
10.99207422
  0
VERTEX
  8
0
 62
7
 10
26.34540625
 20
10.98440625
  0
VERTEX
  8
0
 62
7
 10
26.31867578
 20
10.97472266
  0
VERTEX
  8
0
 62
7
 10
26.29300000
 20
10.96300000
  0
VERTEX
  8
0
 62
7
 10
26.24915625
 20
10.93589063
  0
VERTEX
  8
0
 62
7
 10
26.21075000
 20
10.90287500
  0
VERTEX
  8
0
 62
7
 10
26.17796875
 20
10.86442188
  0
VERTEX
  8
0
 62
7
 10
26.15100000
 20
10.82100000
  0
VERTEX
  8
0
 62
7
 10
26.12964063
 20
10.77470313
  0
VERTEX
  8
0
 62
7
 10
26.11512500
 20
10.72587500
  0
VERTEX
  8
0
 62
7
 10
26.10754688
 20
10.67460938
  0
VERTEX
  8
0
 62
7
 10
26.10700000
 20
10.62100000
  0
VERTEX
  8
0
 62
7
 10
26.11004883
 20
10.58943359
  0
VERTEX
  8
0
 62
7
 10
26.11489063
 20
10.55784375
  0
VERTEX
  8
0
 62
7
 10
26.12181836
 20
10.52639453
  0
VERTEX
  8
0
 62
7
 10
26.13112500
 20
10.49525000
  0
VERTEX
  8
0
 62
7
 10
26.14310352
 20
10.46457422
  0
VERTEX
  8
0
 62
7
 10
26.15804688
 20
10.43453125
  0
VERTEX
  8
0
 62
7
 10
26.17624805
 20
10.40528516
  0
VERTEX
  8
0
 62
7
 10
26.19800000
 20
10.37700000
  0
VERTEX
  8
0
 62
7
 10
26.21814844
 20
10.35422461
  0
VERTEX
  8
0
 62
7
 10
26.23956250
 20
10.33260938
  0
VERTEX
  8
0
 62
7
 10
26.26219531
 20
10.31247070
  0
VERTEX
  8
0
 62
7
 10
26.28600000
 20
10.29412500
  0
VERTEX
  8
0
 62
7
 10
26.31092969
 20
10.27788867
  0
VERTEX
  8
0
 62
7
 10
26.33693750
 20
10.26407813
  0
VERTEX
  8
0
 62
7
 10
26.36397656
 20
10.25300977
  0
VERTEX
  8
0
 62
7
 10
26.39200000
 20
10.24500000
  0
VERTEX
  8
0
 62
7
 10
26.41700195
 20
10.24054297
  0
VERTEX
  8
0
 62
7
 10
26.44164063
 20
10.23840625
  0
VERTEX
  8
0
 62
7
 10
26.46574023
 20
10.23856641
  0
VERTEX
  8
0
 62
7
 10
26.48912500
 20
10.24100000
  0
VERTEX
  8
0
 62
7
 10
26.51161914
 20
10.24568359
  0
VERTEX
  8
0
 62
7
 10
26.53304688
 20
10.25259375
  0
VERTEX
  8
0
 62
7
 10
26.55323242
 20
10.26170703
  0
VERTEX
  8
0
 62
7
 10
26.57200000
 20
10.27300000
  0
VERTEX
  8
0
 62
7
 10
26.59785938
 20
10.29634375
  0
VERTEX
  8
0
 62
7
 10
26.61837500
 20
10.32400000
  0
VERTEX
  8
0
 62
7
 10
26.63345313
 20
10.35540625
  0
VERTEX
  8
0
 62
7
 10
26.64300000
 20
10.39000000
  0
VERTEX
  8
0
 62
7
 10
26.62727148
 20
10.37710547
  0
VERTEX
  8
0
 62
7
 10
26.61017188
 20
10.36615625
  0
VERTEX
  8
0
 62
7
 10
26.59183008
 20
10.35712891
  0
VERTEX
  8
0
 62
7
 10
26.57237500
 20
10.35000000
  0
VERTEX
  8
0
 62
7
 10
26.55193555
 20
10.34474609
  0
VERTEX
  8
0
 62
7
 10
26.53064063
 20
10.34134375
  0
VERTEX
  8
0
 62
7
 10
26.50861914
 20
10.33976953
  0
VERTEX
  8
0
 62
7
 10
26.48600000
 20
10.34000000
  0
VERTEX
  8
0
 62
7
 10
26.45114063
 20
10.34332813
  0
VERTEX
  8
0
 62
7
 10
26.41637500
 20
10.35012500
  0
VERTEX
  8
0
 62
7
 10
26.38292188
 20
10.36235938
  0
VERTEX
  8
0
 62
7
 10
26.35200000
 20
10.38200000
  0
VERTEX
  8
0
 62
7
 10
26.32567188
 20
10.40598438
  0
VERTEX
  8
0
 62
7
 10
26.30562500
 20
10.43362500
  0
VERTEX
  8
0
 62
7
 10
26.29026563
 20
10.46370313
  0
VERTEX
  8
0
 62
7
 10
26.27800000
 20
10.49500000
  0
VERTEX
  8
0
 62
7
 10
26.26420313
 20
10.53518750
  0
VERTEX
  8
0
 62
7
 10
26.25762500
 20
10.57575000
  0
VERTEX
  8
0
 62
7
 10
26.25648438
 20
10.61593750
  0
VERTEX
  8
0
 62
7
 10
26.25900000
 20
10.65500000
  0
VERTEX
  8
0
 62
7
 10
26.26846875
 20
10.69460938
  0
VERTEX
  8
0
 62
7
 10
26.28225000
 20
10.73187500
  0
VERTEX
  8
0
 62
7
 10
26.30090625
 20
10.76595313
  0
VERTEX
  8
0
 62
7
 10
26.32500000
 20
10.79600000
  0
VERTEX
  8
0
 62
7
 10
26.34558984
 20
10.81297266
  0
VERTEX
  8
0
 62
7
 10
26.36821875
 20
10.82715625
  0
VERTEX
  8
0
 62
7
 10
26.39267578
 20
10.83857422
  0
VERTEX
  8
0
 62
7
 10
26.41875000
 20
10.84725000
  0
VERTEX
  8
0
 62
7
 10
26.44623047
 20
10.85320703
  0
VERTEX
  8
0
 62
7
 10
26.47490625
 20
10.85646875
  0
VERTEX
  8
0
 62
7
 10
26.50456641
 20
10.85705859
  0
VERTEX
  8
0
 62
7
 10
26.53500000
 20
10.85500000
  0
VERTEX
  8
0
 62
7
 10
26.56750000
 20
10.85005664
  0
VERTEX
  8
0
 62
7
 10
26.59962500
 20
10.84207813
  0
VERTEX
  8
0
 62
7
 10
26.63118750
 20
10.83121680
  0
VERTEX
  8
0
 62
7
 10
26.66200000
 20
10.81762500
  0
VERTEX
  8
0
 62
7
 10
26.69187500
 20
10.80145508
  0
VERTEX
  8
0
 62
7
 10
26.72062500
 20
10.78285938
  0
VERTEX
  8
0
 62
7
 10
26.74806250
 20
10.76199023
  0
VERTEX
  8
0
 62
7
 10
26.77400000
 20
10.73900000
  0
VERTEX
  8
0
 62
7
 10
26.80042188
 20
10.71214063
  0
VERTEX
  8
0
 62
7
 10
26.82356250
 20
10.68350000
  0
VERTEX
  8
0
 62
7
 10
26.84360938
 20
10.65335938
  0
VERTEX
  8
0
 62
7
 10
26.86075000
 20
10.62200000
  0
VERTEX
  8
0
 62
7
 10
26.87517188
 20
10.58970313
  0
VERTEX
  8
0
 62
7
 10
26.88706250
 20
10.55675000
  0
VERTEX
  8
0
 62
7
 10
26.89660938
 20
10.52342188
  0
VERTEX
  8
0
 62
7
 10
26.90400000
 20
10.49000000
  0
VERTEX
  8
0
 62
7
 10
26.91051563
 20
10.45711719
  0
VERTEX
  8
0
 62
7
 10
26.91431250
 20
10.42456250
  0
VERTEX
  8
0
 62
7
 10
26.91539063
 20
10.39247656
  0
VERTEX
  8
0
 62
7
 10
26.91375000
 20
10.36100000
  0
VERTEX
  8
0
 62
7
 10
26.90939063
 20
10.33027344
  0
VERTEX
  8
0
 62
7
 10
26.90231250
 20
10.30043750
  0
VERTEX
  8
0
 62
7
 10
26.89251563
 20
10.27163281
  0
VERTEX
  8
0
 62
7
 10
26.88000000
 20
10.24400000
  0
VERTEX
  8
0
 62
7
 10
26.86468359
 20
10.21819336
  0
VERTEX
  8
0
 62
7
 10
26.84671875
 20
10.19467188
  0
VERTEX
  8
0
 62
7
 10
26.82645703
 20
10.17328320
  0
VERTEX
  8
0
 62
7
 10
26.80425000
 20
10.15387500
  0
VERTEX
  8
0
 62
7
 10
26.78044922
 20
10.13629492
  0
VERTEX
  8
0
 62
7
 10
26.75540625
 20
10.12039063
  0
VERTEX
  8
0
 62
7
 10
26.72947266
 20
10.10600977
  0
VERTEX
  8
0
 62
7
 10
26.70300000
 20
10.09300000
  0
VERTEX
  8
0
 62
7
 10
26.66960938
 20
10.07929688
  0
VERTEX
  8
0
 62
7
 10
26.63537500
 20
10.06812500
  0
VERTEX
  8
0
 62
7
 10
26.60020313
 20
10.05939063
  0
VERTEX
  8
0
 62
7
 10
26.56400000
 20
10.05300000
  0
SEQEND
  0
POLYLINE
  8
0
 62
7
 66
1
 70
1
  0
VERTEX
  8
0
 62
7
 10
24.04000000
 20
13.90200000
  0
VERTEX
  8
0
 62
7
 10
24.03929688
 20
13.91164258
  0
VERTEX
  8
0
 62
7
 10
24.04075000
 20
13.92101563
  0
VERTEX
  8
0
 62
7
 10
24.04407813
 20
13.93003711
  0
VERTEX
  8
0
 62
7
 10
24.04900000
 20
13.93862500
  0
VERTEX
  8
0
 62
7
 10
24.05523438
 20
13.94669727
  0
VERTEX
  8
0
 62
7
 10
24.06250000
 20
13.95417188
  0
VERTEX
  8
0
 62
7
 10
24.07051563
 20
13.96096680
  0
VERTEX
  8
0
 62
7
 10
24.07900000
 20
13.96700000
  0
VERTEX
  8
0
 62
7
 10
24.09221875
 20
13.97521094
  0
VERTEX
  8
0
 62
7
 10
24.10693750
 20
13.98112500
  0
VERTEX
  8
0
 62
7
 10
24.12287500
 20
13.98478906
  0
VERTEX
  8
0
 62
7
 10
24.13975000
 20
13.98625000
  0
VERTEX
  8
0
 62
7
 10
24.15728125
 20
13.98555469
  0
VERTEX
  8
0
 62
7
 10
24.17518750
 20
13.98275000
  0
VERTEX
  8
0
 62
7
 10
24.19318750
 20
13.97788281
  0
VERTEX
  8
0
 62
7
 10
24.21100000
 20
13.97100000
  0
VERTEX
  8
0
 62
7
 10
24.19629688
 20
13.99631250
  0
VERTEX
  8
0
 62
7
 10
24.17887500
 20
14.02050000
  0
VERTEX
  8
0
 62
7
 10
24.15601563
 20
14.04243750
  0
VERTEX
  8
0
 62
7
 10
24.12500000
 20
14.06100000
  0
VERTEX
  8
0
 62
7
 10
24.10486523
 20
14.06820313
  0
VERTEX
  8
0
 62
7
 10
24.08504688
 20
14.07268750
  0
VERTEX
  8
0
 62
7
 10
24.06567383
 20
14.07464063
  0
VERTEX
  8
0
 62
7
 10
24.04687500
 20
14.07425000
  0
VERTEX
  8
0
 62
7
 10
24.02877930
 20
14.07170313
  0
VERTEX
  8
0
 62
7
 10
24.01151563
 20
14.06718750
  0
VERTEX
  8
0
 62
7
 10
23.99521289
 20
14.06089063
  0
VERTEX
  8
0
 62
7
 10
23.98000000
 20
14.05300000
  0
VERTEX
  8
0
 62
7
 10
23.96325781
 20
14.04186133
  0
VERTEX
  8
0
 62
7
 10
23.94843750
 20
14.02820313
  0
VERTEX
  8
0
 62
7
 10
23.93577344
 20
14.01241211
  0
VERTEX
  8
0
 62
7
 10
23.92550000
 20
13.99487500
  0
VERTEX
  8
0
 62
7
 10
23.91785156
 20
13.97597852
  0
VERTEX
  8
0
 62
7
 10
23.91306250
 20
13.95610938
  0
VERTEX
  8
0
 62
7
 10
23.91136719
 20
13.93565430
  0
VERTEX
  8
0
 62
7
 10
23.91300000
 20
13.91500000
  0
VERTEX
  8
0
 62
7
 10
23.88414063
 20
13.90854688
  0
VERTEX
  8
0
 62
7
 10
23.85687500
 20
13.89862500
  0
VERTEX
  8
0
 62
7
 10
23.83242188
 20
13.88589063
  0
VERTEX
  8
0
 62
7
 10
23.81200000
 20
13.87100000
  0
VERTEX
  8
0
 62
7
 10
23.78912500
 20
13.84520313
  0
VERTEX
  8
0
 62
7
 10
23.77300000
 20
13.81612500
  0
VERTEX
  8
0
 62
7
 10
23.76362500
 20
13.78423438
  0
VERTEX
  8
0
 62
7
 10
23.76100000
 20
13.75000000
  0
VERTEX
  8
0
 62
7
 10
23.76351563
 20
13.72037500
  0
VERTEX
  8
0
 62
7
 10
23.77137500
 20
13.69375000
  0
VERTEX
  8
0
 62
7
 10
23.78504688
 20
13.66900000
  0
VERTEX
  8
0
 62
7
 10
23.80500000
 20
13.64500000
  0
VERTEX
  8
0
 62
7
 10
23.81722266
 20
13.63456641
  0
VERTEX
  8
0
 62
7
 10
23.83246875
 20
13.62528125
  0
VERTEX
  8
0
 62
7
 10
23.85010547
 20
13.61754297
  0
VERTEX
  8
0
 62
7
 10
23.86950000
 20
13.61175000
  0
VERTEX
  8
0
 62
7
 10
23.89001953
 20
13.60830078
  0
VERTEX
  8
0
 62
7
 10
23.91103125
 20
13.60759375
  0
VERTEX
  8
0
 62
7
 10
23.93190234
 20
13.61002734
  0
VERTEX
  8
0
 62
7
 10
23.95200000
 20
13.61600000
  0
VERTEX
  8
0
 62
7
 10
23.93285938
 20
13.62615625
  0
VERTEX
  8
0
 62
7
 10
23.91812500
 20
13.63650000
  0
VERTEX
  8
0
 62
7
 10
23.90657813
 20
13.64834375
  0
VERTEX
  8
0
 62
7
 10
23.89700000
 20
13.66300000
  0
VERTEX
  8
0
 62
7
 10
23.88776563
 20
13.68735938
  0
VERTEX
  8
0
 62
7
 10
23.88612500
 20
13.71087500
  0
VERTEX
  8
0
 62
7
 10
23.89067188
 20
13.73345313
  0
VERTEX
  8
0
 62
7
 10
23.90000000
 20
13.75500000
  0
VERTEX
  8
0
 62
7
 10
23.91665625
 20
13.77446875
  0
VERTEX
  8
0
 62
7
 10
23.93875000
 20
13.78775000
  0
VERTEX
  8
0
 62
7
 10
23.96496875
 20
13.79465625
  0
VERTEX
  8
0
 62
7
 10
23.99400000
 20
13.79500000
  0
VERTEX
  8
0
 62
7
 10
24.00350000
 20
13.83725000
  0
VERTEX
  8
0
 62
7
 10
24.01600000
 20
13.87800000
  0
VERTEX
  8
0
 62
7
 10
24.02537500
 20
13.89300000
  0
VERTEX
  8
0
 62
7
 10
24.04000000
 20
13.90200000
  0
SEQEND
  0
POLYLINE
  8
0
 62
7
 66
1
 70
1
  0
VERTEX
  8
0
 62
7
 10
25.38600000
 20
11.12200000
  0
VERTEX
  8
0
 62
7
 10
25.42153125
 20
11.12987500
  0
VERTEX
  8
0
 62
7
 10
25.45875000
 20
11.13550000
  0
VERTEX
  8
0
 62
7
 10
25.49709375
 20
11.13887500
  0
VERTEX
  8
0
 62
7
 10
25.53600000
 20
11.14000000
  0
VERTEX
  8
0
 62
7
 10
25.60100000
 20
11.13700000
  0
VERTEX
  8
0
 62
7
 10
25.63380273
 20
11.16206445
  0
VERTEX
  8
0
 62
7
 10
25.66467188
 20
11.18920313
  0
VERTEX
  8
0
 62
7
 10
25.69354883
 20
11.21833398
  0
VERTEX
  8
0
 62
7
 10
25.72037500
 20
11.24937500
  0
VERTEX
  8
0
 62
7
 10
25.74509180
 20
11.28224414
  0
VERTEX
  8
0
 62
7
 10
25.76764063
 20
11.31685938
  0
VERTEX
  8
0
 62
7
 10
25.78796289
 20
11.35313867
  0
VERTEX
  8
0
 62
7
 10
25.80600000
 20
11.39100000
  0
VERTEX
  8
0
 62
7
 10
25.83081250
 20
11.45471875
  0
VERTEX
  8
0
 62
7
 10
25.84850000
 20
11.52125000
  0
VERTEX
  8
0
 62
7
 10
25.85943750
 20
11.59040625
  0
VERTEX
  8
0
 62
7
 10
25.86400000
 20
11.66200000
  0
VERTEX
  8
0
 62
7
 10
25.68400000
 20
11.73300000
  0
VERTEX
  8
0
 62
7
 10
25.72776953
 20
11.75961328
  0
VERTEX
  8
0
 62
7
 10
25.76978125
 20
11.78840625
  0
VERTEX
  8
0
 62
7
 10
25.80996484
 20
11.81930859
  0
VERTEX
  8
0
 62
7
 10
25.84825000
 20
11.85225000
  0
VERTEX
  8
0
 62
7
 10
25.88456641
 20
11.88716016
  0
VERTEX
  8
0
 62
7
 10
25.91884375
 20
11.92396875
  0
VERTEX
  8
0
 62
7
 10
25.95101172
 20
11.96260547
  0
VERTEX
  8
0
 62
7
 10
25.98100000
 20
12.00300000
  0
VERTEX
  8
0
 62
7
 10
26.02490625
 20
12.07075000
  0
VERTEX
  8
0
 62
7
 10
26.06225000
 20
12.14300000
  0
VERTEX
  8
0
 62
7
 10
26.09321875
 20
12.21900000
  0
VERTEX
  8
0
 62
7
 10
26.11800000
 20
12.29800000
  0
VERTEX
  8
0
 62
7
 10
26.02300000
 20
12.36600000
  0
VERTEX
  8
0
 62
7
 10
26.05270313
 20
12.41009375
  0
VERTEX
  8
0
 62
7
 10
26.07837500
 20
12.45700000
  0
VERTEX
  8
0
 62
7
 10
26.09935938
 20
12.50690625
  0
VERTEX
  8
0
 62
7
 10
26.11500000
 20
12.56000000
  0
VERTEX
  8
0
 62
7
 10
26.12089063
 20
12.59782813
  0
VERTEX
  8
0
 62
7
 10
26.12312500
 20
12.63687500
  0
VERTEX
  8
0
 62
7
 10
26.12554688
 20
12.67573438
  0
VERTEX
  8
0
 62
7
 10
26.13200000
 20
12.71300000
  0
VERTEX
  8
0
 62
7
 10
26.14029688
 20
12.74501563
  0
VERTEX
  8
0
 62
7
 10
26.15037500
 20
12.77637500
  0
VERTEX
  8
0
 62
7
 10
26.16251563
 20
12.80679688
  0
VERTEX
  8
0
 62
7
 10
26.17700000
 20
12.83600000
  0
VERTEX
  8
0
 62
7
 10
26.14439063
 20
12.85029688
  0
VERTEX
  8
0
 62
7
 10
26.11112500
 20
12.86187500
  0
VERTEX
  8
0
 62
7
 10
26.07729688
 20
12.87101563
  0
VERTEX
  8
0
 62
7
 10
26.04300000
 20
12.87800000
  0
VERTEX
  8
0
 62
7
 10
25.99318750
 20
12.88481250
  0
VERTEX
  8
0
 62
7
 10
25.94450000
 20
12.88600000
  0
VERTEX
  8
0
 62
7
 10
25.89731250
 20
12.88193750
  0
VERTEX
  8
0
 62
7
 10
25.85200000
 20
12.87300000
  0
VERTEX
  8
0
 62
7
 10
25.71600000
 20
12.98500000
  0
VERTEX
  8
0
 62
7
 10
25.68901367
 20
12.97493164
  0
VERTEX
  8
0
 62
7
 10
25.66360938
 20
12.96276563
  0
VERTEX
  8
0
 62
7
 10
25.63986914
 20
12.94856055
  0
VERTEX
  8
0
 62
7
 10
25.61787500
 20
12.93237500
  0
VERTEX
  8
0
 62
7
 10
25.59770898
 20
12.91426758
  0
VERTEX
  8
0
 62
7
 10
25.57945313
 20
12.89429688
  0
VERTEX
  8
0
 62
7
 10
25.56318945
 20
12.87252148
  0
VERTEX
  8
0
 62
7
 10
25.54900000
 20
12.84900000
  0
VERTEX
  8
0
 62
7
 10
25.53212500
 20
12.81275000
  0
VERTEX
  8
0
 62
7
 10
25.51900000
 20
12.77800000
  0
VERTEX
  8
0
 62
7
 10
25.51180835
 20
12.76482715
  0
VERTEX
  8
0
 62
7
 10
25.50421680
 20
12.75446094
  0
VERTEX
  8
0
 62
7
 10
25.49638794
 20
12.74675488
  0
VERTEX
  8
0
 62
7
 10
25.48848438
 20
12.74156250
  0
VERTEX
  8
0
 62
7
 10
25.48066870
 20
12.73873730
  0
VERTEX
  8
0
 62
7
 10
25.47310352
 20
12.73813281
  0
VERTEX
  8
0
 62
7
 10
25.46595142
 20
12.73960254
  0
VERTEX
  8
0
 62
7
 10
25.45937500
 20
12.74300000
  0
VERTEX
  8
0
 62
7
 10
25.45353687
 20
12.74817871
  0
VERTEX
  8
0
 62
7
 10
25.44859961
 20
12.75499219
  0
VERTEX
  8
0
 62
7
 10
25.44472583
 20
12.76329395
  0
VERTEX
  8
0
 62
7
 10
25.44207813
 20
12.77293750
  0
VERTEX
  8
0
 62
7
 10
25.44081909
 20
12.78377637
  0
VERTEX
  8
0
 62
7
 10
25.44111133
 20
12.79566406
  0
VERTEX
  8
0
 62
7
 10
25.44311743
 20
12.80845410
  0
VERTEX
  8
0
 62
7
 10
25.44700000
 20
12.82200000
  0
VERTEX
  8
0
 62
7
 10
25.46098438
 20
12.85476563
  0
VERTEX
  8
0
 62
7
 10
25.47937500
 20
12.88687500
  0
VERTEX
  8
0
 62
7
 10
25.50057813
 20
12.91804688
  0
VERTEX
  8
0
 62
7
 10
25.52300000
 20
12.94800000
  0
VERTEX
  8
0
 62
7
 10
25.55390625
 20
12.98145313
  0
VERTEX
  8
0
 62
7
 10
25.58800000
 20
13.01162500
  0
VERTEX
  8
0
 62
7
 10
25.62284375
 20
13.04123438
  0
VERTEX
  8
0
 62
7
 10
25.65600000
 20
13.07300000
  0
VERTEX
  8
0
 62
7
 10
25.67844922
 20
13.09853320
  0
VERTEX
  8
0
 62
7
 10
25.70059375
 20
13.12426563
  0
VERTEX
  8
0
 62
7
 10
25.72212891
 20
13.15039648
  0
VERTEX
  8
0
 62
7
 10
25.74275000
 20
13.17712500
  0
VERTEX
  8
0
 62
7
 10
25.76215234
 20
13.20465039
  0
VERTEX
  8
0
 62
7
 10
25.78003125
 20
13.23317188
  0
VERTEX
  8
0
 62
7
 10
25.79608203
 20
13.26288867
  0
VERTEX
  8
0
 62
7
 10
25.81000000
 20
13.29400000
  0
VERTEX
  8
0
 62
7
 10
25.82776563
 20
13.34490625
  0
VERTEX
  8
0
 62
7
 10
25.84187500
 20
13.39825000
  0
VERTEX
  8
0
 62
7
 10
25.85204688
 20
13.45346875
  0
VERTEX
  8
0
 62
7
 10
25.85800000
 20
13.51000000
  0
VERTEX
  8
0
 62
7
 10
25.85701563
 20
13.57576563
  0
VERTEX
  8
0
 62
7
 10
25.85087500
 20
13.64237500
  0
VERTEX
  8
0
 62
7
 10
25.83929688
 20
13.70954688
  0
VERTEX
  8
0
 62
7
 10
25.82200000
 20
13.77700000
  0
VERTEX
  8
0
 62
7
 10
25.74400000
 20
13.81300000
  0
VERTEX
  8
0
 62
7
 10
25.73784766
 20
13.86779102
  0
VERTEX
  8
0
 62
7
 10
25.72628125
 20
13.92245313
  0
VERTEX
  8
0
 62
7
 10
25.70951172
 20
13.97666992
  0
VERTEX
  8
0
 62
7
 10
25.68775000
 20
14.03012500
  0
VERTEX
  8
0
 62
7
 10
25.66120703
 20
14.08250195
  0
VERTEX
  8
0
 62
7
 10
25.63009375
 20
14.13348438
  0
VERTEX
  8
0
 62
7
 10
25.59462109
 20
14.18275586
  0
VERTEX
  8
0
 62
7
 10
25.55500000
 20
14.23000000
  0
VERTEX
  8
0
 62
7
 10
25.51739063
 20
14.26975000
  0
VERTEX
  8
0
 62
7
 10
25.47687500
 20
14.30650000
  0
VERTEX
  8
0
 62
7
 10
25.43392188
 20
14.34025000
  0
VERTEX
  8
0
 62
7
 10
25.38900000
 20
14.37100000
  0
VERTEX
  8
0
 62
7
 10
25.39287500
 20
14.33262500
  0
VERTEX
  8
0
 62
7
 10
25.39300000
 20
14.29500000
  0
VERTEX
  8
0
 62
7
 10
25.39053125
 20
14.27048438
  0
VERTEX
  8
0
 62
7
 10
25.38600000
 20
14.24662500
  0
VERTEX
  8
0
 62
7
 10
25.37921875
 20
14.22370313
  0
VERTEX
  8
0
 62
7
 10
25.37000000
 20
14.20200000
  0
VERTEX
  8
0
 62
7
 10
25.26300000
 20
14.26100000
  0
VERTEX
  8
0
 62
7
 10
25.23646875
 20
14.22750000
  0
VERTEX
  8
0
 62
7
 10
25.21575000
 20
14.19025000
  0
VERTEX
  8
0
 62
7
 10
25.20140625
 20
14.14962500
  0
VERTEX
  8
0
 62
7
 10
25.19400000
 20
14.10600000
  0
VERTEX
  8
0
 62
7
 10
25.19131250
 20
14.08120313
  0
VERTEX
  8
0
 62
7
 10
25.19125000
 20
14.05631250
  0
VERTEX
  8
0
 62
7
 10
25.19343750
 20
14.03132813
  0
VERTEX
  8
0
 62
7
 10
25.19750000
 20
14.00625000
  0
VERTEX
  8
0
 62
7
 10
25.20306250
 20
13.98107813
  0
VERTEX
  8
0
 62
7
 10
25.20975000
 20
13.95581250
  0
VERTEX
  8
0
 62
7
 10
25.21718750
 20
13.93045313
  0
VERTEX
  8
0
 62
7
 10
25.22500000
 20
13.90500000
  0
VERTEX
  8
0
 62
7
 10
25.26700000
 20
13.80800000
  0
VERTEX
  8
0
 62
7
 10
25.27028125
 20
13.79619922
  0
VERTEX
  8
0
 62
7
 10
25.27243750
 20
13.78315625
  0
VERTEX
  8
0
 62
7
 10
25.27318750
 20
13.76978516
  0
VERTEX
  8
0
 62
7
 10
25.27225000
 20
13.75700000
  0
VERTEX
  8
0
 62
7
 10
25.26934375
 20
13.74571484
  0
VERTEX
  8
0
 62
7
 10
25.26418750
 20
13.73684375
  0
VERTEX
  8
0
 62
7
 10
25.25650000
 20
13.73130078
  0
VERTEX
  8
0
 62
7
 10
25.24600000
 20
13.73000000
  0
VERTEX
  8
0
 62
7
 10
25.23078125
 20
13.73409375
  0
VERTEX
  8
0
 62
7
 10
25.21800000
 20
13.74250000
  0
VERTEX
  8
0
 62
7
 10
25.20746875
 20
13.75390625
  0
VERTEX
  8
0
 62
7
 10
25.19900000
 20
13.76700000
  0
VERTEX
  8
0
 62
7
 10
25.18259375
 20
13.79992188
  0
VERTEX
  8
0
 62
7
 10
25.16975000
 20
13.83387500
  0
VERTEX
  8
0
 62
7
 10
25.15878125
 20
13.86839063
  0
VERTEX
  8
0
 62
7
 10
25.14800000
 20
13.90300000
  0
VERTEX
  8
0
 62
7
 10
25.13106250
 20
13.97032813
  0
VERTEX
  8
0
 62
7
 10
25.11900000
 20
14.03737500
  0
VERTEX
  8
0
 62
7
 10
25.10693750
 20
14.10423438
  0
VERTEX
  8
0
 62
7
 10
25.09000000
 20
14.17100000
  0
VERTEX
  8
0
 62
7
 10
25.06926563
 20
14.23773438
  0
VERTEX
  8
0
 62
7
 10
25.04712500
 20
14.30512500
  0
VERTEX
  8
0
 62
7
 10
25.02067188
 20
14.37195313
  0
VERTEX
  8
0
 62
7
 10
24.98700000
 20
14.43700000
  0
VERTEX
  8
0
 62
7
 10
24.94896875
 20
14.49342188
  0
VERTEX
  8
0
 62
7
 10
24.90700000
 20
14.54712500
  0
VERTEX
  8
0
 62
7
 10
24.86128125
 20
14.59801563
  0
VERTEX
  8
0
 62
7
 10
24.81200000
 20
14.64600000
  0
VERTEX
  8
0
 62
7
 10
24.74300000
 20
14.55200000
  0
VERTEX
  8
0
 62
7
 10
24.70567188
 20
14.57651563
  0
VERTEX
  8
0
 62
7
 10
24.67087500
 20
14.60487500
  0
VERTEX
  8
0
 62
7
 10
24.63964063
 20
14.63679688
  0
VERTEX
  8
0
 62
7
 10
24.61300000
 20
14.67200000
  0
VERTEX
  8
0
 62
7
 10
24.59997266
 20
14.69368359
  0
VERTEX
  8
0
 62
7
 10
24.58978125
 20
14.71590625
  0
VERTEX
  8
0
 62
7
 10
24.58188672
 20
14.73855078
  0
VERTEX
  8
0
 62
7
 10
24.57575000
 20
14.76150000
  0
VERTEX
  8
0
 62
7
 10
24.57083203
 20
14.78463672
  0
VERTEX
  8
0
 62
7
 10
24.56659375
 20
14.80784375
  0
VERTEX
  8
0
 62
7
 10
24.56249609
 20
14.83100391
  0
VERTEX
  8
0
 62
7
 10
24.55800000
 20
14.85400000
  0
VERTEX
  8
0
 62
7
 10
24.55053125
 20
14.91271875
  0
VERTEX
  8
0
 62
7
 10
24.54625000
 20
14.97050000
  0
VERTEX
  8
0
 62
7
 10
24.54534375
 20
15.02753125
  0
VERTEX
  8
0
 62
7
 10
24.54800000
 20
15.08400000
  0
VERTEX
  8
0
 62
7
 10
24.51061133
 20
15.06736914
  0
VERTEX
  8
0
 62
7
 10
24.47501563
 20
15.04826563
  0
VERTEX
  8
0
 62
7
 10
24.44131836
 20
15.02674805
  0
VERTEX
  8
0
 62
7
 10
24.40962500
 20
15.00287500
  0
VERTEX
  8
0
 62
7
 10
24.38004102
 20
14.97670508
  0
VERTEX
  8
0
 62
7
 10
24.35267188
 20
14.94829688
  0
VERTEX
  8
0
 62
7
 10
24.32762305
 20
14.91770898
  0
VERTEX
  8
0
 62
7
 10
24.30500000
 20
14.88500000
  0
VERTEX
  8
0
 62
7
 10
24.27884375
 20
14.83685938
  0
VERTEX
  8
0
 62
7
 10
24.25850000
 20
14.78562500
  0
VERTEX
  8
0
 62
7
 10
24.24340625
 20
14.73157813
  0
VERTEX
  8
0
 62
7
 10
24.23300000
 20
14.67500000
  0
VERTEX
  8
0
 62
7
 10
24.22445313
 20
14.61185938
  0
VERTEX
  8
0
 62
7
 10
24.22237500
 20
14.54712500
  0
VERTEX
  8
0
 62
7
 10
24.22610938
 20
14.48107813
  0
VERTEX
  8
0
 62
7
 10
24.23500000
 20
14.41400000
  0
VERTEX
  8
0
 62
7
 10
24.13200000
 20
14.45000000
  0
VERTEX
  8
0
 62
7
 10
24.12229492
 20
14.41787695
  0
VERTEX
  8
0
 62
7
 10
24.11567188
 20
14.38464063
  0
VERTEX
  8
0
 62
7
 10
24.11211914
 20
14.35049023
  0
VERTEX
  8
0
 62
7
 10
24.11162500
 20
14.31562500
  0
VERTEX
  8
0
 62
7
 10
24.11417773
 20
14.28024414
  0
VERTEX
  8
0
 62
7
 10
24.11976563
 20
14.24454688
  0
VERTEX
  8
0
 62
7
 10
24.12837695
 20
14.20873242
  0
VERTEX
  8
0
 62
7
 10
24.14000000
 20
14.17300000
  0
VERTEX
  8
0
 62
7
 10
24.15429883
 20
14.13955469
  0
VERTEX
  8
0
 62
7
 10
24.17207813
 20
14.10737500
  0
VERTEX
  8
0
 62
7
 10
24.19278711
 20
14.07632031
  0
VERTEX
  8
0
 62
7
 10
24.21587500
 20
14.04625000
  0
VERTEX
  8
0
 62
7
 10
24.24079102
 20
14.01702344
  0
VERTEX
  8
0
 62
7
 10
24.26698438
 20
13.98850000
  0
VERTEX
  8
0
 62
7
 10
24.29390430
 20
13.96053906
  0
VERTEX
  8
0
 62
7
 10
24.32100000
 20
13.93300000
  0
VERTEX
  8
0
 62
7
 10
24.49000000
 20
13.78400000
  0
VERTEX
  8
0
 62
7
 10
24.57125000
 20
13.71137500
  0
VERTEX
  8
0
 62
7
 10
24.65100000
 20
13.63500000
  0
VERTEX
  8
0
 62
7
 10
24.68092188
 20
13.60421875
  0
VERTEX
  8
0
 62
7
 10
24.71112500
 20
13.57400000
  0
VERTEX
  8
0
 62
7
 10
24.74001563
 20
13.54303125
  0
VERTEX
  8
0
 62
7
 10
24.76600000
 20
13.51000000
  0
VERTEX
  8
0
 62
7
 10
24.77354883
 20
13.49925195
  0
VERTEX
  8
0
 62
7
 10
24.78195313
 20
13.48757813
  0
VERTEX
  8
0
 62
7
 10
24.79009961
 20
13.47545898
  0
VERTEX
  8
0
 62
7
 10
24.79687500
 20
13.46337500
  0
VERTEX
  8
0
 62
7
 10
24.80116602
 20
13.45180664
  0
VERTEX
  8
0
 62
7
 10
24.80185938
 20
13.44123438
  0
VERTEX
  8
0
 62
7
 10
24.79784180
 20
13.43213867
  0
VERTEX
  8
0
 62
7
 10
24.78800000
 20
13.42500000
  0
VERTEX
  8
0
 62
7
 10
24.77629688
 20
13.42157813
  0
VERTEX
  8
0
 62
7
 10
24.76337500
 20
13.42162500
  0
VERTEX
  8
0
 62
7
 10
24.75101563
 20
13.42485938
  0
VERTEX
  8
0
 62
7
 10
24.74100000
 20
13.43100000
  0
VERTEX
  8
0
 62
7
 10
24.70312500
 20
13.46400000
  0
VERTEX
  8
0
 62
7
 10
24.66600000
 20
13.50600000
  0
VERTEX
  8
0
 62
7
 10
24.64255078
 20
13.53778516
  0
VERTEX
  8
0
 62
7
 10
24.61921875
 20
13.57053125
  0
VERTEX
  8
0
 62
7
 10
24.59565234
 20
13.60369922
  0
VERTEX
  8
0
 62
7
 10
24.57150000
 20
13.63675000
  0
VERTEX
  8
0
 62
7
 10
24.54641016
 20
13.66914453
  0
VERTEX
  8
0
 62
7
 10
24.52003125
 20
13.70034375
  0
VERTEX
  8
0
 62
7
 10
24.49201172
 20
13.72980859
  0
VERTEX
  8
0
 62
7
 10
24.46200000
 20
13.75700000
  0
VERTEX
  8
0
 62
7
 10
24.42728125
 20
13.78387500
  0
VERTEX
  8
0
 62
7
 10
24.39275000
 20
13.80700000
  0
VERTEX
  8
0
 62
7
 10
24.35709375
 20
13.82787500
  0
VERTEX
  8
0
 62
7
 10
24.31900000
 20
13.84800000
  0
VERTEX
  8
0
 62
7
 10
24.31100000
 20
13.75600000
  0
VERTEX
  8
0
 62
7
 10
24.25375000
 20
13.76625000
  0
VERTEX
  8
0
 62
7
 10
24.19500000
 20
13.78400000
  0
VERTEX
  8
0
 62
7
 10
24.15820313
 20
13.79959375
  0
VERTEX
  8
0
 62
7
 10
24.12187500
 20
13.81800000
  0
VERTEX
  8
0
 62
7
 10
24.08685938
 20
13.83940625
  0
VERTEX
  8
0
 62
7
 10
24.05400000
 20
13.86400000
  0
VERTEX
  8
0
 62
7
 10
24.03896875
 20
13.81310938
  0
VERTEX
  8
0
 62
7
 10
24.02975000
 20
13.75987500
  0
VERTEX
  8
0
 62
7
 10
24.02615625
 20
13.70495313
  0
VERTEX
  8
0
 62
7
 10
24.02800000
 20
13.64900000
  0
VERTEX
  8
0
 62
7
 10
24.03760938
 20
13.58990625
  0
VERTEX
  8
0
 62
7
 10
24.05312500
 20
13.53025000
  0
VERTEX
  8
0
 62
7
 10
24.07482813
 20
13.47096875
  0
VERTEX
  8
0
 62
7
 10
24.10300000
 20
13.41300000
  0
VERTEX
  8
0
 62
7
 10
23.98700000
 20
13.44100000
  0
VERTEX
  8
0
 62
7
 10
23.98627930
 20
13.39384180
  0
VERTEX
  8
0
 62
7
 10
23.99004688
 20
13.34629688
  0
VERTEX
  8
0
 62
7
 10
23.99819727
 20
13.29863477
  0
VERTEX
  8
0
 62
7
 10
24.01062500
 20
13.25112500
  0
VERTEX
  8
0
 62
7
 10
24.02722461
 20
13.20403711
  0
VERTEX
  8
0
 62
7
 10
24.04789063
 20
13.15764063
  0
VERTEX
  8
0
 62
7
 10
24.07251758
 20
13.11220508
  0
VERTEX
  8
0
 62
7
 10
24.10100000
 20
13.06800000
  0
VERTEX
  8
0
 62
7
 10
24.14351563
 20
13.01687500
  0
VERTEX
  8
0
 62
7
 10
24.19137500
 20
12.97025000
  0
VERTEX
  8
0
 62
7
 10
24.24204688
 20
12.92625000
  0
VERTEX
  8
0
 62
7
 10
24.29300000
 20
12.88300000
  0
VERTEX
  8
0
 62
7
 10
24.48500000
 20
12.73300000
  0
VERTEX
  8
0
 62
7
 10
24.51837500
 20
12.70681250
  0
VERTEX
  8
0
 62
7
 10
24.55175000
 20
12.68025000
  0
VERTEX
  8
0
 62
7
 10
24.58400000
 20
12.65256250
  0
VERTEX
  8
0
 62
7
 10
24.61400000
 20
12.62300000
  0
VERTEX
  8
0
 62
7
 10
24.66237500
 20
12.56562500
  0
VERTEX
  8
0
 62
7
 10
24.70700000
 20
12.50300000
  0
VERTEX
  8
0
 62
7
 10
24.71260742
 20
12.49425195
  0
VERTEX
  8
0
 62
7
 10
24.71904688
 20
12.48476563
  0
VERTEX
  8
0
 62
7
 10
24.72536914
 20
12.47492773
  0
VERTEX
  8
0
 62
7
 10
24.73062500
 20
12.46512500
  0
VERTEX
  8
0
 62
7
 10
24.73386523
 20
12.45574414
  0
VERTEX
  8
0
 62
7
 10
24.73414063
 20
12.44717188
  0
VERTEX
  8
0
 62
7
 10
24.73050195
 20
12.43979492
  0
VERTEX
  8
0
 62
7
 10
24.72200000
 20
12.43400000
  0
VERTEX
  8
0
 62
7
 10
24.70895313
 20
12.43225000
  0
VERTEX
  8
0
 62
7
 10
24.69712500
 20
12.43725000
  0
VERTEX
  8
0
 62
7
 10
24.68698438
 20
12.44637500
  0
VERTEX
  8
0
 62
7
 10
24.67900000
 20
12.45700000
  0
VERTEX
  8
0
 62
7
 10
24.60700000
 20
12.56100000
  0
VERTEX
  8
0
 62
7
 10
24.58961719
 20
12.58300195
  0
VERTEX
  8
0
 62
7
 10
24.57181250
 20
12.60520313
  0
VERTEX
  8
0
 62
7
 10
24.55335156
 20
12.62714648
  0
VERTEX
  8
0
 62
7
 10
24.53400000
 20
12.64837500
  0
VERTEX
  8
0
 62
7
 10
24.51352344
 20
12.66843164
  0
VERTEX
  8
0
 62
7
 10
24.49168750
 20
12.68685938
  0
VERTEX
  8
0
 62
7
 10
24.46825781
 20
12.70320117
  0
VERTEX
  8
0
 62
7
 10
24.44300000
 20
12.71700000
  0
VERTEX
  8
0
 62
7
 10
24.40320313
 20
12.73440625
  0
VERTEX
  8
0
 62
7
 10
24.36237500
 20
12.74600000
  0
VERTEX
  8
0
 62
7
 10
24.32135938
 20
12.75159375
  0
VERTEX
  8
0
 62
7
 10
24.28100000
 20
12.75100000
  0
VERTEX
  8
0
 62
7
 10
24.26900000
 20
12.67400000
  0
VERTEX
  8
0
 62
7
 10
24.24342969
 20
12.69128320
  0
VERTEX
  8
0
 62
7
 10
24.21706250
 20
12.70632813
  0
VERTEX
  8
0
 62
7
 10
24.19003906
 20
12.71905273
  0
VERTEX
  8
0
 62
7
 10
24.16250000
 20
12.72937500
  0
VERTEX
  8
0
 62
7
 10
24.13458594
 20
12.73721289
  0
VERTEX
  8
0
 62
7
 10
24.10643750
 20
12.74248438
  0
VERTEX
  8
0
 62
7
 10
24.07819531
 20
12.74510742
  0
VERTEX
  8
0
 62
7
 10
24.05000000
 20
12.74500000
  0
VERTEX
  8
0
 62
7
 10
24.02522852
 20
12.74280273
  0
VERTEX
  8
0
 62
7
 10
24.00126563
 20
12.73848438
  0
VERTEX
  8
0
 62
7
 10
23.97826367
 20
12.73208008
  0
VERTEX
  8
0
 62
7
 10
23.95637500
 20
12.72362500
  0
VERTEX
  8
0
 62
7
 10
23.93575195
 20
12.71315430
  0
VERTEX
  8
0
 62
7
 10
23.91654688
 20
12.70070313
  0
VERTEX
  8
0
 62
7
 10
23.89891211
 20
12.68630664
  0
VERTEX
  8
0
 62
7
 10
23.88300000
 20
12.67000000
  0
VERTEX
  8
0
 62
7
 10
23.93628125
 20
12.63275000
  0
VERTEX
  8
0
 62
7
 10
23.98675000
 20
12.59175000
  0
VERTEX
  8
0
 62
7
 10
24.03459375
 20
12.54737500
  0
VERTEX
  8
0
 62
7
 10
24.08000000
 20
12.50000000
  0
VERTEX
  8
0
 62
7
 10
24.10665039
 20
12.46687305
  0
VERTEX
  8
0
 62
7
 10
24.13176563
 20
12.43279688
  0
VERTEX
  8
0
 62
7
 10
24.15521680
 20
12.39785352
  0
VERTEX
  8
0
 62
7
 10
24.17687500
 20
12.36212500
  0
VERTEX
  8
0
 62
7
 10
24.19661133
 20
12.32569336
  0
VERTEX
  8
0
 62
7
 10
24.21429688
 20
12.28864063
  0
VERTEX
  8
0
 62
7
 10
24.22980273
 20
12.25104883
  0
VERTEX
  8
0
 62
7
 10
24.24300000
 20
12.21300000
  0
VERTEX
  8
0
 62
7
 10
24.12000000
 20
12.21000000
  0
VERTEX
  8
0
 62
7
 10
24.11684961
 20
12.14529688
  0
VERTEX
  8
0
 62
7
 10
24.12029688
 20
12.08050000
  0
VERTEX
  8
0
 62
7
 10
24.13056445
 20
12.01607813
  0
VERTEX
  8
0
 62
7
 10
24.14787500
 20
11.95250000
  0
VERTEX
  8
0
 62
7
 10
24.17245117
 20
11.89023438
  0
VERTEX
  8
0
 62
7
 10
24.20451563
 20
11.82975000
  0
VERTEX
  8
0
 62
7
 10
24.24429102
 20
11.77151563
  0
VERTEX
  8
0
 62
7
 10
24.29200000
 20
11.71600000
  0
VERTEX
  8
0
 62
7
 10
24.31875000
 20
11.69145313
  0
VERTEX
  8
0
 62
7
 10
24.35000000
 20
11.66662500
  0
VERTEX
  8
0
 62
7
 10
24.38200000
 20
11.64273438
  0
VERTEX
  8
0
 62
7
 10
24.41100000
 20
11.62100000
  0
VERTEX
  8
0
 62
7
 10
24.46382813
 20
11.63559375
  0
VERTEX
  8
0
 62
7
 10
24.51862500
 20
11.64625000
  0
VERTEX
  8
0
 62
7
 10
24.57510938
 20
11.65278125
  0
VERTEX
  8
0
 62
7
 10
24.63300000
 20
11.65500000
  0
VERTEX
  8
0
 62
7
 10
24.67500000
 20
11.65400000
  0
VERTEX
  8
0
 62
7
 10
24.69084375
 20
11.65065625
  0
VERTEX
  8
0
 62
7
 10
24.70500000
 20
11.64375000
  0
VERTEX
  8
0
 62
7
 10
24.71690625
 20
11.63346875
  0
VERTEX
  8
0
 62
7
 10
24.72600000
 20
11.62000000
  0
VERTEX
  8
0
 62
7
 10
24.75200000
 20
11.56600000
  0
VERTEX
  8
0
 62
7
 10
24.82862500
 20
11.58237500
  0
VERTEX
  8
0
 62
7
 10
24.90600000
 20
11.59200000
  0
VERTEX
  8
0
 62
7
 10
25.01100000
 20
11.59700000
  0
VERTEX
  8
0
 62
7
 10
25.04678125
 20
11.59620313
  0
VERTEX
  8
0
 62
7
 10
25.08350000
 20
11.59362500
  0
VERTEX
  8
0
 62
7
 10
25.12096875
 20
11.58898438
  0
VERTEX
  8
0
 62
7
 10
25.15900000
 20
11.58200000
  0
VERTEX
  8
0
 62
7
 10
25.23254688
 20
11.56107813
  0
VERTEX
  8
0
 62
7
 10
25.30337500
 20
11.53312500
  0
VERTEX
  8
0
 62
7
 10
25.37176563
 20
11.49860938
  0
VERTEX
  8
0
 62
7
 10
25.43800000
 20
11.45800000
  0
VERTEX
  8
0
 62
7
 10
25.45226367
 20
11.44478516
  0
VERTEX
  8
0
 62
7
 10
25.46079688
 20
11.42915625
  0
VERTEX
  8
0
 62
7
 10
25.46396289
 20
11.41226172
  0
VERTEX
  8
0
 62
7
 10
25.46212500
 20
11.39525000
  0
VERTEX
  8
0
 62
7
 10
25.45564648
 20
11.37926953
  0
VERTEX
  8
0
 62
7
 10
25.44489063
 20
11.36546875
  0
VERTEX
  8
0
 62
7
 10
25.43022070
 20
11.35499609
  0
VERTEX
  8
0
 62
7
 10
25.41200000
 20
11.34900000
  0
VERTEX
  8
0
 62
7
 10
25.38034375
 20
11.34271875
  0
VERTEX
  8
0
 62
7
 10
25.35000000
 20
11.33400000
  0
VERTEX
  8
0
 62
7
 10
25.32115625
 20
11.32228125
  0
VERTEX
  8
0
 62
7
 10
25.29400000
 20
11.30700000
  0
VERTEX
  8
0
 62
7
 10
25.26500000
 20
11.28500000
  0
VERTEX
  8
0
 62
7
 10
25.36400000
 20
11.23800000
  0
VERTEX
  8
0
 62
7
 10
25.41300000
 20
11.21500000
  0
VERTEX
  8
0
 62
7
 10
25.39400000
 20
11.16400000
  0
VERTEX
  8
0
 62
7
 10
25.39176563
 20
11.15265625
  0
VERTEX
  8
0
 62
7
 10
25.39112500
 20
11.14225000
  0
VERTEX
  8
0
 62
7
 10
25.38992188
 20
11.13221875
  0
VERTEX
  8
0
 62
7
 10
25.38600000
 20
11.12200000
  0
SEQEND
  0
POLYLINE
  8
0
 62
7
 66
1
  0
VERTEX
  8
0
 62
7
 10
25.07741045
 20
11.60054229
  0
VERTEX
  8
0
 62
7
 10
25.10346033
 20
11.75178220
  0
VERTEX
  8
0
 62
7
 10
25.12416158
 20
11.90480583
  0
VERTEX
  8
0
 62
7
 10
25.13891988
 20
12.05949427
  0
VERTEX
  8
0
 62
7
 10
25.14714095
 20
12.21572860
  0
VERTEX
  8
0
 62
7
 10
25.15116234
 20
12.36385691
  0
VERTEX
  8
0
 62
7
 10
25.15078595
 20
12.51317436
  0
VERTEX
  8
0
 62
7
 10
25.14446662
 20
12.66344313
  0
VERTEX
  8
0
 62
7
 10
25.13065919
 20
12.81442539
  0
VERTEX
  8
0
 62
7
 10
25.10906156
 20
12.97533951
  0
VERTEX
  8
0
 62
7
 10
25.07958952
 20
13.13638742
  0
VERTEX
  8
0
 62
7
 10
25.04245110
 20
13.29734615
  0
VERTEX
  8
0
 62
7
 10
24.99785428
 20
13.45799272
  0
VERTEX
  8
0
 62
7
 10
24.94600708
 20
13.61810417
  0
VERTEX
  8
0
 62
7
 10
24.88711749
 20
13.77745754
  0
VERTEX
  8
0
 62
7
 10
24.82139352
 20
13.93582986
  0
VERTEX
  8
0
 62
7
 10
24.74904317
 20
14.09299817
  0
SEQEND
  0
POLYLINE
  8
0
 62
7
 66
1
 70
1
  0
VERTEX
  8
0
 62
7
 10
23.75400000
 20
14.81600000
  0
VERTEX
  8
0
 62
7
 10
23.70500000
 20
14.84600000
  0
VERTEX
  8
0
 62
7
 10
23.68618945
 20
14.85536914
  0
VERTEX
  8
0
 62
7
 10
23.66589063
 20
14.86451563
  0
VERTEX
  8
0
 62
7
 10
23.64430273
 20
14.87312305
  0
VERTEX
  8
0
 62
7
 10
23.62162500
 20
14.88087500
  0
VERTEX
  8
0
 62
7
 10
23.59805664
 20
14.88745508
  0
VERTEX
  8
0
 62
7
 10
23.57379688
 20
14.89254688
  0
VERTEX
  8
0
 62
7
 10
23.54904492
 20
14.89583398
  0
VERTEX
  8
0
 62
7
 10
23.52400000
 20
14.89700000
  0
VERTEX
  8
0
 62
7
 10
23.50137500
 20
14.89562500
  0
VERTEX
  8
0
 62
7
 10
23.47800000
 20
14.89200000
  0
VERTEX
  8
0
 62
7
 10
23.45331055
 20
14.88579688
  0
VERTEX
  8
0
 62
7
 10
23.43029688
 20
14.87706250
  0
VERTEX
  8
0
 62
7
 10
23.40904102
 20
14.86598438
  0
VERTEX
  8
0
 62
7
 10
23.38962500
 20
14.85275000
  0
VERTEX
  8
0
 62
7
 10
23.37213086
 20
14.83754688
  0
VERTEX
  8
0
 62
7
 10
23.35664063
 20
14.82056250
  0
VERTEX
  8
0
 62
7
 10
23.34323633
 20
14.80198438
  0
VERTEX
  8
0
 62
7
 10
23.33200000
 20
14.78200000
  0
VERTEX
  8
0
 62
7
 10
23.31498438
 20
14.80012500
  0
VERTEX
  8
0
 62
7
 10
23.30012500
 20
14.81975000
  0
VERTEX
  8
0
 62
7
 10
23.28770313
 20
14.84050000
  0
VERTEX
  8
0
 62
7
 10
23.27800000
 20
14.86200000
  0
VERTEX
  8
0
 62
7
 10
23.27200000
 20
14.87700000
  0
VERTEX
  8
0
 62
7
 10
23.27906250
 20
14.88975000
  0
VERTEX
  8
0
 62
7
 10
23.28500000
 20
14.90400000
  0
VERTEX
  8
0
 62
7
 10
23.28943750
 20
14.91975000
  0
VERTEX
  8
0
 62
7
 10
23.29200000
 20
14.93700000
  0
VERTEX
  8
0
 62
7
 10
23.29300000
 20
14.96400000
  0
VERTEX
  8
0
 62
7
 10
23.29132813
 20
14.98787500
  0
VERTEX
  8
0
 62
7
 10
23.28487500
 20
15.01475000
  0
VERTEX
  8
0
 62
7
 10
23.27148438
 20
15.04275000
  0
VERTEX
  8
0
 62
7
 10
23.24900000
 20
15.07000000
  0
VERTEX
  8
0
 62
7
 10
23.23245703
 20
15.08382227
  0
VERTEX
  8
0
 62
7
 10
23.21546875
 20
15.09414063
  0
VERTEX
  8
0
 62
7
 10
23.19862109
 20
15.10148242
  0
VERTEX
  8
0
 62
7
 10
23.18250000
 20
15.10637500
  0
VERTEX
  8
0
 62
7
 10
23.16769141
 20
15.10934570
  0
VERTEX
  8
0
 62
7
 10
23.15478125
 20
15.11092188
  0
VERTEX
  8
0
 62
7
 10
23.14435547
 20
15.11163086
  0
VERTEX
  8
0
 62
7
 10
23.13700000
 20
15.11200000
  0
VERTEX
  8
0
 62
7
 10
23.12700000
 20
15.11200000
  0
VERTEX
  8
0
 62
7
 10
23.11700000
 20
15.11300000
  0
VERTEX
  8
0
 62
7
 10
23.09637500
 20
15.11625000
  0
VERTEX
  8
0
 62
7
 10
23.06900000
 20
15.11800000
  0
VERTEX
  8
0
 62
7
 10
23.05231250
 20
15.11728125
  0
VERTEX
  8
0
 62
7
 10
23.03300000
 20
15.11450000
  0
VERTEX
  8
0
 62
7
 10
23.01218750
 20
15.10871875
  0
VERTEX
  8
0
 62
7
 10
22.99100000
 20
15.09900000
  0
VERTEX
  8
0
 62
7
 10
22.95981250
 20
15.07623438
  0
VERTEX
  8
0
 62
7
 10
22.93650000
 20
15.04812500
  0
VERTEX
  8
0
 62
7
 10
22.92068750
 20
15.01645313
  0
VERTEX
  8
0
 62
7
 10
22.91200000
 20
14.98300000
  0
VERTEX
  8
0
 62
7
 10
22.89037500
 20
14.96512500
  0
VERTEX
  8
0
 62
7
 10
22.87100000
 20
14.94200000
  0
VERTEX
  8
0
 62
7
 10
22.85654688
 20
14.91615625
  0
VERTEX
  8
0
 62
7
 10
22.84912500
 20
14.89125000
  0
VERTEX
  8
0
 62
7
 10
22.84639063
 20
14.86971875
  0
VERTEX
  8
0
 62
7
 10
22.84600000
 20
14.85400000
  0
VERTEX
  8
0
 62
7
 10
22.84200000
 20
14.83000000
  0
VERTEX
  8
0
 62
7
 10
22.63318750
 20
14.83798438
  0
VERTEX
  8
0
 62
7
 10
22.42400000
 20
14.84287500
  0
VERTEX
  8
0
 62
7
 10
22.21481250
 20
14.84532813
  0
VERTEX
  8
0
 62
7
 10
22.00600000
 20
14.84600000
  0
VERTEX
  8
0
 62
7
 10
21.50300000
 20
14.84400000
  0
VERTEX
  8
0
 62
7
 10
20.99900000
 20
14.84100000
  0
VERTEX
  8
0
 62
7
 10
20.50600000
 20
14.84300000
  0
VERTEX
  8
0
 62
7
 10
20.01300000
 20
14.84500000
  0
VERTEX
  8
0
 62
7
 10
19.80026563
 20
14.84434375
  0
VERTEX
  8
0
 62
7
 10
19.58762500
 20
14.84200000
  0
VERTEX
  8
0
 62
7
 10
19.37442188
 20
14.83740625
  0
VERTEX
  8
0
 62
7
 10
19.16000000
 20
14.83000000
  0
VERTEX
  8
0
 62
7
 10
19.15300000
 20
14.85400000
  0
VERTEX
  8
0
 62
7
 10
19.15262500
 20
14.86971875
  0
VERTEX
  8
0
 62
7
 10
19.15000000
 20
14.89125000
  0
VERTEX
  8
0
 62
7
 10
19.14287500
 20
14.91615625
  0
VERTEX
  8
0
 62
7
 10
19.12900000
 20
14.94200000
  0
VERTEX
  8
0
 62
7
 10
19.10975000
 20
14.96512500
  0
VERTEX
  8
0
 62
7
 10
19.08900000
 20
14.98300000
  0
VERTEX
  8
0
 62
7
 10
19.08000000
 20
15.01645313
  0
VERTEX
  8
0
 62
7
 10
19.06350000
 20
15.04812500
  0
VERTEX
  8
0
 62
7
 10
19.03950000
 20
15.07623438
  0
VERTEX
  8
0
 62
7
 10
19.00800000
 20
15.09900000
  0
VERTEX
  8
0
 62
7
 10
18.98754688
 20
15.10871875
  0
VERTEX
  8
0
 62
7
 10
18.96737500
 20
15.11450000
  0
VERTEX
  8
0
 62
7
 10
18.94851563
 20
15.11728125
  0
VERTEX
  8
0
 62
7
 10
18.93200000
 20
15.11800000
  0
VERTEX
  8
0
 62
7
 10
18.90412500
 20
15.11625000
  0
VERTEX
  8
0
 62
7
 10
18.88300000
 20
15.11300000
  0
VERTEX
  8
0
 62
7
 10
18.87400000
 20
15.11200000
  0
VERTEX
  8
0
 62
7
 10
18.86200000
 20
15.11200000
  0
VERTEX
  8
0
 62
7
 10
18.85521875
 20
15.11163086
  0
VERTEX
  8
0
 62
7
 10
18.84506250
 20
15.11092188
  0
VERTEX
  8
0
 62
7
 10
18.83218750
 20
15.10934570
  0
VERTEX
  8
0
 62
7
 10
18.81725000
 20
15.10637500
  0
VERTEX
  8
0
 62
7
 10
18.80090625
 20
15.10148242
  0
VERTEX
  8
0
 62
7
 10
18.78381250
 20
15.09414063
  0
VERTEX
  8
0
 62
7
 10
18.76662500
 20
15.08382227
  0
VERTEX
  8
0
 62
7
 10
18.75000000
 20
15.07000000
  0
VERTEX
  8
0
 62
7
 10
18.72867188
 20
15.04275000
  0
VERTEX
  8
0
 62
7
 10
18.71587500
 20
15.01475000
  0
VERTEX
  8
0
 62
7
 10
18.70964063
 20
14.98787500
  0
VERTEX
  8
0
 62
7
 10
18.70800000
 20
14.96400000
  0
VERTEX
  8
0
 62
7
 10
18.70800000
 20
14.93700000
  0
VERTEX
  8
0
 62
7
 10
18.71070313
 20
14.91975000
  0
VERTEX
  8
0
 62
7
 10
18.71537500
 20
14.90400000
  0
VERTEX
  8
0
 62
7
 10
18.72135938
 20
14.88975000
  0
VERTEX
  8
0
 62
7
 10
18.72800000
 20
14.87700000
  0
VERTEX
  8
0
 62
7
 10
18.72100000
 20
14.86200000
  0
VERTEX
  8
0
 62
7
 10
18.71145313
 20
14.84050000
  0
VERTEX
  8
0
 62
7
 10
18.69937500
 20
14.81975000
  0
VERTEX
  8
0
 62
7
 10
18.68485938
 20
14.80012500
  0
VERTEX
  8
0
 62
7
 10
18.66800000
 20
14.78200000
  0
VERTEX
  8
0
 62
7
 10
18.65672266
 20
14.80198438
  0
VERTEX
  8
0
 62
7
 10
18.64321875
 20
14.82056250
  0
VERTEX
  8
0
 62
7
 10
18.62760547
 20
14.83754688
  0
VERTEX
  8
0
 62
7
 10
18.61000000
 20
14.85275000
  0
VERTEX
  8
0
 62
7
 10
18.59051953
 20
14.86598438
  0
VERTEX
  8
0
 62
7
 10
18.56928125
 20
14.87706250
  0
VERTEX
  8
0
 62
7
 10
18.54640234
 20
14.88579688
  0
VERTEX
  8
0
 62
7
 10
18.52200000
 20
14.89200000
  0
VERTEX
  8
0
 62
7
 10
18.49850000
 20
14.89562500
  0
VERTEX
  8
0
 62
7
 10
18.47500000
 20
14.89700000
  0
VERTEX
  8
0
 62
7
 10
18.45057422
 20
14.89583398
  0
VERTEX
  8
0
 62
7
 10
18.42621875
 20
14.89254688
  0
VERTEX
  8
0
 62
7
 10
18.40219141
 20
14.88745508
  0
VERTEX
  8
0
 62
7
 10
18.37875000
 20
14.88087500
  0
VERTEX
  8
0
 62
7
 10
18.35615234
 20
14.87312305
  0
VERTEX
  8
0
 62
7
 10
18.33465625
 20
14.86451563
  0
VERTEX
  8
0
 62
7
 10
18.31451953
 20
14.85536914
  0
VERTEX
  8
0
 62
7
 10
18.29600000
 20
14.84600000
  0
VERTEX
  8
0
 62
7
 10
18.24200000
 20
14.81600000
  0
VERTEX
  8
0
 62
7
 10
18.18600000
 20
14.81500000
  0
VERTEX
  8
0
 62
7
 10
18.00000000
 20
14.81100000
  0
VERTEX
  8
0
 62
7
 10
17.82800000
 20
14.80800000
  0
VERTEX
  8
0
 62
7
 10
17.80375000
 20
14.87162500
  0
VERTEX
  8
0
 62
7
 10
17.77200000
 20
14.93300000
  0
VERTEX
  8
0
 62
7
 10
17.74445117
 20
14.97184961
  0
VERTEX
  8
0
 62
7
 10
17.71435938
 20
15.00810938
  0
VERTEX
  8
0
 62
7
 10
17.68180664
 20
15.04172070
  0
VERTEX
  8
0
 62
7
 10
17.64687500
 20
15.07262500
  0
VERTEX
  8
0
 62
7
 10
17.60964648
 20
15.10076367
  0
VERTEX
  8
0
 62
7
 10
17.57020313
 20
15.12607813
  0
VERTEX
  8
0
 62
7
 10
17.52862695
 20
15.14850977
  0
VERTEX
  8
0
 62
7
 10
17.48500000
 20
15.16800000
  0
VERTEX
  8
0
 62
7
 10
17.46166797
 20
15.17401563
  0
VERTEX
  8
0
 62
7
 10
17.43878125
 20
15.17375000
  0
VERTEX
  8
0
 62
7
 10
17.41725391
 20
15.16785938
  0
VERTEX
  8
0
 62
7
 10
17.39800000
 20
15.15700000
  0
VERTEX
  8
0
 62
7
 10
17.38193359
 20
15.14182813
  0
VERTEX
  8
0
 62
7
 10
17.36996875
 20
15.12300000
  0
VERTEX
  8
0
 62
7
 10
17.36301953
 20
15.10117188
  0
VERTEX
  8
0
 62
7
 10
17.36200000
 20
15.07700000
  0
VERTEX
  8
0
 62
7
 10
17.36400000
 20
15.00600000
  0
VERTEX
  8
0
 62
7
 10
17.36354688
 20
14.97223438
  0
VERTEX
  8
0
 62
7
 10
17.36187500
 20
14.93837500
  0
VERTEX
  8
0
 62
7
 10
17.35851563
 20
14.90432813
  0
VERTEX
  8
0
 62
7
 10
17.35300000
 20
14.87000000
  0
VERTEX
  8
0
 62
7
 10
17.34900000
 20
14.84200000
  0
VERTEX
  8
0
 62
7
 10
17.34200000
 20
14.79700000
  0
VERTEX
  8
0
 62
7
 10
17.16700000
 20
14.79300000
  0
VERTEX
  8
0
 62
7
 10
16.23387402
 20
14.76673926
  0
VERTEX
  8
0
 62
7
 10
15.30210156
 20
14.73483594
  0
VERTEX
  8
0
 62
7
 10
14.37184082
 20
14.69729590
  0
VERTEX
  8
0
 62
7
 10
13.44325000
 20
14.65412500
  0
VERTEX
  8
0
 62
7
 10
12.51648730
 20
14.60532910
  0
VERTEX
  8
0
 62
7
 10
11.59171094
 20
14.55091406
  0
VERTEX
  8
0
 62
7
 10
10.66907910
 20
14.49088574
  0
VERTEX
  8
0
 62
7
 10
9.74875000
 20
14.42525000
  0
VERTEX
  8
0
 62
7
 10
8.83088184
 20
14.35401270
  0
VERTEX
  8
0
 62
7
 10
7.91563281
 20
14.27717969
  0
VERTEX
  8
0
 62
7
 10
7.00316113
 20
14.19475684
  0
VERTEX
  8
0
 62
7
 10
6.09362500
 20
14.10675000
  0
VERTEX
  8
0
 62
7
 10
5.18718262
 20
14.01316504
  0
VERTEX
  8
0
 62
7
 10
4.28399219
 20
13.91400781
  0
VERTEX
  8
0
 62
7
 10
3.38421191
 20
13.80928418
  0
VERTEX
  8
0
 62
7
 10
2.48800000
 20
13.69900000
  0
VERTEX
  8
0
 62
7
 10
2.41000000
 20
13.68900000
  0
VERTEX
  8
0
 62
7
 10
2.41000000
 20
13.61000000
  0
VERTEX
  8
0
 62
7
 10
2.41000000
 20
2.40900000
  0
VERTEX
  8
0
 62
7
 10
20.99900000
 20
2.40900000
  0
VERTEX
  8
0
 62
7
 10
39.59000000
 20
2.40900000
  0
VERTEX
  8
0
 62
7
 10
39.59000000
 20
13.61000000
  0
VERTEX
  8
0
 62
7
 10
39.59000000
 20
13.68900000
  0
VERTEX
  8
0
 62
7
 10
39.50900000
 20
13.69900000
  0
VERTEX
  8
0
 62
7
 10
38.61315112
 20
13.80928418
  0
VERTEX
  8
0
 62
7
 10
37.71370898
 20
13.91400781
  0
VERTEX
  8
0
 62
7
 10
36.81083032
 20
14.01316504
  0
VERTEX
  8
0
 62
7
 10
35.90467188
 20
14.10675000
  0
VERTEX
  8
0
 62
7
 10
34.99539038
 20
14.19475684
  0
VERTEX
  8
0
 62
7
 10
34.08314258
 20
14.27717969
  0
VERTEX
  8
0
 62
7
 10
33.16808521
 20
14.35401270
  0
VERTEX
  8
0
 62
7
 10
32.25037500
 20
14.42525000
  0
VERTEX
  8
0
 62
7
 10
31.33016870
 20
14.49088574
  0
VERTEX
  8
0
 62
7
 10
30.40762305
 20
14.55091406
  0
VERTEX
  8
0
 62
7
 10
29.48289478
 20
14.60532910
  0
VERTEX
  8
0
 62
7
 10
28.55614063
 20
14.65412500
  0
VERTEX
  8
0
 62
7
 10
27.62751733
 20
14.69729590
  0
VERTEX
  8
0
 62
7
 10
26.69718164
 20
14.73483594
  0
VERTEX
  8
0
 62
7
 10
25.76529028
 20
14.76673926
  0
VERTEX
  8
0
 62
7
 10
24.83200000
 20
14.79300000
  0
VERTEX
  8
0
 62
7
 10
24.66000000
 20
14.79700000
  0
VERTEX
  8
0
 62
7
 10
24.65100000
 20
14.84200000
  0
VERTEX
  8
0
 62
7
 10
24.64700000
 20
14.87000000
  0
VERTEX
  8
0
 62
7
 10
24.63762500
 20
14.93837500
  0
VERTEX
  8
0
 62
7
 10
24.63500000
 20
15.00600000
  0
VERTEX
  8
0
 62
7
 10
24.63537500
 20
15.04112500
  0
VERTEX
  8
0
 62
7
 10
24.63800000
 20
15.07700000
  0
VERTEX
  8
0
 62
7
 10
24.63779883
 20
15.10145898
  0
VERTEX
  8
0
 62
7
 10
24.63114063
 20
15.12342188
  0
VERTEX
  8
0
 62
7
 10
24.61906836
 20
15.14226758
  0
VERTEX
  8
0
 62
7
 10
24.60262500
 20
15.15737500
  0
VERTEX
  8
0
 62
7
 10
24.58285352
 20
15.16812305
  0
VERTEX
  8
0
 62
7
 10
24.56079688
 20
15.17389063
  0
VERTEX
  8
0
 62
7
 10
24.53749805
 20
15.17405664
  0
VERTEX
  8
0
 62
7
 10
24.51400000
 20
15.16800000
  0
VERTEX
  8
0
 62
7
 10
24.47066602
 20
15.14850977
  0
VERTEX
  8
0
 62
7
 10
24.42926563
 20
15.12607813
  0
VERTEX
  8
0
 62
7
 10
24.38995117
 20
15.10076367
  0
VERTEX
  8
0
 62
7
 10
24.35287500
 20
15.07262500
  0
VERTEX
  8
0
 62
7
 10
24.31818945
 20
15.04172070
  0
VERTEX
  8
0
 62
7
 10
24.28604688
 20
15.00810938
  0
VERTEX
  8
0
 62
7
 10
24.25659961
 20
14.97184961
  0
VERTEX
  8
0
 62
7
 10
24.23000000
 20
14.93300000
  0
VERTEX
  8
0
 62
7
 10
24.21137500
 20
14.90264063
  0
VERTEX
  8
0
 62
7
 10
24.19575000
 20
14.87162500
  0
VERTEX
  8
0
 62
7
 10
24.18275000
 20
14.84004688
  0
VERTEX
  8
0
 62
7
 10
24.17200000
 20
14.80800000
  0
VERTEX
  8
0
 62
7
 10
23.99900000
 20
14.81100000
  0
VERTEX
  8
0
 62
7
 10
23.75400000
 20
14.81600000
  0
SEQEND
  0
POLYLINE
  8
0
 62
7
 66
1
 70
1
  0
VERTEX
  8
0
 62
7
 10
23.34200000
 20
14.64900000
  0
VERTEX
  8
0
 62
7
 10
23.34200000
 20
14.66700000
  0
VERTEX
  8
0
 62
7
 10
23.31287500
 20
14.68350000
  0
VERTEX
  8
0
 62
7
 10
23.28600000
 20
14.70300000
  0
VERTEX
  8
0
 62
7
 10
23.25601563
 20
14.73100000
  0
VERTEX
  8
0
 62
7
 10
23.23062500
 20
14.76200000
  0
VERTEX
  8
0
 62
7
 10
23.20992188
 20
14.79525000
  0
VERTEX
  8
0
 62
7
 10
23.19400000
 20
14.83000000
  0
VERTEX
  8
0
 62
7
 10
23.16100000
 20
14.79200000
  0
VERTEX
  8
0
 62
7
 10
23.16550000
 20
14.76662500
  0
VERTEX
  8
0
 62
7
 10
23.16700000
 20
14.74200000
  0
VERTEX
  8
0
 62
7
 10
23.16612500
 20
14.72250000
  0
VERTEX
  8
0
 62
7
 10
23.16300000
 20
14.70300000
  0
VERTEX
  8
0
 62
7
 10
23.15359375
 20
14.67129688
  0
VERTEX
  8
0
 62
7
 10
23.13950000
 20
14.64512500
  0
VERTEX
  8
0
 62
7
 10
23.12390625
 20
14.62439063
  0
VERTEX
  8
0
 62
7
 10
23.11000000
 20
14.60900000
  0
VERTEX
  8
0
 62
7
 10
23.09600000
 20
14.59300000
  0
VERTEX
  8
0
 62
7
 10
23.06100000
 20
14.55700000
  0
VERTEX
  8
0
 62
7
 10
23.04237500
 20
14.53875000
  0
VERTEX
  8
0
 62
7
 10
23.03200000
 20
14.52500000
  0
VERTEX
  8
0
 62
7
 10
23.02300000
 20
14.50200000
  0
VERTEX
  8
0
 62
7
 10
23.01000000
 20
14.46900000
  0
VERTEX
  8
0
 62
7
 10
23.00100000
 20
14.44600000
  0
VERTEX
  8
0
 62
7
 10
22.98837500
 20
14.41675000
  0
VERTEX
  8
0
 62
7
 10
22.96900000
 20
14.38300000
  0
VERTEX
  8
0
 62
7
 10
22.99600000
 20
14.36500000
  0
VERTEX
  8
0
 62
7
 10
23.04800000
 20
14.32200000
  0
VERTEX
  8
0
 62
7
 10
23.07212500
 20
14.33895313
  0
VERTEX
  8
0
 62
7
 10
23.09775000
 20
14.35112500
  0
VERTEX
  8
0
 62
7
 10
23.12450000
 20
14.35898438
  0
VERTEX
  8
0
 62
7
 10
23.15200000
 20
14.36300000
  0
VERTEX
  8
0
 62
7
 10
23.14800000
 20
14.40900000
  0
VERTEX
  8
0
 62
7
 10
23.14900000
 20
14.43200000
  0
VERTEX
  8
0
 62
7
 10
23.15237500
 20
14.45324609
  0
VERTEX
  8
0
 62
7
 10
23.15781250
 20
14.47409375
  0
VERTEX
  8
0
 62
7
 10
23.16503125
 20
14.49433203
  0
VERTEX
  8
0
 62
7
 10
23.17375000
 20
14.51375000
  0
VERTEX
  8
0
 62
7
 10
23.18368750
 20
14.53213672
  0
VERTEX
  8
0
 62
7
 10
23.19456250
 20
14.54928125
  0
VERTEX
  8
0
 62
7
 10
23.20609375
 20
14.56497266
  0
VERTEX
  8
0
 62
7
 10
23.21800000
 20
14.57900000
  0
VERTEX
  8
0
 62
7
 10
23.24679688
 20
14.60456250
  0
VERTEX
  8
0
 62
7
 10
23.27737500
 20
14.62375000
  0
VERTEX
  8
0
 62
7
 10
23.30926563
 20
14.63806250
  0
VERTEX
  8
0
 62
7
 10
23.34200000
 20
14.64900000
  0
SEQEND
  0
POLYLINE
  8
0
 62
7
 66
1
 70
1
  0
VERTEX
  8
0
 62
7
 10
23.60200000
 20
13.98600000
  0
VERTEX
  8
0
 62
7
 10
23.55528849
 20
13.99481952
  0
VERTEX
  8
0
 62
7
 10
23.50881469
 20
14.00803889
  0
VERTEX
  8
0
 62
7
 10
23.46329177
 20
14.02577703
  0
VERTEX
  8
0
 62
7
 10
23.41943287
 20
14.04815284
  0
VERTEX
  8
0
 62
7
 10
23.38106623
 20
14.07154191
  0
VERTEX
  8
0
 62
7
 10
23.34498763
 20
14.09779981
  0
VERTEX
  8
0
 62
7
 10
23.31134564
 20
14.12670355
  0
VERTEX
  8
0
 62
7
 10
23.28028882
 20
14.15803019
  0
VERTEX
  8
0
 62
7
 10
23.25196576
 20
14.19155676
  0
VERTEX
  8
0
 62
7
 10
23.22652502
 20
14.22706028
  0
VERTEX
  8
0
 62
7
 10
23.20411518
 20
14.26431780
  0
VERTEX
  8
0
 62
7
 10
23.18488482
 20
14.30310635
  0
VERTEX
  8
0
 62
7
 10
23.15637851
 20
14.30282888
  0
VERTEX
  8
0
 62
7
 10
23.12989281
 20
14.29803264
  0
VERTEX
  8
0
 62
7
 10
23.10554656
 20
14.28847982
  0
VERTEX
  8
0
 62
7
 10
23.08345863
 20
14.27393256
  0
VERTEX
  8
0
 62
7
 10
23.06214328
 20
14.24765237
  0
VERTEX
  8
0
 62
7
 10
23.04986121
 20
14.21590210
  0
VERTEX
  8
0
 62
7
 10
23.04423522
 20
14.18082221
  0
VERTEX
  8
0
 62
7
 10
23.04288816
 20
14.14455317
  0
VERTEX
  8
0
 62
7
 10
23.04718936
 20
14.09706154
  0
VERTEX
  8
0
 62
7
 10
23.05946896
 20
14.05263197
  0
VERTEX
  8
0
 62
7
 10
23.07879095
 20
14.01135364
  0
VERTEX
  8
0
 62
7
 10
23.10421930
 20
13.97331575
  0
VERTEX
  8
0
 62
7
 10
23.13481802
 20
13.93860747
  0
VERTEX
  8
0
 62
7
 10
23.16965108
 20
13.90731799
  0
VERTEX
  8
0
 62
7
 10
23.20778247
 20
13.87953650
  0
VERTEX
  8
0
 62
7
 10
23.24827618
 20
13.85535219
  0
VERTEX
  8
0
 62
7
 10
23.31150907
 20
13.82712972
  0
VERTEX
  8
0
 62
7
 10
23.37664370
 20
13.80842045
  0
VERTEX
  8
0
 62
7
 10
23.44225376
 20
13.79827304
  0
VERTEX
  8
0
 62
7
 10
23.50691295
 20
13.79573619
  0
VERTEX
  8
0
 62
7
 10
23.55923064
 20
13.79831268
  0
VERTEX
  8
0
 62
7
 10
23.61071631
 20
13.80588360
  0
VERTEX
  8
0
 62
7
 10
23.66006253
 20
13.81821110
  0
VERTEX
  8
0
 62
7
 10
23.70596184
 20
13.83505738
  0
VERTEX
  8
0
 62
7
 10
23.74671060
 20
13.85614495
  0
VERTEX
  8
0
 62
7
 10
23.78377474
 20
13.88103780
  0
VERTEX
  8
0
 62
7
 10
23.81774855
 20
13.90926026
  0
VERTEX
  8
0
 62
7
 10
23.84922632
 20
13.94033669
  0
VERTEX
  8
0
 62
7
 10
23.88252660
 20
13.97932095
  0
VERTEX
  8
0
 62
7
 10
23.91119138
 20
14.02199157
  0
VERTEX
  8
0
 62
7
 10
23.93391323
 20
14.06822964
  0
VERTEX
  8
0
 62
7
 10
23.94938468
 20
14.11791624
  0
VERTEX
  8
0
 62
7
 10
23.95713031
 20
14.17596652
  0
VERTEX
  8
0
 62
7
 10
23.95905187
 20
14.23794099
  0
VERTEX
  8
0
 62
7
 10
23.95455504
 20
14.30110461
  0
VERTEX
  8
0
 62
7
 10
23.94304555
 20
14.36272234
  0
VERTEX
  8
0
 62
7
 10
23.92339422
 20
14.42677782
  0
VERTEX
  8
0
 62
7
 10
23.89803768
 20
14.48893067
  0
VERTEX
  8
0
 62
7
 10
23.86602504
 20
14.55108351
  0
VERTEX
  8
0
 62
7
 10
23.82640543
 20
14.61513899
  0
VERTEX
  8
0
 62
7
 10
23.79157980
 20
14.66048520
  0
VERTEX
  8
0
 62
7
 10
23.75318841
 20
14.70107481
  0
VERTEX
  8
0
 62
7
 10
23.71051809
 20
14.73643217
  0
VERTEX
  8
0
 62
7
 10
23.66285571
 20
14.76608161
  0
VERTEX
  8
0
 62
7
 10
23.64323658
 20
14.77578061
  0
VERTEX
  8
0
 62
7
 10
23.62262200
 20
14.78469179
  0
VERTEX
  8
0
 62
7
 10
23.60132399
 20
14.79250301
  0
VERTEX
  8
0
 62
7
 10
23.57965454
 20
14.79890212
  0
VERTEX
  8
0
 62
7
 10
23.55792567
 20
14.80357696
  0
VERTEX
  8
0
 62
7
 10
23.53644937
 20
14.80621538
  0
VERTEX
  8
0
 62
7
 10
23.51553764
 20
14.80650524
  0
VERTEX
  8
0
 62
7
 10
23.49550251
 20
14.80413437
  0
VERTEX
  8
0
 62
7
 10
23.47088635
 20
14.79666008
  0
VERTEX
  8
0
 62
7
 10
23.44952396
 20
14.78500890
  0
VERTEX
  8
0
 62
7
 10
23.43169761
 20
14.76964163
  0
VERTEX
  8
0
 62
7
 10
23.41768961
 20
14.75101906
  0
VERTEX
  8
0
 62
7
 10
23.40778223
 20
14.72960200
  0
VERTEX
  8
0
 62
7
 10
23.40225777
 20
14.70585123
  0
VERTEX
  8
0
 62
7
 10
23.40139852
 20
14.68022755
  0
VERTEX
  8
0
 62
7
 10
23.40548677
 20
14.65319175
  0
VERTEX
  8
0
 62
7
 10
23.46598590
 20
14.63275821
  0
VERTEX
  8
0
 62
7
 10
23.52529645
 20
14.60578435
  0
VERTEX
  8
0
 62
7
 10
23.58270525
 20
14.57238909
  0
VERTEX
  8
0
 62
7
 10
23.63749916
 20
14.53269134
  0
VERTEX
  8
0
 62
7
 10
23.67581380
 20
14.49897154
  0
VERTEX
  8
0
 62
7
 10
23.71081524
 20
14.46270993
  0
VERTEX
  8
0
 62
7
 10
23.74239949
 20
14.42421867
  0
VERTEX
  8
0
 62
7
 10
23.77046255
 20
14.38380991
  0
VERTEX
  8
0
 62
7
 10
23.79490042
 20
14.34179580
  0
VERTEX
  8
0
 62
7
 10
23.81560909
 20
14.29848849
  0
VERTEX
  8
0
 62
7
 10
23.83248457
 20
14.25420012
  0
VERTEX
  8
0
 62
7
 10
23.84542284
 20
14.20924287
  0
VERTEX
  8
0
 62
7
 10
23.83623110
 20
14.19441815
  0
VERTEX
  8
0
 62
7
 10
23.82418674
 20
14.19053359
  0
VERTEX
  8
0
 62
7
 10
23.81261781
 20
14.19568657
  0
VERTEX
  8
0
 62
7
 10
23.80485237
 20
14.20797444
  0
VERTEX
  8
0
 62
7
 10
23.78896491
 20
14.25429179
  0
VERTEX
  8
0
 62
7
 10
23.76808538
 20
14.29977673
  0
VERTEX
  8
0
 62
7
 10
23.74245149
 20
14.34407252
  0
VERTEX
  8
0
 62
7
 10
23.71230098
 20
14.38682242
  0
VERTEX
  8
0
 62
7
 10
23.69797818
 20
14.40599373
  0
VERTEX
  8
0
 62
7
 10
23.68305923
 20
14.42532111
  0
VERTEX
  8
0
 62
7
 10
23.66754228
 20
14.44460391
  0
VERTEX
  8
0
 62
7
 10
23.65142546
 20
14.46364143
  0
VERTEX
  8
0
 62
7
 10
23.63470691
 20
14.48223303
  0
VERTEX
  8
0
 62
7
 10
23.61738479
 20
14.50017803
  0
VERTEX
  8
0
 62
7
 10
23.59945723
 20
14.51727576
  0
VERTEX
  8
0
 62
7
 10
23.58092237
 20
14.53332555
  0
VERTEX
  8
0
 62
7
 10
23.56177836
 20
14.54812674
  0
VERTEX
  8
0
 62
7
 10
23.54202335
 20
14.56147865
  0
VERTEX
  8
0
 62
7
 10
23.52165547
 20
14.57318062
  0
VERTEX
  8
0
 62
7
 10
23.50067286
 20
14.58303197
  0
VERTEX
  8
0
 62
7
 10
23.47907368
 20
14.59083205
  0
VERTEX
  8
0
 62
7
 10
23.45685606
 20
14.59638017
  0
VERTEX
  8
0
 62
7
 10
23.43401814
 20
14.59947567
  0
VERTEX
  8
0
 62
7
 10
23.41055808
 20
14.59991789
  0
VERTEX
  8
0
 62
7
 10
23.38409218
 20
14.59690538
  0
VERTEX
  8
0
 62
7
 10
23.35857716
 20
14.59103891
  0
VERTEX
  8
0
 62
7
 10
23.33068496
 20
14.58182301
  0
VERTEX
  8
0
 62
7
 10
23.30564537
 20
14.57058555
  0
VERTEX
  8
0
 62
7
 10
23.28298295
 20
14.55625631
  0
VERTEX
  8
0
 62
7
 10
23.26222228
 20
14.53776504
  0
VERTEX
  8
0
 62
7
 10
23.24373974
 20
14.51425953
  0
VERTEX
  8
0
 62
7
 10
23.22751551
 20
14.48671092
  0
VERTEX
  8
0
 62
7
 10
23.21533248
 20
14.45678401
  0
VERTEX
  8
0
 62
7
 10
23.20897353
 20
14.42614361
  0
VERTEX
  8
0
 62
7
 10
23.20865658
 20
14.39506719
  0
VERTEX
  8
0
 62
7
 10
23.21309397
 20
14.36303945
  0
VERTEX
  8
0
 62
7
 10
23.22181029
 20
14.33053605
  0
VERTEX
  8
0
 62
7
 10
23.23433008
 20
14.29803264
  0
VERTEX
  8
0
 62
7
 10
23.26196475
 20
14.25052615
  0
VERTEX
  8
0
 62
7
 10
23.29756297
 20
14.20813300
  0
VERTEX
  8
0
 62
7
 10
23.33862869
 20
14.16978295
  0
VERTEX
  8
0
 62
7
 10
23.38266588
 20
14.13440577
  0
VERTEX
  8
0
 62
7
 10
23.43704378
 20
14.09811691
  0
VERTEX
  8
0
 62
7
 10
23.49344229
 20
14.06765488
  0
VERTEX
  8
0
 62
7
 10
23.55150482
 20
14.04361426
  0
VERTEX
  8
0
 62
7
 10
23.61087479
 20
14.02658961
  0
VERTEX
  8
0
 62
7
 10
23.61917757
 20
14.02286857
  0
VERTEX
  8
0
 62
7
 10
23.62428603
 20
14.01703678
  0
VERTEX
  8
0
 62
7
 10
23.62645272
 20
14.00995639
  0
VERTEX
  8
0
 62
7
 10
23.62593024
 20
14.00248953
  0
VERTEX
  8
0
 62
7
 10
23.62297115
 20
13.99549833
  0
VERTEX
  8
0
 62
7
 10
23.61782803
 20
13.98984491
  0
VERTEX
  8
0
 62
7
 10
23.61075346
 20
13.98639143
  0
VERTEX
  8
0
 62
7
 10
23.60200000
 20
13.98600000
  0
SEQEND
  0
POLYLINE
  8
0
 62
7
 66
1
 70
1
  0
VERTEX
  8
0
 62
7
 10
22.83300000
 20
14.55100000
  0
VERTEX
  8
0
 62
7
 10
22.81176389
 20
14.51437422
  0
VERTEX
  8
0
 62
7
 10
22.79623301
 20
14.47489448
  0
VERTEX
  8
0
 62
7
 10
22.78799213
 20
14.44873320
  0
VERTEX
  8
0
 62
7
 10
22.78355474
 20
14.42162061
  0
VERTEX
  8
0
 62
7
 10
22.78082098
 20
14.40792558
  0
VERTEX
  8
0
 62
7
 10
22.77880038
 20
14.39387381
  0
VERTEX
  8
0
 62
7
 10
22.78105870
 20
14.38005986
  0
VERTEX
  8
0
 62
7
 10
22.79116170
 20
14.36707832
  0
VERTEX
  8
0
 62
7
 10
22.80259195
 20
14.36075601
  0
VERTEX
  8
0
 62
7
 10
22.81414107
 20
14.35930921
  0
VERTEX
  8
0
 62
7
 10
22.82592790
 20
14.36047854
  0
VERTEX
  8
0
 62
7
 10
22.83807131
 20
14.36200462
  0
VERTEX
  8
0
 62
7
 10
22.85764339
 20
14.36686031
  0
VERTEX
  8
0
 62
7
 10
22.87483830
 20
14.37516453
  0
VERTEX
  8
0
 62
7
 10
22.89013147
 20
14.38608488
  0
VERTEX
  8
0
 62
7
 10
22.90399833
 20
14.39878895
  0
VERTEX
  8
0
 62
7
 10
22.92121305
 20
14.41900448
  0
VERTEX
  8
0
 62
7
 10
22.93426771
 20
14.44254963
  0
VERTEX
  8
0
 62
7
 10
22.94518291
 20
14.46799741
  0
VERTEX
  8
0
 62
7
 10
22.95597925
 20
14.49392086
  0
VERTEX
  8
0
 62
7
 10
22.98006797
 20
14.55480528
  0
VERTEX
  8
0
 62
7
 10
22.99488570
 20
14.57579375
  0
VERTEX
  8
0
 62
7
 10
23.01303148
 20
14.59428502
  0
VERTEX
  8
0
 62
7
 10
23.03212813
 20
14.61206279
  0
VERTEX
  8
0
 62
7
 10
23.04979847
 20
14.63091080
  0
VERTEX
  8
0
 62
7
 10
23.06651794
 20
14.65021465
  0
VERTEX
  8
0
 62
7
 10
23.08276198
 20
14.66928067
  0
VERTEX
  8
0
 62
7
 10
23.09615341
 20
14.68977366
  0
VERTEX
  8
0
 62
7
 10
23.10431504
 20
14.71335845
  0
VERTEX
  8
0
 62
7
 10
23.10665260
 20
14.73587300
  0
VERTEX
  8
0
 62
7
 10
23.10589983
 20
14.75933887
  0
VERTEX
  8
0
 62
7
 10
23.10181901
 20
14.78328040
  0
VERTEX
  8
0
 62
7
 10
23.09417243
 20
14.80722193
  0
VERTEX
  8
0
 62
7
 10
23.15376031
 20
14.87571690
  0
VERTEX
  8
0
 62
7
 10
23.16734983
 20
14.89161185
  0
VERTEX
  8
0
 62
7
 10
23.18260338
 20
14.90679332
  0
VERTEX
  8
0
 62
7
 10
23.19547975
 20
14.92387743
  0
VERTEX
  8
0
 62
7
 10
23.20193775
 20
14.94548029
  0
VERTEX
  8
0
 62
7
 10
23.20348291
 20
14.96103833
  0
VERTEX
  8
0
 62
7
 10
23.20288862
 20
14.97671527
  0
VERTEX
  8
0
 62
7
 10
23.19801541
 20
14.99167873
  0
VERTEX
  8
0
 62
7
 10
23.18672382
 20
15.00509629
  0
VERTEX
  8
0
 62
7
 10
23.17099484
 20
15.01643284
  0
VERTEX
  8
0
 62
7
 10
23.15312640
 20
15.02063450
  0
VERTEX
  8
0
 62
7
 10
23.13430708
 20
15.02150654
  0
VERTEX
  8
0
 62
7
 10
23.11572549
 20
15.02285424
  0
VERTEX
  8
0
 62
7
 10
23.09502425
 20
15.02531182
  0
VERTEX
  8
0
 62
7
 10
23.07372871
 20
15.02729373
  0
VERTEX
  8
0
 62
7
 10
23.05314633
 20
15.02642169
  0
VERTEX
  8
0
 62
7
 10
23.03458454
 20
15.02031739
  0
VERTEX
  8
0
 62
7
 10
23.01487379
 20
15.00349094
  0
VERTEX
  8
0
 62
7
 10
23.00336429
 20
14.98083765
  0
VERTEX
  8
0
 62
7
 10
23.00017492
 20
14.95414126
  0
VERTEX
  8
0
 62
7
 10
23.00542451
 20
14.92518549
  0
VERTEX
  8
0
 62
7
 10
22.98717969
 20
14.92019106
  0
VERTEX
  8
0
 62
7
 10
22.97071774
 20
14.91281834
  0
VERTEX
  8
0
 62
7
 10
22.95639525
 20
14.90306732
  0
VERTEX
  8
0
 62
7
 10
22.94456880
 20
14.89093800
  0
VERTEX
  8
0
 62
7
 10
22.93761556
 20
14.87099994
  0
VERTEX
  8
0
 62
7
 10
22.93648640
 20
14.84844575
  0
VERTEX
  8
0
 62
7
 10
22.93654583
 20
14.82494025
  0
VERTEX
  8
0
 62
7
 10
22.93315836
 20
14.80214823
  0
VERTEX
  8
0
 62
7
 10
22.92238183
 20
14.77075470
  0
VERTEX
  8
0
 62
7
 10
22.90780181
 20
14.74126381
  0
VERTEX
  8
0
 62
7
 10
22.86849916
 20
14.67911096
  0
VERTEX
  8
0
 62
7
 10
22.85397858
 20
14.66270071
  0
VERTEX
  8
0
 62
7
 10
22.83791283
 20
14.64771744
  0
VERTEX
  8
0
 62
7
 10
22.82446198
 20
14.63130718
  0
VERTEX
  8
0
 62
7
 10
22.81778607
 20
14.61061599
  0
VERTEX
  8
0
 62
7
 10
22.81766721
 20
14.59594982
  0
VERTEX
  8
0
 62
7
 10
22.82063868
 20
14.58080800
  0
VERTEX
  8
0
 62
7
 10
22.82598733
 20
14.56566617
  0
VERTEX
  8
0
 62
7
 10
22.83300000
 20
14.55100000
  0
SEQEND
  0
POLYLINE
  8
0
 62
7
 66
1
 70
1
  0
VERTEX
  8
0
 62
7
 10
22.31315050
 20
13.32543595
  0
VERTEX
  8
0
 62
7
 10
23.22879338
 20
13.32543595
  0
VERTEX
  8
0
 62
7
 10
23.22879338
 20
12.40582754
  0
VERTEX
  8
0
 62
7
 10
22.31315050
 20
12.40582754
  0
VERTEX
  8
0
 62
7
 10
22.31315050
 20
13.32543595
  0
SEQEND
  0
POLYLINE
  8
0
 62
7
 66
1
 70
1
  0
VERTEX
  8
0
 62
7
 10
21.13667167
 20
13.32543595
  0
VERTEX
  8
0
 62
7
 10
22.04959750
 20
13.32543595
  0
VERTEX
  8
0
 62
7
 10
22.04959750
 20
12.40709597
  0
VERTEX
  8
0
 62
7
 10
21.13667167
 20
12.40709597
  0
VERTEX
  8
0
 62
7
 10
21.13667167
 20
13.32543595
  0
SEQEND
  0
POLYLINE
  8
0
 62
7
 66
1
 70
1
  0
VERTEX
  8
0
 62
7
 10
22.38500000
 20
11.12100000
  0
VERTEX
  8
0
 62
7
 10
22.39762500
 20
11.11787500
  0
VERTEX
  8
0
 62
7
 10
22.41100000
 20
11.11700000
  0
VERTEX
  8
0
 62
7
 10
22.42900000
 20
11.11900000
  0
VERTEX
  8
0
 62
7
 10
22.44880859
 20
11.12206055
  0
VERTEX
  8
0
 62
7
 10
22.46653125
 20
11.11854688
  0
VERTEX
  8
0
 62
7
 10
22.48148828
 20
11.10966602
  0
VERTEX
  8
0
 62
7
 10
22.49300000
 20
11.09662500
  0
VERTEX
  8
0
 62
7
 10
22.50038672
 20
11.08063086
  0
VERTEX
  8
0
 62
7
 10
22.50296875
 20
11.06289063
  0
VERTEX
  8
0
 62
7
 10
22.50006641
 20
11.04461133
  0
VERTEX
  8
0
 62
7
 10
22.49100000
 20
11.02700000
  0
VERTEX
  8
0
 62
7
 10
22.48734961
 20
11.02010156
  0
VERTEX
  8
0
 62
7
 10
22.48598438
 20
11.01306250
  0
VERTEX
  8
0
 62
7
 10
22.48665820
 20
11.00611719
  0
VERTEX
  8
0
 62
7
 10
22.48912500
 20
10.99950000
  0
VERTEX
  8
0
 62
7
 10
22.49313867
 20
10.99344531
  0
VERTEX
  8
0
 62
7
 10
22.49845313
 20
10.98818750
  0
VERTEX
  8
0
 62
7
 10
22.50482227
 20
10.98396094
  0
VERTEX
  8
0
 62
7
 10
22.51200000
 20
10.98100000
  0
VERTEX
  8
0
 62
7
 10
22.52703125
 20
10.97465430
  0
VERTEX
  8
0
 62
7
 10
22.53962500
 20
10.96510938
  0
VERTEX
  8
0
 62
7
 10
22.54940625
 20
10.95310352
  0
VERTEX
  8
0
 62
7
 10
22.55600000
 20
10.93937500
  0
VERTEX
  8
0
 62
7
 10
22.55903125
 20
10.92466211
  0
VERTEX
  8
0
 62
7
 10
22.55812500
 20
10.90970313
  0
VERTEX
  8
0
 62
7
 10
22.55290625
 20
10.89523633
  0
VERTEX
  8
0
 62
7
 10
22.54300000
 20
10.88200000
  0
VERTEX
  8
0
 62
7
 10
22.55400000
 20
10.83400000
  0
VERTEX
  8
0
 62
7
 10
22.56393750
 20
10.82483984
  0
VERTEX
  8
0
 62
7
 10
22.57125000
 20
10.81415625
  0
VERTEX
  8
0
 62
7
 10
22.57593750
 20
10.80239453
  0
VERTEX
  8
0
 62
7
 10
22.57800000
 20
10.79000000
  0
VERTEX
  8
0
 62
7
 10
22.57743750
 20
10.77741797
  0
VERTEX
  8
0
 62
7
 10
22.57425000
 20
10.76509375
  0
VERTEX
  8
0
 62
7
 10
22.56843750
 20
10.75347266
  0
VERTEX
  8
0
 62
7
 10
22.56000000
 20
10.74300000
  0
VERTEX
  8
0
 62
7
 10
22.55400000
 20
10.73325000
  0
VERTEX
  8
0
 62
7
 10
22.55100000
 20
10.71600000
  0
VERTEX
  8
0
 62
7
 10
22.55339063
 20
10.69657813
  0
VERTEX
  8
0
 62
7
 10
22.56037500
 20
10.67912500
  0
VERTEX
  8
0
 62
7
 10
22.57167188
 20
10.66410938
  0
VERTEX
  8
0
 62
7
 10
22.58700000
 20
10.65200000
  0
VERTEX
  8
0
 62
7
 10
22.60051758
 20
10.64071680
  0
VERTEX
  8
0
 62
7
 10
22.60964063
 20
10.62698438
  0
VERTEX
  8
0
 62
7
 10
22.61447461
 20
10.61172852
  0
VERTEX
  8
0
 62
7
 10
22.61512500
 20
10.59587500
  0
VERTEX
  8
0
 62
7
 10
22.61169727
 20
10.58034961
  0
VERTEX
  8
0
 62
7
 10
22.60429688
 20
10.56607813
  0
VERTEX
  8
0
 62
7
 10
22.59302930
 20
10.55398633
  0
VERTEX
  8
0
 62
7
 10
22.57800000
 20
10.54500000
  0
VERTEX
  8
0
 62
7
 10
22.56823438
 20
10.53968750
  0
VERTEX
  8
0
 62
7
 10
22.55987500
 20
10.53250000
  0
VERTEX
  8
0
 62
7
 10
22.55282813
 20
10.52306250
  0
VERTEX
  8
0
 62
7
 10
22.54700000
 20
10.51100000
  0
VERTEX
  8
0
 62
7
 10
22.54400000
 20
10.48900000
  0
VERTEX
  8
0
 62
7
 10
22.54500000
 20
10.46500000
  0
VERTEX
  8
0
 62
7
 10
22.54526367
 20
10.45239648
  0
VERTEX
  8
0
 62
7
 10
22.54317188
 20
10.44029688
  0
VERTEX
  8
0
 62
7
 10
22.53890039
 20
10.42901758
  0
VERTEX
  8
0
 62
7
 10
22.53262500
 20
10.41887500
  0
VERTEX
  8
0
 62
7
 10
22.52452148
 20
10.41018555
  0
VERTEX
  8
0
 62
7
 10
22.51476563
 20
10.40326563
  0
VERTEX
  8
0
 62
7
 10
22.50353320
 20
10.39843164
  0
VERTEX
  8
0
 62
7
 10
22.49100000
 20
10.39600000
  0
VERTEX
  8
0
 62
7
 10
22.47287500
 20
10.39125000
  0
VERTEX
  8
0
 62
7
 10
22.45700000
 20
10.37900000
  0
VERTEX
  8
0
 62
7
 10
22.44887500
 20
10.36550000
  0
VERTEX
  8
0
 62
7
 10
22.44600000
 20
10.34600000
  0
VERTEX
  8
0
 62
7
 10
22.44900000
 20
10.32600000
  0
VERTEX
  8
0
 62
7
 10
22.45162500
 20
10.30700000
  0
VERTEX
  8
0
 62
7
 10
22.44825000
 20
10.28950000
  0
VERTEX
  8
0
 62
7
 10
22.44000000
 20
10.27425000
  0
VERTEX
  8
0
 62
7
 10
22.42800000
 20
10.26200000
  0
VERTEX
  8
0
 62
7
 10
22.45500000
 20
10.22700000
  0
VERTEX
  8
0
 62
7
 10
22.47462500
 20
10.20053125
  0
VERTEX
  8
0
 62
7
 10
22.49650000
 20
10.17425000
  0
VERTEX
  8
0
 62
7
 10
22.52137500
 20
10.14909375
  0
VERTEX
  8
0
 62
7
 10
22.55000000
 20
10.12600000
  0
VERTEX
  8
0
 62
7
 10
22.57617188
 20
10.10570313
  0
VERTEX
  8
0
 62
7
 10
22.60412500
 20
10.08662500
  0
VERTEX
  8
0
 62
7
 10
22.63451563
 20
10.07073438
  0
VERTEX
  8
0
 62
7
 10
22.66800000
 20
10.06000000
  0
VERTEX
  8
0
 62
7
 10
22.69145703
 20
10.05578320
  0
VERTEX
  8
0
 62
7
 10
22.71521875
 20
10.05364063
  0
VERTEX
  8
0
 62
7
 10
22.73912109
 20
10.05358398
  0
VERTEX
  8
0
 62
7
 10
22.76300000
 20
10.05562500
  0
VERTEX
  8
0
 62
7
 10
22.78669141
 20
10.05977539
  0
VERTEX
  8
0
 62
7
 10
22.81003125
 20
10.06604688
  0
VERTEX
  8
0
 62
7
 10
22.83285547
 20
10.07445117
  0
VERTEX
  8
0
 62
7
 10
22.85500000
 20
10.08500000
  0
VERTEX
  8
0
 62
7
 10
22.88750000
 20
10.10742188
  0
VERTEX
  8
0
 62
7
 10
22.91550000
 20
10.13462500
  0
VERTEX
  8
0
 62
7
 10
22.94050000
 20
10.16501563
  0
VERTEX
  8
0
 62
7
 10
22.96400000
 20
10.19700000
  0
VERTEX
  8
0
 62
7
 10
22.98996875
 20
10.22293750
  0
VERTEX
  8
0
 62
7
 10
23.02100000
 20
10.24475000
  0
VERTEX
  8
0
 62
7
 10
23.05653125
 20
10.26393750
  0
VERTEX
  8
0
 62
7
 10
23.09600000
 20
10.28200000
  0
VERTEX
  8
0
 62
7
 10
23.07810742
 20
10.29782813
  0
VERTEX
  8
0
 62
7
 10
23.06104688
 20
10.32012500
  0
VERTEX
  8
0
 62
7
 10
23.04574414
 20
10.34710938
  0
VERTEX
  8
0
 62
7
 10
23.03312500
 20
10.37700000
  0
VERTEX
  8
0
 62
7
 10
23.02411523
 20
10.40801563
  0
VERTEX
  8
0
 62
7
 10
23.01964063
 20
10.43837500
  0
VERTEX
  8
0
 62
7
 10
23.02062695
 20
10.46629688
  0
VERTEX
  8
0
 62
7
 10
23.02800000
 20
10.49000000
  0
VERTEX
  8
0
 62
7
 10
23.04834375
 20
10.51628125
  0
VERTEX
  8
0
 62
7
 10
23.07300000
 20
10.53900000
  0
VERTEX
  8
0
 62
7
 10
23.10140625
 20
10.55721875
  0
VERTEX
  8
0
 62
7
 10
23.13300000
 20
10.57000000
  0
VERTEX
  8
0
 62
7
 10
23.09593750
 20
10.59446875
  0
VERTEX
  8
0
 62
7
 10
23.06450000
 20
10.62550000
  0
VERTEX
  8
0
 62
7
 10
23.03906250
 20
10.66253125
  0
VERTEX
  8
0
 62
7
 10
23.02000000
 20
10.70500000
  0
VERTEX
  8
0
 62
7
 10
23.01284375
 20
10.74157813
  0
VERTEX
  8
0
 62
7
 10
23.01225000
 20
10.78012500
  0
VERTEX
  8
0
 62
7
 10
23.01803125
 20
10.81960938
  0
VERTEX
  8
0
 62
7
 10
23.03000000
 20
10.85900000
  0
VERTEX
  8
0
 62
7
 10
23.05035938
 20
10.89496875
  0
VERTEX
  8
0
 62
7
 10
23.07662500
 20
10.92850000
  0
VERTEX
  8
0
 62
7
 10
23.10832813
 20
10.95828125
  0
VERTEX
  8
0
 62
7
 10
23.14500000
 20
10.98300000
  0
VERTEX
  8
0
 62
7
 10
23.12350977
 20
10.98734180
  0
VERTEX
  8
0
 62
7
 10
23.10395313
 20
10.99485938
  0
VERTEX
  8
0
 62
7
 10
23.08620117
 20
11.00516602
  0
VERTEX
  8
0
 62
7
 10
23.07012500
 20
11.01787500
  0
VERTEX
  8
0
 62
7
 10
23.05559570
 20
11.03259961
  0
VERTEX
  8
0
 62
7
 10
23.04248438
 20
11.04895313
  0
VERTEX
  8
0
 62
7
 10
23.03066211
 20
11.06654883
  0
VERTEX
  8
0
 62
7
 10
23.02000000
 20
11.08500000
  0
VERTEX
  8
0
 62
7
 10
23.00200000
 20
11.12462500
  0
VERTEX
  8
0
 62
7
 10
22.98700000
 20
11.16800000
  0
VERTEX
  8
0
 62
7
 10
22.97817188
 20
11.20112500
  0
VERTEX
  8
0
 62
7
 10
22.96737500
 20
11.23275000
  0
VERTEX
  8
0
 62
7
 10
22.95339063
 20
11.26250000
  0
VERTEX
  8
0
 62
7
 10
22.93500000
 20
11.29000000
  0
VERTEX
  8
0
 62
7
 10
22.90612500
 20
11.31843750
  0
VERTEX
  8
0
 62
7
 10
22.87275000
 20
11.34200000
  0
VERTEX
  8
0
 62
7
 10
22.83600000
 20
11.36031250
  0
VERTEX
  8
0
 62
7
 10
22.79700000
 20
11.37300000
  0
VERTEX
  8
0
 62
7
 10
22.77250391
 20
11.37709180
  0
VERTEX
  8
0
 62
7
 10
22.74784375
 20
11.37892188
  0
VERTEX
  8
0
 62
7
 10
22.72313672
 20
11.37857227
  0
VERTEX
  8
0
 62
7
 10
22.69850000
 20
11.37612500
  0
VERTEX
  8
0
 62
7
 10
22.67405078
 20
11.37166211
  0
VERTEX
  8
0
 62
7
 10
22.64990625
 20
11.36526563
  0
VERTEX
  8
0
 62
7
 10
22.62618359
 20
11.35701758
  0
VERTEX
  8
0
 62
7
 10
22.60300000
 20
11.34700000
  0
VERTEX
  8
0
 62
7
 10
22.56476563
 20
11.32592188
  0
VERTEX
  8
0
 62
7
 10
22.53037500
 20
11.29987500
  0
VERTEX
  8
0
 62
7
 10
22.49879688
 20
11.27064063
  0
VERTEX
  8
0
 62
7
 10
22.46900000
 20
11.24000000
  0
VERTEX
  8
0
 62
7
 10
22.44546875
 20
11.21212500
  0
VERTEX
  8
0
 62
7
 10
22.42325000
 20
11.18275000
  0
VERTEX
  8
0
 62
7
 10
22.40290625
 20
11.15225000
  0
VERTEX
  8
0
 62
7
 10
22.38500000
 20
11.12100000
  0
SEQEND
  0
POLYLINE
  8
0
 62
7
 66
1
 70
1
  0
VERTEX
  8
0
 62
7
 10
22.34900000
 20
10.26500000
  0
VERTEX
  8
0
 62
7
 10
22.33600000
 20
10.26950000
  0
VERTEX
  8
0
 62
7
 10
22.32000000
 20
10.27100000
  0
VERTEX
  8
0
 62
7
 10
22.30410938
 20
10.26943750
  0
VERTEX
  8
0
 62
7
 10
22.28887500
 20
10.26450000
  0
VERTEX
  8
0
 62
7
 10
22.27570313
 20
10.25581250
  0
VERTEX
  8
0
 62
7
 10
22.26600000
 20
10.24300000
  0
VERTEX
  8
0
 62
7
 10
22.25931250
 20
10.23183008
  0
VERTEX
  8
0
 62
7
 10
22.25075000
 20
10.22245313
  0
VERTEX
  8
0
 62
7
 10
22.24068750
 20
10.21506836
  0
VERTEX
  8
0
 62
7
 10
22.22950000
 20
10.20987500
  0
VERTEX
  8
0
 62
7
 10
22.21756250
 20
10.20707227
  0
VERTEX
  8
0
 62
7
 10
22.20525000
 20
10.20685938
  0
VERTEX
  8
0
 62
7
 10
22.19293750
 20
10.20943555
  0
VERTEX
  8
0
 62
7
 10
22.18100000
 20
10.21500000
  0
VERTEX
  8
0
 62
7
 10
22.16612500
 20
10.22037500
  0
VERTEX
  8
0
 62
7
 10
22.14300000
 20
10.22200000
  0
VERTEX
  8
0
 62
7
 10
22.13062500
 20
10.21900000
  0
VERTEX
  8
0
 62
7
 10
22.11300000
 20
10.20400000
  0
VERTEX
  8
0
 62
7
 10
22.10115820
 20
10.19365625
  0
VERTEX
  8
0
 62
7
 10
22.08782813
 20
10.18725000
  0
VERTEX
  8
0
 62
7
 10
22.07367773
 20
10.18459375
  0
VERTEX
  8
0
 62
7
 10
22.05937500
 20
10.18550000
  0
VERTEX
  8
0
 62
7
 10
22.04558789
 20
10.18978125
  0
VERTEX
  8
0
 62
7
 10
22.03298438
 20
10.19725000
  0
VERTEX
  8
0
 62
7
 10
22.02223242
 20
10.20771875
  0
VERTEX
  8
0
 62
7
 10
22.01400000
 20
10.22100000
  0
VERTEX
  8
0
 62
7
 10
22.00262500
 20
10.24193750
  0
VERTEX
  8
0
 62
7
 10
21.98825000
 20
10.26100000
  0
VERTEX
  8
0
 62
7
 10
21.97125000
 20
10.27781250
  0
VERTEX
  8
0
 62
7
 10
21.95200000
 20
10.29200000
  0
VERTEX
  8
0
 62
7
 10
21.93387500
 20
10.30250000
  0
VERTEX
  8
0
 62
7
 10
21.91500000
 20
10.31000000
  0
VERTEX
  8
0
 62
7
 10
21.85975000
 20
10.25437500
  0
VERTEX
  8
0
 62
7
 10
21.80600000
 20
10.19500000
  0
VERTEX
  8
0
 62
7
 10
21.78690430
 20
10.17176563
  0
VERTEX
  8
0
 62
7
 10
21.76742188
 20
10.14843750
  0
VERTEX
  8
0
 62
7
 10
21.74800977
 20
10.12482813
  0
VERTEX
  8
0
 62
7
 10
21.72912500
 20
10.10075000
  0
VERTEX
  8
0
 62
7
 10
21.71122461
 20
10.07601563
  0
VERTEX
  8
0
 62
7
 10
21.69476563
 20
10.05043750
  0
VERTEX
  8
0
 62
7
 10
21.68020508
 20
10.02382813
  0
VERTEX
  8
0
 62
7
 10
21.66800000
 20
9.99600000
  0
VERTEX
  8
0
 62
7
 10
21.65839063
 20
9.96806250
  0
VERTEX
  8
0
 62
7
 10
21.65000000
 20
9.93975000
  0
VERTEX
  8
0
 62
7
 10
21.64310938
 20
9.91106250
  0
VERTEX
  8
0
 62
7
 10
21.63800000
 20
9.88200000
  0
VERTEX
  8
0
 62
7
 10
21.63495313
 20
9.85256250
  0
VERTEX
  8
0
 62
7
 10
21.63425000
 20
9.82275000
  0
VERTEX
  8
0
 62
7
 10
21.63617188
 20
9.79256250
  0
VERTEX
  8
0
 62
7
 10
21.64100000
 20
9.76200000
  0
VERTEX
  8
0
 62
7
 10
21.64950586
 20
9.73155664
  0
VERTEX
  8
0
 62
7
 10
21.66067188
 20
9.70182813
  0
VERTEX
  8
0
 62
7
 10
21.67434570
 20
9.67296680
  0
VERTEX
  8
0
 62
7
 10
21.69037500
 20
9.64512500
  0
VERTEX
  8
0
 62
7
 10
21.70860742
 20
9.61845508
  0
VERTEX
  8
0
 62
7
 10
21.72889063
 20
9.59310937
  0
VERTEX
  8
0
 62
7
 10
21.75107227
 20
9.56924023
  0
VERTEX
  8
0
 62
7
 10
21.77500000
 20
9.54700000
  0
VERTEX
  8
0
 62
7
 10
21.80185938
 20
9.56998438
  0
VERTEX
  8
0
 62
7
 10
21.83237500
 20
9.58912500
  0
VERTEX
  8
0
 62
7
 10
21.86570313
 20
9.60395313
  0
VERTEX
  8
0
 62
7
 10
21.90100000
 20
9.61400000
  0
VERTEX
  8
0
 62
7
 10
21.93233203
 20
9.61737500
  0
VERTEX
  8
0
 62
7
 10
21.96303125
 20
9.61456250
  0
VERTEX
  8
0
 62
7
 10
21.99265234
 20
9.60640625
  0
VERTEX
  8
0
 62
7
 10
22.02075000
 20
9.59375000
  0
VERTEX
  8
0
 62
7
 10
22.04687891
 20
9.57743750
  0
VERTEX
  8
0
 62
7
 10
22.07059375
 20
9.55831250
  0
VERTEX
  8
0
 62
7
 10
22.09144922
 20
9.53721875
  0
VERTEX
  8
0
 62
7
 10
22.10900000
 20
9.51500000
  0
VERTEX
  8
0
 62
7
 10
22.12261328
 20
9.53598828
  0
VERTEX
  8
0
 62
7
 10
22.14121875
 20
9.55578125
  0
VERTEX
  8
0
 62
7
 10
22.16408984
 20
9.57374609
  0
VERTEX
  8
0
 62
7
 10
22.19050000
 20
9.58925000
  0
VERTEX
  8
0
 62
7
 10
22.21972266
 20
9.60166016
  0
VERTEX
  8
0
 62
7
 10
22.25103125
 20
9.61034375
  0
VERTEX
  8
0
 62
7
 10
22.28369922
 20
9.61466797
  0
VERTEX
  8
0
 62
7
 10
22.31700000
 20
9.61400000
  0
VERTEX
  8
0
 62
7
 10
22.35245313
 20
9.60606250
  0
VERTEX
  8
0
 62
7
 10
22.38612500
 20
9.59100000
  0
VERTEX
  8
0
 62
7
 10
22.41698438
 20
9.57068750
  0
VERTEX
  8
0
 62
7
 10
22.44400000
 20
9.54700000
  0
VERTEX
  8
0
 62
7
 10
22.46788477
 20
9.56924023
  0
VERTEX
  8
0
 62
7
 10
22.48995313
 20
9.59310937
  0
VERTEX
  8
0
 62
7
 10
22.51007617
 20
9.61845508
  0
VERTEX
  8
0
 62
7
 10
22.52812500
 20
9.64512500
  0
VERTEX
  8
0
 62
7
 10
22.54397070
 20
9.67296680
  0
VERTEX
  8
0
 62
7
 10
22.55748438
 20
9.70182813
  0
VERTEX
  8
0
 62
7
 10
22.56853711
 20
9.73155664
  0
VERTEX
  8
0
 62
7
 10
22.57700000
 20
9.76200000
  0
VERTEX
  8
0
 62
7
 10
22.58211523
 20
9.79256250
  0
VERTEX
  8
0
 62
7
 10
22.58417188
 20
9.82275000
  0
VERTEX
  8
0
 62
7
 10
22.58348633
 20
9.85256250
  0
VERTEX
  8
0
 62
7
 10
22.58037500
 20
9.88200000
  0
VERTEX
  8
0
 62
7
 10
22.57515430
 20
9.91106250
  0
VERTEX
  8
0
 62
7
 10
22.56814063
 20
9.93975000
  0
VERTEX
  8
0
 62
7
 10
22.55965039
 20
9.96806250
  0
VERTEX
  8
0
 62
7
 10
22.55000000
 20
9.99600000
  0
VERTEX
  8
0
 62
7
 10
22.53783594
 20
10.02382813
  0
VERTEX
  8
0
 62
7
 10
22.52337500
 20
10.05043750
  0
VERTEX
  8
0
 62
7
 10
22.50703906
 20
10.07601563
  0
VERTEX
  8
0
 62
7
 10
22.48925000
 20
10.10075000
  0
VERTEX
  8
0
 62
7
 10
22.47042969
 20
10.12482813
  0
VERTEX
  8
0
 62
7
 10
22.45100000
 20
10.14843750
  0
VERTEX
  8
0
 62
7
 10
22.43138281
 20
10.17176563
  0
VERTEX
  8
0
 62
7
 10
22.41200000
 20
10.19500000
  0
VERTEX
  8
0
 62
7
 10
22.34900000
 20
10.26500000
  0
SEQEND
  0
POLYLINE
  8
0
 62
7
 66
1
 70
1
  0
VERTEX
  8
0
 62
7
 10
20.86450000
 20
14.50100000
  0
VERTEX
  8
0
 62
7
 10
20.86450000
 20
13.58800000
  0
VERTEX
  8
0
 62
7
 10
19.95123333
 20
13.58800000
  0
VERTEX
  8
0
 62
7
 10
19.95123333
 20
14.49700000
  0
VERTEX
  8
0
 62
7
 10
20.86450000
 20
14.50100000
  0
SEQEND
  0
POLYLINE
  8
0
 62
7
 66
1
 70
1
  0
VERTEX
  8
0
 62
7
 10
17.83500000
 20
14.50200000
  0
VERTEX
  8
0
 62
7
 10
17.84760352
 20
14.50534180
  0
VERTEX
  8
0
 62
7
 10
17.86101563
 20
14.50642188
  0
VERTEX
  8
0
 62
7
 10
17.87463867
 20
14.50532227
  0
VERTEX
  8
0
 62
7
 10
17.88787500
 20
14.50212500
  0
VERTEX
  8
0
 62
7
 10
17.90012695
 20
14.49691211
  0
VERTEX
  8
0
 62
7
 10
17.91079688
 20
14.48976563
  0
VERTEX
  8
0
 62
7
 10
17.91928711
 20
14.48076758
  0
VERTEX
  8
0
 62
7
 10
17.92500000
 20
14.47000000
  0
VERTEX
  8
0
 62
7
 10
18.02900000
 20
14.47200000
  0
VERTEX
  8
0
 62
7
 10
18.04778125
 20
14.51596875
  0
VERTEX
  8
0
 62
7
 10
18.06975000
 20
14.55975000
  0
VERTEX
  8
0
 62
7
 10
18.09509375
 20
14.60390625
  0
VERTEX
  8
0
 62
7
 10
18.12400000
 20
14.64900000
  0
VERTEX
  8
0
 62
7
 10
18.15350000
 20
14.68850000
  0
VERTEX
  8
0
 62
7
 10
18.18600000
 20
14.72500000
  0
VERTEX
  8
0
 62
7
 10
17.82000000
 20
14.71800000
  0
VERTEX
  8
0
 62
7
 10
17.82600000
 20
14.68500000
  0
VERTEX
  8
0
 62
7
 10
17.83412500
 20
14.61987500
  0
VERTEX
  8
0
 62
7
 10
17.83700000
 20
14.55400000
  0
VERTEX
  8
0
 62
7
 10
17.83500000
 20
14.50200000
  0
SEQEND
  0
POLYLINE
  8
0
 62
7
 66
1
 70
1
  0
VERTEX
  8
0
 62
7
 10
19.91200000
 20
11.16000000
  0
VERTEX
  8
0
 62
7
 10
19.89379479
 20
11.14012140
  0
VERTEX
  8
0
 62
7
 10
19.87190496
 20
11.12464264
  0
VERTEX
  8
0
 62
7
 10
19.84692480
 20
11.11415831
  0
VERTEX
  8
0
 62
7
 10
19.81944861
 20
11.10926298
  0
VERTEX
  8
0
 62
7
 10
19.79260633
 20
11.10942154
  0
VERTEX
  8
0
 62
7
 10
19.76635834
 20
11.11528801
  0
VERTEX
  8
0
 62
7
 10
19.74224981
 20
11.12638673
  0
VERTEX
  8
0
 62
7
 10
19.72182590
 20
11.14224204
  0
VERTEX
  8
0
 62
7
 10
19.70407632
 20
11.11544656
  0
VERTEX
  8
0
 62
7
 10
19.68252326
 20
11.09150503
  0
VERTEX
  8
0
 62
7
 10
19.65510649
 20
11.07299395
  0
VERTEX
  8
0
 62
7
 10
19.62483711
 20
11.06137993
  0
VERTEX
  8
0
 62
7
 10
19.59266600
 20
11.05690080
  0
VERTEX
  8
0
 62
7
 10
19.55954401
 20
11.05979439
  0
VERTEX
  8
0
 62
7
 10
19.56889423
 20
11.03995543
  0
VERTEX
  8
0
 62
7
 10
19.57253924
 20
11.01904623
  0
VERTEX
  8
0
 62
7
 10
19.57095445
 20
10.99789920
  0
VERTEX
  8
0
 62
7
 10
19.56461532
 20
10.97734674
  0
VERTEX
  8
0
 62
7
 10
19.55346240
 20
10.95847892
  0
VERTEX
  8
0
 62
7
 10
19.53910029
 20
10.94246505
  0
VERTEX
  8
0
 62
7
 10
19.52164786
 20
10.93025645
  0
VERTEX
  8
0
 62
7
 10
19.50122395
 20
10.92280445
  0
VERTEX
  8
0
 62
7
 10
19.51083171
 20
10.91051658
  0
VERTEX
  8
0
 62
7
 10
19.51818114
 20
10.89680173
  0
VERTEX
  8
0
 62
7
 10
19.52244025
 20
10.88213556
  0
VERTEX
  8
0
 62
7
 10
19.52277702
 20
10.86699374
  0
VERTEX
  8
0
 62
7
 10
19.52125166
 20
10.84378552
  0
VERTEX
  8
0
 62
7
 10
19.51342679
 20
10.82212319
  0
VERTEX
  8
0
 62
7
 10
19.50013441
 20
10.80260133
  0
VERTEX
  8
0
 62
7
 10
19.48220654
 20
10.78581451
  0
VERTEX
  8
0
 62
7
 10
19.49385471
 20
10.77116816
  0
VERTEX
  8
0
 62
7
 10
19.50217482
 20
10.75426243
  0
VERTEX
  8
0
 62
7
 10
19.50716689
 20
10.73569189
  0
VERTEX
  8
0
 62
7
 10
19.50883092
 20
10.71605111
  0
VERTEX
  8
0
 62
7
 10
19.50568116
 20
10.68178381
  0
VERTEX
  8
0
 62
7
 10
19.49314155
 20
10.65025155
  0
VERTEX
  8
0
 62
7
 10
19.47228183
 20
10.62276239
  0
VERTEX
  8
0
 62
7
 10
19.44417172
 20
10.60062440
  0
VERTEX
  8
0
 62
7
 10
19.46568517
 20
10.58905002
  0
VERTEX
  8
0
 62
7
 10
19.48315741
 20
10.57367037
  0
VERTEX
  8
0
 62
7
 10
19.49730161
 20
10.55496109
  0
VERTEX
  8
0
 62
7
 10
19.50883092
 20
10.53339786
  0
VERTEX
  8
0
 62
7
 10
19.51564549
 20
10.49566220
  0
VERTEX
  8
0
 62
7
 10
19.51390223
 20
10.45602391
  0
VERTEX
  8
0
 62
7
 10
19.53484119
 20
10.45206008
  0
VERTEX
  8
0
 62
7
 10
19.55399726
 20
10.44429098
  0
VERTEX
  8
0
 62
7
 10
19.57148932
 20
10.43319225
  0
VERTEX
  8
0
 62
7
 10
19.58743621
 20
10.41923957
  0
VERTEX
  8
0
 62
7
 10
19.60310576
 20
10.39521877
  0
VERTEX
  8
0
 62
7
 10
19.61200036
 20
10.36786835
  0
VERTEX
  8
0
 62
7
 10
19.61400115
 20
10.33861529
  0
VERTEX
  8
0
 62
7
 10
19.60898927
 20
10.30888657
  0
VERTEX
  8
0
 62
7
 10
19.62792744
 20
10.32010420
  0
VERTEX
  8
0
 62
7
 10
19.64829192
 20
10.32727873
  0
VERTEX
  8
0
 62
7
 10
19.66960727
 20
10.33064799
  0
VERTEX
  8
0
 62
7
 10
19.69139805
 20
10.33044980
  0
VERTEX
  8
0
 62
7
 10
19.72251925
 20
10.32482116
  0
VERTEX
  8
0
 62
7
 10
19.75019354
 20
10.31205763
  0
VERTEX
  8
0
 62
7
 10
19.77287576
 20
10.29263487
  0
VERTEX
  8
0
 62
7
 10
19.78902075
 20
10.26702853
  0
VERTEX
  8
0
 62
7
 10
19.80560156
 20
10.27529311
  0
VERTEX
  8
0
 62
7
 10
19.82277665
 20
10.28082265
  0
VERTEX
  8
0
 62
7
 10
19.84018947
 20
10.28326041
  0
VERTEX
  8
0
 62
7
 10
19.85748343
 20
10.28224963
  0
VERTEX
  8
0
 62
7
 10
19.87842239
 20
10.27953441
  0
VERTEX
  8
0
 62
7
 10
19.89757846
 20
10.27194368
  0
VERTEX
  8
0
 62
7
 10
19.91507052
 20
10.26030984
  0
VERTEX
  8
0
 62
7
 10
19.93101741
 20
10.24546530
  0
VERTEX
  8
0
 62
7
 10
19.94660772
 20
10.27463908
  0
VERTEX
  8
0
 62
7
 10
19.96635810
 20
10.30095891
  0
VERTEX
  8
0
 62
7
 10
19.98967423
 20
10.32394912
  0
VERTEX
  8
0
 62
7
 10
20.01596184
 20
10.34313405
  0
VERTEX
  8
0
 62
7
 10
20.05017337
 20
10.36118929
  0
VERTEX
  8
0
 62
7
 10
20.08616778
 20
10.37341771
  0
VERTEX
  8
0
 62
7
 10
20.12382621
 20
10.37970038
  0
VERTEX
  8
0
 62
7
 10
20.16302981
 20
10.37991839
  0
VERTEX
  8
0
 62
7
 10
20.16683329
 20
10.40875525
  0
VERTEX
  8
0
 62
7
 10
20.17444025
 20
10.43747319
  0
VERTEX
  8
0
 62
7
 10
20.18585070
 20
10.46500198
  0
VERTEX
  8
0
 62
7
 10
20.20106463
 20
10.49027140
  0
VERTEX
  8
0
 62
7
 10
20.21728885
 20
10.51042747
  0
VERTEX
  8
0
 62
7
 10
20.23577140
 20
10.52879982
  0
VERTEX
  8
0
 62
7
 10
20.25686884
 20
10.54503170
  0
VERTEX
  8
0
 62
7
 10
20.28093775
 20
10.55876637
  0
VERTEX
  8
0
 62
7
 10
20.27570796
 20
10.59055628
  0
VERTEX
  8
0
 62
7
 10
20.27333078
 20
10.62282185
  0
VERTEX
  8
0
 62
7
 10
20.27380622
 20
10.65508742
  0
VERTEX
  8
0
 62
7
 10
20.27713426
 20
10.68687733
  0
VERTEX
  8
0
 62
7
 10
20.28711840
 20
10.73666303
  0
VERTEX
  8
0
 62
7
 10
20.30375864
 20
10.78454609
  0
VERTEX
  8
0
 62
7
 10
20.27935296
 20
10.81308566
  0
VERTEX
  8
0
 62
7
 10
20.26065251
 20
10.84923578
  0
VERTEX
  8
0
 62
7
 10
20.25296631
 20
10.88534627
  0
VERTEX
  8
0
 62
7
 10
20.25431337
 20
10.92217024
  0
VERTEX
  8
0
 62
7
 10
20.26421827
 20
10.95804290
  0
VERTEX
  8
0
 62
7
 10
20.28220557
 20
10.99129942
  0
VERTEX
  8
0
 62
7
 10
20.24462638
 20
10.99127960
  0
VERTEX
  8
0
 62
7
 10
20.20883007
 20
10.99875142
  0
VERTEX
  8
0
 62
7
 10
20.17612409
 20
11.01359596
  0
VERTEX
  8
0
 62
7
 10
20.14781588
 20
11.03569431
  0
VERTEX
  8
0
 62
7
 10
20.12816456
 20
11.05594948
  0
VERTEX
  8
0
 62
7
 10
20.11326759
 20
11.07977209
  0
VERTEX
  8
0
 62
7
 10
20.10360040
 20
11.10597301
  0
VERTEX
  8
0
 62
7
 10
20.09963844
 20
11.13336307
  0
VERTEX
  8
0
 62
7
 10
20.07630250
 20
11.11810232
  0
VERTEX
  8
0
 62
7
 10
20.05082709
 20
11.10831167
  0
VERTEX
  8
0
 62
7
 10
20.02440081
 20
11.10375326
  0
VERTEX
  8
0
 62
7
 10
19.99821226
 20
11.10418928
  0
VERTEX
  8
0
 62
7
 10
19.97243970
 20
11.11166110
  0
VERTEX
  8
0
 62
7
 10
19.94892547
 20
11.12400843
  0
VERTEX
  8
0
 62
7
 10
19.92850156
 20
11.14039886
  0
VERTEX
  8
0
 62
7
 10
19.91200000
 20
11.16000000
  0
SEQEND
  0
POLYLINE
  8
0
 62
7
 66
1
 70
1
  0
VERTEX
  8
0
 62
7
 10
20.02300000
 20
10.98900000
  0
VERTEX
  8
0
 62
7
 10
20.02923761
 20
10.96041088
  0
VERTEX
  8
0
 62
7
 10
20.03843184
 20
10.93628107
  0
VERTEX
  8
0
 62
7
 10
20.05056782
 20
10.91631328
  0
VERTEX
  8
0
 62
7
 10
20.06563069
 20
10.90021022
  0
VERTEX
  8
0
 62
7
 10
20.08360561
 20
10.88767461
  0
VERTEX
  8
0
 62
7
 10
20.10447771
 20
10.87840916
  0
VERTEX
  8
0
 62
7
 10
20.12823214
 20
10.87211658
  0
VERTEX
  8
0
 62
7
 10
20.15485404
 20
10.86849959
  0
VERTEX
  8
0
 62
7
 10
20.13805533
 20
10.84965158
  0
VERTEX
  8
0
 62
7
 10
20.12601097
 20
10.82806853
  0
VERTEX
  8
0
 62
7
 10
20.11919640
 20
10.80482067
  0
VERTEX
  8
0
 62
7
 10
20.11808705
 20
10.78097824
  0
VERTEX
  8
0
 62
7
 10
20.12307912
 20
10.75895916
  0
VERTEX
  8
0
 62
7
 10
20.13330098
 20
10.73896165
  0
VERTEX
  8
0
 62
7
 10
20.14732632
 20
10.72158025
  0
VERTEX
  8
0
 62
7
 10
20.16372883
 20
10.70740956
  0
VERTEX
  8
0
 62
7
 10
20.14429542
 20
10.69629102
  0
VERTEX
  8
0
 62
7
 10
20.12807119
 20
10.68219961
  0
VERTEX
  8
0
 62
7
 10
20.11541272
 20
10.66549207
  0
VERTEX
  8
0
 62
7
 10
20.10667660
 20
10.64652515
  0
VERTEX
  8
0
 62
7
 10
20.10160529
 20
10.62097827
  0
VERTEX
  8
0
 62
7
 10
20.10319008
 20
10.59626379
  0
VERTEX
  8
0
 62
7
 10
20.11095552
 20
10.57321412
  0
VERTEX
  8
0
 62
7
 10
20.12442618
 20
10.55266167
  0
VERTEX
  8
0
 62
7
 10
20.05960851
 20
10.52475631
  0
VERTEX
  8
0
 62
7
 10
19.99764345
 20
10.48924040
  0
VERTEX
  8
0
 62
7
 10
19.91650251
 20
10.42201385
  0
VERTEX
  8
0
 62
7
 10
19.89118558
 20
10.44389419
  0
VERTEX
  8
0
 62
7
 10
19.86325376
 20
10.46196925
  0
VERTEX
  8
0
 62
7
 10
19.83342020
 20
10.47623904
  0
VERTEX
  8
0
 62
7
 10
19.80239805
 20
10.48670355
  0
VERTEX
  8
0
 62
7
 10
19.77288144
 20
10.49286730
  0
VERTEX
  8
0
 62
7
 10
19.74312712
 20
10.49605818
  0
VERTEX
  8
0
 62
7
 10
19.71289736
 20
10.49615728
  0
VERTEX
  8
0
 62
7
 10
19.68195445
 20
10.49304567
  0
VERTEX
  8
0
 62
7
 10
19.69108677
 20
10.51930604
  0
VERTEX
  8
0
 62
7
 10
19.69415729
 20
10.54616099
  0
VERTEX
  8
0
 62
7
 10
19.69176031
 20
10.57277810
  0
VERTEX
  8
0
 62
7
 10
19.68449011
 20
10.59832498
  0
VERTEX
  8
0
 62
7
 10
19.66816683
 20
10.62924285
  0
VERTEX
  8
0
 62
7
 10
19.64518746
 20
10.65540412
  0
VERTEX
  8
0
 62
7
 10
19.65566685
 20
10.67750247
  0
VERTEX
  8
0
 62
7
 10
19.66246161
 20
10.69995757
  0
VERTEX
  8
0
 62
7
 10
19.66569061
 20
10.72265049
  0
VERTEX
  8
0
 62
7
 10
19.66547270
 20
10.74546233
  0
VERTEX
  8
0
 62
7
 10
19.66337286
 20
10.77291184
  0
VERTEX
  8
0
 62
7
 10
19.65723182
 20
10.79952896
  0
VERTEX
  8
0
 62
7
 10
19.64728730
 20
10.82448126
  0
VERTEX
  8
0
 62
7
 10
19.63377702
 20
10.84693636
  0
VERTEX
  8
0
 62
7
 10
19.66456145
 20
10.85795580
  0
VERTEX
  8
0
 62
7
 10
19.69368186
 20
10.87230486
  0
VERTEX
  8
0
 62
7
 10
19.72042509
 20
10.89045920
  0
VERTEX
  8
0
 62
7
 10
19.74407799
 20
10.91289448
  0
VERTEX
  8
0
 62
7
 10
19.77228715
 20
10.94587354
  0
VERTEX
  8
0
 62
7
 10
19.79479108
 20
10.98265787
  0
VERTEX
  8
0
 62
7
 10
19.86452159
 20
10.96870519
  0
VERTEX
  8
0
 62
7
 10
19.90762772
 20
10.99407370
  0
VERTEX
  8
0
 62
7
 10
19.91446210
 20
10.98085433
  0
VERTEX
  8
0
 62
7
 10
19.92616969
 20
10.97013217
  0
VERTEX
  8
0
 62
7
 10
19.94096761
 20
10.96250180
  0
VERTEX
  8
0
 62
7
 10
19.95707298
 20
10.95855779
  0
VERTEX
  8
0
 62
7
 10
19.97664506
 20
10.95885508
  0
VERTEX
  8
0
 62
7
 10
19.99479084
 20
10.96379005
  0
VERTEX
  8
0
 62
7
 10
20.01055944
 20
10.97371944
  0
VERTEX
  8
0
 62
7
 10
20.02300000
 20
10.98900000
  0
SEQEND
  0
POLYLINE
  8
0
 62
7
 66
1
 70
1
  0
VERTEX
  8
0
 62
7
 10
20.16900000
 20
10.32100000
  0
VERTEX
  8
0
 62
7
 10
20.19912500
 20
10.27287500
  0
VERTEX
  8
0
 62
7
 10
20.23300000
 20
10.22700000
  0
VERTEX
  8
0
 62
7
 10
20.25262500
 20
10.20053125
  0
VERTEX
  8
0
 62
7
 10
20.27450000
 20
10.17425000
  0
VERTEX
  8
0
 62
7
 10
20.29937500
 20
10.14909375
  0
VERTEX
  8
0
 62
7
 10
20.32800000
 20
10.12600000
  0
VERTEX
  8
0
 62
7
 10
20.35417188
 20
10.10570313
  0
VERTEX
  8
0
 62
7
 10
20.38212500
 20
10.08662500
  0
VERTEX
  8
0
 62
7
 10
20.41251563
 20
10.07073438
  0
VERTEX
  8
0
 62
7
 10
20.44600000
 20
10.06000000
  0
VERTEX
  8
0
 62
7
 10
20.46945703
 20
10.05578320
  0
VERTEX
  8
0
 62
7
 10
20.49321875
 20
10.05364063
  0
VERTEX
  8
0
 62
7
 10
20.51712109
 20
10.05358398
  0
VERTEX
  8
0
 62
7
 10
20.54100000
 20
10.05562500
  0
VERTEX
  8
0
 62
7
 10
20.56469141
 20
10.05977539
  0
VERTEX
  8
0
 62
7
 10
20.58803125
 20
10.06604688
  0
VERTEX
  8
0
 62
7
 10
20.61085547
 20
10.07445117
  0
VERTEX
  8
0
 62
7
 10
20.63300000
 20
10.08500000
  0
VERTEX
  8
0
 62
7
 10
20.66550000
 20
10.10742188
  0
VERTEX
  8
0
 62
7
 10
20.69350000
 20
10.13462500
  0
VERTEX
  8
0
 62
7
 10
20.71850000
 20
10.16501563
  0
VERTEX
  8
0
 62
7
 10
20.74200000
 20
10.19700000
  0
VERTEX
  8
0
 62
7
 10
20.76796875
 20
10.22293750
  0
VERTEX
  8
0
 62
7
 10
20.79900000
 20
10.24475000
  0
VERTEX
  8
0
 62
7
 10
20.83453125
 20
10.26393750
  0
VERTEX
  8
0
 62
7
 10
20.87400000
 20
10.28200000
  0
VERTEX
  8
0
 62
7
 10
20.85610742
 20
10.29782813
  0
VERTEX
  8
0
 62
7
 10
20.83904688
 20
10.32012500
  0
VERTEX
  8
0
 62
7
 10
20.82374414
 20
10.34710938
  0
VERTEX
  8
0
 62
7
 10
20.81112500
 20
10.37700000
  0
VERTEX
  8
0
 62
7
 10
20.80211523
 20
10.40801563
  0
VERTEX
  8
0
 62
7
 10
20.79764063
 20
10.43837500
  0
VERTEX
  8
0
 62
7
 10
20.79862695
 20
10.46629688
  0
VERTEX
  8
0
 62
7
 10
20.80600000
 20
10.49000000
  0
VERTEX
  8
0
 62
7
 10
20.82634375
 20
10.51628125
  0
VERTEX
  8
0
 62
7
 10
20.85100000
 20
10.53900000
  0
VERTEX
  8
0
 62
7
 10
20.87940625
 20
10.55721875
  0
VERTEX
  8
0
 62
7
 10
20.91100000
 20
10.57000000
  0
VERTEX
  8
0
 62
7
 10
20.87393750
 20
10.59446875
  0
VERTEX
  8
0
 62
7
 10
20.84250000
 20
10.62550000
  0
VERTEX
  8
0
 62
7
 10
20.81706250
 20
10.66253125
  0
VERTEX
  8
0
 62
7
 10
20.79800000
 20
10.70500000
  0
VERTEX
  8
0
 62
7
 10
20.79084375
 20
10.74157813
  0
VERTEX
  8
0
 62
7
 10
20.79025000
 20
10.78012500
  0
VERTEX
  8
0
 62
7
 10
20.79603125
 20
10.81960938
  0
VERTEX
  8
0
 62
7
 10
20.80800000
 20
10.85900000
  0
VERTEX
  8
0
 62
7
 10
20.82835938
 20
10.89496875
  0
VERTEX
  8
0
 62
7
 10
20.85462500
 20
10.92850000
  0
VERTEX
  8
0
 62
7
 10
20.88632813
 20
10.95828125
  0
VERTEX
  8
0
 62
7
 10
20.92300000
 20
10.98300000
  0
VERTEX
  8
0
 62
7
 10
20.90150977
 20
10.98734180
  0
VERTEX
  8
0
 62
7
 10
20.88195313
 20
10.99485938
  0
VERTEX
  8
0
 62
7
 10
20.86420117
 20
11.00516602
  0
VERTEX
  8
0
 62
7
 10
20.84812500
 20
11.01787500
  0
VERTEX
  8
0
 62
7
 10
20.83359570
 20
11.03259961
  0
VERTEX
  8
0
 62
7
 10
20.82048438
 20
11.04895313
  0
VERTEX
  8
0
 62
7
 10
20.80866211
 20
11.06654883
  0
VERTEX
  8
0
 62
7
 10
20.79800000
 20
11.08500000
  0
VERTEX
  8
0
 62
7
 10
20.78000000
 20
11.12462500
  0
VERTEX
  8
0
 62
7
 10
20.76500000
 20
11.16800000
  0
VERTEX
  8
0
 62
7
 10
20.75617188
 20
11.20112500
  0
VERTEX
  8
0
 62
7
 10
20.74537500
 20
11.23275000
  0
VERTEX
  8
0
 62
7
 10
20.73139063
 20
11.26250000
  0
VERTEX
  8
0
 62
7
 10
20.71300000
 20
11.29000000
  0
VERTEX
  8
0
 62
7
 10
20.68412500
 20
11.31843750
  0
VERTEX
  8
0
 62
7
 10
20.65075000
 20
11.34200000
  0
VERTEX
  8
0
 62
7
 10
20.61400000
 20
11.36031250
  0
VERTEX
  8
0
 62
7
 10
20.57500000
 20
11.37300000
  0
VERTEX
  8
0
 62
7
 10
20.55050391
 20
11.37709180
  0
VERTEX
  8
0
 62
7
 10
20.52584375
 20
11.37892188
  0
VERTEX
  8
0
 62
7
 10
20.50113672
 20
11.37857227
  0
VERTEX
  8
0
 62
7
 10
20.47650000
 20
11.37612500
  0
VERTEX
  8
0
 62
7
 10
20.45205078
 20
11.37166211
  0
VERTEX
  8
0
 62
7
 10
20.42790625
 20
11.36526563
  0
VERTEX
  8
0
 62
7
 10
20.40418359
 20
11.35701758
  0
VERTEX
  8
0
 62
7
 10
20.38100000
 20
11.34700000
  0
VERTEX
  8
0
 62
7
 10
20.34276563
 20
11.32592188
  0
VERTEX
  8
0
 62
7
 10
20.30837500
 20
11.29987500
  0
VERTEX
  8
0
 62
7
 10
20.27679688
 20
11.27064063
  0
VERTEX
  8
0
 62
7
 10
20.24700000
 20
11.24000000
  0
VERTEX
  8
0
 62
7
 10
20.20075000
 20
11.18225000
  0
VERTEX
  8
0
 62
7
 10
20.16200000
 20
11.12000000
  0
VERTEX
  8
0
 62
7
 10
20.17162500
 20
11.09925000
  0
VERTEX
  8
0
 62
7
 10
20.18800000
 20
11.08000000
  0
VERTEX
  8
0
 62
7
 10
20.20465625
 20
11.06729688
  0
VERTEX
  8
0
 62
7
 10
20.22300000
 20
11.05787500
  0
VERTEX
  8
0
 62
7
 10
20.24284375
 20
11.05201563
  0
VERTEX
  8
0
 62
7
 10
20.26400000
 20
11.05000000
  0
VERTEX
  8
0
 62
7
 10
20.27600000
 20
11.05100000
  0
VERTEX
  8
0
 62
7
 10
20.29329297
 20
11.04868359
  0
VERTEX
  8
0
 62
7
 10
20.30878125
 20
11.04221875
  0
VERTEX
  8
0
 62
7
 10
20.32187891
 20
11.03233203
  0
VERTEX
  8
0
 62
7
 10
20.33200000
 20
11.01975000
  0
VERTEX
  8
0
 62
7
 10
20.33855859
 20
11.00519922
  0
VERTEX
  8
0
 62
7
 10
20.34096875
 20
10.98940625
  0
VERTEX
  8
0
 62
7
 10
20.33864453
 20
10.97309766
  0
VERTEX
  8
0
 62
7
 10
20.33100000
 20
10.95700000
  0
VERTEX
  8
0
 62
7
 10
20.32296875
 20
10.94300000
  0
VERTEX
  8
0
 62
7
 10
20.31700000
 20
10.92825000
  0
VERTEX
  8
0
 62
7
 10
20.31328125
 20
10.91312500
  0
VERTEX
  8
0
 62
7
 10
20.31200000
 20
10.89800000
  0
VERTEX
  8
0
 62
7
 10
20.31337500
 20
10.88325000
  0
VERTEX
  8
0
 62
7
 10
20.31700000
 20
10.87000000
  0
VERTEX
  8
0
 62
7
 10
20.32875000
 20
10.84687500
  0
VERTEX
  8
0
 62
7
 10
20.34500000
 20
10.82900000
  0
VERTEX
  8
0
 62
7
 10
20.35689063
 20
10.81501563
  0
VERTEX
  8
0
 62
7
 10
20.36287500
 20
10.79812500
  0
VERTEX
  8
0
 62
7
 10
20.36342188
 20
10.77992188
  0
VERTEX
  8
0
 62
7
 10
20.35900000
 20
10.76200000
  0
VERTEX
  8
0
 62
7
 10
20.34500000
 20
10.72050000
  0
VERTEX
  8
0
 62
7
 10
20.33700000
 20
10.67900000
  0
VERTEX
  8
0
 62
7
 10
20.33300000
 20
10.63300000
  0
VERTEX
  8
0
 62
7
 10
20.33462500
 20
10.60125000
  0
VERTEX
  8
0
 62
7
 10
20.34000000
 20
10.57100000
  0
VERTEX
  8
0
 62
7
 10
20.34117188
 20
10.55098438
  0
VERTEX
  8
0
 62
7
 10
20.33512500
 20
10.53237500
  0
VERTEX
  8
0
 62
7
 10
20.32326563
 20
10.51657813
  0
VERTEX
  8
0
 62
7
 10
20.30700000
 20
10.50500000
  0
VERTEX
  8
0
 62
7
 10
20.29007813
 20
10.49521875
  0
VERTEX
  8
0
 62
7
 10
20.27512500
 20
10.48375000
  0
VERTEX
  8
0
 62
7
 10
20.26185938
 20
10.47040625
  0
VERTEX
  8
0
 62
7
 10
20.25000000
 20
10.45500000
  0
VERTEX
  8
0
 62
7
 10
20.23931250
 20
10.43787500
  0
VERTEX
  8
0
 62
7
 10
20.23125000
 20
10.41850000
  0
VERTEX
  8
0
 62
7
 10
20.22581250
 20
10.39762500
  0
VERTEX
  8
0
 62
7
 10
20.22300000
 20
10.37600000
  0
VERTEX
  8
0
 62
7
 10
20.21765625
 20
10.35531250
  0
VERTEX
  8
0
 62
7
 10
20.20575000
 20
10.33875000
  0
VERTEX
  8
0
 62
7
 10
20.18896875
 20
10.32706250
  0
VERTEX
  8
0
 62
7
 10
20.16900000
 20
10.32100000
  0
SEQEND
  0
POLYLINE
  8
0
 62
7
 66
1
 70
1
  0
VERTEX
  8
0
 62
7
 10
19.66400000
 20
11.16400000
  0
VERTEX
  8
0
 62
7
 10
19.67235742
 20
11.17634570
  0
VERTEX
  8
0
 62
7
 10
19.68342188
 20
11.18626563
  0
VERTEX
  8
0
 62
7
 10
19.69643164
 20
11.19358398
  0
VERTEX
  8
0
 62
7
 10
19.71062500
 20
11.19812500
  0
VERTEX
  8
0
 62
7
 10
19.72524023
 20
11.19971289
  0
VERTEX
  8
0
 62
7
 10
19.73951563
 20
11.19817188
  0
VERTEX
  8
0
 62
7
 10
19.75268945
 20
11.19332617
  0
VERTEX
  8
0
 62
7
 10
19.76400000
 20
11.18500000
  0
VERTEX
  8
0
 62
7
 10
19.77563867
 20
11.17583398
  0
VERTEX
  8
0
 62
7
 10
19.78848438
 20
11.16998438
  0
VERTEX
  8
0
 62
7
 10
19.80205664
 20
11.16729883
  0
VERTEX
  8
0
 62
7
 10
19.81587500
 20
11.16762500
  0
VERTEX
  8
0
 62
7
 10
19.82945898
 20
11.17081055
  0
VERTEX
  8
0
 62
7
 10
19.84232813
 20
11.17670313
  0
VERTEX
  8
0
 62
7
 10
19.85400195
 20
11.18515039
  0
VERTEX
  8
0
 62
7
 10
19.86400000
 20
11.19600000
  0
VERTEX
  8
0
 62
7
 10
19.87444531
 20
11.20678320
  0
VERTEX
  8
0
 62
7
 10
19.88662500
 20
11.21439063
  0
VERTEX
  8
0
 62
7
 10
19.89992969
 20
11.21883398
  0
VERTEX
  8
0
 62
7
 10
19.91375000
 20
11.22012500
  0
VERTEX
  8
0
 62
7
 10
19.92747656
 20
11.21827539
  0
VERTEX
  8
0
 62
7
 10
19.94050000
 20
11.21329688
  0
VERTEX
  8
0
 62
7
 10
19.95221094
 20
11.20520117
  0
VERTEX
  8
0
 62
7
 10
19.96200000
 20
11.19400000
  0
VERTEX
  8
0
 62
7
 10
19.97128125
 20
11.18284375
  0
VERTEX
  8
0
 62
7
 10
19.98225000
 20
11.17375000
  0
VERTEX
  8
0
 62
7
 10
19.99434375
 20
11.16728125
  0
VERTEX
  8
0
 62
7
 10
20.00700000
 20
11.16400000
  0
VERTEX
  8
0
 62
7
 10
20.01500000
 20
11.16300000
  0
VERTEX
  8
0
 62
7
 10
20.02710938
 20
11.16410938
  0
VERTEX
  8
0
 62
7
 10
20.03912500
 20
11.16737500
  0
VERTEX
  8
0
 62
7
 10
20.05057813
 20
11.17270313
  0
VERTEX
  8
0
 62
7
 10
20.06100000
 20
11.18000000
  0
VERTEX
  8
0
 62
7
 10
20.07931250
 20
11.19059375
  0
VERTEX
  8
0
 62
7
 10
20.09875000
 20
11.19425000
  0
VERTEX
  8
0
 62
7
 10
20.11781250
 20
11.19153125
  0
VERTEX
  8
0
 62
7
 10
20.13500000
 20
11.18300000
  0
VERTEX
  8
0
 62
7
 10
20.18800000
 20
11.23800000
  0
VERTEX
  8
0
 62
7
 10
20.22421875
 20
11.27581250
  0
VERTEX
  8
0
 62
7
 10
20.25950000
 20
11.31475000
  0
VERTEX
  8
0
 62
7
 10
20.29178125
 20
11.35556250
  0
VERTEX
  8
0
 62
7
 10
20.31900000
 20
11.39900000
  0
VERTEX
  8
0
 62
7
 10
20.33389844
 20
11.42847852
  0
VERTEX
  8
0
 62
7
 10
20.34762500
 20
11.45839063
  0
VERTEX
  8
0
 62
7
 10
20.35985156
 20
11.48870117
  0
VERTEX
  8
0
 62
7
 10
20.37025000
 20
11.51937500
  0
VERTEX
  8
0
 62
7
 10
20.37849219
 20
11.55037695
  0
VERTEX
  8
0
 62
7
 10
20.38425000
 20
11.58167188
  0
VERTEX
  8
0
 62
7
 10
20.38719531
 20
11.61322461
  0
VERTEX
  8
0
 62
7
 10
20.38700000
 20
11.64500000
  0
VERTEX
  8
0
 62
7
 10
20.38451563
 20
11.67216992
  0
VERTEX
  8
0
 62
7
 10
20.38006250
 20
11.69885938
  0
VERTEX
  8
0
 62
7
 10
20.37364063
 20
11.72496289
  0
VERTEX
  8
0
 62
7
 10
20.36525000
 20
11.75037500
  0
VERTEX
  8
0
 62
7
 10
20.35489063
 20
11.77499023
  0
VERTEX
  8
0
 62
7
 10
20.34256250
 20
11.79870313
  0
VERTEX
  8
0
 62
7
 10
20.32826563
 20
11.82140820
  0
VERTEX
  8
0
 62
7
 10
20.31200000
 20
11.84300000
  0
VERTEX
  8
0
 62
7
 10
20.29432813
 20
11.82603125
  0
VERTEX
  8
0
 62
7
 10
20.27262500
 20
11.81375000
  0
VERTEX
  8
0
 62
7
 10
20.24885938
 20
11.80559375
  0
VERTEX
  8
0
 62
7
 10
20.22500000
 20
11.80100000
  0
VERTEX
  8
0
 62
7
 10
20.19153125
 20
11.80034375
  0
VERTEX
  8
0
 62
7
 10
20.16200000
 20
11.80550000
  0
VERTEX
  8
0
 62
7
 10
20.13471875
 20
11.81590625
  0
VERTEX
  8
0
 62
7
 10
20.10800000
 20
11.83100000
  0
VERTEX
  8
0
 62
7
 10
20.07742188
 20
11.85735938
  0
VERTEX
  8
0
 62
7
 10
20.05162500
 20
11.88887500
  0
VERTEX
  8
0
 62
7
 10
20.03051563
 20
11.92395313
  0
VERTEX
  8
0
 62
7
 10
20.01400000
 20
11.96100000
  0
VERTEX
  8
0
 62
7
 10
20.00379102
 20
11.94799609
  0
VERTEX
  8
0
 62
7
 10
19.99251563
 20
11.93421875
  0
VERTEX
  8
0
 62
7
 10
19.97995117
 20
11.92039453
  0
VERTEX
  8
0
 62
7
 10
19.96587500
 20
11.90725000
  0
VERTEX
  8
0
 62
7
 10
19.95006445
 20
11.89551172
  0
VERTEX
  8
0
 62
7
 10
19.93229688
 20
11.88590625
  0
VERTEX
  8
0
 62
7
 10
19.91234961
 20
11.87916016
  0
VERTEX
  8
0
 62
7
 10
19.89000000
 20
11.87600000
  0
VERTEX
  8
0
 62
7
 10
19.86818164
 20
11.87715039
  0
VERTEX
  8
0
 62
7
 10
19.84839063
 20
11.88295313
  0
VERTEX
  8
0
 62
7
 10
19.83049805
 20
11.89243555
  0
VERTEX
  8
0
 62
7
 10
19.81437500
 20
11.90462500
  0
VERTEX
  8
0
 62
7
 10
19.79989258
 20
11.91854883
  0
VERTEX
  8
0
 62
7
 10
19.78692188
 20
11.93323438
  0
VERTEX
  8
0
 62
7
 10
19.77533398
 20
11.94770898
  0
VERTEX
  8
0
 62
7
 10
19.76500000
 20
11.96100000
  0
VERTEX
  8
0
 62
7
 10
19.74806250
 20
11.92395313
  0
VERTEX
  8
0
 62
7
 10
19.72700000
 20
11.88887500
  0
VERTEX
  8
0
 62
7
 10
19.70143750
 20
11.85735938
  0
VERTEX
  8
0
 62
7
 10
19.67100000
 20
11.83100000
  0
VERTEX
  8
0
 62
7
 10
19.64428125
 20
11.81590625
  0
VERTEX
  8
0
 62
7
 10
19.61700000
 20
11.80550000
  0
VERTEX
  8
0
 62
7
 10
19.58746875
 20
11.80034375
  0
VERTEX
  8
0
 62
7
 10
19.55400000
 20
11.80100000
  0
VERTEX
  8
0
 62
7
 10
19.52971875
 20
11.80559375
  0
VERTEX
  8
0
 62
7
 10
19.50600000
 20
11.81375000
  0
VERTEX
  8
0
 62
7
 10
19.48453125
 20
11.82603125
  0
VERTEX
  8
0
 62
7
 10
19.46700000
 20
11.84300000
  0
VERTEX
  8
0
 62
7
 10
19.45073438
 20
11.82140820
  0
VERTEX
  8
0
 62
7
 10
19.43643750
 20
11.79870313
  0
VERTEX
  8
0
 62
7
 10
19.42410938
 20
11.77499023
  0
VERTEX
  8
0
 62
7
 10
19.41375000
 20
11.75037500
  0
VERTEX
  8
0
 62
7
 10
19.40535938
 20
11.72496289
  0
VERTEX
  8
0
 62
7
 10
19.39893750
 20
11.69885938
  0
VERTEX
  8
0
 62
7
 10
19.39448438
 20
11.67216992
  0
VERTEX
  8
0
 62
7
 10
19.39200000
 20
11.64500000
  0
VERTEX
  8
0
 62
7
 10
19.39176367
 20
11.61322461
  0
VERTEX
  8
0
 62
7
 10
19.39460938
 20
11.58167188
  0
VERTEX
  8
0
 62
7
 10
19.40024414
 20
11.55037695
  0
VERTEX
  8
0
 62
7
 10
19.40837500
 20
11.51937500
  0
VERTEX
  8
0
 62
7
 10
19.41870898
 20
11.48870117
  0
VERTEX
  8
0
 62
7
 10
19.43095313
 20
11.45839063
  0
VERTEX
  8
0
 62
7
 10
19.44481445
 20
11.42847852
  0
VERTEX
  8
0
 62
7
 10
19.46000000
 20
11.39900000
  0
VERTEX
  8
0
 62
7
 10
19.48721875
 20
11.35556250
  0
VERTEX
  8
0
 62
7
 10
19.51950000
 20
11.31475000
  0
VERTEX
  8
0
 62
7
 10
19.55478125
 20
11.27581250
  0
VERTEX
  8
0
 62
7
 10
19.59100000
 20
11.23800000
  0
VERTEX
  8
0
 62
7
 10
19.66400000
 20
11.16400000
  0
SEQEND
  0
POLYLINE
  8
0
 62
7
 66
1
 70
1
  0
VERTEX
  8
0
 62
7
 10
18.95500000
 20
11.18400000
  0
VERTEX
  8
0
 62
7
 10
18.96182813
 20
11.20920313
  0
VERTEX
  8
0
 62
7
 10
18.97062500
 20
11.23712500
  0
VERTEX
  8
0
 62
7
 10
18.98185938
 20
11.26598438
  0
VERTEX
  8
0
 62
7
 10
18.99600000
 20
11.29400000
  0
VERTEX
  8
0
 62
7
 10
18.93300000
 20
11.36200000
  0
VERTEX
  8
0
 62
7
 10
18.89573828
 20
11.39714063
  0
VERTEX
  8
0
 62
7
 10
18.85671875
 20
11.43050000
  0
VERTEX
  8
0
 62
7
 10
18.81596484
 20
11.46198438
  0
VERTEX
  8
0
 62
7
 10
18.77350000
 20
11.49150000
  0
VERTEX
  8
0
 62
7
 10
18.72934766
 20
11.51895313
  0
VERTEX
  8
0
 62
7
 10
18.68353125
 20
11.54425000
  0
VERTEX
  8
0
 62
7
 10
18.63607422
 20
11.56729688
  0
VERTEX
  8
0
 62
7
 10
18.58700000
 20
11.58800000
  0
VERTEX
  8
0
 62
7
 10
18.52500000
 20
11.51900000
  0
VERTEX
  8
0
 62
7
 10
18.48376563
 20
11.56192188
  0
VERTEX
  8
0
 62
7
 10
18.43812500
 20
11.59912500
  0
VERTEX
  8
0
 62
7
 10
18.38817188
 20
11.63051563
  0
VERTEX
  8
0
 62
7
 10
18.33400000
 20
11.65600000
  0
VERTEX
  8
0
 62
7
 10
18.28342773
 20
11.67301758
  0
VERTEX
  8
0
 62
7
 10
18.23092188
 20
11.68507813
  0
VERTEX
  8
0
 62
7
 10
18.17679883
 20
11.69219336
  0
VERTEX
  8
0
 62
7
 10
18.12137500
 20
11.69437500
  0
VERTEX
  8
0
 62
7
 10
18.06496680
 20
11.69163477
  0
VERTEX
  8
0
 62
7
 10
18.00789063
 20
11.68398438
  0
VERTEX
  8
0
 62
7
 10
17.95046289
 20
11.67143555
  0
VERTEX
  8
0
 62
7
 10
17.89300000
 20
11.65400000
  0
VERTEX
  8
0
 62
7
 10
17.92065625
 20
11.63532813
  0
VERTEX
  8
0
 62
7
 10
17.94550000
 20
11.61412500
  0
VERTEX
  8
0
 62
7
 10
17.96809375
 20
11.59085938
  0
VERTEX
  8
0
 62
7
 10
17.98900000
 20
11.56600000
  0
VERTEX
  8
0
 62
7
 10
18.01600000
 20
11.51900000
  0
VERTEX
  8
0
 62
7
 10
17.91500000
 20
11.47000000
  0
VERTEX
  8
0
 62
7
 10
17.92982813
 20
11.43135938
  0
VERTEX
  8
0
 62
7
 10
17.94887500
 20
11.39637500
  0
VERTEX
  8
0
 62
7
 10
17.97223438
 20
11.36495313
  0
VERTEX
  8
0
 62
7
 10
18.00000000
 20
11.33700000
  0
VERTEX
  8
0
 62
7
 10
18.02945313
 20
11.31498438
  0
VERTEX
  8
0
 62
7
 10
18.06162500
 20
11.29737500
  0
VERTEX
  8
0
 62
7
 10
18.09773438
 20
11.28257813
  0
VERTEX
  8
0
 62
7
 10
18.13900000
 20
11.26900000
  0
VERTEX
  8
0
 62
7
 10
18.15757813
 20
11.26248438
  0
VERTEX
  8
0
 62
7
 10
18.17362500
 20
11.25512500
  0
VERTEX
  8
0
 62
7
 10
18.18835938
 20
11.24495313
  0
VERTEX
  8
0
 62
7
 10
18.20300000
 20
11.23000000
  0
VERTEX
  8
0
 62
7
 10
18.21064063
 20
11.21823438
  0
VERTEX
  8
0
 62
7
 10
18.21312500
 20
11.20637500
  0
VERTEX
  8
0
 62
7
 10
18.21129688
 20
11.19357813
  0
VERTEX
  8
0
 62
7
 10
18.20600000
 20
11.17900000
  0
VERTEX
  8
0
 62
7
 10
18.19788477
 20
11.16610742
  0
VERTEX
  8
0
 62
7
 10
18.18739063
 20
11.15835938
  0
VERTEX
  8
0
 62
7
 10
18.17504492
 20
11.15490039
  0
VERTEX
  8
0
 62
7
 10
18.16137500
 20
11.15487500
  0
VERTEX
  8
0
 62
7
 10
18.14690820
 20
11.15742773
  0
VERTEX
  8
0
 62
7
 10
18.13217188
 20
11.16170313
  0
VERTEX
  8
0
 62
7
 10
18.11769336
 20
11.16684570
  0
VERTEX
  8
0
 62
7
 10
18.10400000
 20
11.17200000
  0
VERTEX
  8
0
 62
7
 10
18.06642188
 20
11.18965625
  0
VERTEX
  8
0
 62
7
 10
18.03362500
 20
11.21125000
  0
VERTEX
  8
0
 62
7
 10
18.00176563
 20
11.23696875
  0
VERTEX
  8
0
 62
7
 10
17.96700000
 20
11.26700000
  0
VERTEX
  8
0
 62
7
 10
17.81800000
 20
11.41000000
  0
VERTEX
  8
0
 62
7
 10
17.77554688
 20
11.44504688
  0
VERTEX
  8
0
 62
7
 10
17.73262500
 20
11.47962500
  0
VERTEX
  8
0
 62
7
 10
17.68764063
 20
11.51139063
  0
VERTEX
  8
0
 62
7
 10
17.63900000
 20
11.53800000
  0
VERTEX
  8
0
 62
7
 10
17.60414453
 20
11.55271094
  0
VERTEX
  8
0
 62
7
 10
17.56790625
 20
11.56531250
  0
VERTEX
  8
0
 62
7
 10
17.53040234
 20
11.57575781
  0
VERTEX
  8
0
 62
7
 10
17.49175000
 20
11.58400000
  0
VERTEX
  8
0
 62
7
 10
17.45206641
 20
11.58999219
  0
VERTEX
  8
0
 62
7
 10
17.41146875
 20
11.59368750
  0
VERTEX
  8
0
 62
7
 10
17.37007422
 20
11.59503906
  0
VERTEX
  8
0
 62
7
 10
17.32800000
 20
11.59400000
  0
VERTEX
  8
0
 62
7
 10
17.28100000
 20
11.49500000
  0
VERTEX
  8
0
 62
7
 10
17.23384375
 20
11.50795313
  0
VERTEX
  8
0
 62
7
 10
17.18575000
 20
11.51837500
  0
VERTEX
  8
0
 62
7
 10
17.13728125
 20
11.52635938
  0
VERTEX
  8
0
 62
7
 10
17.08900000
 20
11.53200000
  0
VERTEX
  8
0
 62
7
 10
17.03146875
 20
11.53523438
  0
VERTEX
  8
0
 62
7
 10
16.97300000
 20
11.53612500
  0
VERTEX
  8
0
 62
7
 10
16.91378125
 20
11.53270313
  0
VERTEX
  8
0
 62
7
 10
16.85400000
 20
11.52300000
  0
VERTEX
  8
0
 62
7
 10
16.78668750
 20
11.50432813
  0
VERTEX
  8
0
 62
7
 10
16.72125000
 20
11.47862500
  0
VERTEX
  8
0
 62
7
 10
16.65768750
 20
11.44635938
  0
VERTEX
  8
0
 62
7
 10
16.59600000
 20
11.40800000
  0
VERTEX
  8
0
 62
7
 10
16.63309375
 20
11.40103125
  0
VERTEX
  8
0
 62
7
 10
16.66925000
 20
11.39050000
  0
VERTEX
  8
0
 62
7
 10
16.70428125
 20
11.37621875
  0
VERTEX
  8
0
 62
7
 10
16.73800000
 20
11.35800000
  0
VERTEX
  8
0
 62
7
 10
16.76418750
 20
11.33837500
  0
VERTEX
  8
0
 62
7
 10
16.78850000
 20
11.31575000
  0
VERTEX
  8
0
 62
7
 10
16.81056250
 20
11.29050000
  0
VERTEX
  8
0
 62
7
 10
16.83000000
 20
11.26300000
  0
VERTEX
  8
0
 62
7
 10
16.66200000
 20
11.18400000
  0
VERTEX
  8
0
 62
7
 10
16.67298438
 20
11.15817188
  0
VERTEX
  8
0
 62
7
 10
16.68687500
 20
11.13487500
  0
VERTEX
  8
0
 62
7
 10
16.70432813
 20
11.11439063
  0
VERTEX
  8
0
 62
7
 10
16.72600000
 20
11.09700000
  0
VERTEX
  8
0
 62
7
 10
16.75323438
 20
11.08198438
  0
VERTEX
  8
0
 62
7
 10
16.78337500
 20
11.07212500
  0
VERTEX
  8
0
 62
7
 10
16.81557813
 20
11.06620313
  0
VERTEX
  8
0
 62
7
 10
16.84900000
 20
11.06300000
  0
VERTEX
  8
0
 62
7
 10
16.88179688
 20
11.06115625
  0
VERTEX
  8
0
 62
7
 10
16.91262500
 20
11.05950000
  0
VERTEX
  8
0
 62
7
 10
16.94139063
 20
11.05484375
  0
VERTEX
  8
0
 62
7
 10
16.96800000
 20
11.04400000
  0
VERTEX
  8
0
 62
7
 10
16.97751172
 20
11.03683398
  0
VERTEX
  8
0
 62
7
 10
16.98559375
 20
11.02829688
  0
VERTEX
  8
0
 62
7
 10
16.99194141
 20
11.01870508
  0
VERTEX
  8
0
 62
7
 10
16.99625000
 20
11.00837500
  0
VERTEX
  8
0
 62
7
 10
16.99821484
 20
10.99762305
  0
VERTEX
  8
0
 62
7
 10
16.99753125
 20
10.98676563
  0
VERTEX
  8
0
 62
7
 10
16.99389453
 20
10.97611914
  0
VERTEX
  8
0
 62
7
 10
16.98700000
 20
10.96600000
  0
VERTEX
  8
0
 62
7
 10
16.97560938
 20
10.95583398
  0
VERTEX
  8
0
 62
7
 10
16.96393750
 20
10.95029688
  0
VERTEX
  8
0
 62
7
 10
16.95198438
 20
10.94858008
  0
VERTEX
  8
0
 62
7
 10
16.93975000
 20
10.94987500
  0
VERTEX
  8
0
 62
7
 10
16.92723438
 20
10.95337305
  0
VERTEX
  8
0
 62
7
 10
16.91443750
 20
10.95826563
  0
VERTEX
  8
0
 62
7
 10
16.90135938
 20
10.96374414
  0
VERTEX
  8
0
 62
7
 10
16.88800000
 20
10.96900000
  0
VERTEX
  8
0
 62
7
 10
16.76900000
 20
11.01800000
  0
VERTEX
  8
0
 62
7
 10
16.69262500
 20
11.04062500
  0
VERTEX
  8
0
 62
7
 10
16.59900000
 20
11.06400000
  0
VERTEX
  8
0
 62
7
 10
16.56358984
 20
11.07140820
  0
VERTEX
  8
0
 62
7
 10
16.52590625
 20
11.07639063
  0
VERTEX
  8
0
 62
7
 10
16.48639453
 20
11.07895898
  0
VERTEX
  8
0
 62
7
 10
16.44550000
 20
11.07912500
  0
VERTEX
  8
0
 62
7
 10
16.40366797
 20
11.07690039
  0
VERTEX
  8
0
 62
7
 10
16.36134375
 20
11.07229688
  0
VERTEX
  8
0
 62
7
 10
16.31897266
 20
11.06532617
  0
VERTEX
  8
0
 62
7
 10
16.27700000
 20
11.05600000
  0
VERTEX
  8
0
 62
7
 10
16.22800000
 20
10.95100000
  0
VERTEX
  8
0
 62
7
 10
16.18246875
 20
10.93526563
  0
VERTEX
  8
0
 62
7
 10
16.13900000
 20
10.91512500
  0
VERTEX
  8
0
 62
7
 10
16.09778125
 20
10.89067188
  0
VERTEX
  8
0
 62
7
 10
16.05900000
 20
10.86200000
  0
VERTEX
  8
0
 62
7
 10
16.01951563
 20
10.82792188
  0
VERTEX
  8
0
 62
7
 10
15.98387500
 20
10.79037500
  0
VERTEX
  8
0
 62
7
 10
15.95254688
 20
10.74964063
  0
VERTEX
  8
0
 62
7
 10
15.92600000
 20
10.70600000
  0
VERTEX
  8
0
 62
7
 10
15.94975000
 20
10.68764063
  0
VERTEX
  8
0
 62
7
 10
15.97125000
 20
10.66712500
  0
VERTEX
  8
0
 62
7
 10
15.99012500
 20
10.64454688
  0
VERTEX
  8
0
 62
7
 10
16.00600000
 20
10.62000000
  0
VERTEX
  8
0
 62
7
 10
16.02175000
 20
10.58525000
  0
VERTEX
  8
0
 62
7
 10
16.03300000
 20
10.54900000
  0
VERTEX
  8
0
 62
7
 10
15.93600000
 20
10.46000000
  0
VERTEX
  8
0
 62
7
 10
15.94314063
 20
10.43976563
  0
VERTEX
  8
0
 62
7
 10
15.95262500
 20
10.42112500
  0
VERTEX
  8
0
 62
7
 10
15.96454688
 20
10.40417188
  0
VERTEX
  8
0
 62
7
 10
15.97900000
 20
10.38900000
  0
VERTEX
  8
0
 62
7
 10
15.99987500
 20
10.37625000
  0
VERTEX
  8
0
 62
7
 10
16.02300000
 20
10.36725000
  0
VERTEX
  8
0
 62
7
 10
16.04762500
 20
10.36087500
  0
VERTEX
  8
0
 62
7
 10
16.07300000
 20
10.35600000
  0
VERTEX
  8
0
 62
7
 10
16.10139063
 20
10.35200000
  0
VERTEX
  8
0
 62
7
 10
16.13062500
 20
10.35100000
  0
VERTEX
  8
0
 62
7
 10
16.16004688
 20
10.35150000
  0
VERTEX
  8
0
 62
7
 10
16.18900000
 20
10.35200000
  0
VERTEX
  8
0
 62
7
 10
16.22353125
 20
10.35304688
  0
VERTEX
  8
0
 62
7
 10
16.25900000
 20
10.35512500
  0
VERTEX
  8
0
 62
7
 10
16.29446875
 20
10.35664063
  0
VERTEX
  8
0
 62
7
 10
16.32900000
 20
10.35600000
  0
VERTEX
  8
0
 62
7
 10
16.34069922
 20
10.35643164
  0
VERTEX
  8
0
 62
7
 10
16.35303125
 20
10.35795313
  0
VERTEX
  8
0
 62
7
 10
16.36559766
 20
10.35977930
  0
VERTEX
  8
0
 62
7
 10
16.37800000
 20
10.36112500
  0
VERTEX
  8
0
 62
7
 10
16.38983984
 20
10.36120508
  0
VERTEX
  8
0
 62
7
 10
16.40071875
 20
10.35923438
  0
VERTEX
  8
0
 62
7
 10
16.41023828
 20
10.35442773
  0
VERTEX
  8
0
 62
7
 10
16.41800000
 20
10.34600000
  0
VERTEX
  8
0
 62
7
 10
16.42202539
 20
10.33735547
  0
VERTEX
  8
0
 62
7
 10
16.42189063
 20
10.33009375
  0
VERTEX
  8
0
 62
7
 10
16.41840430
 20
10.32409766
  0
VERTEX
  8
0
 62
7
 10
16.41237500
 20
10.31925000
  0
VERTEX
  8
0
 62
7
 10
16.40461133
 20
10.31543359
  0
VERTEX
  8
0
 62
7
 10
16.39592188
 20
10.31253125
  0
VERTEX
  8
0
 62
7
 10
16.38711523
 20
10.31042578
  0
VERTEX
  8
0
 62
7
 10
16.37900000
 20
10.30900000
  0
VERTEX
  8
0
 62
7
 10
16.33943750
 20
10.30643750
  0
VERTEX
  8
0
 62
7
 10
16.30025000
 20
10.30650000
  0
VERTEX
  8
0
 62
7
 10
16.26143750
 20
10.30731250
  0
VERTEX
  8
0
 62
7
 10
16.22300000
 20
10.30700000
  0
VERTEX
  8
0
 62
7
 10
16.16190625
 20
10.30335938
  0
VERTEX
  8
0
 62
7
 10
16.10025000
 20
10.29812500
  0
VERTEX
  8
0
 62
7
 10
16.03821875
 20
10.29082813
  0
VERTEX
  8
0
 62
7
 10
15.97600000
 20
10.28100000
  0
VERTEX
  8
0
 62
7
 10
15.91979688
 20
10.27020313
  0
VERTEX
  8
0
 62
7
 10
15.86387500
 20
10.25762500
  0
VERTEX
  8
0
 62
7
 10
15.80851563
 20
10.24148438
  0
VERTEX
  8
0
 62
7
 10
15.75400000
 20
10.22000000
  0
VERTEX
  8
0
 62
7
 10
15.71399609
 20
10.20042578
  0
VERTEX
  8
0
 62
7
 10
15.67509375
 20
10.17853125
  0
VERTEX
  8
0
 62
7
 10
15.63745703
 20
10.15443359
  0
VERTEX
  8
0
 62
7
 10
15.60125000
 20
10.12825000
  0
VERTEX
  8
0
 62
7
 10
15.56663672
 20
10.10009766
  0
VERTEX
  8
0
 62
7
 10
15.53378125
 20
10.07009375
  0
VERTEX
  8
0
 62
7
 10
15.50284766
 20
10.03835547
  0
VERTEX
  8
0
 62
7
 10
15.47400000
 20
10.00500000
  0
VERTEX
  8
0
 62
7
 10
15.55900000
 20
9.93400000
  0
VERTEX
  8
0
 62
7
 10
15.51950000
 20
9.86525000
  0
VERTEX
  8
0
 62
7
 10
15.47700000
 20
9.79800000
  0
VERTEX
  8
0
 62
7
 10
15.44987500
 20
9.75506250
  0
VERTEX
  8
0
 62
7
 10
15.42350000
 20
9.71175000
  0
VERTEX
  8
0
 62
7
 10
15.39487500
 20
9.67031250
  0
VERTEX
  8
0
 62
7
 10
15.36100000
 20
9.63300000
  0
VERTEX
  8
0
 62
7
 10
15.31407813
 20
9.59570313
  0
VERTEX
  8
0
 62
7
 10
15.26387500
 20
9.56487500
  0
VERTEX
  8
0
 62
7
 10
15.21123438
 20
9.54060938
  0
VERTEX
  8
0
 62
7
 10
15.15700000
 20
9.52300000
  0
VERTEX
  8
0
 62
7
 10
15.20578125
 20
9.49287500
  0
VERTEX
  8
0
 62
7
 10
15.25775000
 20
9.46725000
  0
VERTEX
  8
0
 62
7
 10
15.31309375
 20
9.44650000
  0
VERTEX
  8
0
 62
7
 10
15.37200000
 20
9.43100000
  0
VERTEX
  8
0
 62
7
 10
15.43726563
 20
9.42185938
  0
VERTEX
  8
0
 62
7
 10
15.50487500
 20
9.41937500
  0
VERTEX
  8
0
 62
7
 10
15.57379688
 20
9.42270313
  0
VERTEX
  8
0
 62
7
 10
15.64300000
 20
9.43100000
  0
VERTEX
  8
0
 62
7
 10
15.72350000
 20
9.44660938
  0
VERTEX
  8
0
 62
7
 10
15.80325000
 20
9.46812500
  0
VERTEX
  8
0
 62
7
 10
15.88262500
 20
9.49582812
  0
VERTEX
  8
0
 62
7
 10
15.96200000
 20
9.53000000
  0
VERTEX
  8
0
 62
7
 10
15.97200000
 20
9.44500000
  0
VERTEX
  8
0
 62
7
 10
16.01432813
 20
9.44737500
  0
VERTEX
  8
0
 62
7
 10
16.05712500
 20
9.45425000
  0
VERTEX
  8
0
 62
7
 10
16.10010938
 20
9.46525000
  0
VERTEX
  8
0
 62
7
 10
16.14300000
 20
9.48000000
  0
VERTEX
  8
0
 62
7
 10
16.17797266
 20
9.49454883
  0
VERTEX
  8
0
 62
7
 10
16.21221875
 20
9.51182812
  0
VERTEX
  8
0
 62
7
 10
16.24548047
 20
9.53166211
  0
VERTEX
  8
0
 62
7
 10
16.27750000
 20
9.55387500
  0
VERTEX
  8
0
 62
7
 10
16.30801953
 20
9.57829102
  0
VERTEX
  8
0
 62
7
 10
16.33678125
 20
9.60473438
  0
VERTEX
  8
0
 62
7
 10
16.36352734
 20
9.63302930
  0
VERTEX
  8
0
 62
7
 10
16.38800000
 20
9.66300000
  0
VERTEX
  8
0
 62
7
 10
16.41207813
 20
9.69773438
  0
VERTEX
  8
0
 62
7
 10
16.43287500
 20
9.73387500
  0
VERTEX
  8
0
 62
7
 10
16.45198438
 20
9.77057813
  0
VERTEX
  8
0
 62
7
 10
16.47100000
 20
9.80700000
  0
VERTEX
  8
0
 62
7
 10
16.49354688
 20
9.85439063
  0
VERTEX
  8
0
 62
7
 10
16.51412500
 20
9.90262500
  0
VERTEX
  8
0
 62
7
 10
16.53639063
 20
9.95029687
  0
VERTEX
  8
0
 62
7
 10
16.56400000
 20
9.99600000
  0
VERTEX
  8
0
 62
7
 10
16.59520313
 20
10.03504688
  0
VERTEX
  8
0
 62
7
 10
16.62987500
 20
10.07212500
  0
VERTEX
  8
0
 62
7
 10
16.66735938
 20
10.10639063
  0
VERTEX
  8
0
 62
7
 10
16.70700000
 20
10.13700000
  0
VERTEX
  8
0
 62
7
 10
16.72203125
 20
10.14393555
  0
VERTEX
  8
0
 62
7
 10
16.73462500
 20
10.14335938
  0
VERTEX
  8
0
 62
7
 10
16.74440625
 20
10.13694727
  0
VERTEX
  8
0
 62
7
 10
16.75100000
 20
10.12637500
  0
VERTEX
  8
0
 62
7
 10
16.75403125
 20
10.11331836
  0
VERTEX
  8
0
 62
7
 10
16.75312500
 20
10.09945313
  0
VERTEX
  8
0
 62
7
 10
16.74790625
 20
10.08645508
  0
VERTEX
  8
0
 62
7
 10
16.73800000
 20
10.07600000
  0
VERTEX
  8
0
 62
7
 10
16.70790625
 20
10.05407813
  0
VERTEX
  8
0
 62
7
 10
16.67950000
 20
10.03037500
  0
VERTEX
  8
0
 62
7
 10
16.65334375
 20
10.00498438
  0
VERTEX
  8
0
 62
7
 10
16.63000000
 20
9.97800000
  0
VERTEX
  8
0
 62
7
 10
16.59173438
 20
9.93318750
  0
VERTEX
  8
0
 62
7
 10
16.55937500
 20
9.88500000
  0
VERTEX
  8
0
 62
7
 10
16.53282813
 20
9.83456250
  0
VERTEX
  8
0
 62
7
 10
16.51200000
 20
9.78300000
  0
VERTEX
  8
0
 62
7
 10
16.59200000
 20
9.76500000
  0
VERTEX
  8
0
 62
7
 10
16.60254688
 20
9.73093750
  0
VERTEX
  8
0
 62
7
 10
16.60962500
 20
9.69500000
  0
VERTEX
  8
0
 62
7
 10
16.61239063
 20
9.65756250
  0
VERTEX
  8
0
 62
7
 10
16.61000000
 20
9.61900000
  0
VERTEX
  8
0
 62
7
 10
16.60265625
 20
9.57839063
  0
VERTEX
  8
0
 62
7
 10
16.59100000
 20
9.53787500
  0
VERTEX
  8
0
 62
7
 10
16.57484375
 20
9.49792187
  0
VERTEX
  8
0
 62
7
 10
16.55400000
 20
9.45900000
  0
VERTEX
  8
0
 62
7
 10
16.60595313
 20
9.45407813
  0
VERTEX
  8
0
 62
7
 10
16.65837500
 20
9.45412500
  0
VERTEX
  8
0
 62
7
 10
16.71135938
 20
9.45885937
  0
VERTEX
  8
0
 62
7
 10
16.76500000
 20
9.46800000
  0
VERTEX
  8
0
 62
7
 10
16.81805078
 20
9.48175586
  0
VERTEX
  8
0
 62
7
 10
16.87046875
 20
9.49967188
  0
VERTEX
  8
0
 62
7
 10
16.92190234
 20
9.52159570
  0
VERTEX
  8
0
 62
7
 10
16.97200000
 20
9.54737500
  0
VERTEX
  8
0
 62
7
 10
17.02041016
 20
9.57685742
  0
VERTEX
  8
0
 62
7
 10
17.06678125
 20
9.60989063
  0
VERTEX
  8
0
 62
7
 10
17.11076172
 20
9.64632227
  0
VERTEX
  8
0
 62
7
 10
17.15200000
 20
9.68600000
  0
VERTEX
  8
0
 62
7
 10
17.17200000
 20
9.58000000
  0
VERTEX
  8
0
 62
7
 10
17.22481250
 20
9.60779688
  0
VERTEX
  8
0
 62
7
 10
17.27650000
 20
9.63887500
  0
VERTEX
  8
0
 62
7
 10
17.32668750
 20
9.67351563
  0
VERTEX
  8
0
 62
7
 10
17.37500000
 20
9.71200000
  0
VERTEX
  8
0
 62
7
 10
17.42845313
 20
9.75928125
  0
VERTEX
  8
0
 62
7
 10
17.47862500
 20
9.80975000
  0
VERTEX
  8
0
 62
7
 10
17.52448438
 20
9.86359375
  0
VERTEX
  8
0
 62
7
 10
17.56500000
 20
9.92100000
  0
VERTEX
  8
0
 62
7
 10
17.58570313
 20
9.95406250
  0
VERTEX
  8
0
 62
7
 10
17.60387500
 20
9.98825000
  0
VERTEX
  8
0
 62
7
 10
17.62110938
 20
10.02281250
  0
VERTEX
  8
0
 62
7
 10
17.63900000
 20
10.05700000
  0
VERTEX
  8
0
 62
7
 10
17.66010938
 20
10.09507813
  0
VERTEX
  8
0
 62
7
 10
17.68112500
 20
10.13362500
  0
VERTEX
  8
0
 62
7
 10
17.70382813
 20
10.17160938
  0
VERTEX
  8
0
 62
7
 10
17.73000000
 20
10.20800000
  0
VERTEX
  8
0
 62
7
 10
17.76498438
 20
10.24898438
  0
VERTEX
  8
0
 62
7
 10
17.80437500
 20
10.28687500
  0
VERTEX
  8
0
 62
7
 10
17.84657813
 20
10.32232813
  0
VERTEX
  8
0
 62
7
 10
17.89000000
 20
10.35600000
  0
VERTEX
  8
0
 62
7
 10
17.95287500
 20
10.39875000
  0
VERTEX
  8
0
 62
7
 10
18.01800000
 20
10.43700000
  0
VERTEX
  8
0
 62
7
 10
18.02929297
 20
10.44064063
  0
VERTEX
  8
0
 62
7
 10
18.03953125
 20
10.43950000
  0
VERTEX
  8
0
 62
7
 10
18.04812891
 20
10.43460938
  0
VERTEX
  8
0
 62
7
 10
18.05450000
 20
10.42700000
  0
VERTEX
  8
0
 62
7
 10
18.05805859
 20
10.41770313
  0
VERTEX
  8
0
 62
7
 10
18.05821875
 20
10.40775000
  0
VERTEX
  8
0
 62
7
 10
18.05439453
 20
10.39817188
  0
VERTEX
  8
0
 62
7
 10
18.04600000
 20
10.39000000
  0
VERTEX
  8
0
 62
7
 10
17.94500000
 20
10.32400000
  0
VERTEX
  8
0
 62
7
 10
17.90109375
 20
10.29740625
  0
VERTEX
  8
0
 62
7
 10
17.86075000
 20
10.26725000
  0
VERTEX
  8
0
 62
7
 10
17.82378125
 20
10.23371875
  0
VERTEX
  8
0
 62
7
 10
17.79000000
 20
10.19700000
  0
VERTEX
  8
0
 62
7
 10
17.76353125
 20
10.16348828
  0
VERTEX
  8
0
 62
7
 10
17.74043750
 20
10.12840625
  0
VERTEX
  8
0
 62
7
 10
17.72081250
 20
10.09205859
  0
VERTEX
  8
0
 62
7
 10
17.70475000
 20
10.05475000
  0
VERTEX
  8
0
 62
7
 10
17.69234375
 20
10.01678516
  0
VERTEX
  8
0
 62
7
 10
17.68368750
 20
9.97846875
  0
VERTEX
  8
0
 62
7
 10
17.67887500
 20
9.94010547
  0
VERTEX
  8
0
 62
7
 10
17.67800000
 20
9.90200000
  0
VERTEX
  8
0
 62
7
 10
17.80100000
 20
9.89800000
  0
VERTEX
  8
0
 62
7
 10
17.79875000
 20
9.85289063
  0
VERTEX
  8
0
 62
7
 10
17.80250000
 20
9.80937500
  0
VERTEX
  8
0
 62
7
 10
17.81225000
 20
9.76792188
  0
VERTEX
  8
0
 62
7
 10
17.82800000
 20
9.72900000
  0
VERTEX
  8
0
 62
7
 10
17.85200000
 20
9.68892188
  0
VERTEX
  8
0
 62
7
 10
17.88275000
 20
9.65437500
  0
VERTEX
  8
0
 62
7
 10
17.91912500
 20
9.62564063
  0
VERTEX
  8
0
 62
7
 10
17.96000000
 20
9.60300000
  0
VERTEX
  8
0
 62
7
 10
18.00190820
 20
9.58657813
  0
VERTEX
  8
0
 62
7
 10
18.04626563
 20
9.57625000
  0
VERTEX
  8
0
 62
7
 10
18.09252148
 20
9.57192187
  0
VERTEX
  8
0
 62
7
 10
18.14012500
 20
9.57350000
  0
VERTEX
  8
0
 62
7
 10
18.18852539
 20
9.58089063
  0
VERTEX
  8
0
 62
7
 10
18.23717188
 20
9.59400000
  0
VERTEX
  8
0
 62
7
 10
18.28551367
 20
9.61273438
  0
VERTEX
  8
0
 62
7
 10
18.33300000
 20
9.63700000
  0
VERTEX
  8
0
 62
7
 10
18.26900000
 20
9.72200000
  0
VERTEX
  8
0
 62
7
 10
18.26081641
 20
9.73519141
  0
VERTEX
  8
0
 62
7
 10
18.25490625
 20
9.74915625
  0
VERTEX
  8
0
 62
7
 10
18.25110547
 20
9.76373047
  0
VERTEX
  8
0
 62
7
 10
18.24925000
 20
9.77875000
  0
VERTEX
  8
0
 62
7
 10
18.24917578
 20
9.79405078
  0
VERTEX
  8
0
 62
7
 10
18.25071875
 20
9.80946875
  0
VERTEX
  8
0
 62
7
 10
18.25371484
 20
9.82483984
  0
VERTEX
  8
0
 62
7
 10
18.25800000
 20
9.84000000
  0
VERTEX
  8
0
 62
7
 10
18.27639063
 20
9.88450000
  0
VERTEX
  8
0
 62
7
 10
18.30237500
 20
9.92600000
  0
VERTEX
  8
0
 62
7
 10
18.33492188
 20
9.96375000
  0
VERTEX
  8
0
 62
7
 10
18.37300000
 20
9.99700000
  0
VERTEX
  8
0
 62
7
 10
18.54000000
 20
9.96200000
  0
VERTEX
  8
0
 62
7
 10
18.53765625
 20
10.00051563
  0
VERTEX
  8
0
 62
7
 10
18.53850000
 20
10.04062500
  0
VERTEX
  8
0
 62
7
 10
18.54309375
 20
10.08167188
  0
VERTEX
  8
0
 62
7
 10
18.55200000
 20
10.12300000
  0
VERTEX
  8
0
 62
7
 10
18.55913867
 20
10.15064453
  0
VERTEX
  8
0
 62
7
 10
18.56729688
 20
10.17859375
  0
VERTEX
  8
0
 62
7
 10
18.57683789
 20
10.20649609
  0
VERTEX
  8
0
 62
7
 10
18.58812500
 20
10.23400000
  0
VERTEX
  8
0
 62
7
 10
18.60152148
 20
10.26075391
  0
VERTEX
  8
0
 62
7
 10
18.61739063
 20
10.28640625
  0
VERTEX
  8
0
 62
7
 10
18.63609570
 20
10.31060547
  0
VERTEX
  8
0
 62
7
 10
18.65800000
 20
10.33300000
  0
VERTEX
  8
0
 62
7
 10
18.68684961
 20
10.35707813
  0
VERTEX
  8
0
 62
7
 10
18.71760938
 20
10.37750000
  0
VERTEX
  8
0
 62
7
 10
18.74984570
 20
10.39417188
  0
VERTEX
  8
0
 62
7
 10
18.78312500
 20
10.40700000
  0
VERTEX
  8
0
 62
7
 10
18.81701367
 20
10.41589063
  0
VERTEX
  8
0
 62
7
 10
18.85107813
 20
10.42075000
  0
VERTEX
  8
0
 62
7
 10
18.88488477
 20
10.42148438
  0
VERTEX
  8
0
 62
7
 10
18.91800000
 20
10.41800000
  0
VERTEX
  8
0
 62
7
 10
18.92112500
 20
10.43287500
  0
VERTEX
  8
0
 62
7
 10
18.92200000
 20
10.44700000
  0
VERTEX
  8
0
 62
7
 10
18.92000000
 20
10.46000000
  0
VERTEX
  8
0
 62
7
 10
18.90793750
 20
10.47656250
  0
VERTEX
  8
0
 62
7
 10
18.89175000
 20
10.49125000
  0
VERTEX
  8
0
 62
7
 10
18.87218750
 20
10.50331250
  0
VERTEX
  8
0
 62
7
 10
18.85000000
 20
10.51200000
  0
VERTEX
  8
0
 62
7
 10
18.83266992
 20
10.52005078
  0
VERTEX
  8
0
 62
7
 10
18.81973438
 20
10.53215625
  0
VERTEX
  8
0
 62
7
 10
18.81127539
 20
10.54712109
  0
VERTEX
  8
0
 62
7
 10
18.80737500
 20
10.56375000
  0
VERTEX
  8
0
 62
7
 10
18.80811523
 20
10.58084766
  0
VERTEX
  8
0
 62
7
 10
18.81357813
 20
10.59721875
  0
VERTEX
  8
0
 62
7
 10
18.82384570
 20
10.61166797
  0
VERTEX
  8
0
 62
7
 10
18.83900000
 20
10.62300000
  0
VERTEX
  8
0
 62
7
 10
18.86646875
 20
10.64117188
  0
VERTEX
  8
0
 62
7
 10
18.89000000
 20
10.66412500
  0
VERTEX
  8
0
 62
7
 10
18.90903125
 20
10.69176563
  0
VERTEX
  8
0
 62
7
 10
18.92300000
 20
10.72400000
  0
VERTEX
  8
0
 62
7
 10
18.92750000
 20
10.74387500
  0
VERTEX
  8
0
 62
7
 10
18.92900000
 20
10.76600000
  0
VERTEX
  8
0
 62
7
 10
18.92575000
 20
10.80012500
  0
VERTEX
  8
0
 62
7
 10
18.91500000
 20
10.83500000
  0
VERTEX
  8
0
 62
7
 10
18.90010938
 20
10.86223438
  0
VERTEX
  8
0
 62
7
 10
18.87987500
 20
10.88787500
  0
VERTEX
  8
0
 62
7
 10
18.85495313
 20
10.91107813
  0
VERTEX
  8
0
 62
7
 10
18.82600000
 20
10.93100000
  0
VERTEX
  8
0
 62
7
 10
18.81045703
 20
10.94389258
  0
VERTEX
  8
0
 62
7
 10
18.80046875
 20
10.95989063
  0
VERTEX
  8
0
 62
7
 10
18.79587109
 20
10.97759961
  0
VERTEX
  8
0
 62
7
 10
18.79650000
 20
10.99562500
  0
VERTEX
  8
0
 62
7
 10
18.80219141
 20
11.01257227
  0
VERTEX
  8
0
 62
7
 10
18.81278125
 20
11.02704688
  0
VERTEX
  8
0
 62
7
 10
18.82810547
 20
11.03765430
  0
VERTEX
  8
0
 62
7
 10
18.84800000
 20
11.04300000
  0
VERTEX
  8
0
 62
7
 10
18.86962500
 20
11.04887500
  0
VERTEX
  8
0
 62
7
 10
18.88975000
 20
11.06225000
  0
VERTEX
  8
0
 62
7
 10
18.90875000
 20
11.08350000
  0
VERTEX
  8
0
 62
7
 10
18.92700000
 20
11.11300000
  0
VERTEX
  8
0
 62
7
 10
18.95500000
 20
11.18400000
  0
SEQEND
  0
POLYLINE
  8
0
 62
7
 66
1
  0
VERTEX
  8
0
 62
7
 10
18.81069902
 20
10.94814740
  0
VERTEX
  8
0
 62
7
 10
18.70752958
 20
10.95357785
  0
VERTEX
  8
0
 62
7
 10
18.60340926
 20
10.95639217
  0
VERTEX
  8
0
 62
7
 10
18.49833807
 20
10.95635253
  0
VERTEX
  8
0
 62
7
 10
18.39231601
 20
10.95322110
  0
VERTEX
  8
0
 62
7
 10
18.24754598
 20
10.94594748
  0
VERTEX
  8
0
 62
7
 10
18.10230052
 20
10.93403617
  0
VERTEX
  8
0
 62
7
 10
17.95657962
 20
10.91522780
  0
VERTEX
  8
0
 62
7
 10
17.81038328
 20
10.88726298
  0
VERTEX
  8
0
 62
7
 10
17.65992783
 20
10.84800126
  0
VERTEX
  8
0
 62
7
 10
17.51101756
 20
10.80053440
  0
VERTEX
  8
0
 62
7
 10
17.36377130
 20
10.74474350
  0
VERTEX
  8
0
 62
7
 10
17.21830793
 20
10.68050965
  0
VERTEX
  8
0
 62
7
 10
17.10560749
 20
10.62381202
  0
VERTEX
  8
0
 62
7
 10
16.99491279
 20
10.56226862
  0
VERTEX
  8
0
 62
7
 10
16.88644670
 20
10.49602807
  0
VERTEX
  8
0
 62
7
 10
16.78043207
 20
10.42523904
  0
VERTEX
  8
0
 62
7
 10
16.67709176
 20
10.35005015
  0
VERTEX
  8
0
 62
7
 10
16.57664864
 20
10.27061006
  0
VERTEX
  8
0
 62
7
 10
16.47932556
 20
10.18706740
  0
VERTEX
  8
0
 62
7
 10
16.38534539
 20
10.09957082
  0
SEQEND
  0
POLYLINE
  8
0
 62
7
 66
1
 70
1
  0
VERTEX
  8
0
 62
7
 10
15.43600000
 20
10.05300000
  0
VERTEX
  8
0
 62
7
 10
15.39979688
 20
10.05939063
  0
VERTEX
  8
0
 62
7
 10
15.36462500
 20
10.06812500
  0
VERTEX
  8
0
 62
7
 10
15.33039063
 20
10.07929688
  0
VERTEX
  8
0
 62
7
 10
15.29700000
 20
10.09300000
  0
VERTEX
  8
0
 62
7
 10
15.27052734
 20
10.10600977
  0
VERTEX
  8
0
 62
7
 10
15.24459375
 20
10.12039063
  0
VERTEX
  8
0
 62
7
 10
15.21955078
 20
10.13629492
  0
VERTEX
  8
0
 62
7
 10
15.19575000
 20
10.15387500
  0
VERTEX
  8
0
 62
7
 10
15.17354297
 20
10.17328320
  0
VERTEX
  8
0
 62
7
 10
15.15328125
 20
10.19467188
  0
VERTEX
  8
0
 62
7
 10
15.13531641
 20
10.21819336
  0
VERTEX
  8
0
 62
7
 10
15.12000000
 20
10.24400000
  0
VERTEX
  8
0
 62
7
 10
15.10748438
 20
10.27163281
  0
VERTEX
  8
0
 62
7
 10
15.09768750
 20
10.30043750
  0
VERTEX
  8
0
 62
7
 10
15.09060938
 20
10.33027344
  0
VERTEX
  8
0
 62
7
 10
15.08625000
 20
10.36100000
  0
VERTEX
  8
0
 62
7
 10
15.08460938
 20
10.39247656
  0
VERTEX
  8
0
 62
7
 10
15.08568750
 20
10.42456250
  0
VERTEX
  8
0
 62
7
 10
15.08948438
 20
10.45711719
  0
VERTEX
  8
0
 62
7
 10
15.09600000
 20
10.49000000
  0
VERTEX
  8
0
 62
7
 10
15.10339063
 20
10.52342188
  0
VERTEX
  8
0
 62
7
 10
15.11293750
 20
10.55675000
  0
VERTEX
  8
0
 62
7
 10
15.12482813
 20
10.58970313
  0
VERTEX
  8
0
 62
7
 10
15.13925000
 20
10.62200000
  0
VERTEX
  8
0
 62
7
 10
15.15639063
 20
10.65335938
  0
VERTEX
  8
0
 62
7
 10
15.17643750
 20
10.68350000
  0
VERTEX
  8
0
 62
7
 10
15.19957813
 20
10.71214063
  0
VERTEX
  8
0
 62
7
 10
15.22600000
 20
10.73900000
  0
VERTEX
  8
0
 62
7
 10
15.25193750
 20
10.76199023
  0
VERTEX
  8
0
 62
7
 10
15.27937500
 20
10.78285938
  0
VERTEX
  8
0
 62
7
 10
15.30812500
 20
10.80145508
  0
VERTEX
  8
0
 62
7
 10
15.33800000
 20
10.81762500
  0
VERTEX
  8
0
 62
7
 10
15.36881250
 20
10.83121680
  0
VERTEX
  8
0
 62
7
 10
15.40037500
 20
10.84207813
  0
VERTEX
  8
0
 62
7
 10
15.43250000
 20
10.85005664
  0
VERTEX
  8
0
 62
7
 10
15.46500000
 20
10.85500000
  0
VERTEX
  8
0
 62
7
 10
15.49543359
 20
10.85705859
  0
VERTEX
  8
0
 62
7
 10
15.52509375
 20
10.85646875
  0
VERTEX
  8
0
 62
7
 10
15.55376953
 20
10.85320703
  0
VERTEX
  8
0
 62
7
 10
15.58125000
 20
10.84725000
  0
VERTEX
  8
0
 62
7
 10
15.60732422
 20
10.83857422
  0
VERTEX
  8
0
 62
7
 10
15.63178125
 20
10.82715625
  0
VERTEX
  8
0
 62
7
 10
15.65441016
 20
10.81297266
  0
VERTEX
  8
0
 62
7
 10
15.67500000
 20
10.79600000
  0
VERTEX
  8
0
 62
7
 10
15.69909375
 20
10.76595313
  0
VERTEX
  8
0
 62
7
 10
15.71775000
 20
10.73187500
  0
VERTEX
  8
0
 62
7
 10
15.73153125
 20
10.69460938
  0
VERTEX
  8
0
 62
7
 10
15.74100000
 20
10.65500000
  0
VERTEX
  8
0
 62
7
 10
15.74351563
 20
10.61593750
  0
VERTEX
  8
0
 62
7
 10
15.74237500
 20
10.57575000
  0
VERTEX
  8
0
 62
7
 10
15.73579688
 20
10.53518750
  0
VERTEX
  8
0
 62
7
 10
15.72200000
 20
10.49500000
  0
VERTEX
  8
0
 62
7
 10
15.70973438
 20
10.46370313
  0
VERTEX
  8
0
 62
7
 10
15.69437500
 20
10.43362500
  0
VERTEX
  8
0
 62
7
 10
15.67432813
 20
10.40598438
  0
VERTEX
  8
0
 62
7
 10
15.64800000
 20
10.38200000
  0
VERTEX
  8
0
 62
7
 10
15.61707813
 20
10.36235938
  0
VERTEX
  8
0
 62
7
 10
15.58362500
 20
10.35012500
  0
VERTEX
  8
0
 62
7
 10
15.54885938
 20
10.34332813
  0
VERTEX
  8
0
 62
7
 10
15.51400000
 20
10.34000000
  0
VERTEX
  8
0
 62
7
 10
15.49138086
 20
10.33976953
  0
VERTEX
  8
0
 62
7
 10
15.46935938
 20
10.34134375
  0
VERTEX
  8
0
 62
7
 10
15.44806445
 20
10.34474609
  0
VERTEX
  8
0
 62
7
 10
15.42762500
 20
10.35000000
  0
VERTEX
  8
0
 62
7
 10
15.40816992
 20
10.35712891
  0
VERTEX
  8
0
 62
7
 10
15.38982813
 20
10.36615625
  0
VERTEX
  8
0
 62
7
 10
15.37272852
 20
10.37710547
  0
VERTEX
  8
0
 62
7
 10
15.35700000
 20
10.39000000
  0
VERTEX
  8
0
 62
7
 10
15.36654688
 20
10.35540625
  0
VERTEX
  8
0
 62
7
 10
15.38162500
 20
10.32400000
  0
VERTEX
  8
0
 62
7
 10
15.40214063
 20
10.29634375
  0
VERTEX
  8
0
 62
7
 10
15.42800000
 20
10.27300000
  0
VERTEX
  8
0
 62
7
 10
15.44676758
 20
10.26170703
  0
VERTEX
  8
0
 62
7
 10
15.46695313
 20
10.25259375
  0
VERTEX
  8
0
 62
7
 10
15.48838086
 20
10.24568359
  0
VERTEX
  8
0
 62
7
 10
15.51087500
 20
10.24100000
  0
VERTEX
  8
0
 62
7
 10
15.53425977
 20
10.23856641
  0
VERTEX
  8
0
 62
7
 10
15.55835938
 20
10.23840625
  0
VERTEX
  8
0
 62
7
 10
15.58299805
 20
10.24054297
  0
VERTEX
  8
0
 62
7
 10
15.60800000
 20
10.24500000
  0
VERTEX
  8
0
 62
7
 10
15.63602344
 20
10.25300977
  0
VERTEX
  8
0
 62
7
 10
15.66306250
 20
10.26407813
  0
VERTEX
  8
0
 62
7
 10
15.68907031
 20
10.27788867
  0
VERTEX
  8
0
 62
7
 10
15.71400000
 20
10.29412500
  0
VERTEX
  8
0
 62
7
 10
15.73780469
 20
10.31247070
  0
VERTEX
  8
0
 62
7
 10
15.76043750
 20
10.33260938
  0
VERTEX
  8
0
 62
7
 10
15.78185156
 20
10.35422461
  0
VERTEX
  8
0
 62
7
 10
15.80200000
 20
10.37700000
  0
VERTEX
  8
0
 62
7
 10
15.82375195
 20
10.40528516
  0
VERTEX
  8
0
 62
7
 10
15.84195313
 20
10.43453125
  0
VERTEX
  8
0
 62
7
 10
15.85689648
 20
10.46457422
  0
VERTEX
  8
0
 62
7
 10
15.86887500
 20
10.49525000
  0
VERTEX
  8
0
 62
7
 10
15.87818164
 20
10.52639453
  0
VERTEX
  8
0
 62
7
 10
15.88510938
 20
10.55784375
  0
VERTEX
  8
0
 62
7
 10
15.88995117
 20
10.58943359
  0
VERTEX
  8
0
 62
7
 10
15.89300000
 20
10.62100000
  0
VERTEX
  8
0
 62
7
 10
15.89245313
 20
10.67460938
  0
VERTEX
  8
0
 62
7
 10
15.88487500
 20
10.72587500
  0
VERTEX
  8
0
 62
7
 10
15.87035938
 20
10.77470313
  0
VERTEX
  8
0
 62
7
 10
15.84900000
 20
10.82100000
  0
VERTEX
  8
0
 62
7
 10
15.82203125
 20
10.86442188
  0
VERTEX
  8
0
 62
7
 10
15.78925000
 20
10.90287500
  0
VERTEX
  8
0
 62
7
 10
15.75084375
 20
10.93589063
  0
VERTEX
  8
0
 62
7
 10
15.70700000
 20
10.96300000
  0
VERTEX
  8
0
 62
7
 10
15.68132422
 20
10.97472266
  0
VERTEX
  8
0
 62
7
 10
15.65459375
 20
10.98440625
  0
VERTEX
  8
0
 62
7
 10
15.62687891
 20
10.99207422
  0
VERTEX
  8
0
 62
7
 10
15.59825000
 20
10.99775000
  0
VERTEX
  8
0
 62
7
 10
15.56877734
 20
11.00145703
  0
VERTEX
  8
0
 62
7
 10
15.53853125
 20
11.00321875
  0
VERTEX
  8
0
 62
7
 10
15.50758203
 20
11.00305859
  0
VERTEX
  8
0
 62
7
 10
15.47600000
 20
11.00100000
  0
VERTEX
  8
0
 62
7
 10
15.41198438
 20
10.99192188
  0
VERTEX
  8
0
 62
7
 10
15.34787500
 20
10.97487500
  0
VERTEX
  8
0
 62
7
 10
15.28432813
 20
10.94939063
  0
VERTEX
  8
0
 62
7
 10
15.22200000
 20
10.91500000
  0
VERTEX
  8
0
 62
7
 10
15.16764063
 20
10.87429688
  0
VERTEX
  8
0
 62
7
 10
15.11862500
 20
10.82787500
  0
VERTEX
  8
0
 62
7
 10
15.07504688
 20
10.77676563
  0
VERTEX
  8
0
 62
7
 10
15.03700000
 20
10.72200000
  0
VERTEX
  8
0
 62
7
 10
15.01596680
 20
10.68747461
  0
VERTEX
  8
0
 62
7
 10
14.99717188
 20
10.65223438
  0
VERTEX
  8
0
 62
7
 10
14.98069727
 20
10.61640820
  0
VERTEX
  8
0
 62
7
 10
14.96662500
 20
10.58012500
  0
VERTEX
  8
0
 62
7
 10
14.95503711
 20
10.54351367
  0
VERTEX
  8
0
 62
7
 10
14.94601563
 20
10.50670313
  0
VERTEX
  8
0
 62
7
 10
14.93964258
 20
10.46982227
  0
VERTEX
  8
0
 62
7
 10
14.93600000
 20
10.43300000
  0
VERTEX
  8
0
 62
7
 10
14.93368750
 20
10.40211523
  0
VERTEX
  8
0
 62
7
 10
14.93343750
 20
10.37173438
  0
VERTEX
  8
0
 62
7
 10
14.93515625
 20
10.34189258
  0
VERTEX
  8
0
 62
7
 10
14.93875000
 20
10.31262500
  0
VERTEX
  8
0
 62
7
 10
14.94412500
 20
10.28396680
  0
VERTEX
  8
0
 62
7
 10
14.95118750
 20
10.25595313
  0
VERTEX
  8
0
 62
7
 10
14.95984375
 20
10.22861914
  0
VERTEX
  8
0
 62
7
 10
14.97000000
 20
10.20200000
  0
VERTEX
  8
0
 62
7
 10
14.99562500
 20
10.15525000
  0
VERTEX
  8
0
 62
7
 10
15.02575000
 20
10.11225000
  0
VERTEX
  8
0
 62
7
 10
15.06000000
 20
10.07262500
  0
VERTEX
  8
0
 62
7
 10
15.09800000
 20
10.03600000
  0
VERTEX
  8
0
 62
7
 10
15.12706445
 20
10.01355859
  0
VERTEX
  8
0
 62
7
 10
15.15726563
 20
9.99278125
  0
VERTEX
  8
0
 62
7
 10
15.18861523
 20
9.97373828
  0
VERTEX
  8
0
 62
7
 10
15.22112500
 20
9.95650000
  0
VERTEX
  8
0
 62
7
 10
15.25480664
 20
9.94113672
  0
VERTEX
  8
0
 62
7
 10
15.28967188
 20
9.92771875
  0
VERTEX
  8
0
 62
7
 10
15.32573242
 20
9.91631641
  0
VERTEX
  8
0
 62
7
 10
15.36300000
 20
9.90700000
  0
VERTEX
  8
0
 62
7
 10
15.41337500
 20
9.89725000
  0
VERTEX
  8
0
 62
7
 10
15.46600000
 20
9.89200000
  0
VERTEX
  8
0
 62
7
 10
15.48200000
 20
9.92000000
  0
VERTEX
  8
0
 62
7
 10
15.43600000
 20
9.95900000
  0
VERTEX
  8
0
 62
7
 10
15.42757422
 20
9.96757227
  0
VERTEX
  8
0
 62
7
 10
15.42109375
 20
9.97732813
  0
VERTEX
  8
0
 62
7
 10
15.41662891
 20
9.98795117
  0
VERTEX
  8
0
 62
7
 10
15.41425000
 20
9.99912500
  0
VERTEX
  8
0
 62
7
 10
15.41402734
 20
10.01053320
  0
VERTEX
  8
0
 62
7
 10
15.41603125
 20
10.02185938
  0
VERTEX
  8
0
 62
7
 10
15.42033203
 20
10.03278711
  0
VERTEX
  8
0
 62
7
 10
15.42700000
 20
10.04300000
  0
VERTEX
  8
0
 62
7
 10
15.43600000
 20
10.05300000
  0
SEQEND
  0
POLYLINE
  8
0
 62
7
 66
1
 70
1
  0
VERTEX
  8
0
 62
7
 10
17.96000000
 20
13.90200000
  0
VERTEX
  8
0
 62
7
 10
17.97462500
 20
13.89300000
  0
VERTEX
  8
0
 62
7
 10
17.98400000
 20
13.87800000
  0
VERTEX
  8
0
 62
7
 10
17.99650000
 20
13.83725000
  0
VERTEX
  8
0
 62
7
 10
18.00600000
 20
13.79500000
  0
VERTEX
  8
0
 62
7
 10
18.03503125
 20
13.79465625
  0
VERTEX
  8
0
 62
7
 10
18.06125000
 20
13.78775000
  0
VERTEX
  8
0
 62
7
 10
18.08334375
 20
13.77446875
  0
VERTEX
  8
0
 62
7
 10
18.10000000
 20
13.75500000
  0
VERTEX
  8
0
 62
7
 10
18.10932813
 20
13.73345313
  0
VERTEX
  8
0
 62
7
 10
18.11387500
 20
13.71087500
  0
VERTEX
  8
0
 62
7
 10
18.11223438
 20
13.68735938
  0
VERTEX
  8
0
 62
7
 10
18.10300000
 20
13.66300000
  0
VERTEX
  8
0
 62
7
 10
18.09342188
 20
13.64834375
  0
VERTEX
  8
0
 62
7
 10
18.08187500
 20
13.63650000
  0
VERTEX
  8
0
 62
7
 10
18.06714063
 20
13.62615625
  0
VERTEX
  8
0
 62
7
 10
18.04800000
 20
13.61600000
  0
VERTEX
  8
0
 62
7
 10
18.06809766
 20
13.61002734
  0
VERTEX
  8
0
 62
7
 10
18.08896875
 20
13.60759375
  0
VERTEX
  8
0
 62
7
 10
18.10998047
 20
13.60830078
  0
VERTEX
  8
0
 62
7
 10
18.13050000
 20
13.61175000
  0
VERTEX
  8
0
 62
7
 10
18.14989453
 20
13.61754297
  0
VERTEX
  8
0
 62
7
 10
18.16753125
 20
13.62528125
  0
VERTEX
  8
0
 62
7
 10
18.18277734
 20
13.63456641
  0
VERTEX
  8
0
 62
7
 10
18.19500000
 20
13.64500000
  0
VERTEX
  8
0
 62
7
 10
18.21495313
 20
13.66900000
  0
VERTEX
  8
0
 62
7
 10
18.22862500
 20
13.69375000
  0
VERTEX
  8
0
 62
7
 10
18.23648438
 20
13.72037500
  0
VERTEX
  8
0
 62
7
 10
18.23900000
 20
13.75000000
  0
VERTEX
  8
0
 62
7
 10
18.23637500
 20
13.78423438
  0
VERTEX
  8
0
 62
7
 10
18.22700000
 20
13.81612500
  0
VERTEX
  8
0
 62
7
 10
18.21087500
 20
13.84520313
  0
VERTEX
  8
0
 62
7
 10
18.18800000
 20
13.87100000
  0
VERTEX
  8
0
 62
7
 10
18.16757813
 20
13.88589063
  0
VERTEX
  8
0
 62
7
 10
18.14312500
 20
13.89862500
  0
VERTEX
  8
0
 62
7
 10
18.11585938
 20
13.90854688
  0
VERTEX
  8
0
 62
7
 10
18.08700000
 20
13.91500000
  0
VERTEX
  8
0
 62
7
 10
18.08863281
 20
13.93565430
  0
VERTEX
  8
0
 62
7
 10
18.08693750
 20
13.95610938
  0
VERTEX
  8
0
 62
7
 10
18.08214844
 20
13.97597852
  0
VERTEX
  8
0
 62
7
 10
18.07450000
 20
13.99487500
  0
VERTEX
  8
0
 62
7
 10
18.06422656
 20
14.01241211
  0
VERTEX
  8
0
 62
7
 10
18.05156250
 20
14.02820313
  0
VERTEX
  8
0
 62
7
 10
18.03674219
 20
14.04186133
  0
VERTEX
  8
0
 62
7
 10
18.02000000
 20
14.05300000
  0
VERTEX
  8
0
 62
7
 10
18.00478711
 20
14.06089063
  0
VERTEX
  8
0
 62
7
 10
17.98848438
 20
14.06718750
  0
VERTEX
  8
0
 62
7
 10
17.97122070
 20
14.07170313
  0
VERTEX
  8
0
 62
7
 10
17.95312500
 20
14.07425000
  0
VERTEX
  8
0
 62
7
 10
17.93432617
 20
14.07464063
  0
VERTEX
  8
0
 62
7
 10
17.91495313
 20
14.07268750
  0
VERTEX
  8
0
 62
7
 10
17.89513477
 20
14.06820313
  0
VERTEX
  8
0
 62
7
 10
17.87500000
 20
14.06100000
  0
VERTEX
  8
0
 62
7
 10
17.84398438
 20
14.04243750
  0
VERTEX
  8
0
 62
7
 10
17.82112500
 20
14.02050000
  0
VERTEX
  8
0
 62
7
 10
17.80370313
 20
13.99631250
  0
VERTEX
  8
0
 62
7
 10
17.78900000
 20
13.97100000
  0
VERTEX
  8
0
 62
7
 10
17.80681250
 20
13.97788281
  0
VERTEX
  8
0
 62
7
 10
17.82481250
 20
13.98275000
  0
VERTEX
  8
0
 62
7
 10
17.84271875
 20
13.98555469
  0
VERTEX
  8
0
 62
7
 10
17.86025000
 20
13.98625000
  0
VERTEX
  8
0
 62
7
 10
17.87712500
 20
13.98478906
  0
VERTEX
  8
0
 62
7
 10
17.89306250
 20
13.98112500
  0
VERTEX
  8
0
 62
7
 10
17.90778125
 20
13.97521094
  0
VERTEX
  8
0
 62
7
 10
17.92100000
 20
13.96700000
  0
VERTEX
  8
0
 62
7
 10
17.92948438
 20
13.96096680
  0
VERTEX
  8
0
 62
7
 10
17.93750000
 20
13.95417188
  0
VERTEX
  8
0
 62
7
 10
17.94476563
 20
13.94669727
  0
VERTEX
  8
0
 62
7
 10
17.95100000
 20
13.93862500
  0
VERTEX
  8
0
 62
7
 10
17.95592188
 20
13.93003711
  0
VERTEX
  8
0
 62
7
 10
17.95925000
 20
13.92101563
  0
VERTEX
  8
0
 62
7
 10
17.96070313
 20
13.91164258
  0
VERTEX
  8
0
 62
7
 10
17.96000000
 20
13.90200000
  0
SEQEND
  0
POLYLINE
  8
0
 62
7
 66
1
 70
1
  0
VERTEX
  8
0
 62
7
 10
16.61400000
 20
11.12200000
  0
VERTEX
  8
0
 62
7
 10
16.61007813
 20
11.13221875
  0
VERTEX
  8
0
 62
7
 10
16.60887500
 20
11.14225000
  0
VERTEX
  8
0
 62
7
 10
16.60823438
 20
11.15265625
  0
VERTEX
  8
0
 62
7
 10
16.60600000
 20
11.16400000
  0
VERTEX
  8
0
 62
7
 10
16.58700000
 20
11.21500000
  0
VERTEX
  8
0
 62
7
 10
16.63600000
 20
11.23800000
  0
VERTEX
  8
0
 62
7
 10
16.73500000
 20
11.28500000
  0
VERTEX
  8
0
 62
7
 10
16.70600000
 20
11.30700000
  0
VERTEX
  8
0
 62
7
 10
16.67884375
 20
11.32228125
  0
VERTEX
  8
0
 62
7
 10
16.65000000
 20
11.33400000
  0
VERTEX
  8
0
 62
7
 10
16.61965625
 20
11.34271875
  0
VERTEX
  8
0
 62
7
 10
16.58800000
 20
11.34900000
  0
VERTEX
  8
0
 62
7
 10
16.56977930
 20
11.35499609
  0
VERTEX
  8
0
 62
7
 10
16.55510938
 20
11.36546875
  0
VERTEX
  8
0
 62
7
 10
16.54435352
 20
11.37926953
  0
VERTEX
  8
0
 62
7
 10
16.53787500
 20
11.39525000
  0
VERTEX
  8
0
 62
7
 10
16.53603711
 20
11.41226172
  0
VERTEX
  8
0
 62
7
 10
16.53920313
 20
11.42915625
  0
VERTEX
  8
0
 62
7
 10
16.54773633
 20
11.44478516
  0
VERTEX
  8
0
 62
7
 10
16.56200000
 20
11.45800000
  0
VERTEX
  8
0
 62
7
 10
16.62823438
 20
11.49860938
  0
VERTEX
  8
0
 62
7
 10
16.69662500
 20
11.53312500
  0
VERTEX
  8
0
 62
7
 10
16.76745313
 20
11.56107813
  0
VERTEX
  8
0
 62
7
 10
16.84100000
 20
11.58200000
  0
VERTEX
  8
0
 62
7
 10
16.87903125
 20
11.58898438
  0
VERTEX
  8
0
 62
7
 10
16.91650000
 20
11.59362500
  0
VERTEX
  8
0
 62
7
 10
16.95321875
 20
11.59620313
  0
VERTEX
  8
0
 62
7
 10
16.98900000
 20
11.59700000
  0
VERTEX
  8
0
 62
7
 10
17.09400000
 20
11.59200000
  0
VERTEX
  8
0
 62
7
 10
17.17137500
 20
11.58237500
  0
VERTEX
  8
0
 62
7
 10
17.24800000
 20
11.56600000
  0
VERTEX
  8
0
 62
7
 10
17.27400000
 20
11.62000000
  0
VERTEX
  8
0
 62
7
 10
17.28309375
 20
11.63346875
  0
VERTEX
  8
0
 62
7
 10
17.29500000
 20
11.64375000
  0
VERTEX
  8
0
 62
7
 10
17.30915625
 20
11.65065625
  0
VERTEX
  8
0
 62
7
 10
17.32500000
 20
11.65400000
  0
VERTEX
  8
0
 62
7
 10
17.36700000
 20
11.65500000
  0
VERTEX
  8
0
 62
7
 10
17.42489063
 20
11.65278125
  0
VERTEX
  8
0
 62
7
 10
17.48137500
 20
11.64625000
  0
VERTEX
  8
0
 62
7
 10
17.53617188
 20
11.63559375
  0
VERTEX
  8
0
 62
7
 10
17.58900000
 20
11.62100000
  0
VERTEX
  8
0
 62
7
 10
17.61800000
 20
11.64273438
  0
VERTEX
  8
0
 62
7
 10
17.65000000
 20
11.66662500
  0
VERTEX
  8
0
 62
7
 10
17.68125000
 20
11.69145313
  0
VERTEX
  8
0
 62
7
 10
17.70800000
 20
11.71600000
  0
VERTEX
  8
0
 62
7
 10
17.75570898
 20
11.77151563
  0
VERTEX
  8
0
 62
7
 10
17.79548438
 20
11.82975000
  0
VERTEX
  8
0
 62
7
 10
17.82754883
 20
11.89023438
  0
VERTEX
  8
0
 62
7
 10
17.85212500
 20
11.95250000
  0
VERTEX
  8
0
 62
7
 10
17.86943555
 20
12.01607813
  0
VERTEX
  8
0
 62
7
 10
17.87970313
 20
12.08050000
  0
VERTEX
  8
0
 62
7
 10
17.88315039
 20
12.14529688
  0
VERTEX
  8
0
 62
7
 10
17.88000000
 20
12.21000000
  0
VERTEX
  8
0
 62
7
 10
17.75700000
 20
12.21300000
  0
VERTEX
  8
0
 62
7
 10
17.77019727
 20
12.25104883
  0
VERTEX
  8
0
 62
7
 10
17.78570313
 20
12.28864063
  0
VERTEX
  8
0
 62
7
 10
17.80338867
 20
12.32569336
  0
VERTEX
  8
0
 62
7
 10
17.82312500
 20
12.36212500
  0
VERTEX
  8
0
 62
7
 10
17.84478320
 20
12.39785352
  0
VERTEX
  8
0
 62
7
 10
17.86823438
 20
12.43279688
  0
VERTEX
  8
0
 62
7
 10
17.89334961
 20
12.46687305
  0
VERTEX
  8
0
 62
7
 10
17.92000000
 20
12.50000000
  0
VERTEX
  8
0
 62
7
 10
17.96540625
 20
12.54737500
  0
VERTEX
  8
0
 62
7
 10
18.01325000
 20
12.59175000
  0
VERTEX
  8
0
 62
7
 10
18.06371875
 20
12.63275000
  0
VERTEX
  8
0
 62
7
 10
18.11700000
 20
12.67000000
  0
VERTEX
  8
0
 62
7
 10
18.10108789
 20
12.68630664
  0
VERTEX
  8
0
 62
7
 10
18.08345313
 20
12.70070313
  0
VERTEX
  8
0
 62
7
 10
18.06424805
 20
12.71315430
  0
VERTEX
  8
0
 62
7
 10
18.04362500
 20
12.72362500
  0
VERTEX
  8
0
 62
7
 10
18.02173633
 20
12.73208008
  0
VERTEX
  8
0
 62
7
 10
17.99873438
 20
12.73848438
  0
VERTEX
  8
0
 62
7
 10
17.97477148
 20
12.74280273
  0
VERTEX
  8
0
 62
7
 10
17.95000000
 20
12.74500000
  0
VERTEX
  8
0
 62
7
 10
17.92180469
 20
12.74510742
  0
VERTEX
  8
0
 62
7
 10
17.89356250
 20
12.74248438
  0
VERTEX
  8
0
 62
7
 10
17.86541406
 20
12.73721289
  0
VERTEX
  8
0
 62
7
 10
17.83750000
 20
12.72937500
  0
VERTEX
  8
0
 62
7
 10
17.80996094
 20
12.71905273
  0
VERTEX
  8
0
 62
7
 10
17.78293750
 20
12.70632813
  0
VERTEX
  8
0
 62
7
 10
17.75657031
 20
12.69128320
  0
VERTEX
  8
0
 62
7
 10
17.73100000
 20
12.67400000
  0
VERTEX
  8
0
 62
7
 10
17.71900000
 20
12.75100000
  0
VERTEX
  8
0
 62
7
 10
17.67864063
 20
12.75159375
  0
VERTEX
  8
0
 62
7
 10
17.63762500
 20
12.74600000
  0
VERTEX
  8
0
 62
7
 10
17.59679688
 20
12.73440625
  0
VERTEX
  8
0
 62
7
 10
17.55700000
 20
12.71700000
  0
VERTEX
  8
0
 62
7
 10
17.53174219
 20
12.70320117
  0
VERTEX
  8
0
 62
7
 10
17.50831250
 20
12.68685938
  0
VERTEX
  8
0
 62
7
 10
17.48647656
 20
12.66843164
  0
VERTEX
  8
0
 62
7
 10
17.46600000
 20
12.64837500
  0
VERTEX
  8
0
 62
7
 10
17.44664844
 20
12.62714648
  0
VERTEX
  8
0
 62
7
 10
17.42818750
 20
12.60520313
  0
VERTEX
  8
0
 62
7
 10
17.41038281
 20
12.58300195
  0
VERTEX
  8
0
 62
7
 10
17.39300000
 20
12.56100000
  0
VERTEX
  8
0
 62
7
 10
17.32100000
 20
12.45700000
  0
VERTEX
  8
0
 62
7
 10
17.31301563
 20
12.44637500
  0
VERTEX
  8
0
 62
7
 10
17.30287500
 20
12.43725000
  0
VERTEX
  8
0
 62
7
 10
17.29104688
 20
12.43225000
  0
VERTEX
  8
0
 62
7
 10
17.27800000
 20
12.43400000
  0
VERTEX
  8
0
 62
7
 10
17.26949805
 20
12.43979492
  0
VERTEX
  8
0
 62
7
 10
17.26585938
 20
12.44717188
  0
VERTEX
  8
0
 62
7
 10
17.26613477
 20
12.45574414
  0
VERTEX
  8
0
 62
7
 10
17.26937500
 20
12.46512500
  0
VERTEX
  8
0
 62
7
 10
17.27463086
 20
12.47492773
  0
VERTEX
  8
0
 62
7
 10
17.28095313
 20
12.48476563
  0
VERTEX
  8
0
 62
7
 10
17.28739258
 20
12.49425195
  0
VERTEX
  8
0
 62
7
 10
17.29300000
 20
12.50300000
  0
VERTEX
  8
0
 62
7
 10
17.33762500
 20
12.56562500
  0
VERTEX
  8
0
 62
7
 10
17.38600000
 20
12.62300000
  0
VERTEX
  8
0
 62
7
 10
17.41600000
 20
12.65256250
  0
VERTEX
  8
0
 62
7
 10
17.44825000
 20
12.68025000
  0
VERTEX
  8
0
 62
7
 10
17.48162500
 20
12.70681250
  0
VERTEX
  8
0
 62
7
 10
17.51500000
 20
12.73300000
  0
VERTEX
  8
0
 62
7
 10
17.70700000
 20
12.88300000
  0
VERTEX
  8
0
 62
7
 10
17.75795313
 20
12.92625000
  0
VERTEX
  8
0
 62
7
 10
17.80862500
 20
12.97025000
  0
VERTEX
  8
0
 62
7
 10
17.85648438
 20
13.01687500
  0
VERTEX
  8
0
 62
7
 10
17.89900000
 20
13.06800000
  0
VERTEX
  8
0
 62
7
 10
17.92748242
 20
13.11220508
  0
VERTEX
  8
0
 62
7
 10
17.95210938
 20
13.15764063
  0
VERTEX
  8
0
 62
7
 10
17.97277539
 20
13.20403711
  0
VERTEX
  8
0
 62
7
 10
17.98937500
 20
13.25112500
  0
VERTEX
  8
0
 62
7
 10
18.00180273
 20
13.29863477
  0
VERTEX
  8
0
 62
7
 10
18.00995313
 20
13.34629688
  0
VERTEX
  8
0
 62
7
 10
18.01372070
 20
13.39384180
  0
VERTEX
  8
0
 62
7
 10
18.01300000
 20
13.44100000
  0
VERTEX
  8
0
 62
7
 10
17.89700000
 20
13.41300000
  0
VERTEX
  8
0
 62
7
 10
17.92517188
 20
13.47096875
  0
VERTEX
  8
0
 62
7
 10
17.94687500
 20
13.53025000
  0
VERTEX
  8
0
 62
7
 10
17.96239063
 20
13.58990625
  0
VERTEX
  8
0
 62
7
 10
17.97200000
 20
13.64900000
  0
VERTEX
  8
0
 62
7
 10
17.97384375
 20
13.70495313
  0
VERTEX
  8
0
 62
7
 10
17.97025000
 20
13.75987500
  0
VERTEX
  8
0
 62
7
 10
17.96103125
 20
13.81310938
  0
VERTEX
  8
0
 62
7
 10
17.94600000
 20
13.86400000
  0
VERTEX
  8
0
 62
7
 10
17.91314063
 20
13.83940625
  0
VERTEX
  8
0
 62
7
 10
17.87812500
 20
13.81800000
  0
VERTEX
  8
0
 62
7
 10
17.84179688
 20
13.79959375
  0
VERTEX
  8
0
 62
7
 10
17.80500000
 20
13.78400000
  0
VERTEX
  8
0
 62
7
 10
17.74625000
 20
13.76625000
  0
VERTEX
  8
0
 62
7
 10
17.68900000
 20
13.75600000
  0
VERTEX
  8
0
 62
7
 10
17.68100000
 20
13.84800000
  0
VERTEX
  8
0
 62
7
 10
17.64290625
 20
13.82787500
  0
VERTEX
  8
0
 62
7
 10
17.60725000
 20
13.80700000
  0
VERTEX
  8
0
 62
7
 10
17.57271875
 20
13.78387500
  0
VERTEX
  8
0
 62
7
 10
17.53800000
 20
13.75700000
  0
VERTEX
  8
0
 62
7
 10
17.50798828
 20
13.72980859
  0
VERTEX
  8
0
 62
7
 10
17.47996875
 20
13.70034375
  0
VERTEX
  8
0
 62
7
 10
17.45358984
 20
13.66914453
  0
VERTEX
  8
0
 62
7
 10
17.42850000
 20
13.63675000
  0
VERTEX
  8
0
 62
7
 10
17.40434766
 20
13.60369922
  0
VERTEX
  8
0
 62
7
 10
17.38078125
 20
13.57053125
  0
VERTEX
  8
0
 62
7
 10
17.35744922
 20
13.53778516
  0
VERTEX
  8
0
 62
7
 10
17.33400000
 20
13.50600000
  0
VERTEX
  8
0
 62
7
 10
17.29687500
 20
13.46400000
  0
VERTEX
  8
0
 62
7
 10
17.25900000
 20
13.43100000
  0
VERTEX
  8
0
 62
7
 10
17.24898438
 20
13.42485938
  0
VERTEX
  8
0
 62
7
 10
17.23662500
 20
13.42162500
  0
VERTEX
  8
0
 62
7
 10
17.22370313
 20
13.42157813
  0
VERTEX
  8
0
 62
7
 10
17.21200000
 20
13.42500000
  0
VERTEX
  8
0
 62
7
 10
17.20215820
 20
13.43213867
  0
VERTEX
  8
0
 62
7
 10
17.19814063
 20
13.44123438
  0
VERTEX
  8
0
 62
7
 10
17.19883398
 20
13.45180664
  0
VERTEX
  8
0
 62
7
 10
17.20312500
 20
13.46337500
  0
VERTEX
  8
0
 62
7
 10
17.20990039
 20
13.47545898
  0
VERTEX
  8
0
 62
7
 10
17.21804688
 20
13.48757813
  0
VERTEX
  8
0
 62
7
 10
17.22645117
 20
13.49925195
  0
VERTEX
  8
0
 62
7
 10
17.23400000
 20
13.51000000
  0
VERTEX
  8
0
 62
7
 10
17.25998438
 20
13.54303125
  0
VERTEX
  8
0
 62
7
 10
17.28887500
 20
13.57400000
  0
VERTEX
  8
0
 62
7
 10
17.31907813
 20
13.60421875
  0
VERTEX
  8
0
 62
7
 10
17.34900000
 20
13.63500000
  0
VERTEX
  8
0
 62
7
 10
17.42875000
 20
13.71137500
  0
VERTEX
  8
0
 62
7
 10
17.51000000
 20
13.78400000
  0
VERTEX
  8
0
 62
7
 10
17.67900000
 20
13.93300000
  0
VERTEX
  8
0
 62
7
 10
17.70609570
 20
13.96053906
  0
VERTEX
  8
0
 62
7
 10
17.73301563
 20
13.98850000
  0
VERTEX
  8
0
 62
7
 10
17.75920898
 20
14.01702344
  0
VERTEX
  8
0
 62
7
 10
17.78412500
 20
14.04625000
  0
VERTEX
  8
0
 62
7
 10
17.80721289
 20
14.07632031
  0
VERTEX
  8
0
 62
7
 10
17.82792188
 20
14.10737500
  0
VERTEX
  8
0
 62
7
 10
17.84570117
 20
14.13955469
  0
VERTEX
  8
0
 62
7
 10
17.86000000
 20
14.17300000
  0
VERTEX
  8
0
 62
7
 10
17.87162305
 20
14.20873242
  0
VERTEX
  8
0
 62
7
 10
17.88023438
 20
14.24454688
  0
VERTEX
  8
0
 62
7
 10
17.88582227
 20
14.28024414
  0
VERTEX
  8
0
 62
7
 10
17.88837500
 20
14.31562500
  0
VERTEX
  8
0
 62
7
 10
17.88788086
 20
14.35049023
  0
VERTEX
  8
0
 62
7
 10
17.88432813
 20
14.38464063
  0
VERTEX
  8
0
 62
7
 10
17.87770508
 20
14.41787695
  0
VERTEX
  8
0
 62
7
 10
17.86800000
 20
14.45000000
  0
VERTEX
  8
0
 62
7
 10
17.76500000
 20
14.41400000
  0
VERTEX
  8
0
 62
7
 10
17.77389063
 20
14.48107813
  0
VERTEX
  8
0
 62
7
 10
17.77762500
 20
14.54712500
  0
VERTEX
  8
0
 62
7
 10
17.77554688
 20
14.61185938
  0
VERTEX
  8
0
 62
7
 10
17.76700000
 20
14.67500000
  0
VERTEX
  8
0
 62
7
 10
17.75659375
 20
14.73157813
  0
VERTEX
  8
0
 62
7
 10
17.74150000
 20
14.78562500
  0
VERTEX
  8
0
 62
7
 10
17.72115625
 20
14.83685938
  0
VERTEX
  8
0
 62
7
 10
17.69500000
 20
14.88500000
  0
VERTEX
  8
0
 62
7
 10
17.67237695
 20
14.91770898
  0
VERTEX
  8
0
 62
7
 10
17.64732813
 20
14.94829688
  0
VERTEX
  8
0
 62
7
 10
17.61995898
 20
14.97670508
  0
VERTEX
  8
0
 62
7
 10
17.59037500
 20
15.00287500
  0
VERTEX
  8
0
 62
7
 10
17.55868164
 20
15.02674805
  0
VERTEX
  8
0
 62
7
 10
17.52498438
 20
15.04826563
  0
VERTEX
  8
0
 62
7
 10
17.48938867
 20
15.06736914
  0
VERTEX
  8
0
 62
7
 10
17.45200000
 20
15.08400000
  0
VERTEX
  8
0
 62
7
 10
17.45465625
 20
15.02753125
  0
VERTEX
  8
0
 62
7
 10
17.45375000
 20
14.97050000
  0
VERTEX
  8
0
 62
7
 10
17.44946875
 20
14.91271875
  0
VERTEX
  8
0
 62
7
 10
17.44200000
 20
14.85400000
  0
VERTEX
  8
0
 62
7
 10
17.43750391
 20
14.83100391
  0
VERTEX
  8
0
 62
7
 10
17.43340625
 20
14.80784375
  0
VERTEX
  8
0
 62
7
 10
17.42916797
 20
14.78463672
  0
VERTEX
  8
0
 62
7
 10
17.42425000
 20
14.76150000
  0
VERTEX
  8
0
 62
7
 10
17.41811328
 20
14.73855078
  0
VERTEX
  8
0
 62
7
 10
17.41021875
 20
14.71590625
  0
VERTEX
  8
0
 62
7
 10
17.40002734
 20
14.69368359
  0
VERTEX
  8
0
 62
7
 10
17.38700000
 20
14.67200000
  0
VERTEX
  8
0
 62
7
 10
17.36035938
 20
14.63679688
  0
VERTEX
  8
0
 62
7
 10
17.32912500
 20
14.60487500
  0
VERTEX
  8
0
 62
7
 10
17.29432813
 20
14.57651563
  0
VERTEX
  8
0
 62
7
 10
17.25700000
 20
14.55200000
  0
VERTEX
  8
0
 62
7
 10
17.18800000
 20
14.64600000
  0
VERTEX
  8
0
 62
7
 10
17.13871875
 20
14.59801563
  0
VERTEX
  8
0
 62
7
 10
17.09300000
 20
14.54712500
  0
VERTEX
  8
0
 62
7
 10
17.05103125
 20
14.49342188
  0
VERTEX
  8
0
 62
7
 10
17.01300000
 20
14.43700000
  0
VERTEX
  8
0
 62
7
 10
16.97932813
 20
14.37195313
  0
VERTEX
  8
0
 62
7
 10
16.95287500
 20
14.30512500
  0
VERTEX
  8
0
 62
7
 10
16.93073438
 20
14.23773438
  0
VERTEX
  8
0
 62
7
 10
16.91000000
 20
14.17100000
  0
VERTEX
  8
0
 62
7
 10
16.89306250
 20
14.10423438
  0
VERTEX
  8
0
 62
7
 10
16.88100000
 20
14.03737500
  0
VERTEX
  8
0
 62
7
 10
16.86893750
 20
13.97032813
  0
VERTEX
  8
0
 62
7
 10
16.85200000
 20
13.90300000
  0
VERTEX
  8
0
 62
7
 10
16.84121875
 20
13.86839063
  0
VERTEX
  8
0
 62
7
 10
16.83025000
 20
13.83387500
  0
VERTEX
  8
0
 62
7
 10
16.81740625
 20
13.79992188
  0
VERTEX
  8
0
 62
7
 10
16.80100000
 20
13.76700000
  0
VERTEX
  8
0
 62
7
 10
16.79253125
 20
13.75390625
  0
VERTEX
  8
0
 62
7
 10
16.78200000
 20
13.74250000
  0
VERTEX
  8
0
 62
7
 10
16.76921875
 20
13.73409375
  0
VERTEX
  8
0
 62
7
 10
16.75400000
 20
13.73000000
  0
VERTEX
  8
0
 62
7
 10
16.74350000
 20
13.73130078
  0
VERTEX
  8
0
 62
7
 10
16.73581250
 20
13.73684375
  0
VERTEX
  8
0
 62
7
 10
16.73065625
 20
13.74571484
  0
VERTEX
  8
0
 62
7
 10
16.72775000
 20
13.75700000
  0
VERTEX
  8
0
 62
7
 10
16.72681250
 20
13.76978516
  0
VERTEX
  8
0
 62
7
 10
16.72756250
 20
13.78315625
  0
VERTEX
  8
0
 62
7
 10
16.72971875
 20
13.79619922
  0
VERTEX
  8
0
 62
7
 10
16.73300000
 20
13.80800000
  0
VERTEX
  8
0
 62
7
 10
16.77500000
 20
13.90500000
  0
VERTEX
  8
0
 62
7
 10
16.78281250
 20
13.93045313
  0
VERTEX
  8
0
 62
7
 10
16.79025000
 20
13.95581250
  0
VERTEX
  8
0
 62
7
 10
16.79693750
 20
13.98107813
  0
VERTEX
  8
0
 62
7
 10
16.80250000
 20
14.00625000
  0
VERTEX
  8
0
 62
7
 10
16.80656250
 20
14.03132813
  0
VERTEX
  8
0
 62
7
 10
16.80875000
 20
14.05631250
  0
VERTEX
  8
0
 62
7
 10
16.80868750
 20
14.08120313
  0
VERTEX
  8
0
 62
7
 10
16.80600000
 20
14.10600000
  0
VERTEX
  8
0
 62
7
 10
16.79859375
 20
14.14962500
  0
VERTEX
  8
0
 62
7
 10
16.78425000
 20
14.19025000
  0
VERTEX
  8
0
 62
7
 10
16.76353125
 20
14.22750000
  0
VERTEX
  8
0
 62
7
 10
16.73700000
 20
14.26100000
  0
VERTEX
  8
0
 62
7
 10
16.63000000
 20
14.20200000
  0
VERTEX
  8
0
 62
7
 10
16.62078125
 20
14.22370313
  0
VERTEX
  8
0
 62
7
 10
16.61400000
 20
14.24662500
  0
VERTEX
  8
0
 62
7
 10
16.60946875
 20
14.27048438
  0
VERTEX
  8
0
 62
7
 10
16.60700000
 20
14.29500000
  0
VERTEX
  8
0
 62
7
 10
16.60712500
 20
14.33262500
  0
VERTEX
  8
0
 62
7
 10
16.61100000
 20
14.37100000
  0
VERTEX
  8
0
 62
7
 10
16.56607813
 20
14.34025000
  0
VERTEX
  8
0
 62
7
 10
16.52312500
 20
14.30650000
  0
VERTEX
  8
0
 62
7
 10
16.48260938
 20
14.26975000
  0
VERTEX
  8
0
 62
7
 10
16.44500000
 20
14.23000000
  0
VERTEX
  8
0
 62
7
 10
16.40537891
 20
14.18275586
  0
VERTEX
  8
0
 62
7
 10
16.36990625
 20
14.13348438
  0
VERTEX
  8
0
 62
7
 10
16.33879297
 20
14.08250195
  0
VERTEX
  8
0
 62
7
 10
16.31225000
 20
14.03012500
  0
VERTEX
  8
0
 62
7
 10
16.29048828
 20
13.97666992
  0
VERTEX
  8
0
 62
7
 10
16.27371875
 20
13.92245313
  0
VERTEX
  8
0
 62
7
 10
16.26215234
 20
13.86779102
  0
VERTEX
  8
0
 62
7
 10
16.25600000
 20
13.81300000
  0
VERTEX
  8
0
 62
7
 10
16.17800000
 20
13.77700000
  0
VERTEX
  8
0
 62
7
 10
16.16070313
 20
13.70954688
  0
VERTEX
  8
0
 62
7
 10
16.14912500
 20
13.64237500
  0
VERTEX
  8
0
 62
7
 10
16.14298438
 20
13.57576563
  0
VERTEX
  8
0
 62
7
 10
16.14200000
 20
13.51000000
  0
VERTEX
  8
0
 62
7
 10
16.14795313
 20
13.45346875
  0
VERTEX
  8
0
 62
7
 10
16.15812500
 20
13.39825000
  0
VERTEX
  8
0
 62
7
 10
16.17223438
 20
13.34490625
  0
VERTEX
  8
0
 62
7
 10
16.19000000
 20
13.29400000
  0
VERTEX
  8
0
 62
7
 10
16.20391797
 20
13.26288867
  0
VERTEX
  8
0
 62
7
 10
16.21996875
 20
13.23317188
  0
VERTEX
  8
0
 62
7
 10
16.23784766
 20
13.20465039
  0
VERTEX
  8
0
 62
7
 10
16.25725000
 20
13.17712500
  0
VERTEX
  8
0
 62
7
 10
16.27787109
 20
13.15039648
  0
VERTEX
  8
0
 62
7
 10
16.29940625
 20
13.12426563
  0
VERTEX
  8
0
 62
7
 10
16.32155078
 20
13.09853320
  0
VERTEX
  8
0
 62
7
 10
16.34400000
 20
13.07300000
  0
VERTEX
  8
0
 62
7
 10
16.37715625
 20
13.04123438
  0
VERTEX
  8
0
 62
7
 10
16.41200000
 20
13.01162500
  0
VERTEX
  8
0
 62
7
 10
16.44609375
 20
12.98145313
  0
VERTEX
  8
0
 62
7
 10
16.47700000
 20
12.94800000
  0
VERTEX
  8
0
 62
7
 10
16.49942188
 20
12.91804688
  0
VERTEX
  8
0
 62
7
 10
16.52062500
 20
12.88687500
  0
VERTEX
  8
0
 62
7
 10
16.53901563
 20
12.85476563
  0
VERTEX
  8
0
 62
7
 10
16.55300000
 20
12.82200000
  0
VERTEX
  8
0
 62
7
 10
16.55688257
 20
12.80845410
  0
VERTEX
  8
0
 62
7
 10
16.55888867
 20
12.79566406
  0
VERTEX
  8
0
 62
7
 10
16.55918091
 20
12.78377637
  0
VERTEX
  8
0
 62
7
 10
16.55792188
 20
12.77293750
  0
VERTEX
  8
0
 62
7
 10
16.55527417
 20
12.76329395
  0
VERTEX
  8
0
 62
7
 10
16.55140039
 20
12.75499219
  0
VERTEX
  8
0
 62
7
 10
16.54646313
 20
12.74817871
  0
VERTEX
  8
0
 62
7
 10
16.54062500
 20
12.74300000
  0
VERTEX
  8
0
 62
7
 10
16.53404858
 20
12.73960254
  0
VERTEX
  8
0
 62
7
 10
16.52689648
 20
12.73813281
  0
VERTEX
  8
0
 62
7
 10
16.51933130
 20
12.73873730
  0
VERTEX
  8
0
 62
7
 10
16.51151563
 20
12.74156250
  0
VERTEX
  8
0
 62
7
 10
16.50361206
 20
12.74675488
  0
VERTEX
  8
0
 62
7
 10
16.49578320
 20
12.75446094
  0
VERTEX
  8
0
 62
7
 10
16.48819165
 20
12.76482715
  0
VERTEX
  8
0
 62
7
 10
16.48100000
 20
12.77800000
  0
VERTEX
  8
0
 62
7
 10
16.46787500
 20
12.81275000
  0
VERTEX
  8
0
 62
7
 10
16.45100000
 20
12.84900000
  0
VERTEX
  8
0
 62
7
 10
16.43681055
 20
12.87252148
  0
VERTEX
  8
0
 62
7
 10
16.42054688
 20
12.89429688
  0
VERTEX
  8
0
 62
7
 10
16.40229102
 20
12.91426758
  0
VERTEX
  8
0
 62
7
 10
16.38212500
 20
12.93237500
  0
VERTEX
  8
0
 62
7
 10
16.36013086
 20
12.94856055
  0
VERTEX
  8
0
 62
7
 10
16.33639063
 20
12.96276563
  0
VERTEX
  8
0
 62
7
 10
16.31098633
 20
12.97493164
  0
VERTEX
  8
0
 62
7
 10
16.28400000
 20
12.98500000
  0
VERTEX
  8
0
 62
7
 10
16.14800000
 20
12.87300000
  0
VERTEX
  8
0
 62
7
 10
16.10268750
 20
12.88193750
  0
VERTEX
  8
0
 62
7
 10
16.05550000
 20
12.88600000
  0
VERTEX
  8
0
 62
7
 10
16.00681250
 20
12.88481250
  0
VERTEX
  8
0
 62
7
 10
15.95700000
 20
12.87800000
  0
VERTEX
  8
0
 62
7
 10
15.92270313
 20
12.87101563
  0
VERTEX
  8
0
 62
7
 10
15.88887500
 20
12.86187500
  0
VERTEX
  8
0
 62
7
 10
15.85560938
 20
12.85029688
  0
VERTEX
  8
0
 62
7
 10
15.82300000
 20
12.83600000
  0
VERTEX
  8
0
 62
7
 10
15.83748438
 20
12.80679688
  0
VERTEX
  8
0
 62
7
 10
15.84962500
 20
12.77637500
  0
VERTEX
  8
0
 62
7
 10
15.85970313
 20
12.74501563
  0
VERTEX
  8
0
 62
7
 10
15.86800000
 20
12.71300000
  0
VERTEX
  8
0
 62
7
 10
15.87445313
 20
12.67573438
  0
VERTEX
  8
0
 62
7
 10
15.87687500
 20
12.63687500
  0
VERTEX
  8
0
 62
7
 10
15.87910938
 20
12.59782813
  0
VERTEX
  8
0
 62
7
 10
15.88500000
 20
12.56000000
  0
VERTEX
  8
0
 62
7
 10
15.90064063
 20
12.50690625
  0
VERTEX
  8
0
 62
7
 10
15.92162500
 20
12.45700000
  0
VERTEX
  8
0
 62
7
 10
15.94729688
 20
12.41009375
  0
VERTEX
  8
0
 62
7
 10
15.97700000
 20
12.36600000
  0
VERTEX
  8
0
 62
7
 10
15.88200000
 20
12.29800000
  0
VERTEX
  8
0
 62
7
 10
15.90678125
 20
12.21900000
  0
VERTEX
  8
0
 62
7
 10
15.93775000
 20
12.14300000
  0
VERTEX
  8
0
 62
7
 10
15.97509375
 20
12.07075000
  0
VERTEX
  8
0
 62
7
 10
16.01900000
 20
12.00300000
  0
VERTEX
  8
0
 62
7
 10
16.04898828
 20
11.96260547
  0
VERTEX
  8
0
 62
7
 10
16.08115625
 20
11.92396875
  0
VERTEX
  8
0
 62
7
 10
16.11543359
 20
11.88716016
  0
VERTEX
  8
0
 62
7
 10
16.15175000
 20
11.85225000
  0
VERTEX
  8
0
 62
7
 10
16.19003516
 20
11.81930859
  0
VERTEX
  8
0
 62
7
 10
16.23021875
 20
11.78840625
  0
VERTEX
  8
0
 62
7
 10
16.27223047
 20
11.75961328
  0
VERTEX
  8
0
 62
7
 10
16.31600000
 20
11.73300000
  0
VERTEX
  8
0
 62
7
 10
16.13600000
 20
11.66200000
  0
VERTEX
  8
0
 62
7
 10
16.14056250
 20
11.59040625
  0
VERTEX
  8
0
 62
7
 10
16.15150000
 20
11.52125000
  0
VERTEX
  8
0
 62
7
 10
16.16918750
 20
11.45471875
  0
VERTEX
  8
0
 62
7
 10
16.19400000
 20
11.39100000
  0
VERTEX
  8
0
 62
7
 10
16.21203711
 20
11.35313867
  0
VERTEX
  8
0
 62
7
 10
16.23235938
 20
11.31685938
  0
VERTEX
  8
0
 62
7
 10
16.25490820
 20
11.28224414
  0
VERTEX
  8
0
 62
7
 10
16.27962500
 20
11.24937500
  0
VERTEX
  8
0
 62
7
 10
16.30645117
 20
11.21833398
  0
VERTEX
  8
0
 62
7
 10
16.33532813
 20
11.18920313
  0
VERTEX
  8
0
 62
7
 10
16.36619727
 20
11.16206445
  0
VERTEX
  8
0
 62
7
 10
16.39900000
 20
11.13700000
  0
VERTEX
  8
0
 62
7
 10
16.46400000
 20
11.14000000
  0
VERTEX
  8
0
 62
7
 10
16.50290625
 20
11.13887500
  0
VERTEX
  8
0
 62
7
 10
16.54125000
 20
11.13550000
  0
VERTEX
  8
0
 62
7
 10
16.57846875
 20
11.12987500
  0
VERTEX
  8
0
 62
7
 10
16.61400000
 20
11.12200000
  0
SEQEND
  0
POLYLINE
  8
0
 62
7
 66
1
  0
VERTEX
  8
0
 62
7
 10
16.92258955
 20
11.60054229
  0
VERTEX
  8
0
 62
7
 10
16.89653967
 20
11.75178220
  0
VERTEX
  8
0
 62
7
 10
16.87583842
 20
11.90480583
  0
VERTEX
  8
0
 62
7
 10
16.86108012
 20
12.05949427
  0
VERTEX
  8
0
 62
7
 10
16.85285905
 20
12.21572860
  0
VERTEX
  8
0
 62
7
 10
16.84883766
 20
12.36385691
  0
VERTEX
  8
0
 62
7
 10
16.84921405
 20
12.51317436
  0
VERTEX
  8
0
 62
7
 10
16.85553338
 20
12.66344313
  0
VERTEX
  8
0
 62
7
 10
16.86934081
 20
12.81442539
  0
VERTEX
  8
0
 62
7
 10
16.89093844
 20
12.97533951
  0
VERTEX
  8
0
 62
7
 10
16.92041048
 20
13.13638742
  0
VERTEX
  8
0
 62
7
 10
16.95754890
 20
13.29734615
  0
VERTEX
  8
0
 62
7
 10
17.00214572
 20
13.45799272
  0
VERTEX
  8
0
 62
7
 10
17.05399292
 20
13.61810417
  0
VERTEX
  8
0
 62
7
 10
17.11288251
 20
13.77745754
  0
VERTEX
  8
0
 62
7
 10
17.17860648
 20
13.93582986
  0
VERTEX
  8
0
 62
7
 10
17.25095683
 20
14.09299817
  0
SEQEND
  0
POLYLINE
  8
0
 62
7
 66
1
 70
1
  0
VERTEX
  8
0
 62
7
 10
18.65800000
 20
14.66700000
  0
VERTEX
  8
0
 62
7
 10
18.69073438
 20
14.65325000
  0
VERTEX
  8
0
 62
7
 10
18.72262500
 20
14.63275000
  0
VERTEX
  8
0
 62
7
 10
18.75320313
 20
14.60737500
  0
VERTEX
  8
0
 62
7
 10
18.78200000
 20
14.57900000
  0
VERTEX
  8
0
 62
7
 10
18.79390625
 20
14.56497266
  0
VERTEX
  8
0
 62
7
 10
18.80543750
 20
14.54928125
  0
VERTEX
  8
0
 62
7
 10
18.81631250
 20
14.53213672
  0
VERTEX
  8
0
 62
7
 10
18.82625000
 20
14.51375000
  0
VERTEX
  8
0
 62
7
 10
18.83496875
 20
14.49433203
  0
VERTEX
  8
0
 62
7
 10
18.84218750
 20
14.47409375
  0
VERTEX
  8
0
 62
7
 10
18.84762500
 20
14.45324609
  0
VERTEX
  8
0
 62
7
 10
18.85100000
 20
14.43200000
  0
VERTEX
  8
0
 62
7
 10
18.85200000
 20
14.40900000
  0
VERTEX
  8
0
 62
7
 10
18.84800000
 20
14.36300000
  0
VERTEX
  8
0
 62
7
 10
18.87550000
 20
14.35898438
  0
VERTEX
  8
0
 62
7
 10
18.90225000
 20
14.35112500
  0
VERTEX
  8
0
 62
7
 10
18.92787500
 20
14.33895313
  0
VERTEX
  8
0
 62
7
 10
18.95200000
 20
14.32200000
  0
VERTEX
  8
0
 62
7
 10
19.00400000
 20
14.36500000
  0
VERTEX
  8
0
 62
7
 10
19.03100000
 20
14.38300000
  0
VERTEX
  8
0
 62
7
 10
19.01162500
 20
14.41675000
  0
VERTEX
  8
0
 62
7
 10
18.99900000
 20
14.44600000
  0
VERTEX
  8
0
 62
7
 10
18.99000000
 20
14.46900000
  0
VERTEX
  8
0
 62
7
 10
18.97700000
 20
14.50200000
  0
VERTEX
  8
0
 62
7
 10
18.96800000
 20
14.52500000
  0
VERTEX
  8
0
 62
7
 10
18.95762500
 20
14.53875000
  0
VERTEX
  8
0
 62
7
 10
18.93900000
 20
14.55700000
  0
VERTEX
  8
0
 62
7
 10
18.90400000
 20
14.59300000
  0
VERTEX
  8
0
 62
7
 10
18.89000000
 20
14.60900000
  0
VERTEX
  8
0
 62
7
 10
18.87609375
 20
14.62439063
  0
VERTEX
  8
0
 62
7
 10
18.86050000
 20
14.64512500
  0
VERTEX
  8
0
 62
7
 10
18.84640625
 20
14.67129688
  0
VERTEX
  8
0
 62
7
 10
18.83700000
 20
14.70300000
  0
VERTEX
  8
0
 62
7
 10
18.83387500
 20
14.72250000
  0
VERTEX
  8
0
 62
7
 10
18.83300000
 20
14.74200000
  0
VERTEX
  8
0
 62
7
 10
18.83450000
 20
14.76662500
  0
VERTEX
  8
0
 62
7
 10
18.83900000
 20
14.79200000
  0
VERTEX
  8
0
 62
7
 10
18.80600000
 20
14.83000000
  0
VERTEX
  8
0
 62
7
 10
18.79007813
 20
14.79525000
  0
VERTEX
  8
0
 62
7
 10
18.76937500
 20
14.76200000
  0
VERTEX
  8
0
 62
7
 10
18.74398438
 20
14.73100000
  0
VERTEX
  8
0
 62
7
 10
18.71400000
 20
14.70300000
  0
VERTEX
  8
0
 62
7
 10
18.68712500
 20
14.68350000
  0
VERTEX
  8
0
 62
7
 10
18.65800000
 20
14.66700000
  0
SEQEND
  0
POLYLINE
  8
0
 62
7
 66
1
 70
1
  0
VERTEX
  8
0
 62
7
 10
18.39800000
 20
13.98600000
  0
VERTEX
  8
0
 62
7
 10
18.38924654
 20
13.98639143
  0
VERTEX
  8
0
 62
7
 10
18.38217197
 20
13.98984491
  0
VERTEX
  8
0
 62
7
 10
18.37702885
 20
13.99549833
  0
VERTEX
  8
0
 62
7
 10
18.37406976
 20
14.00248953
  0
VERTEX
  8
0
 62
7
 10
18.37354728
 20
14.00995639
  0
VERTEX
  8
0
 62
7
 10
18.37571397
 20
14.01703678
  0
VERTEX
  8
0
 62
7
 10
18.38082243
 20
14.02286857
  0
VERTEX
  8
0
 62
7
 10
18.38912521
 20
14.02658961
  0
VERTEX
  8
0
 62
7
 10
18.44849518
 20
14.04361426
  0
VERTEX
  8
0
 62
7
 10
18.50655771
 20
14.06765488
  0
VERTEX
  8
0
 62
7
 10
18.56295622
 20
14.09811691
  0
VERTEX
  8
0
 62
7
 10
18.61733412
 20
14.13440577
  0
VERTEX
  8
0
 62
7
 10
18.66137131
 20
14.16978295
  0
VERTEX
  8
0
 62
7
 10
18.70243703
 20
14.20813300
  0
VERTEX
  8
0
 62
7
 10
18.73803525
 20
14.25052615
  0
VERTEX
  8
0
 62
7
 10
18.76566992
 20
14.29803264
  0
VERTEX
  8
0
 62
7
 10
18.77818971
 20
14.33053605
  0
VERTEX
  8
0
 62
7
 10
18.78690603
 20
14.36303945
  0
VERTEX
  8
0
 62
7
 10
18.79134342
 20
14.39506719
  0
VERTEX
  8
0
 62
7
 10
18.79102647
 20
14.42614361
  0
VERTEX
  8
0
 62
7
 10
18.78466752
 20
14.45678401
  0
VERTEX
  8
0
 62
7
 10
18.77248449
 20
14.48671092
  0
VERTEX
  8
0
 62
7
 10
18.75626026
 20
14.51425953
  0
VERTEX
  8
0
 62
7
 10
18.73777772
 20
14.53776504
  0
VERTEX
  8
0
 62
7
 10
18.71701705
 20
14.55625631
  0
VERTEX
  8
0
 62
7
 10
18.69435463
 20
14.57058555
  0
VERTEX
  8
0
 62
7
 10
18.66931504
 20
14.58182301
  0
VERTEX
  8
0
 62
7
 10
18.64142284
 20
14.59103891
  0
VERTEX
  8
0
 62
7
 10
18.61590782
 20
14.59690538
  0
VERTEX
  8
0
 62
7
 10
18.58944192
 20
14.59991789
  0
VERTEX
  8
0
 62
7
 10
18.56598186
 20
14.59947567
  0
VERTEX
  8
0
 62
7
 10
18.54314394
 20
14.59638017
  0
VERTEX
  8
0
 62
7
 10
18.52092632
 20
14.59083205
  0
VERTEX
  8
0
 62
7
 10
18.49932714
 20
14.58303197
  0
VERTEX
  8
0
 62
7
 10
18.47834453
 20
14.57318062
  0
VERTEX
  8
0
 62
7
 10
18.45797665
 20
14.56147865
  0
VERTEX
  8
0
 62
7
 10
18.43822164
 20
14.54812674
  0
VERTEX
  8
0
 62
7
 10
18.41907763
 20
14.53332555
  0
VERTEX
  8
0
 62
7
 10
18.40054277
 20
14.51727576
  0
VERTEX
  8
0
 62
7
 10
18.38261521
 20
14.50017803
  0
VERTEX
  8
0
 62
7
 10
18.36529309
 20
14.48223303
  0
VERTEX
  8
0
 62
7
 10
18.34857454
 20
14.46364143
  0
VERTEX
  8
0
 62
7
 10
18.33245772
 20
14.44460391
  0
VERTEX
  8
0
 62
7
 10
18.31694077
 20
14.42532111
  0
VERTEX
  8
0
 62
7
 10
18.30202182
 20
14.40599373
  0
VERTEX
  8
0
 62
7
 10
18.28769902
 20
14.38682242
  0
VERTEX
  8
0
 62
7
 10
18.25754851
 20
14.34407252
  0
VERTEX
  8
0
 62
7
 10
18.23191462
 20
14.29977673
  0
VERTEX
  8
0
 62
7
 10
18.21103509
 20
14.25429179
  0
VERTEX
  8
0
 62
7
 10
18.19514763
 20
14.20797444
  0
VERTEX
  8
0
 62
7
 10
18.18738219
 20
14.19568657
  0
VERTEX
  8
0
 62
7
 10
18.17581326
 20
14.19053359
  0
VERTEX
  8
0
 62
7
 10
18.16376890
 20
14.19441815
  0
VERTEX
  8
0
 62
7
 10
18.15457716
 20
14.20924287
  0
VERTEX
  8
0
 62
7
 10
18.16751543
 20
14.25420012
  0
VERTEX
  8
0
 62
7
 10
18.18439091
 20
14.29848849
  0
VERTEX
  8
0
 62
7
 10
18.20509958
 20
14.34179580
  0
VERTEX
  8
0
 62
7
 10
18.22953745
 20
14.38380991
  0
VERTEX
  8
0
 62
7
 10
18.25760051
 20
14.42421867
  0
VERTEX
  8
0
 62
7
 10
18.28918476
 20
14.46270993
  0
VERTEX
  8
0
 62
7
 10
18.32418620
 20
14.49897154
  0
VERTEX
  8
0
 62
7
 10
18.36250084
 20
14.53269134
  0
VERTEX
  8
0
 62
7
 10
18.41729475
 20
14.57238909
  0
VERTEX
  8
0
 62
7
 10
18.47470355
 20
14.60578435
  0
VERTEX
  8
0
 62
7
 10
18.53401410
 20
14.63275821
  0
VERTEX
  8
0
 62
7
 10
18.59451323
 20
14.65319175
  0
VERTEX
  8
0
 62
7
 10
18.59860148
 20
14.68022755
  0
VERTEX
  8
0
 62
7
 10
18.59774223
 20
14.70585123
  0
VERTEX
  8
0
 62
7
 10
18.59221777
 20
14.72960200
  0
VERTEX
  8
0
 62
7
 10
18.58231039
 20
14.75101906
  0
VERTEX
  8
0
 62
7
 10
18.56830239
 20
14.76964163
  0
VERTEX
  8
0
 62
7
 10
18.55047604
 20
14.78500890
  0
VERTEX
  8
0
 62
7
 10
18.52911365
 20
14.79666008
  0
VERTEX
  8
0
 62
7
 10
18.50449749
 20
14.80413437
  0
VERTEX
  8
0
 62
7
 10
18.48446236
 20
14.80650524
  0
VERTEX
  8
0
 62
7
 10
18.46355063
 20
14.80621538
  0
VERTEX
  8
0
 62
7
 10
18.44207433
 20
14.80357696
  0
VERTEX
  8
0
 62
7
 10
18.42034546
 20
14.79890212
  0
VERTEX
  8
0
 62
7
 10
18.39867601
 20
14.79250301
  0
VERTEX
  8
0
 62
7
 10
18.37737800
 20
14.78469179
  0
VERTEX
  8
0
 62
7
 10
18.35676342
 20
14.77578061
  0
VERTEX
  8
0
 62
7
 10
18.33714429
 20
14.76608161
  0
VERTEX
  8
0
 62
7
 10
18.28948191
 20
14.73643217
  0
VERTEX
  8
0
 62
7
 10
18.24681159
 20
14.70107481
  0
VERTEX
  8
0
 62
7
 10
18.20842020
 20
14.66048520
  0
VERTEX
  8
0
 62
7
 10
18.17359457
 20
14.61513899
  0
VERTEX
  8
0
 62
7
 10
18.13397496
 20
14.55108351
  0
VERTEX
  8
0
 62
7
 10
18.10196232
 20
14.48893067
  0
VERTEX
  8
0
 62
7
 10
18.07660578
 20
14.42677782
  0
VERTEX
  8
0
 62
7
 10
18.05695445
 20
14.36272234
  0
VERTEX
  8
0
 62
7
 10
18.04544496
 20
14.30110461
  0
VERTEX
  8
0
 62
7
 10
18.04094813
 20
14.23794099
  0
VERTEX
  8
0
 62
7
 10
18.04286969
 20
14.17596652
  0
VERTEX
  8
0
 62
7
 10
18.05061532
 20
14.11791624
  0
VERTEX
  8
0
 62
7
 10
18.06608677
 20
14.06822964
  0
VERTEX
  8
0
 62
7
 10
18.08880862
 20
14.02199157
  0
VERTEX
  8
0
 62
7
 10
18.11747340
 20
13.97932095
  0
VERTEX
  8
0
 62
7
 10
18.15077368
 20
13.94033669
  0
VERTEX
  8
0
 62
7
 10
18.18225145
 20
13.90926026
  0
VERTEX
  8
0
 62
7
 10
18.21622526
 20
13.88103780
  0
VERTEX
  8
0
 62
7
 10
18.25328940
 20
13.85614495
  0
VERTEX
  8
0
 62
7
 10
18.29403816
 20
13.83505738
  0
VERTEX
  8
0
 62
7
 10
18.33993747
 20
13.81821110
  0
VERTEX
  8
0
 62
7
 10
18.38928369
 20
13.80588360
  0
VERTEX
  8
0
 62
7
 10
18.44076936
 20
13.79831268
  0
VERTEX
  8
0
 62
7
 10
18.49308705
 20
13.79573619
  0
VERTEX
  8
0
 62
7
 10
18.55774624
 20
13.79827304
  0
VERTEX
  8
0
 62
7
 10
18.62335630
 20
13.80842045
  0
VERTEX
  8
0
 62
7
 10
18.68849093
 20
13.82712972
  0
VERTEX
  8
0
 62
7
 10
18.75172382
 20
13.85535219
  0
VERTEX
  8
0
 62
7
 10
18.79221753
 20
13.87953650
  0
VERTEX
  8
0
 62
7
 10
18.83034892
 20
13.90731799
  0
VERTEX
  8
0
 62
7
 10
18.86518198
 20
13.93860747
  0
VERTEX
  8
0
 62
7
 10
18.89578070
 20
13.97331575
  0
VERTEX
  8
0
 62
7
 10
18.92120905
 20
14.01135364
  0
VERTEX
  8
0
 62
7
 10
18.94053104
 20
14.05263197
  0
VERTEX
  8
0
 62
7
 10
18.95281064
 20
14.09706154
  0
VERTEX
  8
0
 62
7
 10
18.95711184
 20
14.14455317
  0
VERTEX
  8
0
 62
7
 10
18.95576478
 20
14.18082221
  0
VERTEX
  8
0
 62
7
 10
18.95013879
 20
14.21590210
  0
VERTEX
  8
0
 62
7
 10
18.93785672
 20
14.24765237
  0
VERTEX
  8
0
 62
7
 10
18.91654137
 20
14.27393256
  0
VERTEX
  8
0
 62
7
 10
18.89445344
 20
14.28847982
  0
VERTEX
  8
0
 62
7
 10
18.87010719
 20
14.29803264
  0
VERTEX
  8
0
 62
7
 10
18.84362149
 20
14.30282888
  0
VERTEX
  8
0
 62
7
 10
18.81511518
 20
14.30310635
  0
VERTEX
  8
0
 62
7
 10
18.79588482
 20
14.26431780
  0
VERTEX
  8
0
 62
7
 10
18.77347498
 20
14.22706028
  0
VERTEX
  8
0
 62
7
 10
18.74803424
 20
14.19155676
  0
VERTEX
  8
0
 62
7
 10
18.71971118
 20
14.15803019
  0
VERTEX
  8
0
 62
7
 10
18.68865436
 20
14.12670355
  0
VERTEX
  8
0
 62
7
 10
18.65501237
 20
14.09779981
  0
VERTEX
  8
0
 62
7
 10
18.61893377
 20
14.07154191
  0
VERTEX
  8
0
 62
7
 10
18.58056713
 20
14.04815284
  0
VERTEX
  8
0
 62
7
 10
18.53670823
 20
14.02577703
  0
VERTEX
  8
0
 62
7
 10
18.49118531
 20
14.00803889
  0
VERTEX
  8
0
 62
7
 10
18.44471151
 20
13.99481952
  0
VERTEX
  8
0
 62
7
 10
18.39800000
 20
13.98600000
  0
SEQEND
  0
POLYLINE
  8
0
 62
7
 66
1
 70
1
  0
VERTEX
  8
0
 62
7
 10
19.16700000
 20
14.55100000
  0
VERTEX
  8
0
 62
7
 10
19.17401267
 20
14.56566617
  0
VERTEX
  8
0
 62
7
 10
19.17936132
 20
14.58080800
  0
VERTEX
  8
0
 62
7
 10
19.18233279
 20
14.59594982
  0
VERTEX
  8
0
 62
7
 10
19.18221393
 20
14.61061599
  0
VERTEX
  8
0
 62
7
 10
19.17553802
 20
14.63130718
  0
VERTEX
  8
0
 62
7
 10
19.16208717
 20
14.64771744
  0
VERTEX
  8
0
 62
7
 10
19.14602142
 20
14.66270071
  0
VERTEX
  8
0
 62
7
 10
19.13150084
 20
14.67911096
  0
VERTEX
  8
0
 62
7
 10
19.09219819
 20
14.74126381
  0
VERTEX
  8
0
 62
7
 10
19.07761817
 20
14.77075470
  0
VERTEX
  8
0
 62
7
 10
19.06684164
 20
14.80214823
  0
VERTEX
  8
0
 62
7
 10
19.06345417
 20
14.82494025
  0
VERTEX
  8
0
 62
7
 10
19.06351360
 20
14.84844575
  0
VERTEX
  8
0
 62
7
 10
19.06238444
 20
14.87099994
  0
VERTEX
  8
0
 62
7
 10
19.05543120
 20
14.89093800
  0
VERTEX
  8
0
 62
7
 10
19.04360475
 20
14.90306732
  0
VERTEX
  8
0
 62
7
 10
19.02928226
 20
14.91281834
  0
VERTEX
  8
0
 62
7
 10
19.01282031
 20
14.92019106
  0
VERTEX
  8
0
 62
7
 10
18.99457549
 20
14.92518549
  0
VERTEX
  8
0
 62
7
 10
18.99982508
 20
14.95414126
  0
VERTEX
  8
0
 62
7
 10
18.99663571
 20
14.98083765
  0
VERTEX
  8
0
 62
7
 10
18.98512621
 20
15.00349094
  0
VERTEX
  8
0
 62
7
 10
18.96541546
 20
15.02031739
  0
VERTEX
  8
0
 62
7
 10
18.94685367
 20
15.02642169
  0
VERTEX
  8
0
 62
7
 10
18.92627129
 20
15.02729373
  0
VERTEX
  8
0
 62
7
 10
18.90497575
 20
15.02531182
  0
VERTEX
  8
0
 62
7
 10
18.88427451
 20
15.02285424
  0
VERTEX
  8
0
 62
7
 10
18.86569292
 20
15.02150654
  0
VERTEX
  8
0
 62
7
 10
18.84687360
 20
15.02063450
  0
VERTEX
  8
0
 62
7
 10
18.82900516
 20
15.01643284
  0
VERTEX
  8
0
 62
7
 10
18.81327618
 20
15.00509629
  0
VERTEX
  8
0
 62
7
 10
18.80198459
 20
14.99167873
  0
VERTEX
  8
0
 62
7
 10
18.79711138
 20
14.97671527
  0
VERTEX
  8
0
 62
7
 10
18.79651709
 20
14.96103833
  0
VERTEX
  8
0
 62
7
 10
18.79806225
 20
14.94548029
  0
VERTEX
  8
0
 62
7
 10
18.80452025
 20
14.92387743
  0
VERTEX
  8
0
 62
7
 10
18.81739662
 20
14.90679332
  0
VERTEX
  8
0
 62
7
 10
18.83265017
 20
14.89161185
  0
VERTEX
  8
0
 62
7
 10
18.84623969
 20
14.87571690
  0
VERTEX
  8
0
 62
7
 10
18.90582757
 20
14.80722193
  0
VERTEX
  8
0
 62
7
 10
18.89818099
 20
14.78328040
  0
VERTEX
  8
0
 62
7
 10
18.89410017
 20
14.75933887
  0
VERTEX
  8
0
 62
7
 10
18.89334740
 20
14.73587300
  0
VERTEX
  8
0
 62
7
 10
18.89568496
 20
14.71335845
  0
VERTEX
  8
0
 62
7
 10
18.90384659
 20
14.68977366
  0
VERTEX
  8
0
 62
7
 10
18.91723802
 20
14.66928067
  0
VERTEX
  8
0
 62
7
 10
18.93348206
 20
14.65021465
  0
VERTEX
  8
0
 62
7
 10
18.95020153
 20
14.63091080
  0
VERTEX
  8
0
 62
7
 10
18.96787187
 20
14.61206279
  0
VERTEX
  8
0
 62
7
 10
18.98696852
 20
14.59428502
  0
VERTEX
  8
0
 62
7
 10
19.00511430
 20
14.57579375
  0
VERTEX
  8
0
 62
7
 10
19.01993203
 20
14.55480528
  0
VERTEX
  8
0
 62
7
 10
19.04402075
 20
14.49392086
  0
VERTEX
  8
0
 62
7
 10
19.05481709
 20
14.46799741
  0
VERTEX
  8
0
 62
7
 10
19.06573229
 20
14.44254963
  0
VERTEX
  8
0
 62
7
 10
19.07878695
 20
14.41900448
  0
VERTEX
  8
0
 62
7
 10
19.09600167
 20
14.39878895
  0
VERTEX
  8
0
 62
7
 10
19.10986853
 20
14.38608488
  0
VERTEX
  8
0
 62
7
 10
19.12516170
 20
14.37516453
  0
VERTEX
  8
0
 62
7
 10
19.14235661
 20
14.36686031
  0
VERTEX
  8
0
 62
7
 10
19.16192869
 20
14.36200462
  0
VERTEX
  8
0
 62
7
 10
19.17407210
 20
14.36047854
  0
VERTEX
  8
0
 62
7
 10
19.18585893
 20
14.35930921
  0
VERTEX
  8
0
 62
7
 10
19.19740805
 20
14.36075601
  0
VERTEX
  8
0
 62
7
 10
19.20883830
 20
14.36707832
  0
VERTEX
  8
0
 62
7
 10
19.21894130
 20
14.38005986
  0
VERTEX
  8
0
 62
7
 10
19.22119962
 20
14.39387381
  0
VERTEX
  8
0
 62
7
 10
19.21917902
 20
14.40792558
  0
VERTEX
  8
0
 62
7
 10
19.21644526
 20
14.42162061
  0
VERTEX
  8
0
 62
7
 10
19.21200787
 20
14.44873320
  0
VERTEX
  8
0
 62
7
 10
19.20376699
 20
14.47489448
  0
VERTEX
  8
0
 62
7
 10
19.18823611
 20
14.51437422
  0
VERTEX
  8
0
 62
7
 10
19.16700000
 20
14.55100000
  0
SEQEND
  0
POLYLINE
  8
0
 62
7
 66
1
 70
1
  0
VERTEX
  8
0
 62
7
 10
19.68684950
 20
13.32543595
  0
VERTEX
  8
0
 62
7
 10
19.68684950
 20
12.40582754
  0
VERTEX
  8
0
 62
7
 10
18.77120662
 20
12.40582754
  0
VERTEX
  8
0
 62
7
 10
18.77120662
 20
13.32543595
  0
VERTEX
  8
0
 62
7
 10
19.68684950
 20
13.32543595
  0
SEQEND
  0
POLYLINE
  8
0
 62
7
 66
1
 70
1
  0
VERTEX
  8
0
 62
7
 10
20.86332833
 20
13.32543595
  0
VERTEX
  8
0
 62
7
 10
20.86332833
 20
12.40709597
  0
VERTEX
  8
0
 62
7
 10
19.95040250
 20
12.40709597
  0
VERTEX
  8
0
 62
7
 10
19.95040250
 20
13.32543595
  0
VERTEX
  8
0
 62
7
 10
20.86332833
 20
13.32543595
  0
SEQEND
  0
POLYLINE
  8
0
 62
7
 66
1
 70
1
  0
VERTEX
  8
0
 62
7
 10
19.61500000
 20
11.12100000
  0
VERTEX
  8
0
 62
7
 10
19.59709375
 20
11.15225000
  0
VERTEX
  8
0
 62
7
 10
19.57675000
 20
11.18275000
  0
VERTEX
  8
0
 62
7
 10
19.55453125
 20
11.21212500
  0
VERTEX
  8
0
 62
7
 10
19.53100000
 20
11.24000000
  0
VERTEX
  8
0
 62
7
 10
19.50120313
 20
11.27064063
  0
VERTEX
  8
0
 62
7
 10
19.46962500
 20
11.29987500
  0
VERTEX
  8
0
 62
7
 10
19.43523438
 20
11.32592188
  0
VERTEX
  8
0
 62
7
 10
19.39700000
 20
11.34700000
  0
VERTEX
  8
0
 62
7
 10
19.37381641
 20
11.35701758
  0
VERTEX
  8
0
 62
7
 10
19.35009375
 20
11.36526563
  0
VERTEX
  8
0
 62
7
 10
19.32594922
 20
11.37166211
  0
VERTEX
  8
0
 62
7
 10
19.30150000
 20
11.37612500
  0
VERTEX
  8
0
 62
7
 10
19.27686328
 20
11.37857227
  0
VERTEX
  8
0
 62
7
 10
19.25215625
 20
11.37892188
  0
VERTEX
  8
0
 62
7
 10
19.22749609
 20
11.37709180
  0
VERTEX
  8
0
 62
7
 10
19.20300000
 20
11.37300000
  0
VERTEX
  8
0
 62
7
 10
19.16400000
 20
11.36031250
  0
VERTEX
  8
0
 62
7
 10
19.12725000
 20
11.34200000
  0
VERTEX
  8
0
 62
7
 10
19.09387500
 20
11.31843750
  0
VERTEX
  8
0
 62
7
 10
19.06500000
 20
11.29000000
  0
VERTEX
  8
0
 62
7
 10
19.04660938
 20
11.26250000
  0
VERTEX
  8
0
 62
7
 10
19.03262500
 20
11.23275000
  0
VERTEX
  8
0
 62
7
 10
19.02182813
 20
11.20112500
  0
VERTEX
  8
0
 62
7
 10
19.01300000
 20
11.16800000
  0
VERTEX
  8
0
 62
7
 10
18.99800000
 20
11.12462500
  0
VERTEX
  8
0
 62
7
 10
18.98000000
 20
11.08500000
  0
VERTEX
  8
0
 62
7
 10
18.96933789
 20
11.06654883
  0
VERTEX
  8
0
 62
7
 10
18.95751563
 20
11.04895313
  0
VERTEX
  8
0
 62
7
 10
18.94440430
 20
11.03259961
  0
VERTEX
  8
0
 62
7
 10
18.92987500
 20
11.01787500
  0
VERTEX
  8
0
 62
7
 10
18.91379883
 20
11.00516602
  0
VERTEX
  8
0
 62
7
 10
18.89604688
 20
10.99485938
  0
VERTEX
  8
0
 62
7
 10
18.87649023
 20
10.98734180
  0
VERTEX
  8
0
 62
7
 10
18.85500000
 20
10.98300000
  0
VERTEX
  8
0
 62
7
 10
18.89167188
 20
10.95828125
  0
VERTEX
  8
0
 62
7
 10
18.92337500
 20
10.92850000
  0
VERTEX
  8
0
 62
7
 10
18.94964063
 20
10.89496875
  0
VERTEX
  8
0
 62
7
 10
18.97000000
 20
10.85900000
  0
VERTEX
  8
0
 62
7
 10
18.98196875
 20
10.81960938
  0
VERTEX
  8
0
 62
7
 10
18.98775000
 20
10.78012500
  0
VERTEX
  8
0
 62
7
 10
18.98715625
 20
10.74157813
  0
VERTEX
  8
0
 62
7
 10
18.98000000
 20
10.70500000
  0
VERTEX
  8
0
 62
7
 10
18.96093750
 20
10.66253125
  0
VERTEX
  8
0
 62
7
 10
18.93550000
 20
10.62550000
  0
VERTEX
  8
0
 62
7
 10
18.90406250
 20
10.59446875
  0
VERTEX
  8
0
 62
7
 10
18.86700000
 20
10.57000000
  0
VERTEX
  8
0
 62
7
 10
18.89859375
 20
10.55721875
  0
VERTEX
  8
0
 62
7
 10
18.92700000
 20
10.53900000
  0
VERTEX
  8
0
 62
7
 10
18.95165625
 20
10.51628125
  0
VERTEX
  8
0
 62
7
 10
18.97200000
 20
10.49000000
  0
VERTEX
  8
0
 62
7
 10
18.97937305
 20
10.46629688
  0
VERTEX
  8
0
 62
7
 10
18.98035938
 20
10.43837500
  0
VERTEX
  8
0
 62
7
 10
18.97588477
 20
10.40801563
  0
VERTEX
  8
0
 62
7
 10
18.96687500
 20
10.37700000
  0
VERTEX
  8
0
 62
7
 10
18.95425586
 20
10.34710938
  0
VERTEX
  8
0
 62
7
 10
18.93895313
 20
10.32012500
  0
VERTEX
  8
0
 62
7
 10
18.92189258
 20
10.29782813
  0
VERTEX
  8
0
 62
7
 10
18.90400000
 20
10.28200000
  0
VERTEX
  8
0
 62
7
 10
18.94346875
 20
10.26393750
  0
VERTEX
  8
0
 62
7
 10
18.97900000
 20
10.24475000
  0
VERTEX
  8
0
 62
7
 10
19.01003125
 20
10.22293750
  0
VERTEX
  8
0
 62
7
 10
19.03600000
 20
10.19700000
  0
VERTEX
  8
0
 62
7
 10
19.05950000
 20
10.16501563
  0
VERTEX
  8
0
 62
7
 10
19.08450000
 20
10.13462500
  0
VERTEX
  8
0
 62
7
 10
19.11250000
 20
10.10742188
  0
VERTEX
  8
0
 62
7
 10
19.14500000
 20
10.08500000
  0
VERTEX
  8
0
 62
7
 10
19.16714453
 20
10.07445117
  0
VERTEX
  8
0
 62
7
 10
19.18996875
 20
10.06604688
  0
VERTEX
  8
0
 62
7
 10
19.21330859
 20
10.05977539
  0
VERTEX
  8
0
 62
7
 10
19.23700000
 20
10.05562500
  0
VERTEX
  8
0
 62
7
 10
19.26087891
 20
10.05358398
  0
VERTEX
  8
0
 62
7
 10
19.28478125
 20
10.05364063
  0
VERTEX
  8
0
 62
7
 10
19.30854297
 20
10.05578320
  0
VERTEX
  8
0
 62
7
 10
19.33200000
 20
10.06000000
  0
VERTEX
  8
0
 62
7
 10
19.36548438
 20
10.07073438
  0
VERTEX
  8
0
 62
7
 10
19.39587500
 20
10.08662500
  0
VERTEX
  8
0
 62
7
 10
19.42382813
 20
10.10570313
  0
VERTEX
  8
0
 62
7
 10
19.45000000
 20
10.12600000
  0
VERTEX
  8
0
 62
7
 10
19.47862500
 20
10.14909375
  0
VERTEX
  8
0
 62
7
 10
19.50350000
 20
10.17425000
  0
VERTEX
  8
0
 62
7
 10
19.52537500
 20
10.20053125
  0
VERTEX
  8
0
 62
7
 10
19.54500000
 20
10.22700000
  0
VERTEX
  8
0
 62
7
 10
19.57200000
 20
10.26200000
  0
VERTEX
  8
0
 62
7
 10
19.56000000
 20
10.27425000
  0
VERTEX
  8
0
 62
7
 10
19.55175000
 20
10.28950000
  0
VERTEX
  8
0
 62
7
 10
19.54837500
 20
10.30700000
  0
VERTEX
  8
0
 62
7
 10
19.55100000
 20
10.32600000
  0
VERTEX
  8
0
 62
7
 10
19.55400000
 20
10.34600000
  0
VERTEX
  8
0
 62
7
 10
19.55112500
 20
10.36550000
  0
VERTEX
  8
0
 62
7
 10
19.54300000
 20
10.37900000
  0
VERTEX
  8
0
 62
7
 10
19.52712500
 20
10.39125000
  0
VERTEX
  8
0
 62
7
 10
19.50900000
 20
10.39600000
  0
VERTEX
  8
0
 62
7
 10
19.49646680
 20
10.39843164
  0
VERTEX
  8
0
 62
7
 10
19.48523438
 20
10.40326563
  0
VERTEX
  8
0
 62
7
 10
19.47547852
 20
10.41018555
  0
VERTEX
  8
0
 62
7
 10
19.46737500
 20
10.41887500
  0
VERTEX
  8
0
 62
7
 10
19.46109961
 20
10.42901758
  0
VERTEX
  8
0
 62
7
 10
19.45682813
 20
10.44029688
  0
VERTEX
  8
0
 62
7
 10
19.45473633
 20
10.45239648
  0
VERTEX
  8
0
 62
7
 10
19.45500000
 20
10.46500000
  0
VERTEX
  8
0
 62
7
 10
19.45600000
 20
10.48900000
  0
VERTEX
  8
0
 62
7
 10
19.45300000
 20
10.51100000
  0
VERTEX
  8
0
 62
7
 10
19.44717188
 20
10.52306250
  0
VERTEX
  8
0
 62
7
 10
19.44012500
 20
10.53250000
  0
VERTEX
  8
0
 62
7
 10
19.43176563
 20
10.53968750
  0
VERTEX
  8
0
 62
7
 10
19.42200000
 20
10.54500000
  0
VERTEX
  8
0
 62
7
 10
19.40697070
 20
10.55398633
  0
VERTEX
  8
0
 62
7
 10
19.39570313
 20
10.56607813
  0
VERTEX
  8
0
 62
7
 10
19.38830273
 20
10.58034961
  0
VERTEX
  8
0
 62
7
 10
19.38487500
 20
10.59587500
  0
VERTEX
  8
0
 62
7
 10
19.38552539
 20
10.61172852
  0
VERTEX
  8
0
 62
7
 10
19.39035938
 20
10.62698438
  0
VERTEX
  8
0
 62
7
 10
19.39948242
 20
10.64071680
  0
VERTEX
  8
0
 62
7
 10
19.41300000
 20
10.65200000
  0
VERTEX
  8
0
 62
7
 10
19.42832813
 20
10.66410938
  0
VERTEX
  8
0
 62
7
 10
19.43962500
 20
10.67912500
  0
VERTEX
  8
0
 62
7
 10
19.44660938
 20
10.69657813
  0
VERTEX
  8
0
 62
7
 10
19.44900000
 20
10.71600000
  0
VERTEX
  8
0
 62
7
 10
19.44600000
 20
10.73325000
  0
VERTEX
  8
0
 62
7
 10
19.44000000
 20
10.74300000
  0
VERTEX
  8
0
 62
7
 10
19.43156250
 20
10.75347266
  0
VERTEX
  8
0
 62
7
 10
19.42575000
 20
10.76509375
  0
VERTEX
  8
0
 62
7
 10
19.42256250
 20
10.77741797
  0
VERTEX
  8
0
 62
7
 10
19.42200000
 20
10.79000000
  0
VERTEX
  8
0
 62
7
 10
19.42406250
 20
10.80239453
  0
VERTEX
  8
0
 62
7
 10
19.42875000
 20
10.81415625
  0
VERTEX
  8
0
 62
7
 10
19.43606250
 20
10.82483984
  0
VERTEX
  8
0
 62
7
 10
19.44600000
 20
10.83400000
  0
VERTEX
  8
0
 62
7
 10
19.45615625
 20
10.84403125
  0
VERTEX
  8
0
 62
7
 10
19.46275000
 20
10.85650000
  0
VERTEX
  8
0
 62
7
 10
19.46371875
 20
10.86971875
  0
VERTEX
  8
0
 62
7
 10
19.45700000
 20
10.88200000
  0
VERTEX
  8
0
 62
7
 10
19.44709375
 20
10.89523633
  0
VERTEX
  8
0
 62
7
 10
19.44187500
 20
10.90970313
  0
VERTEX
  8
0
 62
7
 10
19.44096875
 20
10.92466211
  0
VERTEX
  8
0
 62
7
 10
19.44400000
 20
10.93937500
  0
VERTEX
  8
0
 62
7
 10
19.45059375
 20
10.95310352
  0
VERTEX
  8
0
 62
7
 10
19.46037500
 20
10.96510938
  0
VERTEX
  8
0
 62
7
 10
19.47296875
 20
10.97465430
  0
VERTEX
  8
0
 62
7
 10
19.48800000
 20
10.98100000
  0
VERTEX
  8
0
 62
7
 10
19.49517773
 20
10.98396094
  0
VERTEX
  8
0
 62
7
 10
19.50154688
 20
10.98818750
  0
VERTEX
  8
0
 62
7
 10
19.50686133
 20
10.99344531
  0
VERTEX
  8
0
 62
7
 10
19.51087500
 20
10.99950000
  0
VERTEX
  8
0
 62
7
 10
19.51334180
 20
11.00611719
  0
VERTEX
  8
0
 62
7
 10
19.51401563
 20
11.01306250
  0
VERTEX
  8
0
 62
7
 10
19.51265039
 20
11.02010156
  0
VERTEX
  8
0
 62
7
 10
19.50900000
 20
11.02700000
  0
VERTEX
  8
0
 62
7
 10
19.49993359
 20
11.04461133
  0
VERTEX
  8
0
 62
7
 10
19.49703125
 20
11.06289063
  0
VERTEX
  8
0
 62
7
 10
19.49961328
 20
11.08063086
  0
VERTEX
  8
0
 62
7
 10
19.50700000
 20
11.09662500
  0
VERTEX
  8
0
 62
7
 10
19.51851172
 20
11.10966602
  0
VERTEX
  8
0
 62
7
 10
19.53346875
 20
11.11854688
  0
VERTEX
  8
0
 62
7
 10
19.55119141
 20
11.12206055
  0
VERTEX
  8
0
 62
7
 10
19.57100000
 20
11.11900000
  0
VERTEX
  8
0
 62
7
 10
19.58900000
 20
11.11700000
  0
VERTEX
  8
0
 62
7
 10
19.60237500
 20
11.11787500
  0
VERTEX
  8
0
 62
7
 10
19.61500000
 20
11.12100000
  0
SEQEND
  0
POLYLINE
  8
0
 62
7
 66
1
 70
1
  0
VERTEX
  8
0
 62
7
 10
19.34704800
 20
9.97100000
  0
VERTEX
  8
0
 62
7
 10
19.33102067
 20
9.90362500
  0
VERTEX
  8
0
 62
7
 10
19.32494133
 20
9.83100000
  0
VERTEX
  8
0
 62
7
 10
19.32715200
 20
9.78687500
  0
VERTEX
  8
0
 62
7
 10
19.33599467
 20
9.74200000
  0
VERTEX
  8
0
 62
7
 10
19.35934483
 20
9.66701562
  0
VERTEX
  8
0
 62
7
 10
19.39513000
 20
9.59737500
  0
VERTEX
  8
0
 62
7
 10
19.44169217
 20
9.53429688
  0
VERTEX
  8
0
 62
7
 10
19.49737333
 20
9.47900000
  0
VERTEX
  8
0
 62
7
 10
19.51139293
 20
9.46916406
  0
VERTEX
  8
0
 62
7
 10
19.52663013
 20
9.46218750
  0
VERTEX
  8
0
 62
7
 10
19.54264451
 20
9.45811719
  0
VERTEX
  8
0
 62
7
 10
19.55899567
 20
9.45700000
  0
VERTEX
  8
0
 62
7
 10
19.57524320
 20
9.45888281
  0
VERTEX
  8
0
 62
7
 10
19.59094671
 20
9.46381250
  0
VERTEX
  8
0
 62
7
 10
19.60566578
 20
9.47183594
  0
VERTEX
  8
0
 62
7
 10
19.61896000
 20
9.48300000
  0
VERTEX
  8
0
 62
7
 10
19.63781975
 20
9.49967188
  0
VERTEX
  8
0
 62
7
 10
19.65709400
 20
9.51212500
  0
VERTEX
  8
0
 62
7
 10
19.67553925
 20
9.52026563
  0
VERTEX
  8
0
 62
7
 10
19.69191200
 20
9.52400000
  0
VERTEX
  8
0
 62
7
 10
19.70296533
 20
9.52500000
  0
VERTEX
  8
0
 62
7
 10
19.72312471
 20
9.52350586
  0
VERTEX
  8
0
 62
7
 10
19.74196288
 20
9.51942188
  0
VERTEX
  8
0
 62
7
 10
19.75919485
 20
9.51334570
  0
VERTEX
  8
0
 62
7
 10
19.77453567
 20
9.50587500
  0
VERTEX
  8
0
 62
7
 10
19.78770036
 20
9.49760742
  0
VERTEX
  8
0
 62
7
 10
19.79840396
 20
9.48914062
  0
VERTEX
  8
0
 62
7
 10
19.80636149
 20
9.48107227
  0
VERTEX
  8
0
 62
7
 10
19.81128800
 20
9.47400000
  0
VERTEX
  8
0
 62
7
 10
19.82528169
 20
9.45388086
  0
VERTEX
  8
0
 62
7
 10
19.84323904
 20
9.43867188
  0
VERTEX
  8
0
 62
7
 10
19.86394245
 20
9.42859570
  0
VERTEX
  8
0
 62
7
 10
19.88617433
 20
9.42387500
  0
VERTEX
  8
0
 62
7
 10
19.90871709
 20
9.42473242
  0
VERTEX
  8
0
 62
7
 10
19.93035313
 20
9.43139063
  0
VERTEX
  8
0
 62
7
 10
19.94986485
 20
9.44407227
  0
VERTEX
  8
0
 62
7
 10
19.96603467
 20
9.46300000
  0
VERTEX
  8
0
 62
7
 10
19.98751958
 20
9.48903125
  0
VERTEX
  8
0
 62
7
 10
20.01356400
 20
9.50925000
  0
VERTEX
  8
0
 62
7
 10
20.04126642
 20
9.52234375
  0
VERTEX
  8
0
 62
7
 10
20.06772533
 20
9.52700000
  0
VERTEX
  8
0
 62
7
 10
20.08098933
 20
9.52600000
  0
VERTEX
  8
0
 62
7
 10
20.10368321
 20
9.51914063
  0
VERTEX
  8
0
 62
7
 10
20.12492633
 20
9.50937500
  0
VERTEX
  8
0
 62
7
 10
20.14409696
 20
9.49717187
  0
VERTEX
  8
0
 62
7
 10
20.16057333
 20
9.48300000
  0
VERTEX
  8
0
 62
7
 10
20.17396255
 20
9.47179492
  0
VERTEX
  8
0
 62
7
 10
20.18893204
 20
9.46367187
  0
VERTEX
  8
0
 62
7
 10
20.20498960
 20
9.45861914
  0
VERTEX
  8
0
 62
7
 10
20.22164300
 20
9.45662500
  0
VERTEX
  8
0
 62
7
 10
20.23840003
 20
9.45767773
  0
VERTEX
  8
0
 62
7
 10
20.25476846
 20
9.46176563
  0
VERTEX
  8
0
 62
7
 10
20.27025608
 20
9.46887695
  0
VERTEX
  8
0
 62
7
 10
20.28437067
 20
9.47900000
  0
VERTEX
  8
0
 62
7
 10
20.32599338
 20
9.51904688
  0
VERTEX
  8
0
 62
7
 10
20.36367833
 20
9.56387500
  0
VERTEX
  8
0
 62
7
 10
20.39597479
 20
9.61301562
  0
VERTEX
  8
0
 62
7
 10
20.42143200
 20
9.66600000
  0
VERTEX
  8
0
 62
7
 10
20.46315833
 20
9.61675000
  0
VERTEX
  8
0
 62
7
 10
20.50985867
 20
9.57200000
  0
VERTEX
  8
0
 62
7
 10
20.57113558
 20
9.52698438
  0
VERTEX
  8
0
 62
7
 10
20.63863000
 20
9.49012500
  0
VERTEX
  8
0
 62
7
 10
20.70695342
 20
9.46245313
  0
VERTEX
  8
0
 62
7
 10
20.77071733
 20
9.44500000
  0
VERTEX
  8
0
 62
7
 10
20.82916183
 20
9.43450000
  0
VERTEX
  8
0
 62
7
 10
20.88843533
 20
9.42700000
  0
VERTEX
  8
0
 62
7
 10
20.94853783
 20
9.42250000
  0
VERTEX
  8
0
 62
7
 10
21.00946933
 20
9.42100000
  0
VERTEX
  8
0
 62
7
 10
21.06622129
 20
9.42235937
  0
VERTEX
  8
0
 62
7
 10
21.12359500
 20
9.42662500
  0
VERTEX
  8
0
 62
7
 10
21.18138321
 20
9.43407812
  0
VERTEX
  8
0
 62
7
 10
21.23937867
 20
9.44500000
  0
VERTEX
  8
0
 62
7
 10
21.29951571
 20
9.46360938
  0
VERTEX
  8
0
 62
7
 10
21.36400500
 20
9.49262500
  0
VERTEX
  8
0
 62
7
 10
21.42807979
 20
9.53007812
  0
VERTEX
  8
0
 62
7
 10
21.48697333
 20
9.57400000
  0
VERTEX
  8
0
 62
7
 10
21.53395000
 20
9.61875000
  0
VERTEX
  8
0
 62
7
 10
21.57761067
 20
9.66800000
  0
VERTEX
  8
0
 62
7
 10
21.60310242
 20
9.61442188
  0
VERTEX
  8
0
 62
7
 10
21.63564067
 20
9.56487500
  0
VERTEX
  8
0
 62
7
 10
21.67398192
 20
9.51964062
  0
VERTEX
  8
0
 62
7
 10
21.71688267
 20
9.47900000
  0
VERTEX
  8
0
 62
7
 10
21.73090227
 20
9.46920508
  0
VERTEX
  8
0
 62
7
 10
21.74613946
 20
9.46232813
  0
VERTEX
  8
0
 62
7
 10
21.76215384
 20
9.45838086
  0
VERTEX
  8
0
 62
7
 10
21.77850500
 20
9.45737500
  0
VERTEX
  8
0
 62
7
 10
21.79475254
 20
9.45932227
  0
VERTEX
  8
0
 62
7
 10
21.81045604
 20
9.46423438
  0
VERTEX
  8
0
 62
7
 10
21.82517511
 20
9.47212305
  0
VERTEX
  8
0
 62
7
 10
21.83846933
 20
9.48300000
  0
VERTEX
  8
0
 62
7
 10
21.85498025
 20
9.49717187
  0
VERTEX
  8
0
 62
7
 10
21.87439267
 20
9.50937500
  0
VERTEX
  8
0
 62
7
 10
21.89629208
 20
9.51914063
  0
VERTEX
  8
0
 62
7
 10
21.92026400
 20
9.52600000
  0
VERTEX
  8
0
 62
7
 10
21.93352800
 20
9.52700000
  0
VERTEX
  8
0
 62
7
 10
21.95967604
 20
9.52234375
  0
VERTEX
  8
0
 62
7
 10
21.98686033
 20
9.50925000
  0
VERTEX
  8
0
 62
7
 10
22.01280113
 20
9.48903125
  0
VERTEX
  8
0
 62
7
 10
22.03521867
 20
9.46300000
  0
VERTEX
  8
0
 62
7
 10
22.05202319
 20
9.44493359
  0
VERTEX
  8
0
 62
7
 10
22.07183283
 20
9.43265625
  0
VERTEX
  8
0
 62
7
 10
22.09350773
 20
9.42605078
  0
VERTEX
  8
0
 62
7
 10
22.11590800
 20
9.42500000
  0
VERTEX
  8
0
 62
7
 10
22.13789377
 20
9.42938672
  0
VERTEX
  8
0
 62
7
 10
22.15832517
 20
9.43909375
  0
VERTEX
  8
0
 62
7
 10
22.17606231
 20
9.45400391
  0
VERTEX
  8
0
 62
7
 10
22.18996533
 20
9.47400000
  0
VERTEX
  8
0
 62
7
 10
22.19488752
 20
9.48107227
  0
VERTEX
  8
0
 62
7
 10
22.20281483
 20
9.48914062
  0
VERTEX
  8
0
 62
7
 10
22.21343640
 20
9.49760742
  0
VERTEX
  8
0
 62
7
 10
22.22644133
 20
9.50587500
  0
VERTEX
  8
0
 62
7
 10
22.24151877
 20
9.51334570
  0
VERTEX
  8
0
 62
7
 10
22.25835783
 20
9.51942188
  0
VERTEX
  8
0
 62
7
 10
22.27664765
 20
9.52350586
  0
VERTEX
  8
0
 62
7
 10
22.29607733
 20
9.52500000
  0
VERTEX
  8
0
 62
7
 10
22.30713067
 20
9.52400000
  0
VERTEX
  8
0
 62
7
 10
22.32350342
 20
9.52026563
  0
VERTEX
  8
0
 62
7
 10
22.34194867
 20
9.51212500
  0
VERTEX
  8
0
 62
7
 10
22.36122292
 20
9.49967188
  0
VERTEX
  8
0
 62
7
 10
22.38008267
 20
9.48300000
  0
VERTEX
  8
0
 62
7
 10
22.39347188
 20
9.47175391
  0
VERTEX
  8
0
 62
7
 10
22.40844138
 20
9.46353125
  0
VERTEX
  8
0
 62
7
 10
22.42449893
 20
9.45835547
  0
VERTEX
  8
0
 62
7
 10
22.44115233
 20
9.45625000
  0
VERTEX
  8
0
 62
7
 10
22.45790936
 20
9.45723828
  0
VERTEX
  8
0
 62
7
 10
22.47427779
 20
9.46134375
  0
VERTEX
  8
0
 62
7
 10
22.48976541
 20
9.46858984
  0
VERTEX
  8
0
 62
7
 10
22.50388000
 20
9.47900000
  0
VERTEX
  8
0
 62
7
 10
22.55831767
 20
9.53429688
  0
VERTEX
  8
0
 62
7
 10
22.60446533
 20
9.59737500
  0
VERTEX
  8
0
 62
7
 10
22.64066500
 20
9.66701562
  0
VERTEX
  8
0
 62
7
 10
22.66525867
 20
9.74200000
  0
VERTEX
  8
0
 62
7
 10
22.67216700
 20
9.78687500
  0
VERTEX
  8
0
 62
7
 10
22.67410133
 20
9.83100000
  0
VERTEX
  8
0
 62
7
 10
22.66829833
 20
9.90362500
  0
VERTEX
  8
0
 62
7
 10
22.65420533
 20
9.97100000
  0
VERTEX
  8
0
 62
7
 10
22.69068133
 20
9.96512500
  0
VERTEX
  8
0
 62
7
 10
22.72715733
 20
9.96300000
  0
VERTEX
  8
0
 62
7
 10
22.77147429
 20
9.96564063
  0
VERTEX
  8
0
 62
7
 10
22.81475500
 20
9.97362500
  0
VERTEX
  8
0
 62
7
 10
22.85679221
 20
9.98704688
  0
VERTEX
  8
0
 62
7
 10
22.89737867
 20
10.00600000
  0
VERTEX
  8
0
 62
7
 10
22.93976129
 20
10.03406250
  0
VERTEX
  8
0
 62
7
 10
22.97447567
 20
10.06625000
  0
VERTEX
  8
0
 62
7
 10
23.00214354
 20
10.09881250
  0
VERTEX
  8
0
 62
7
 10
23.02338667
 20
10.12800000
  0
VERTEX
  8
0
 62
7
 10
23.03444000
 20
10.14200000
  0
VERTEX
  8
0
 62
7
 10
23.06649467
 20
10.16800000
  0
VERTEX
  8
0
 62
7
 10
23.13170933
 20
10.20000000
  0
VERTEX
  8
0
 62
7
 10
23.16186421
 20
10.21651563
  0
VERTEX
  8
0
 62
7
 10
23.18559433
 20
10.23837500
  0
VERTEX
  8
0
 62
7
 10
23.20227796
 20
10.26904688
  0
VERTEX
  8
0
 62
7
 10
23.21129333
 20
10.31200000
  0
VERTEX
  8
0
 62
7
 10
23.24749300
 20
10.29287500
  0
VERTEX
  8
0
 62
7
 10
23.28203467
 20
10.26700000
  0
VERTEX
  8
0
 62
7
 10
23.30845904
 20
10.23515625
  0
VERTEX
  8
0
 62
7
 10
23.32928767
 20
10.19675000
  0
VERTEX
  8
0
 62
7
 10
23.34638579
 20
10.15196875
  0
VERTEX
  8
0
 62
7
 10
23.36161867
 20
10.10100000
  0
VERTEX
  8
0
 62
7
 10
23.36963233
 20
10.05450000
  0
VERTEX
  8
0
 62
7
 10
23.37267200
 20
10.00800000
  0
VERTEX
  8
0
 62
7
 10
23.37046133
 20
9.97100000
  0
VERTEX
  8
0
 62
7
 10
23.36949417
 20
9.94821094
  0
VERTEX
  8
0
 62
7
 10
23.37433000
 20
9.92743750
  0
VERTEX
  8
0
 62
7
 10
23.38413983
 20
9.90919531
  0
VERTEX
  8
0
 62
7
 10
23.39809467
 20
9.89400000
  0
VERTEX
  8
0
 62
7
 10
23.41536550
 20
9.88236719
  0
VERTEX
  8
0
 62
7
 10
23.43512333
 20
9.87481250
  0
VERTEX
  8
0
 62
7
 10
23.45653917
 20
9.87185156
  0
VERTEX
  8
0
 62
7
 10
23.47878400
 20
9.87400000
  0
VERTEX
  8
0
 62
7
 10
23.60258133
 20
9.90000000
  0
VERTEX
  8
0
 62
7
 10
23.63491233
 20
9.85762500
  0
VERTEX
  8
0
 62
7
 10
23.65563733
 20
9.81300000
  0
VERTEX
  8
0
 62
7
 10
23.66005867
 20
9.78600000
  0
VERTEX
  8
0
 62
7
 10
23.66005867
 20
9.77600000
  0
VERTEX
  8
0
 62
7
 10
23.59594933
 20
9.69100000
  0
VERTEX
  8
0
 62
7
 10
23.58566455
 20
9.67408984
  0
VERTEX
  8
0
 62
7
 10
23.57957658
 20
9.65603125
  0
VERTEX
  8
0
 62
7
 10
23.57752999
 20
9.63745703
  0
VERTEX
  8
0
 62
7
 10
23.57936933
 20
9.61900000
  0
VERTEX
  8
0
 62
7
 10
23.58493918
 20
9.60129297
  0
VERTEX
  8
0
 62
7
 10
23.59408408
 20
9.58496875
  0
VERTEX
  8
0
 62
7
 10
23.60664861
 20
9.57066016
  0
VERTEX
  8
0
 62
7
 10
23.62247733
 20
9.55900000
  0
VERTEX
  8
0
 62
7
 10
23.65520124
 20
9.54133594
  0
VERTEX
  8
0
 62
7
 10
23.68862463
 20
9.52587500
  0
VERTEX
  8
0
 62
7
 10
23.72261794
 20
9.51266406
  0
VERTEX
  8
0
 62
7
 10
23.75705167
 20
9.50175000
  0
VERTEX
  8
0
 62
7
 10
23.79179627
 20
9.49317969
  0
VERTEX
  8
0
 62
7
 10
23.82672221
 20
9.48700000
  0
VERTEX
  8
0
 62
7
 10
23.86169996
 20
9.48325781
  0
VERTEX
  8
0
 62
7
 10
23.89660000
 20
9.48200000
  0
VERTEX
  8
0
 62
7
 10
23.94295492
 20
9.48445313
  0
VERTEX
  8
0
 62
7
 10
23.98889533
 20
9.49187500
  0
VERTEX
  8
0
 62
7
 10
24.03400675
 20
9.50435938
  0
VERTEX
  8
0
 62
7
 10
24.07787467
 20
9.52200000
  0
VERTEX
  8
0
 62
7
 10
24.13065433
 20
9.55162500
  0
VERTEX
  8
0
 62
7
 10
24.17846000
 20
9.58950000
  0
VERTEX
  8
0
 62
7
 10
24.21963367
 20
9.63562500
  0
VERTEX
  8
0
 62
7
 10
24.25251733
 20
9.69000000
  0
VERTEX
  8
0
 62
7
 10
24.27517667
 20
9.74862500
  0
VERTEX
  8
0
 62
7
 10
24.28788800
 20
9.81100000
  0
VERTEX
  8
0
 62
7
 10
24.32546933
 20
9.81200000
  0
VERTEX
  8
0
 62
7
 10
24.40063200
 20
9.81500000
  0
VERTEX
  8
0
 62
7
 10
24.47938700
 20
9.72412500
  0
VERTEX
  8
0
 62
7
 10
24.56643200
 20
9.64300000
  0
VERTEX
  8
0
 62
7
 10
24.61900442
 20
9.60095313
  0
VERTEX
  8
0
 62
7
 10
24.67364933
 20
9.56312500
  0
VERTEX
  8
0
 62
7
 10
24.72995225
 20
9.52923438
  0
VERTEX
  8
0
 62
7
 10
24.78749867
 20
9.49900000
  0
VERTEX
  8
0
 62
7
 10
24.80260633
 20
9.49247266
  0
VERTEX
  8
0
 62
7
 10
24.81799896
 20
9.48803125
  0
VERTEX
  8
0
 62
7
 10
24.83354703
 20
9.48588672
  0
VERTEX
  8
0
 62
7
 10
24.84912100
 20
9.48625000
  0
VERTEX
  8
0
 62
7
 10
24.86459135
 20
9.48933203
  0
VERTEX
  8
0
 62
7
 10
24.87982854
 20
9.49534375
  0
VERTEX
  8
0
 62
7
 10
24.89470305
 20
9.50449609
  0
VERTEX
  8
0
 62
7
 10
24.90908533
 20
9.51700000
  0
VERTEX
  8
0
 62
7
 10
24.98103563
 20
9.47098438
  0
VERTEX
  8
0
 62
7
 10
25.05692367
 20
9.43237500
  0
VERTEX
  8
0
 62
7
 10
25.13571321
 20
9.40182813
  0
VERTEX
  8
0
 62
7
 10
25.21636800
 20
9.38000000
  0
VERTEX
  8
0
 62
7
 10
25.25353483
 20
9.37270312
  0
VERTEX
  8
0
 62
7
 10
25.29153067
 20
9.36737500
  0
VERTEX
  8
0
 62
7
 10
25.32952650
 20
9.36410938
  0
VERTEX
  8
0
 62
7
 10
25.36669333
 20
9.36300000
  0
VERTEX
  8
0
 62
7
 10
25.41311733
 20
9.36500000
  0
VERTEX
  8
0
 62
7
 10
25.45954133
 20
9.37000000
  0
VERTEX
  8
0
 62
7
 10
25.48215317
 20
9.37588477
  0
VERTEX
  8
0
 62
7
 10
25.50157854
 20
9.38689062
  0
VERTEX
  8
0
 62
7
 10
25.51732522
 20
9.40204492
  0
VERTEX
  8
0
 62
7
 10
25.52890100
 20
9.42037500
  0
VERTEX
  8
0
 62
7
 10
25.53581365
 20
9.44090820
  0
VERTEX
  8
0
 62
7
 10
25.53757096
 20
9.46267188
  0
VERTEX
  8
0
 62
7
 10
25.53368070
 20
9.48469336
  0
VERTEX
  8
0
 62
7
 10
25.52365067
 20
9.50600000
  0
VERTEX
  8
0
 62
7
 10
25.49491200
 20
9.56700000
  0
VERTEX
  8
0
 62
7
 10
25.47943733
 20
9.63100000
  0
VERTEX
  8
0
 62
7
 10
25.47722667
 20
9.65500000
  0
VERTEX
  8
0
 62
7
 10
25.48164800
 20
9.68900000
  0
VERTEX
  8
0
 62
7
 10
25.48828000
 20
9.69100000
  0
VERTEX
  8
0
 62
7
 10
25.53912533
 20
9.60800000
  0
VERTEX
  8
0
 62
7
 10
25.59922783
 20
9.54056250
  0
VERTEX
  8
0
 62
7
 10
25.66844933
 20
9.48175000
  0
VERTEX
  8
0
 62
7
 10
25.74430283
 20
9.43306250
  0
VERTEX
  8
0
 62
7
 10
25.82430133
 20
9.39600000
  0
VERTEX
  8
0
 62
7
 10
25.87317779
 20
9.37946875
  0
VERTEX
  8
0
 62
7
 10
25.92350500
 20
9.36650000
  0
VERTEX
  8
0
 62
7
 10
25.97507571
 20
9.35803125
  0
VERTEX
  8
0
 62
7
 10
26.02768267
 20
9.35500000
  0
VERTEX
  8
0
 62
7
 10
26.05296717
 20
9.35698438
  0
VERTEX
  8
0
 62
7
 10
26.07576467
 20
9.36412500
  0
VERTEX
  8
0
 62
7
 10
26.09607517
 20
9.37820313
  0
VERTEX
  8
0
 62
7
 10
26.11389867
 20
9.40100000
  0
VERTEX
  8
0
 62
7
 10
26.17033975
 20
9.38207813
  0
VERTEX
  8
0
 62
7
 10
26.22719533
 20
9.36587500
  0
VERTEX
  8
0
 62
7
 10
26.28487992
 20
9.35248438
  0
VERTEX
  8
0
 62
7
 10
26.34380800
 20
9.34200000
  0
VERTEX
  8
0
 62
7
 10
26.42256300
 20
9.33250000
  0
VERTEX
  8
0
 62
7
 10
26.50297600
 20
9.32900000
  0
VERTEX
  8
0
 62
7
 10
26.57399367
 20
9.33225000
  0
VERTEX
  8
0
 62
7
 10
26.64666933
 20
9.34300000
  0
VERTEX
  8
0
 62
7
 10
26.71426738
 20
9.36068750
  0
VERTEX
  8
0
 62
7
 10
26.77792767
 20
9.38475000
  0
VERTEX
  8
0
 62
7
 10
26.83785746
 20
9.41443750
  0
VERTEX
  8
0
 62
7
 10
26.89426400
 20
9.44900000
  0
VERTEX
  8
0
 62
7
 10
26.91442770
 20
9.46744336
  0
VERTEX
  8
0
 62
7
 10
26.92707858
 20
9.48948438
  0
VERTEX
  8
0
 62
7
 10
26.93257934
 20
9.51356445
  0
VERTEX
  8
0
 62
7
 10
26.93129267
 20
9.53812500
  0
VERTEX
  8
0
 62
7
 10
26.92358124
 20
9.56160742
  0
VERTEX
  8
0
 62
7
 10
26.90980775
 20
9.58245313
  0
VERTEX
  8
0
 62
7
 10
26.89033489
 20
9.59910352
  0
VERTEX
  8
0
 62
7
 10
26.86552533
 20
9.61000000
  0
VERTEX
  8
0
 62
7
 10
26.82127746
 20
9.62462500
  0
VERTEX
  8
0
 62
7
 10
26.77848033
 20
9.64450000
  0
VERTEX
  8
0
 62
7
 10
26.73775571
 20
9.66962500
  0
VERTEX
  8
0
 62
7
 10
26.69972533
 20
9.70000000
  0
VERTEX
  8
0
 62
7
 10
26.66739433
 20
9.73762500
  0
VERTEX
  8
0
 62
7
 10
26.63340533
 20
9.79100000
  0
VERTEX
  8
0
 62
7
 10
26.62014133
 20
9.81200000
  0
VERTEX
  8
0
 62
7
 10
26.65772267
 20
9.81900000
  0
VERTEX
  8
0
 62
7
 10
26.74017363
 20
9.84282813
  0
VERTEX
  8
0
 62
7
 10
26.81827233
 20
9.87537500
  0
VERTEX
  8
0
 62
7
 10
26.89181154
 20
9.91673438
  0
VERTEX
  8
0
 62
7
 10
26.96058400
 20
9.96700000
  0
VERTEX
  8
0
 62
7
 10
27.00521183
 20
10.00904688
  0
VERTEX
  8
0
 62
7
 10
27.04569467
 20
10.05587500
  0
VERTEX
  8
0
 62
7
 10
27.08120350
 20
10.10776563
  0
VERTEX
  8
0
 62
7
 10
27.11090933
 20
10.16500000
  0
VERTEX
  8
0
 62
7
 10
27.13180704
 20
10.21778125
  0
VERTEX
  8
0
 62
7
 10
27.14545100
 20
10.27225000
  0
VERTEX
  8
0
 62
7
 10
27.15287746
 20
10.32784375
  0
VERTEX
  8
0
 62
7
 10
27.15512267
 20
10.38400000
  0
VERTEX
  8
0
 62
7
 10
27.15291200
 20
10.44000000
  0
VERTEX
  8
0
 62
7
 10
27.14054608
 20
10.52531250
  0
VERTEX
  8
0
 62
7
 10
27.11698867
 20
10.60950000
  0
VERTEX
  8
0
 62
7
 10
27.08265425
 20
10.69143750
  0
VERTEX
  8
0
 62
7
 10
27.03795733
 20
10.77000000
  0
VERTEX
  8
0
 62
7
 10
26.99519475
 20
10.83125000
  0
VERTEX
  8
0
 62
7
 10
26.94621467
 20
10.88950000
  0
VERTEX
  8
0
 62
7
 10
26.89060258
 20
10.94325000
  0
VERTEX
  8
0
 62
7
 10
26.82794400
 20
10.99100000
  0
VERTEX
  8
0
 62
7
 10
26.75523379
 20
11.03109375
  0
VERTEX
  8
0
 62
7
 10
26.68065833
 20
11.06050000
  0
VERTEX
  8
0
 62
7
 10
26.60566838
 20
11.08015625
  0
VERTEX
  8
0
 62
7
 10
26.53171467
 20
11.09100000
  0
VERTEX
  8
0
 62
7
 10
26.47423733
 20
11.09300000
  0
VERTEX
  8
0
 62
7
 10
26.41665638
 20
11.09010938
  0
VERTEX
  8
0
 62
7
 10
26.36011167
 20
11.08112500
  0
VERTEX
  8
0
 62
7
 10
26.30481046
 20
11.06557813
  0
VERTEX
  8
0
 62
7
 10
26.25096000
 20
11.04300000
  0
VERTEX
  8
0
 62
7
 10
26.19500250
 20
11.00828125
  0
VERTEX
  8
0
 62
7
 10
26.14650600
 20
10.96625000
  0
VERTEX
  8
0
 62
7
 10
26.10547050
 20
10.91784375
  0
VERTEX
  8
0
 62
7
 10
26.07189600
 20
10.86400000
  0
VERTEX
  8
0
 62
7
 10
26.07189600
 20
10.86300000
  0
VERTEX
  8
0
 62
7
 10
25.99673333
 20
10.93200000
  0
VERTEX
  8
0
 62
7
 10
25.95942833
 20
10.95973438
  0
VERTEX
  8
0
 62
7
 10
25.92046533
 20
10.98437500
  0
VERTEX
  8
0
 62
7
 10
25.87984433
 20
11.00582813
  0
VERTEX
  8
0
 62
7
 10
25.83756533
 20
11.02400000
  0
VERTEX
  8
0
 62
7
 10
25.80440533
 20
11.09400000
  0
VERTEX
  8
0
 62
7
 10
25.78672000
 20
11.13300000
  0
VERTEX
  8
0
 62
7
 10
25.74471733
 20
11.14300000
  0
VERTEX
  8
0
 62
7
 10
25.78737629
 20
11.19059375
  0
VERTEX
  8
0
 62
7
 10
25.82568300
 20
11.24175000
  0
VERTEX
  8
0
 62
7
 10
25.85943021
 20
11.29628125
  0
VERTEX
  8
0
 62
7
 10
25.88841067
 20
11.35400000
  0
VERTEX
  8
0
 62
7
 10
25.91618217
 20
11.42726563
  0
VERTEX
  8
0
 62
7
 10
25.93649267
 20
11.50287500
  0
VERTEX
  8
0
 62
7
 10
25.94934217
 20
11.58054688
  0
VERTEX
  8
0
 62
7
 10
25.95473067
 20
11.66000000
  0
VERTEX
  8
0
 62
7
 10
25.95072383
 20
11.68764063
  0
VERTEX
  8
0
 62
7
 10
25.93925600
 20
11.71237500
  0
VERTEX
  8
0
 62
7
 10
25.92115617
 20
11.73242188
  0
VERTEX
  8
0
 62
7
 10
25.89725333
 20
11.74600000
  0
VERTEX
  8
0
 62
7
 10
25.87293600
 20
11.75500000
  0
VERTEX
  8
0
 62
7
 10
25.92302142
 20
11.79940625
  0
VERTEX
  8
0
 62
7
 10
25.97020533
 20
11.84700000
  0
VERTEX
  8
0
 62
7
 10
26.01407325
 20
11.89759375
  0
VERTEX
  8
0
 62
7
 10
26.05421067
 20
11.95100000
  0
VERTEX
  8
0
 62
7
 10
26.10225813
 20
12.02607813
  0
VERTEX
  8
0
 62
7
 10
26.14346633
 20
12.10537500
  0
VERTEX
  8
0
 62
7
 10
26.17762804
 20
12.18823438
  0
VERTEX
  8
0
 62
7
 10
26.20453600
 20
12.27400000
  0
VERTEX
  8
0
 62
7
 10
26.20678121
 20
12.30153125
  0
VERTEX
  8
0
 62
7
 10
26.20094367
 20
12.32775000
  0
VERTEX
  8
0
 62
7
 10
26.18805963
 20
12.35134375
  0
VERTEX
  8
0
 62
7
 10
26.16916533
 20
12.37100000
  0
VERTEX
  8
0
 62
7
 10
26.14484800
 20
12.39000000
  0
VERTEX
  8
0
 62
7
 10
26.17773167
 20
12.46112500
  0
VERTEX
  8
0
 62
7
 10
26.20232533
 20
12.53900000
  0
VERTEX
  8
0
 62
7
 10
26.21337867
 20
12.63100000
  0
VERTEX
  8
0
 62
7
 10
26.22001067
 20
12.69100000
  0
VERTEX
  8
0
 62
7
 10
26.23520900
 20
12.74637500
  0
VERTEX
  8
0
 62
7
 10
26.25538133
 20
12.79200000
  0
VERTEX
  8
0
 62
7
 10
26.26319207
 20
12.80934766
  0
VERTEX
  8
0
 62
7
 10
26.26688371
 20
12.82728125
  0
VERTEX
  8
0
 62
7
 10
26.26668941
 20
12.84526172
  0
VERTEX
  8
0
 62
7
 10
26.26284233
 20
12.86275000
  0
VERTEX
  8
0
 62
7
 10
26.25557563
 20
12.87920703
  0
VERTEX
  8
0
 62
7
 10
26.24512246
 20
12.89409375
  0
VERTEX
  8
0
 62
7
 10
26.23171597
 20
12.90687109
  0
VERTEX
  8
0
 62
7
 10
26.21558933
 20
12.91700000
  0
VERTEX
  8
0
 62
7
 10
26.17676450
 20
12.93435938
  0
VERTEX
  8
0
 62
7
 10
26.13711067
 20
12.94787500
  0
VERTEX
  8
0
 62
7
 10
26.09745683
 20
12.95820313
  0
VERTEX
  8
0
 62
7
 10
26.05863200
 20
12.96600000
  0
VERTEX
  8
0
 62
7
 10
26.00778667
 20
12.97362500
  0
VERTEX
  8
0
 62
7
 10
25.95694133
 20
12.97600000
  0
VERTEX
  8
0
 62
7
 10
25.91687300
 20
12.97450000
  0
VERTEX
  8
0
 62
7
 10
25.87514667
 20
12.97000000
  0
VERTEX
  8
0
 62
7
 10
25.77345600
 20
13.05400000
  0
VERTEX
  8
0
 62
7
 10
25.76461333
 20
13.06100000
  0
VERTEX
  8
0
 62
7
 10
25.80084754
 20
13.10476563
  0
VERTEX
  8
0
 62
7
 10
25.83563100
 20
13.15237500
  0
VERTEX
  8
0
 62
7
 10
25.86751296
 20
13.20429688
  0
VERTEX
  8
0
 62
7
 10
25.89504267
 20
13.26100000
  0
VERTEX
  8
0
 62
7
 10
25.91483504
 20
13.31770313
  0
VERTEX
  8
0
 62
7
 10
25.93068967
 20
13.37787500
  0
VERTEX
  8
0
 62
7
 10
25.94198479
 20
13.44085938
  0
VERTEX
  8
0
 62
7
 10
25.94809867
 20
13.50600000
  0
VERTEX
  8
0
 62
7
 10
25.94809867
 20
13.54000000
  0
VERTEX
  8
0
 62
7
 10
25.94561167
 20
13.60556250
  0
VERTEX
  8
0
 62
7
 10
25.93815067
 20
13.67150000
  0
VERTEX
  8
0
 62
7
 10
25.92571567
 20
13.73743750
  0
VERTEX
  8
0
 62
7
 10
25.90830667
 20
13.80300000
  0
VERTEX
  8
0
 62
7
 10
25.90132925
 20
13.82075000
  0
VERTEX
  8
0
 62
7
 10
25.89062133
 20
13.83625000
  0
VERTEX
  8
0
 62
7
 10
25.87659742
 20
13.84912500
  0
VERTEX
  8
0
 62
7
 10
25.85967200
 20
13.85900000
  0
VERTEX
  8
0
 62
7
 10
25.82872267
 20
13.87300000
  0
VERTEX
  8
0
 62
7
 10
25.81788954
 20
13.92930859
  0
VERTEX
  8
0
 62
7
 10
25.80216013
 20
13.98484375
  0
VERTEX
  8
0
 62
7
 10
25.78181940
 20
14.03939453
  0
VERTEX
  8
0
 62
7
 10
25.75715233
 20
14.09275000
  0
VERTEX
  8
0
 62
7
 10
25.72844389
 20
14.14469922
  0
VERTEX
  8
0
 62
7
 10
25.69597904
 20
14.19503125
  0
VERTEX
  8
0
 62
7
 10
25.66004276
 20
14.24353516
  0
VERTEX
  8
0
 62
7
 10
25.62092000
 20
14.29000000
  0
VERTEX
  8
0
 62
7
 10
25.57228533
 20
14.34200000
  0
VERTEX
  8
0
 62
7
 10
26.43514750
 20
14.31385376
  0
VERTEX
  8
0
 62
7
 10
27.29683417
 20
14.28079883
  0
VERTEX
  8
0
 62
7
 10
28.15720610
 20
14.24284839
  0
VERTEX
  8
0
 62
7
 10
29.01612404
 20
14.20001563
  0
VERTEX
  8
0
 62
7
 10
29.87344875
 20
14.15231372
  0
VERTEX
  8
0
 62
7
 10
30.72904097
 20
14.09975586
  0
VERTEX
  8
0
 62
7
 10
31.58276147
 20
14.04235522
  0
VERTEX
  8
0
 62
7
 10
32.43447100
 20
13.98012500
  0
VERTEX
  8
0
 62
7
 10
33.28403031
 20
13.91307837
  0
VERTEX
  8
0
 62
7
 10
34.13130015
 20
13.84122852
  0
VERTEX
  8
0
 62
7
 10
34.97614128
 20
13.76458862
  0
VERTEX
  8
0
 62
7
 10
35.81841446
 20
13.68317188
  0
VERTEX
  8
0
 62
7
 10
36.65798043
 20
13.59699146
  0
VERTEX
  8
0
 62
7
 10
37.49469995
 20
13.50606055
  0
VERTEX
  8
0
 62
7
 10
38.32843378
 20
13.41039233
  0
VERTEX
  8
0
 62
7
 10
39.15904267
 20
13.31000000
  0
VERTEX
  8
0
 62
7
 10
39.15904267
 20
2.83900000
  0
VERTEX
  8
0
 62
7
 10
20.99841600
 20
2.83900000
  0
VERTEX
  8
0
 62
7
 10
2.84000000
 20
2.83900000
  0
VERTEX
  8
0
 62
7
 10
2.84000000
 20
13.31000000
  0
VERTEX
  8
0
 62
7
 10
3.67060943
 20
13.41039233
  0
VERTEX
  8
0
 62
7
 10
4.50434703
 20
13.50606055
  0
VERTEX
  8
0
 62
7
 10
5.34107681
 20
13.59699146
  0
VERTEX
  8
0
 62
7
 10
6.18066275
 20
13.68317188
  0
VERTEX
  8
0
 62
7
 10
7.02296885
 20
13.76458862
  0
VERTEX
  8
0
 62
7
 10
7.86785909
 20
13.84122852
  0
VERTEX
  8
0
 62
7
 10
8.71519748
 20
13.91307837
  0
VERTEX
  8
0
 62
7
 10
9.56484800
 20
13.98012500
  0
VERTEX
  8
0
 62
7
 10
10.41667464
 20
14.04235522
  0
VERTEX
  8
0
 62
7
 10
11.27054141
 20
14.09975586
  0
VERTEX
  8
0
 62
7
 10
12.12631228
 20
14.15231372
  0
VERTEX
  8
0
 62
7
 10
12.98385125
 20
14.20001563
  0
VERTEX
  8
0
 62
7
 10
13.84302232
 20
14.24284839
  0
VERTEX
  8
0
 62
7
 10
14.70368947
 20
14.28079883
  0
VERTEX
  8
0
 62
7
 10
15.56571670
 20
14.31385376
  0
VERTEX
  8
0
 62
7
 10
16.42896800
 20
14.34200000
  0
VERTEX
  8
0
 62
7
 10
16.37812267
 20
14.29000000
  0
VERTEX
  8
0
 62
7
 10
16.33909490
 20
14.24353516
  0
VERTEX
  8
0
 62
7
 10
16.30340904
 20
14.19503125
  0
VERTEX
  8
0
 62
7
 10
16.27129824
 20
14.14469922
  0
VERTEX
  8
0
 62
7
 10
16.24299567
 20
14.09275000
  0
VERTEX
  8
0
 62
7
 10
16.21873446
 20
14.03939453
  0
VERTEX
  8
0
 62
7
 10
16.19874779
 20
13.98484375
  0
VERTEX
  8
0
 62
7
 10
16.18326881
 20
13.92930859
  0
VERTEX
  8
0
 62
7
 10
16.17253067
 20
13.87300000
  0
VERTEX
  8
0
 62
7
 10
16.13937067
 20
13.85900000
  0
VERTEX
  8
0
 62
7
 10
16.12279067
 20
13.84940625
  0
VERTEX
  8
0
 62
7
 10
16.10952667
 20
13.83625000
  0
VERTEX
  8
0
 62
7
 10
16.09957867
 20
13.82046875
  0
VERTEX
  8
0
 62
7
 10
16.09294667
 20
13.80300000
  0
VERTEX
  8
0
 62
7
 10
16.07519225
 20
13.73743750
  0
VERTEX
  8
0
 62
7
 10
16.06199733
 20
13.67150000
  0
VERTEX
  8
0
 62
7
 10
16.05377642
 20
13.60556250
  0
VERTEX
  8
0
 62
7
 10
16.05094400
 20
13.54000000
  0
VERTEX
  8
0
 62
7
 10
16.05094400
 20
13.50600000
  0
VERTEX
  8
0
 62
7
 10
16.05740329
 20
13.44085938
  0
VERTEX
  8
0
 62
7
 10
16.06945833
 20
13.37787500
  0
VERTEX
  8
0
 62
7
 10
16.08607288
 20
13.31770313
  0
VERTEX
  8
0
 62
7
 10
16.10621067
 20
13.26100000
  0
VERTEX
  8
0
 62
7
 10
16.13246233
 20
13.20429688
  0
VERTEX
  8
0
 62
7
 10
16.16368800
 20
13.15237500
  0
VERTEX
  8
0
 62
7
 10
16.19822967
 20
13.10476563
  0
VERTEX
  8
0
 62
7
 10
16.23442933
 20
13.06100000
  0
VERTEX
  8
0
 62
7
 10
16.22779733
 20
13.05400000
  0
VERTEX
  8
0
 62
7
 10
16.12389600
 20
12.97000000
  0
VERTEX
  8
0
 62
7
 10
16.08382767
 20
12.97450000
  0
VERTEX
  8
0
 62
7
 10
16.04210133
 20
12.97600000
  0
VERTEX
  8
0
 62
7
 10
15.99208500
 20
12.97362500
  0
VERTEX
  8
0
 62
7
 10
15.94041067
 20
12.96600000
  0
VERTEX
  8
0
 62
7
 10
15.90189671
 20
12.95820313
  0
VERTEX
  8
0
 62
7
 10
15.86276100
 20
12.94787500
  0
VERTEX
  8
0
 62
7
 10
15.82321079
 20
12.93435938
  0
VERTEX
  8
0
 62
7
 10
15.78345333
 20
12.91700000
  0
VERTEX
  8
0
 62
7
 10
15.76732669
 20
12.90687109
  0
VERTEX
  8
0
 62
7
 10
15.75392021
 20
12.89409375
  0
VERTEX
  8
0
 62
7
 10
15.74346704
 20
12.87920703
  0
VERTEX
  8
0
 62
7
 10
15.73620033
 20
12.86275000
  0
VERTEX
  8
0
 62
7
 10
15.73235326
 20
12.84526172
  0
VERTEX
  8
0
 62
7
 10
15.73215896
 20
12.82728125
  0
VERTEX
  8
0
 62
7
 10
15.73585060
 20
12.80934766
  0
VERTEX
  8
0
 62
7
 10
15.74366133
 20
12.79200000
  0
VERTEX
  8
0
 62
7
 10
15.76411000
 20
12.74637500
  0
VERTEX
  8
0
 62
7
 10
15.78124267
 20
12.69100000
  0
VERTEX
  8
0
 62
7
 10
15.78787467
 20
12.63100000
  0
VERTEX
  8
0
 62
7
 10
15.79671733
 20
12.53900000
  0
VERTEX
  8
0
 62
7
 10
15.82131100
 20
12.46112500
  0
VERTEX
  8
0
 62
7
 10
15.85419467
 20
12.39000000
  0
VERTEX
  8
0
 62
7
 10
15.82987733
 20
12.37100000
  0
VERTEX
  8
0
 62
7
 10
15.81067217
 20
12.35134375
  0
VERTEX
  8
0
 62
7
 10
15.79727000
 20
12.32775000
  0
VERTEX
  8
0
 62
7
 10
15.79132883
 20
12.30153125
  0
VERTEX
  8
0
 62
7
 10
15.79450667
 20
12.27400000
  0
VERTEX
  8
0
 62
7
 10
15.82238179
 20
12.18823438
  0
VERTEX
  8
0
 62
7
 10
15.85668167
 20
12.10537500
  0
VERTEX
  8
0
 62
7
 10
15.89802804
 20
12.02607813
  0
VERTEX
  8
0
 62
7
 10
15.94704267
 20
11.95100000
  0
VERTEX
  8
0
 62
7
 10
15.98683467
 20
11.89759375
  0
VERTEX
  8
0
 62
7
 10
16.02994267
 20
11.84700000
  0
VERTEX
  8
0
 62
7
 10
16.07636667
 20
11.79940625
  0
VERTEX
  8
0
 62
7
 10
16.12610667
 20
11.75500000
  0
VERTEX
  8
0
 62
7
 10
16.10400000
 20
11.74600000
  0
VERTEX
  8
0
 62
7
 10
16.08009717
 20
11.73200000
  0
VERTEX
  8
0
 62
7
 10
16.06199733
 20
11.71200000
  0
VERTEX
  8
0
 62
7
 10
16.05052950
 20
11.68750000
  0
VERTEX
  8
0
 62
7
 10
16.04652267
 20
11.66000000
  0
VERTEX
  8
0
 62
7
 10
16.05160029
 20
11.58054688
  0
VERTEX
  8
0
 62
7
 10
16.06393167
 20
11.50287500
  0
VERTEX
  8
0
 62
7
 10
16.08413854
 20
11.42726563
  0
VERTEX
  8
0
 62
7
 10
16.11284267
 20
11.35400000
  0
VERTEX
  8
0
 62
7
 10
16.14147771
 20
11.29628125
  0
VERTEX
  8
0
 62
7
 10
16.17446500
 20
11.24175000
  0
VERTEX
  8
0
 62
7
 10
16.21201179
 20
11.19059375
  0
VERTEX
  8
0
 62
7
 10
16.25432533
 20
11.14300000
  0
VERTEX
  8
0
 62
7
 10
16.23163146
 20
11.13801563
  0
VERTEX
  8
0
 62
7
 10
16.21536233
 20
11.12712500
  0
VERTEX
  8
0
 62
7
 10
16.20365271
 20
11.11192188
  0
VERTEX
  8
0
 62
7
 10
16.19463733
 20
11.09400000
  0
VERTEX
  8
0
 62
7
 10
16.16368800
 20
11.02400000
  0
VERTEX
  8
0
 62
7
 10
16.12013096
 20
11.00582813
  0
VERTEX
  8
0
 62
7
 10
16.07885367
 20
10.98437500
  0
VERTEX
  8
0
 62
7
 10
16.03964888
 20
10.95973438
  0
VERTEX
  8
0
 62
7
 10
16.00230933
 20
10.93200000
  0
VERTEX
  8
0
 62
7
 10
15.96417533
 20
10.89900000
  0
VERTEX
  8
0
 62
7
 10
15.92935733
 20
10.86300000
  0
VERTEX
  8
0
 62
7
 10
15.92714667
 20
10.86400000
  0
VERTEX
  8
0
 62
7
 10
15.89357217
 20
10.91784375
  0
VERTEX
  8
0
 62
7
 10
15.85253667
 20
10.96625000
  0
VERTEX
  8
0
 62
7
 10
15.80404017
 20
11.00828125
  0
VERTEX
  8
0
 62
7
 10
15.74808267
 20
11.04300000
  0
VERTEX
  8
0
 62
7
 10
15.69516483
 20
11.06557813
  0
VERTEX
  8
0
 62
7
 10
15.63976000
 20
11.08112500
  0
VERTEX
  8
0
 62
7
 10
15.58269717
 20
11.09010938
  0
VERTEX
  8
0
 62
7
 10
15.52480533
 20
11.09300000
  0
VERTEX
  8
0
 62
7
 10
15.46732800
 20
11.09100000
  0
VERTEX
  8
0
 62
7
 10
15.39371971
 20
11.08015625
  0
VERTEX
  8
0
 62
7
 10
15.31948967
 20
11.06050000
  0
VERTEX
  8
0
 62
7
 10
15.24567413
 20
11.03109375
  0
VERTEX
  8
0
 62
7
 10
15.17330933
 20
10.99100000
  0
VERTEX
  8
0
 62
7
 10
15.10937271
 20
10.94325000
  0
VERTEX
  8
0
 62
7
 10
15.05310433
 20
10.88950000
  0
VERTEX
  8
0
 62
7
 10
15.00388246
 20
10.83125000
  0
VERTEX
  8
0
 62
7
 10
14.96108533
 20
10.77000000
  0
VERTEX
  8
0
 62
7
 10
14.91732104
 20
10.69143750
  0
VERTEX
  8
0
 62
7
 10
14.88288300
 20
10.60950000
  0
VERTEX
  8
0
 62
7
 10
14.85880746
 20
10.52531250
  0
VERTEX
  8
0
 62
7
 10
14.84613067
 20
10.44000000
  0
VERTEX
  8
0
 62
7
 10
14.84392000
 20
10.38400000
  0
VERTEX
  8
0
 62
7
 10
14.84647608
 20
10.32784375
  0
VERTEX
  8
0
 62
7
 10
14.85442067
 20
10.27225000
  0
VERTEX
  8
0
 62
7
 10
14.86816825
 20
10.21778125
  0
VERTEX
  8
0
 62
7
 10
14.88813333
 20
10.16500000
  0
VERTEX
  8
0
 62
7
 10
14.91787371
 20
10.10776563
  0
VERTEX
  8
0
 62
7
 10
14.95362433
 20
10.05587500
  0
VERTEX
  8
0
 62
7
 10
14.99476346
 20
10.00904688
  0
VERTEX
  8
0
 62
7
 10
15.04066933
 20
9.96700000
  0
VERTEX
  8
0
 62
7
 10
15.10819829
 20
9.91673438
  0
VERTEX
  8
0
 62
7
 10
15.18132300
 20
9.87537500
  0
VERTEX
  8
0
 62
7
 10
15.25983621
 20
9.84282813
  0
VERTEX
  8
0
 62
7
 10
15.34353067
 20
9.81900000
  0
VERTEX
  8
0
 62
7
 10
15.37890133
 20
9.81200000
  0
VERTEX
  8
0
 62
7
 10
15.36784800
 20
9.79100000
  0
VERTEX
  8
0
 62
7
 10
15.33275367
 20
9.73762500
  0
VERTEX
  8
0
 62
7
 10
15.29931733
 20
9.70000000
  0
VERTEX
  8
0
 62
7
 10
15.26221958
 20
9.66962500
  0
VERTEX
  8
0
 62
7
 10
15.22139133
 20
9.64450000
  0
VERTEX
  8
0
 62
7
 10
15.17807608
 20
9.62462500
  0
VERTEX
  8
0
 62
7
 10
15.13351733
 20
9.61000000
  0
VERTEX
  8
0
 62
7
 10
15.10825874
 20
9.59910352
  0
VERTEX
  8
0
 62
7
 10
15.08895858
 20
9.58245313
  0
VERTEX
  8
0
 62
7
 10
15.07577230
 20
9.56160742
  0
VERTEX
  8
0
 62
7
 10
15.06885533
 20
9.53812500
  0
VERTEX
  8
0
 62
7
 10
15.06836311
 20
9.51356445
  0
VERTEX
  8
0
 62
7
 10
15.07445108
 20
9.48948438
  0
VERTEX
  8
0
 62
7
 10
15.08727468
 20
9.46744336
  0
VERTEX
  8
0
 62
7
 10
15.10698933
 20
9.44900000
  0
VERTEX
  8
0
 62
7
 10
15.16215238
 20
9.41443750
  0
VERTEX
  8
0
 62
7
 10
15.22166767
 20
9.38475000
  0
VERTEX
  8
0
 62
7
 10
15.28574246
 20
9.36068750
  0
VERTEX
  8
0
 62
7
 10
15.35458400
 20
9.34300000
  0
VERTEX
  8
0
 62
7
 10
15.42560167
 20
9.33225000
  0
VERTEX
  8
0
 62
7
 10
15.49827733
 20
9.32900000
  0
VERTEX
  8
0
 62
7
 10
15.57786133
 20
9.33250000
  0
VERTEX
  8
0
 62
7
 10
15.65744533
 20
9.34200000
  0
VERTEX
  8
0
 62
7
 10
15.71512992
 20
9.35248438
  0
VERTEX
  8
0
 62
7
 10
15.77240000
 20
9.36587500
  0
VERTEX
  8
0
 62
7
 10
15.82967008
 20
9.38207813
  0
VERTEX
  8
0
 62
7
 10
15.88735467
 20
9.40100000
  0
VERTEX
  8
0
 62
7
 10
15.90327838
 20
9.37482813
  0
VERTEX
  8
0
 62
7
 10
15.92355433
 20
9.36112500
  0
VERTEX
  8
0
 62
7
 10
15.94673179
 20
9.35585938
  0
VERTEX
  8
0
 62
7
 10
15.97136000
 20
9.35500000
  0
VERTEX
  8
0
 62
7
 10
16.02396696
 20
9.35803125
  0
VERTEX
  8
0
 62
7
 10
16.07553767
 20
9.36650000
  0
VERTEX
  8
0
 62
7
 10
16.12586488
 20
9.37946875
  0
VERTEX
  8
0
 62
7
 10
16.17474133
 20
9.39600000
  0
VERTEX
  8
0
 62
7
 10
16.25473983
 20
9.43306250
  0
VERTEX
  8
0
 62
7
 10
16.33059333
 20
9.48175000
  0
VERTEX
  8
0
 62
7
 10
16.39981483
 20
9.54056250
  0
VERTEX
  8
0
 62
7
 10
16.45991733
 20
9.60800000
  0
VERTEX
  8
0
 62
7
 10
16.51297333
 20
9.69100000
  0
VERTEX
  8
0
 62
7
 10
16.51960533
 20
9.68900000
  0
VERTEX
  8
0
 62
7
 10
16.52181600
 20
9.65500000
  0
VERTEX
  8
0
 62
7
 10
16.52181600
 20
9.63100000
  0
VERTEX
  8
0
 62
7
 10
16.50634133
 20
9.56700000
  0
VERTEX
  8
0
 62
7
 10
16.47760267
 20
9.50600000
  0
VERTEX
  8
0
 62
7
 10
16.46757263
 20
9.48469336
  0
VERTEX
  8
0
 62
7
 10
16.46368238
 20
9.46267188
  0
VERTEX
  8
0
 62
7
 10
16.46543968
 20
9.44090820
  0
VERTEX
  8
0
 62
7
 10
16.47235233
 20
9.42037500
  0
VERTEX
  8
0
 62
7
 10
16.48392811
 20
9.40204492
  0
VERTEX
  8
0
 62
7
 10
16.49967479
 20
9.38689062
  0
VERTEX
  8
0
 62
7
 10
16.51910016
 20
9.37588477
  0
VERTEX
  8
0
 62
7
 10
16.54171200
 20
9.37000000
  0
VERTEX
  8
0
 62
7
 10
16.58703067
 20
9.36500000
  0
VERTEX
  8
0
 62
7
 10
16.63234933
 20
9.36300000
  0
VERTEX
  8
0
 62
7
 10
16.67048333
 20
9.36410938
  0
VERTEX
  8
0
 62
7
 10
16.70861733
 20
9.36737500
  0
VERTEX
  8
0
 62
7
 10
16.74675133
 20
9.37270312
  0
VERTEX
  8
0
 62
7
 10
16.78488533
 20
9.38000000
  0
VERTEX
  8
0
 62
7
 10
16.86429663
 20
9.40182813
  0
VERTEX
  8
0
 62
7
 10
16.94267167
 20
9.43237500
  0
VERTEX
  8
0
 62
7
 10
17.01897421
 20
9.47098438
  0
VERTEX
  8
0
 62
7
 10
17.09216800
 20
9.51700000
  0
VERTEX
  8
0
 62
7
 10
17.10772470
 20
9.50511133
  0
VERTEX
  8
0
 62
7
 10
17.12294463
 20
9.49632813
  0
VERTEX
  8
0
 62
7
 10
17.13790548
 20
9.49047461
  0
VERTEX
  8
0
 62
7
 10
17.15268500
 20
9.48737500
  0
VERTEX
  8
0
 62
7
 10
17.16736089
 20
9.48685352
  0
VERTEX
  8
0
 62
7
 10
17.18201088
 20
9.48873438
  0
VERTEX
  8
0
 62
7
 10
17.19671267
 20
9.49284180
  0
VERTEX
  8
0
 62
7
 10
17.21154400
 20
9.49900000
  0
VERTEX
  8
0
 62
7
 10
17.26909042
 20
9.52923438
  0
VERTEX
  8
0
 62
7
 10
17.32539333
 20
9.56312500
  0
VERTEX
  8
0
 62
7
 10
17.38003825
 20
9.60095313
  0
VERTEX
  8
0
 62
7
 10
17.43261067
 20
9.64300000
  0
VERTEX
  8
0
 62
7
 10
17.51965567
 20
9.72412500
  0
VERTEX
  8
0
 62
7
 10
17.59841067
 20
9.81500000
  0
VERTEX
  8
0
 62
7
 10
17.67578400
 20
9.81200000
  0
VERTEX
  8
0
 62
7
 10
17.71115467
 20
9.81100000
  0
VERTEX
  8
0
 62
7
 10
17.72469500
 20
9.74862500
  0
VERTEX
  8
0
 62
7
 10
17.74652533
 20
9.69000000
  0
VERTEX
  8
0
 62
7
 10
17.77971988
 20
9.63562500
  0
VERTEX
  8
0
 62
7
 10
17.82141167
 20
9.58950000
  0
VERTEX
  8
0
 62
7
 10
17.86932096
 20
9.55162500
  0
VERTEX
  8
0
 62
7
 10
17.92116800
 20
9.52200000
  0
VERTEX
  8
0
 62
7
 10
17.96507046
 20
9.50435938
  0
VERTEX
  8
0
 62
7
 10
18.01042367
 20
9.49187500
  0
VERTEX
  8
0
 62
7
 10
18.05702038
 20
9.48445313
  0
VERTEX
  8
0
 62
7
 10
18.10465333
 20
9.48200000
  0
VERTEX
  8
0
 62
7
 10
18.13882799
 20
9.48325781
  0
VERTEX
  8
0
 62
7
 10
18.17328763
 20
9.48700000
  0
VERTEX
  8
0
 62
7
 10
18.20790269
 20
9.49317969
  0
VERTEX
  8
0
 62
7
 10
18.24254367
 20
9.50175000
  0
VERTEX
  8
0
 62
7
 10
18.27708102
 20
9.51266406
  0
VERTEX
  8
0
 62
7
 10
18.31138521
 20
9.52587500
  0
VERTEX
  8
0
 62
7
 10
18.34532671
 20
9.54133594
  0
VERTEX
  8
0
 62
7
 10
18.37877600
 20
9.55900000
  0
VERTEX
  8
0
 62
7
 10
18.39460472
 20
9.57066016
  0
VERTEX
  8
0
 62
7
 10
18.40716925
 20
9.58496875
  0
VERTEX
  8
0
 62
7
 10
18.41631416
 20
9.60129297
  0
VERTEX
  8
0
 62
7
 10
18.42188400
 20
9.61900000
  0
VERTEX
  8
0
 62
7
 10
18.42372334
 20
9.63745703
  0
VERTEX
  8
0
 62
7
 10
18.42167675
 20
9.65603125
  0
VERTEX
  8
0
 62
7
 10
18.41558878
 20
9.67408984
  0
VERTEX
  8
0
 62
7
 10
18.40530400
 20
9.69100000
  0
VERTEX
  8
0
 62
7
 10
18.34119467
 20
9.77600000
  0
VERTEX
  8
0
 62
7
 10
18.33898400
 20
9.78600000
  0
VERTEX
  8
0
 62
7
 10
18.34340533
 20
9.81300000
  0
VERTEX
  8
0
 62
7
 10
18.36440667
 20
9.85762500
  0
VERTEX
  8
0
 62
7
 10
18.39867200
 20
9.90000000
  0
VERTEX
  8
0
 62
7
 10
18.52246933
 20
9.87400000
  0
VERTEX
  8
0
 62
7
 10
18.54471417
 20
9.87185156
  0
VERTEX
  8
0
 62
7
 10
18.56613000
 20
9.87481250
  0
VERTEX
  8
0
 62
7
 10
18.58588783
 20
9.88236719
  0
VERTEX
  8
0
 62
7
 10
18.60315867
 20
9.89400000
  0
VERTEX
  8
0
 62
7
 10
18.61711350
 20
9.90919531
  0
VERTEX
  8
0
 62
7
 10
18.62692333
 20
9.92743750
  0
VERTEX
  8
0
 62
7
 10
18.63175917
 20
9.94821094
  0
VERTEX
  8
0
 62
7
 10
18.63079200
 20
9.97100000
  0
VERTEX
  8
0
 62
7
 10
18.62858133
 20
10.00800000
  0
VERTEX
  8
0
 62
7
 10
18.63079200
 20
10.05450000
  0
VERTEX
  8
0
 62
7
 10
18.63963467
 20
10.10100000
  0
VERTEX
  8
0
 62
7
 10
18.65189696
 20
10.15118750
  0
VERTEX
  8
0
 62
7
 10
18.66478100
 20
10.19425000
  0
VERTEX
  8
0
 62
7
 10
18.68222454
 20
10.23093750
  0
VERTEX
  8
0
 62
7
 10
18.70816533
 20
10.26200000
  0
VERTEX
  8
0
 62
7
 10
18.74629933
 20
10.29262500
  0
VERTEX
  8
0
 62
7
 10
18.78774933
 20
10.31200000
  0
VERTEX
  8
0
 62
7
 10
18.79659200
 20
10.27200000
  0
VERTEX
  8
0
 62
7
 10
18.80681633
 20
10.24629688
  0
VERTEX
  8
0
 62
7
 10
18.82367267
 20
10.22687500
  0
VERTEX
  8
0
 62
7
 10
18.84633200
 20
10.21251563
  0
VERTEX
  8
0
 62
7
 10
18.87396533
 20
10.20200000
  0
VERTEX
  8
0
 62
7
 10
18.93669300
 20
10.16900000
  0
VERTEX
  8
0
 62
7
 10
18.96460267
 20
10.14200000
  0
VERTEX
  8
0
 62
7
 10
18.97565600
 20
10.12800000
  0
VERTEX
  8
0
 62
7
 10
18.99783175
 20
10.09881250
  0
VERTEX
  8
0
 62
7
 10
19.02539600
 20
10.06625000
  0
VERTEX
  8
0
 62
7
 10
19.05959225
 20
10.03406250
  0
VERTEX
  8
0
 62
7
 10
19.10166400
 20
10.00600000
  0
VERTEX
  8
0
 62
7
 10
19.14349396
 20
9.98704688
  0
VERTEX
  8
0
 62
7
 10
19.18594567
 20
9.97362500
  0
VERTEX
  8
0
 62
7
 10
19.22881188
 20
9.96564063
  0
VERTEX
  8
0
 62
7
 10
19.27188533
 20
9.96300000
  0
VERTEX
  8
0
 62
7
 10
19.31029567
 20
9.96512500
  0
VERTEX
  8
0
 62
7
 10
19.34704800
 20
9.97100000
  0
SEQEND
  0
POLYLINE
  8
0
 62
7
 66
1
 70
1
  0
VERTEX
  8
0
 62
7
 10
19.65100000
 20
10.26500000
  0
VERTEX
  8
0
 62
7
 10
19.58800000
 20
10.19500000
  0
VERTEX
  8
0
 62
7
 10
19.56861719
 20
10.17176563
  0
VERTEX
  8
0
 62
7
 10
19.54900000
 20
10.14843750
  0
VERTEX
  8
0
 62
7
 10
19.52957031
 20
10.12482813
  0
VERTEX
  8
0
 62
7
 10
19.51075000
 20
10.10075000
  0
VERTEX
  8
0
 62
7
 10
19.49296094
 20
10.07601563
  0
VERTEX
  8
0
 62
7
 10
19.47662500
 20
10.05043750
  0
VERTEX
  8
0
 62
7
 10
19.46216406
 20
10.02382813
  0
VERTEX
  8
0
 62
7
 10
19.45000000
 20
9.99600000
  0
VERTEX
  8
0
 62
7
 10
19.44034961
 20
9.96806250
  0
VERTEX
  8
0
 62
7
 10
19.43185938
 20
9.93975000
  0
VERTEX
  8
0
 62
7
 10
19.42484570
 20
9.91106250
  0
VERTEX
  8
0
 62
7
 10
19.41962500
 20
9.88200000
  0
VERTEX
  8
0
 62
7
 10
19.41651367
 20
9.85256250
  0
VERTEX
  8
0
 62
7
 10
19.41582813
 20
9.82275000
  0
VERTEX
  8
0
 62
7
 10
19.41788477
 20
9.79256250
  0
VERTEX
  8
0
 62
7
 10
19.42300000
 20
9.76200000
  0
VERTEX
  8
0
 62
7
 10
19.43146289
 20
9.73155664
  0
VERTEX
  8
0
 62
7
 10
19.44251563
 20
9.70182813
  0
VERTEX
  8
0
 62
7
 10
19.45602930
 20
9.67296680
  0
VERTEX
  8
0
 62
7
 10
19.47187500
 20
9.64512500
  0
VERTEX
  8
0
 62
7
 10
19.48992383
 20
9.61845508
  0
VERTEX
  8
0
 62
7
 10
19.51004688
 20
9.59310937
  0
VERTEX
  8
0
 62
7
 10
19.53211523
 20
9.56924023
  0
VERTEX
  8
0
 62
7
 10
19.55600000
 20
9.54700000
  0
VERTEX
  8
0
 62
7
 10
19.58301563
 20
9.57068750
  0
VERTEX
  8
0
 62
7
 10
19.61387500
 20
9.59100000
  0
VERTEX
  8
0
 62
7
 10
19.64754688
 20
9.60606250
  0
VERTEX
  8
0
 62
7
 10
19.68300000
 20
9.61400000
  0
VERTEX
  8
0
 62
7
 10
19.71630078
 20
9.61466797
  0
VERTEX
  8
0
 62
7
 10
19.74896875
 20
9.61034375
  0
VERTEX
  8
0
 62
7
 10
19.78027734
 20
9.60166016
  0
VERTEX
  8
0
 62
7
 10
19.80950000
 20
9.58925000
  0
VERTEX
  8
0
 62
7
 10
19.83591016
 20
9.57374609
  0
VERTEX
  8
0
 62
7
 10
19.85878125
 20
9.55578125
  0
VERTEX
  8
0
 62
7
 10
19.87738672
 20
9.53598828
  0
VERTEX
  8
0
 62
7
 10
19.89100000
 20
9.51500000
  0
VERTEX
  8
0
 62
7
 10
19.90855078
 20
9.53721875
  0
VERTEX
  8
0
 62
7
 10
19.92940625
 20
9.55831250
  0
VERTEX
  8
0
 62
7
 10
19.95312109
 20
9.57743750
  0
VERTEX
  8
0
 62
7
 10
19.97925000
 20
9.59375000
  0
VERTEX
  8
0
 62
7
 10
20.00734766
 20
9.60640625
  0
VERTEX
  8
0
 62
7
 10
20.03696875
 20
9.61456250
  0
VERTEX
  8
0
 62
7
 10
20.06766797
 20
9.61737500
  0
VERTEX
  8
0
 62
7
 10
20.09900000
 20
9.61400000
  0
VERTEX
  8
0
 62
7
 10
20.13429688
 20
9.60395313
  0
VERTEX
  8
0
 62
7
 10
20.16762500
 20
9.58912500
  0
VERTEX
  8
0
 62
7
 10
20.19814063
 20
9.56998438
  0
VERTEX
  8
0
 62
7
 10
20.22500000
 20
9.54700000
  0
VERTEX
  8
0
 62
7
 10
20.24892773
 20
9.56924023
  0
VERTEX
  8
0
 62
7
 10
20.27110938
 20
9.59310937
  0
VERTEX
  8
0
 62
7
 10
20.29139258
 20
9.61845508
  0
VERTEX
  8
0
 62
7
 10
20.30962500
 20
9.64512500
  0
VERTEX
  8
0
 62
7
 10
20.32565430
 20
9.67296680
  0
VERTEX
  8
0
 62
7
 10
20.33932813
 20
9.70182813
  0
VERTEX
  8
0
 62
7
 10
20.35049414
 20
9.73155664
  0
VERTEX
  8
0
 62
7
 10
20.35900000
 20
9.76200000
  0
VERTEX
  8
0
 62
7
 10
20.36382813
 20
9.79256250
  0
VERTEX
  8
0
 62
7
 10
20.36575000
 20
9.82275000
  0
VERTEX
  8
0
 62
7
 10
20.36504688
 20
9.85256250
  0
VERTEX
  8
0
 62
7
 10
20.36200000
 20
9.88200000
  0
VERTEX
  8
0
 62
7
 10
20.35689063
 20
9.91106250
  0
VERTEX
  8
0
 62
7
 10
20.35000000
 20
9.93975000
  0
VERTEX
  8
0
 62
7
 10
20.34160938
 20
9.96806250
  0
VERTEX
  8
0
 62
7
 10
20.33200000
 20
9.99600000
  0
VERTEX
  8
0
 62
7
 10
20.31979492
 20
10.02382813
  0
VERTEX
  8
0
 62
7
 10
20.30523438
 20
10.05043750
  0
VERTEX
  8
0
 62
7
 10
20.28877539
 20
10.07601563
  0
VERTEX
  8
0
 62
7
 10
20.27087500
 20
10.10075000
  0
VERTEX
  8
0
 62
7
 10
20.25199023
 20
10.12482813
  0
VERTEX
  8
0
 62
7
 10
20.23257813
 20
10.14843750
  0
VERTEX
  8
0
 62
7
 10
20.21309570
 20
10.17176563
  0
VERTEX
  8
0
 62
7
 10
20.19400000
 20
10.19500000
  0
VERTEX
  8
0
 62
7
 10
20.14025000
 20
10.25437500
  0
VERTEX
  8
0
 62
7
 10
20.08500000
 20
10.31000000
  0
VERTEX
  8
0
 62
7
 10
20.06612500
 20
10.30250000
  0
VERTEX
  8
0
 62
7
 10
20.04800000
 20
10.29200000
  0
VERTEX
  8
0
 62
7
 10
20.02875000
 20
10.27781250
  0
VERTEX
  8
0
 62
7
 10
20.01175000
 20
10.26100000
  0
VERTEX
  8
0
 62
7
 10
19.99737500
 20
10.24193750
  0
VERTEX
  8
0
 62
7
 10
19.98600000
 20
10.22100000
  0
VERTEX
  8
0
 62
7
 10
19.97776758
 20
10.20771875
  0
VERTEX
  8
0
 62
7
 10
19.96701563
 20
10.19725000
  0
VERTEX
  8
0
 62
7
 10
19.95441211
 20
10.18978125
  0
VERTEX
  8
0
 62
7
 10
19.94062500
 20
10.18550000
  0
VERTEX
  8
0
 62
7
 10
19.92632227
 20
10.18459375
  0
VERTEX
  8
0
 62
7
 10
19.91217188
 20
10.18725000
  0
VERTEX
  8
0
 62
7
 10
19.89884180
 20
10.19365625
  0
VERTEX
  8
0
 62
7
 10
19.88700000
 20
10.20400000
  0
VERTEX
  8
0
 62
7
 10
19.86937500
 20
10.21900000
  0
VERTEX
  8
0
 62
7
 10
19.85700000
 20
10.22200000
  0
VERTEX
  8
0
 62
7
 10
19.83387500
 20
10.22037500
  0
VERTEX
  8
0
 62
7
 10
19.81900000
 20
10.21500000
  0
VERTEX
  8
0
 62
7
 10
19.80706250
 20
10.20943555
  0
VERTEX
  8
0
 62
7
 10
19.79475000
 20
10.20685938
  0
VERTEX
  8
0
 62
7
 10
19.78243750
 20
10.20707227
  0
VERTEX
  8
0
 62
7
 10
19.77050000
 20
10.20987500
  0
VERTEX
  8
0
 62
7
 10
19.75931250
 20
10.21506836
  0
VERTEX
  8
0
 62
7
 10
19.74925000
 20
10.22245313
  0
VERTEX
  8
0
 62
7
 10
19.74068750
 20
10.23183008
  0
VERTEX
  8
0
 62
7
 10
19.73400000
 20
10.24300000
  0
VERTEX
  8
0
 62
7
 10
19.72778125
 20
10.25257813
  0
VERTEX
  8
0
 62
7
 10
19.71800000
 20
10.26112500
  0
VERTEX
  8
0
 62
7
 10
19.70446875
 20
10.26760938
  0
VERTEX
  8
0
 62
7
 10
19.68700000
 20
10.27100000
  0
VERTEX
  8
0
 62
7
 10
19.68000000
 20
10.27100000
  0
VERTEX
  8
0
 62
7
 10
19.66400000
 20
10.26950000
  0
VERTEX
  8
0
 62
7
 10
19.65100000
 20
10.26500000
  0
SEQEND
  0
ENDSEC
  0
EOF
