  0
SECTION
  2
ENTITIES
  0
POLYLINE
  8
0
 62
7
 66
1
 70
1
  0
VERTEX
  8
0
 62
7
 10
18.66671797
 20
17.23314372
  0
VERTEX
  8
0
 62
7
 10
18.09202511
 20
17.22355403
  0
VERTEX
  8
0
 62
7
 10
17.51772361
 20
17.21184116
  0
VERTEX
  8
0
 62
7
 10
16.94384935
 20
17.19800808
  0
VERTEX
  8
0
 62
7
 10
16.37043823
 20
17.18205777
  0
VERTEX
  8
0
 62
7
 10
15.79752613
 20
17.16399322
  0
VERTEX
  8
0
 62
7
 10
15.22514894
 20
17.14381741
  0
VERTEX
  8
0
 62
7
 10
14.65334256
 20
17.12153331
  0
VERTEX
  8
0
 62
7
 10
14.08214287
 20
17.09714390
  0
VERTEX
  8
0
 62
7
 10
13.51158576
 20
17.07065218
  0
VERTEX
  8
0
 62
7
 10
12.94170712
 20
17.04206111
  0
VERTEX
  8
0
 62
7
 10
12.37254284
 20
17.01137367
  0
VERTEX
  8
0
 62
7
 10
11.80412880
 20
16.97859286
  0
VERTEX
  8
0
 62
7
 10
11.23650090
 20
16.94372164
  0
VERTEX
  8
0
 62
7
 10
10.66969502
 20
16.90676300
  0
VERTEX
  8
0
 62
7
 10
10.10374705
 20
16.86771991
  0
VERTEX
  8
0
 62
7
 10
9.53869288
 20
16.82659537
  0
VERTEX
  8
0
 62
7
 10
8.97456841
 20
16.78339234
  0
VERTEX
  8
0
 62
7
 10
8.41140951
 20
16.73811382
  0
VERTEX
  8
0
 62
7
 10
7.84925208
 20
16.69076277
  0
VERTEX
  8
0
 62
7
 10
7.28813201
 20
16.64134218
  0
VERTEX
  8
0
 62
7
 10
6.72808518
 20
16.58985503
  0
VERTEX
  8
0
 62
7
 10
6.16914749
 20
16.53630430
  0
VERTEX
  8
0
 62
7
 10
5.61135482
 20
16.48069297
  0
VERTEX
  8
0
 62
7
 10
5.05474306
 20
16.42302402
  0
VERTEX
  8
0
 62
7
 10
4.49934810
 20
16.36330044
  0
VERTEX
  8
0
 62
7
 10
3.94520583
 20
16.30152519
  0
VERTEX
  8
0
 62
7
 10
3.39235214
 20
16.23770126
  0
VERTEX
  8
0
 62
7
 10
2.84082291
 20
16.17183164
  0
VERTEX
  8
0
 62
7
 10
2.29065404
 20
16.10391930
  0
VERTEX
  8
0
 62
7
 10
1.74188142
 20
16.03396722
  0
VERTEX
  8
0
 62
7
 10
1.19454092
 20
15.96197838
  0
VERTEX
  8
0
 62
7
 10
.64866845
 20
15.88795577
  0
VERTEX
  8
0
 62
7
 10
.58024451
 20
15.87520462
  0
VERTEX
  8
0
 62
7
 10
.51427811
 20
15.85654200
  0
VERTEX
  8
0
 62
7
 10
.45103924
 20
15.83227224
  0
VERTEX
  8
0
 62
7
 10
.39079795
 20
15.80269970
  0
VERTEX
  8
0
 62
7
 10
.33382424
 20
15.76812870
  0
VERTEX
  8
0
 62
7
 10
.28038814
 20
15.72886358
  0
VERTEX
  8
0
 62
7
 10
.23075967
 20
15.68520869
  0
VERTEX
  8
0
 62
7
 10
.18520884
 20
15.63746837
  0
VERTEX
  8
0
 62
7
 10
.14400569
 20
15.58594695
  0
VERTEX
  8
0
 62
7
 10
.10742022
 20
15.53094877
  0
VERTEX
  8
0
 62
7
 10
.07572246
 20
15.47277817
  0
VERTEX
  8
0
 62
7
 10
.04918243
 20
15.41173949
  0
VERTEX
  8
0
 62
7
 10
.02807015
 20
15.34813707
  0
VERTEX
  8
0
 62
7
 10
.01265563
 20
15.28227524
  0
VERTEX
  8
0
 62
7
 10
.00320891
 20
15.21445836
  0
VERTEX
  8
0
 62
7
 10
.00000000
 20
15.14499075
  0
VERTEX
  8
0
 62
7
 10
.00000000
 20
-.00058094
  0
VERTEX
  8
0
 62
7
 10
42.00011544
 20
-.00058094
  0
VERTEX
  8
0
 62
7
 10
42.00011544
 20
15.14499075
  0
VERTEX
  8
0
 62
7
 10
41.99690653
 20
15.21445836
  0
VERTEX
  8
0
 62
7
 10
41.98745981
 20
15.28227524
  0
VERTEX
  8
0
 62
7
 10
41.97204530
 20
15.34813707
  0
VERTEX
  8
0
 62
7
 10
41.95093302
 20
15.41173949
  0
VERTEX
  8
0
 62
7
 10
41.92439299
 20
15.47277817
  0
VERTEX
  8
0
 62
7
 10
41.89269523
 20
15.53094877
  0
VERTEX
  8
0
 62
7
 10
41.85610976
 20
15.58594695
  0
VERTEX
  8
0
 62
7
 10
41.81490660
 20
15.63746837
  0
VERTEX
  8
0
 62
7
 10
41.76935578
 20
15.68520869
  0
VERTEX
  8
0
 62
7
 10
41.71972730
 20
15.72886358
  0
VERTEX
  8
0
 62
7
 10
41.66629120
 20
15.76812870
  0
VERTEX
  8
0
 62
7
 10
41.60931749
 20
15.80269970
  0
VERTEX
  8
0
 62
7
 10
41.54907620
 20
15.83227224
  0
VERTEX
  8
0
 62
7
 10
41.48583734
 20
15.85654200
  0
VERTEX
  8
0
 62
7
 10
41.41987093
 20
15.87520462
  0
VERTEX
  8
0
 62
7
 10
41.35144699
 20
15.88795577
  0
VERTEX
  8
0
 62
7
 10
40.66585982
 20
15.98050502
  0
VERTEX
  8
0
 62
7
 10
39.97808515
 20
16.06983575
  0
VERTEX
  8
0
 62
7
 10
39.28819132
 20
16.15594392
  0
VERTEX
  8
0
 62
7
 10
38.59624671
 20
16.23882550
  0
VERTEX
  8
0
 62
7
 10
37.90231967
 20
16.31847646
  0
VERTEX
  8
0
 62
7
 10
37.20647857
 20
16.39489276
  0
VERTEX
  8
0
 62
7
 10
36.50879176
 20
16.46807038
  0
VERTEX
  8
0
 62
7
 10
35.80932759
 20
16.53800528
  0
VERTEX
  8
0
 62
7
 10
35.10815444
 20
16.60469343
  0
VERTEX
  8
0
 62
7
 10
34.40534066
 20
16.66813079
  0
VERTEX
  8
0
 62
7
 10
33.70095461
 20
16.72831335
  0
VERTEX
  8
0
 62
7
 10
32.99506465
 20
16.78523705
  0
VERTEX
  8
0
 62
7
 10
32.28773914
 20
16.83889787
  0
VERTEX
  8
0
 62
7
 10
31.57904643
 20
16.88929179
  0
VERTEX
  8
0
 62
7
 10
30.86905490
 20
16.93641475
  0
VERTEX
  8
0
 62
7
 10
30.15783289
 20
16.98026275
  0
VERTEX
  8
0
 62
7
 10
29.44544877
 20
17.02083173
  0
VERTEX
  8
0
 62
7
 10
28.73197090
 20
17.05811768
  0
VERTEX
  8
0
 62
7
 10
28.01746763
 20
17.09211655
  0
VERTEX
  8
0
 62
7
 10
27.30200733
 20
17.12282432
  0
VERTEX
  8
0
 62
7
 10
26.58565836
 20
17.15023696
  0
VERTEX
  8
0
 62
7
 10
25.86848907
 20
17.17435042
  0
VERTEX
  8
0
 62
7
 10
25.15056783
 20
17.19516068
  0
VERTEX
  8
0
 62
7
 10
24.43196299
 20
17.21266371
  0
VERTEX
  8
0
 62
7
 10
23.71274291
 20
17.22685548
  0
VERTEX
  8
0
 62
7
 10
22.99297596
 20
17.23773195
  0
VERTEX
  8
0
 62
7
 10
22.27273049
 20
17.24528909
  0
VERTEX
  8
0
 62
7
 10
21.55207486
 20
17.24952287
  0
VERTEX
  8
0
 62
7
 10
20.83107744
 20
17.25042925
  0
VERTEX
  8
0
 62
7
 10
20.10980658
 20
17.24800421
  0
VERTEX
  8
0
 62
7
 10
19.38833064
 20
17.24224371
  0
VERTEX
  8
0
 62
7
 10
18.66671797
 20
17.23314372
  0
SEQEND
  0
POLYLINE
  8
0
 62
7
 66
1
 70
1
  0
VERTEX
  8
0
 62
7
 10
22.60500000
 20
4.97800000
  0
VERTEX
  8
0
 62
7
 10
22.59800000
 20
4.98400000
  0
VERTEX
  8
0
 62
7
 10
22.59100000
 20
4.99000000
  0
VERTEX
  8
0
 62
7
 10
22.56134375
 20
5.01946875
  0
VERTEX
  8
0
 62
7
 10
22.53375000
 20
5.05025000
  0
VERTEX
  8
0
 62
7
 10
22.50803125
 20
5.08590625
  0
VERTEX
  8
0
 62
7
 10
22.48400000
 20
5.13000000
  0
VERTEX
  8
0
 62
7
 10
22.46366797
 20
5.17628320
  0
VERTEX
  8
0
 62
7
 10
22.44490625
 20
5.22614063
  0
VERTEX
  8
0
 62
7
 10
22.42806641
 20
5.27883398
  0
VERTEX
  8
0
 62
7
 10
22.41350000
 20
5.33362500
  0
VERTEX
  8
0
 62
7
 10
22.40155859
 20
5.38977539
  0
VERTEX
  8
0
 62
7
 10
22.39259375
 20
5.44654688
  0
VERTEX
  8
0
 62
7
 10
22.38695703
 20
5.50320117
  0
VERTEX
  8
0
 62
7
 10
22.38500000
 20
5.55900000
  0
VERTEX
  8
0
 62
7
 10
22.38579688
 20
5.59404688
  0
VERTEX
  8
0
 62
7
 10
22.38837500
 20
5.62862500
  0
VERTEX
  8
0
 62
7
 10
22.39301563
 20
5.66264063
  0
VERTEX
  8
0
 62
7
 10
22.40000000
 20
5.69600000
  0
VERTEX
  8
0
 62
7
 10
22.40818750
 20
5.72237500
  0
VERTEX
  8
0
 62
7
 10
22.41900000
 20
5.74875000
  0
VERTEX
  8
0
 62
7
 10
22.43206250
 20
5.77475000
  0
VERTEX
  8
0
 62
7
 10
22.44700000
 20
5.80000000
  0
VERTEX
  8
0
 62
7
 10
22.41900000
 20
5.79900000
  0
VERTEX
  8
0
 62
7
 10
22.36112500
 20
5.78937500
  0
VERTEX
  8
0
 62
7
 10
22.30700000
 20
5.77600000
  0
VERTEX
  8
0
 62
7
 10
22.22600000
 20
5.75700000
  0
VERTEX
  8
0
 62
7
 10
22.14800000
 20
5.74300000
  0
VERTEX
  8
0
 62
7
 10
22.11075000
 20
5.73262500
  0
VERTEX
  8
0
 62
7
 10
22.07650000
 20
5.71625000
  0
VERTEX
  8
0
 62
7
 10
22.04675000
 20
5.69350000
  0
VERTEX
  8
0
 62
7
 10
22.02300000
 20
5.66400000
  0
VERTEX
  8
0
 62
7
 10
22.00698438
 20
5.62932813
  0
VERTEX
  8
0
 62
7
 10
21.99537500
 20
5.59212500
  0
VERTEX
  8
0
 62
7
 10
21.98657813
 20
5.55360938
  0
VERTEX
  8
0
 62
7
 10
21.97900000
 20
5.51500000
  0
VERTEX
  8
0
 62
7
 10
21.97310938
 20
5.45734375
  0
VERTEX
  8
0
 62
7
 10
21.97162500
 20
5.39950000
  0
VERTEX
  8
0
 62
7
 10
21.97407813
 20
5.34090625
  0
VERTEX
  8
0
 62
7
 10
21.98000000
 20
5.28100000
  0
VERTEX
  8
0
 62
7
 10
21.98637500
 20
5.23616602
  0
VERTEX
  8
0
 62
7
 10
21.99500000
 20
5.19082813
  0
VERTEX
  8
0
 62
7
 10
22.00587500
 20
5.14598242
  0
VERTEX
  8
0
 62
7
 10
22.01900000
 20
5.10262500
  0
VERTEX
  8
0
 62
7
 10
22.03437500
 20
5.06175195
  0
VERTEX
  8
0
 62
7
 10
22.05200000
 20
5.02435938
  0
VERTEX
  8
0
 62
7
 10
22.07187500
 20
4.99144336
  0
VERTEX
  8
0
 62
7
 10
22.09400000
 20
4.96400000
  0
VERTEX
  8
0
 62
7
 10
22.12179688
 20
4.94062500
  0
VERTEX
  8
0
 62
7
 10
22.15362500
 20
4.92400000
  0
VERTEX
  8
0
 62
7
 10
22.18639063
 20
4.91337500
  0
VERTEX
  8
0
 62
7
 10
22.21700000
 20
4.90800000
  0
VERTEX
  8
0
 62
7
 10
22.28025000
 20
4.90650000
  0
VERTEX
  8
0
 62
7
 10
22.34200000
 20
4.90800000
  0
VERTEX
  8
0
 62
7
 10
22.37448438
 20
4.90737500
  0
VERTEX
  8
0
 62
7
 10
22.40912500
 20
4.90750000
  0
VERTEX
  8
0
 62
7
 10
22.44395313
 20
4.90912500
  0
VERTEX
  8
0
 62
7
 10
22.47700000
 20
4.91300000
  0
VERTEX
  8
0
 62
7
 10
22.51415625
 20
4.92315625
  0
VERTEX
  8
0
 62
7
 10
22.54775000
 20
4.93725000
  0
VERTEX
  8
0
 62
7
 10
22.57796875
 20
4.95546875
  0
VERTEX
  8
0
 62
7
 10
22.60500000
 20
4.97800000
  0
SEQEND
  0
POLYLINE
  8
0
 62
7
 66
1
 70
1
  0
VERTEX
  8
0
 62
7
 10
23.00200000
 20
5.08300000
  0
VERTEX
  8
0
 62
7
 10
22.99300000
 20
5.10500000
  0
VERTEX
  8
0
 62
7
 10
22.96828125
 20
5.16914063
  0
VERTEX
  8
0
 62
7
 10
22.94525000
 20
5.23337500
  0
VERTEX
  8
0
 62
7
 10
22.92409375
 20
5.29892188
  0
VERTEX
  8
0
 62
7
 10
22.90500000
 20
5.36700000
  0
VERTEX
  8
0
 62
7
 10
22.89200000
 20
5.41700000
  0
VERTEX
  8
0
 62
7
 10
22.87832813
 20
5.46935938
  0
VERTEX
  8
0
 62
7
 10
22.86512500
 20
5.52387500
  0
VERTEX
  8
0
 62
7
 10
22.85360938
 20
5.57970313
  0
VERTEX
  8
0
 62
7
 10
22.84500000
 20
5.63600000
  0
VERTEX
  8
0
 62
7
 10
22.83375000
 20
5.75287500
  0
VERTEX
  8
0
 62
7
 10
22.83000000
 20
5.86900000
  0
VERTEX
  8
0
 62
7
 10
22.83100000
 20
5.90600000
  0
VERTEX
  8
0
 62
7
 10
22.83225000
 20
5.94293750
  0
VERTEX
  8
0
 62
7
 10
22.83500000
 20
5.98025000
  0
VERTEX
  8
0
 62
7
 10
22.84000000
 20
6.01793750
  0
VERTEX
  8
0
 62
7
 10
22.84800000
 20
6.05600000
  0
VERTEX
  8
0
 62
7
 10
22.82600000
 20
6.04500000
  0
VERTEX
  8
0
 62
7
 10
22.79375000
 20
6.02237500
  0
VERTEX
  8
0
 62
7
 10
22.76300000
 20
5.99600000
  0
VERTEX
  8
0
 62
7
 10
22.70700000
 20
5.93500000
  0
VERTEX
  8
0
 62
7
 10
22.68935938
 20
5.92071875
  0
VERTEX
  8
0
 62
7
 10
22.67012500
 20
5.90850000
  0
VERTEX
  8
0
 62
7
 10
22.65032813
 20
5.89703125
  0
VERTEX
  8
0
 62
7
 10
22.63100000
 20
5.88500000
  0
VERTEX
  8
0
 62
7
 10
22.57100000
 20
5.85000000
  0
VERTEX
  8
0
 62
7
 10
22.55187109
 20
5.83285352
  0
VERTEX
  8
0
 62
7
 10
22.53365625
 20
5.81389063
  0
VERTEX
  8
0
 62
7
 10
22.51661328
 20
5.79345117
  0
VERTEX
  8
0
 62
7
 10
22.50100000
 20
5.77187500
  0
VERTEX
  8
0
 62
7
 10
22.48707422
 20
5.74950195
  0
VERTEX
  8
0
 62
7
 10
22.47509375
 20
5.72667188
  0
VERTEX
  8
0
 62
7
 10
22.46531641
 20
5.70372461
  0
VERTEX
  8
0
 62
7
 10
22.45800000
 20
5.68100000
  0
VERTEX
  8
0
 62
7
 10
22.45187817
 20
5.65100000
  0
VERTEX
  8
0
 62
7
 10
22.44769727
 20
5.61964063
  0
VERTEX
  8
0
 62
7
 10
22.44535913
 20
5.58713281
  0
VERTEX
  8
0
 62
7
 10
22.44476563
 20
5.55368750
  0
VERTEX
  8
0
 62
7
 10
22.44581860
 20
5.51951563
  0
VERTEX
  8
0
 62
7
 10
22.44841992
 20
5.48482813
  0
VERTEX
  8
0
 62
7
 10
22.45247144
 20
5.44983594
  0
VERTEX
  8
0
 62
7
 10
22.45787500
 20
5.41475000
  0
VERTEX
  8
0
 62
7
 10
22.46453247
 20
5.37978125
  0
VERTEX
  8
0
 62
7
 10
22.47234570
 20
5.34514063
  0
VERTEX
  8
0
 62
7
 10
22.48121655
 20
5.31103906
  0
VERTEX
  8
0
 62
7
 10
22.49104688
 20
5.27768750
  0
VERTEX
  8
0
 62
7
 10
22.50173853
 20
5.24529688
  0
VERTEX
  8
0
 62
7
 10
22.51319336
 20
5.21407813
  0
VERTEX
  8
0
 62
7
 10
22.52531323
 20
5.18424219
  0
VERTEX
  8
0
 62
7
 10
22.53800000
 20
5.15600000
  0
VERTEX
  8
0
 62
7
 10
22.55940625
 20
5.11700000
  0
VERTEX
  8
0
 62
7
 10
22.58250000
 20
5.08550000
  0
VERTEX
  8
0
 62
7
 10
22.60859375
 20
5.05700000
  0
VERTEX
  8
0
 62
7
 10
22.63900000
 20
5.02700000
  0
VERTEX
  8
0
 62
7
 10
22.65321289
 20
5.01608594
  0
VERTEX
  8
0
 62
7
 10
22.66982813
 20
5.00793750
  0
VERTEX
  8
0
 62
7
 10
22.68806055
 20
5.00232031
  0
VERTEX
  8
0
 62
7
 10
22.70712500
 20
4.99900000
  0
VERTEX
  8
0
 62
7
 10
22.72623633
 20
4.99774219
  0
VERTEX
  8
0
 62
7
 10
22.74460938
 20
4.99831250
  0
VERTEX
  8
0
 62
7
 10
22.76145898
 20
5.00047656
  0
VERTEX
  8
0
 62
7
 10
22.77600000
 20
5.00400000
  0
VERTEX
  8
0
 62
7
 10
22.88200000
 20
5.05000000
  0
VERTEX
  8
0
 62
7
 10
22.94312500
 20
5.06950000
  0
VERTEX
  8
0
 62
7
 10
23.00200000
 20
5.08300000
  0
SEQEND
  0
POLYLINE
  8
0
 62
7
 66
1
 70
1
  0
VERTEX
  8
0
 62
7
 10
22.11300000
 20
4.87700000
  0
VERTEX
  8
0
 62
7
 10
22.08000000
 20
4.89662500
  0
VERTEX
  8
0
 62
7
 10
22.05000000
 20
4.92300000
  0
VERTEX
  8
0
 62
7
 10
22.02349805
 20
4.95641602
  0
VERTEX
  8
0
 62
7
 10
22.00017188
 20
4.99514063
  0
VERTEX
  8
0
 62
7
 10
21.97991602
 20
5.03801367
  0
VERTEX
  8
0
 62
7
 10
21.96262500
 20
5.08387500
  0
VERTEX
  8
0
 62
7
 10
21.94819336
 20
5.13156445
  0
VERTEX
  8
0
 62
7
 10
21.93651563
 20
5.17992188
  0
VERTEX
  8
0
 62
7
 10
21.92748633
 20
5.22778711
  0
VERTEX
  8
0
 62
7
 10
21.92100000
 20
5.27400000
  0
VERTEX
  8
0
 62
7
 10
21.91375000
 20
5.34300000
  0
VERTEX
  8
0
 62
7
 10
21.91100000
 20
5.41200000
  0
VERTEX
  8
0
 62
7
 10
21.91325000
 20
5.46812500
  0
VERTEX
  8
0
 62
7
 10
21.92000000
 20
5.52500000
  0
VERTEX
  8
0
 62
7
 10
21.92700000
 20
5.56448438
  0
VERTEX
  8
0
 62
7
 10
21.93700000
 20
5.60762500
  0
VERTEX
  8
0
 62
7
 10
21.95150000
 20
5.65170313
  0
VERTEX
  8
0
 62
7
 10
21.97200000
 20
5.69400000
  0
VERTEX
  8
0
 62
7
 10
21.98000000
 20
5.70600000
  0
VERTEX
  8
0
 62
7
 10
21.96450000
 20
5.71100000
  0
VERTEX
  8
0
 62
7
 10
21.94900000
 20
5.71300000
  0
VERTEX
  8
0
 62
7
 10
21.91976563
 20
5.71214063
  0
VERTEX
  8
0
 62
7
 10
21.89212500
 20
5.70837500
  0
VERTEX
  8
0
 62
7
 10
21.86617188
 20
5.70217188
  0
VERTEX
  8
0
 62
7
 10
21.84200000
 20
5.69400000
  0
VERTEX
  8
0
 62
7
 10
21.79787500
 20
5.68387500
  0
VERTEX
  8
0
 62
7
 10
21.75300000
 20
5.67600000
  0
VERTEX
  8
0
 62
7
 10
21.73460938
 20
5.67384375
  0
VERTEX
  8
0
 62
7
 10
21.71537500
 20
5.67225000
  0
VERTEX
  8
0
 62
7
 10
21.69520313
 20
5.66953125
  0
VERTEX
  8
0
 62
7
 10
21.67400000
 20
5.66400000
  0
VERTEX
  8
0
 62
7
 10
21.65291602
 20
5.65669141
  0
VERTEX
  8
0
 62
7
 10
21.63189063
 20
5.64621875
  0
VERTEX
  8
0
 62
7
 10
21.61126367
 20
5.63288672
  0
VERTEX
  8
0
 62
7
 10
21.59137500
 20
5.61700000
  0
VERTEX
  8
0
 62
7
 10
21.57256445
 20
5.59886328
  0
VERTEX
  8
0
 62
7
 10
21.55517188
 20
5.57878125
  0
VERTEX
  8
0
 62
7
 10
21.53953711
 20
5.55705859
  0
VERTEX
  8
0
 62
7
 10
21.52600000
 20
5.53400000
  0
VERTEX
  8
0
 62
7
 10
21.51383398
 20
5.50675000
  0
VERTEX
  8
0
 62
7
 10
21.50479688
 20
5.47837500
  0
VERTEX
  8
0
 62
7
 10
21.49845508
 20
5.44906250
  0
VERTEX
  8
0
 62
7
 10
21.49437500
 20
5.41900000
  0
VERTEX
  8
0
 62
7
 10
21.49212305
 20
5.38837500
  0
VERTEX
  8
0
 62
7
 10
21.49126563
 20
5.35737500
  0
VERTEX
  8
0
 62
7
 10
21.49136914
 20
5.32618750
  0
VERTEX
  8
0
 62
7
 10
21.49200000
 20
5.29500000
  0
VERTEX
  8
0
 62
7
 10
21.49553125
 20
5.23290625
  0
VERTEX
  8
0
 62
7
 10
21.50375000
 20
5.17025000
  0
VERTEX
  8
0
 62
7
 10
21.51759375
 20
5.10796875
  0
VERTEX
  8
0
 62
7
 10
21.53800000
 20
5.04700000
  0
VERTEX
  8
0
 62
7
 10
21.54734375
 20
5.02397852
  0
VERTEX
  8
0
 62
7
 10
21.55687500
 20
5.00082813
  0
VERTEX
  8
0
 62
7
 10
21.56696875
 20
4.97779492
  0
VERTEX
  8
0
 62
7
 10
21.57800000
 20
4.95512500
  0
VERTEX
  8
0
 62
7
 10
21.59034375
 20
4.93306445
  0
VERTEX
  8
0
 62
7
 10
21.60437500
 20
4.91185938
  0
VERTEX
  8
0
 62
7
 10
21.62046875
 20
4.89175586
  0
VERTEX
  8
0
 62
7
 10
21.63900000
 20
4.87300000
  0
VERTEX
  8
0
 62
7
 10
21.65570117
 20
4.86011719
  0
VERTEX
  8
0
 62
7
 10
21.67342188
 20
4.84981250
  0
VERTEX
  8
0
 62
7
 10
21.69196289
 20
4.84185156
  0
VERTEX
  8
0
 62
7
 10
21.71112500
 20
4.83600000
  0
VERTEX
  8
0
 62
7
 10
21.73070898
 20
4.83202344
  0
VERTEX
  8
0
 62
7
 10
21.75051563
 20
4.82968750
  0
VERTEX
  8
0
 62
7
 10
21.77034570
 20
4.82875781
  0
VERTEX
  8
0
 62
7
 10
21.79000000
 20
4.82900000
  0
VERTEX
  8
0
 62
7
 10
21.82931250
 20
4.83181250
  0
VERTEX
  8
0
 62
7
 10
21.86450000
 20
4.83725000
  0
VERTEX
  8
0
 62
7
 10
21.89968750
 20
4.84306250
  0
VERTEX
  8
0
 62
7
 10
21.93900000
 20
4.84700000
  0
VERTEX
  8
0
 62
7
 10
21.97562500
 20
4.84879688
  0
VERTEX
  8
0
 62
7
 10
22.01150000
 20
4.85087500
  0
VERTEX
  8
0
 62
7
 10
22.04587500
 20
4.85501563
  0
VERTEX
  8
0
 62
7
 10
22.07800000
 20
4.86300000
  0
VERTEX
  8
0
 62
7
 10
22.11300000
 20
4.87700000
  0
SEQEND
  0
POLYLINE
  8
0
 62
7
 66
1
 70
1
  0
VERTEX
  8
0
 62
7
 10
21.58500000
 20
4.84300000
  0
VERTEX
  8
0
 62
7
 10
21.55070313
 20
4.88417188
  0
VERTEX
  8
0
 62
7
 10
21.52437500
 20
4.92787500
  0
VERTEX
  8
0
 62
7
 10
21.50385938
 20
4.97139063
  0
VERTEX
  8
0
 62
7
 10
21.48700000
 20
5.01200000
  0
VERTEX
  8
0
 62
7
 10
21.48200000
 20
5.02500000
  0
VERTEX
  8
0
 62
7
 10
21.45956250
 20
5.09178125
  0
VERTEX
  8
0
 62
7
 10
21.44425000
 20
5.15950000
  0
VERTEX
  8
0
 62
7
 10
21.43531250
 20
5.22721875
  0
VERTEX
  8
0
 62
7
 10
21.43200000
 20
5.29400000
  0
VERTEX
  8
0
 62
7
 10
21.43100000
 20
5.34000000
  0
VERTEX
  8
0
 62
7
 10
21.43128711
 20
5.36639648
  0
VERTEX
  8
0
 62
7
 10
21.43235938
 20
5.39367188
  0
VERTEX
  8
0
 62
7
 10
21.43453320
 20
5.42158008
  0
VERTEX
  8
0
 62
7
 10
21.43812500
 20
5.44987500
  0
VERTEX
  8
0
 62
7
 10
21.44345117
 20
5.47831055
  0
VERTEX
  8
0
 62
7
 10
21.45082813
 20
5.50664063
  0
VERTEX
  8
0
 62
7
 10
21.46057227
 20
5.53461914
  0
VERTEX
  8
0
 62
7
 10
21.47300000
 20
5.56200000
  0
VERTEX
  8
0
 62
7
 10
21.49100000
 20
5.59225000
  0
VERTEX
  8
0
 62
7
 10
21.51200000
 20
5.62100000
  0
VERTEX
  8
0
 62
7
 10
21.48571875
 20
5.62712500
  0
VERTEX
  8
0
 62
7
 10
21.45925000
 20
5.63025000
  0
VERTEX
  8
0
 62
7
 10
21.43240625
 20
5.63225000
  0
VERTEX
  8
0
 62
7
 10
21.40500000
 20
5.63500000
  0
VERTEX
  8
0
 62
7
 10
21.31900000
 20
5.64400000
  0
VERTEX
  8
0
 62
7
 10
21.25900000
 20
5.64700000
  0
VERTEX
  8
0
 62
7
 10
21.23565820
 20
5.64423633
  0
VERTEX
  8
0
 62
7
 10
21.21364063
 20
5.63839063
  0
VERTEX
  8
0
 62
7
 10
21.19295898
 20
5.62975586
  0
VERTEX
  8
0
 62
7
 10
21.17362500
 20
5.61862500
  0
VERTEX
  8
0
 62
7
 10
21.15565039
 20
5.60529102
  0
VERTEX
  8
0
 62
7
 10
21.13904688
 20
5.59004688
  0
VERTEX
  8
0
 62
7
 10
21.12382617
 20
5.57318555
  0
VERTEX
  8
0
 62
7
 10
21.11000000
 20
5.55500000
  0
VERTEX
  8
0
 62
7
 10
21.08634375
 20
5.50798438
  0
VERTEX
  8
0
 62
7
 10
21.06850000
 20
5.45787500
  0
VERTEX
  8
0
 62
7
 10
21.05515625
 20
5.40607813
  0
VERTEX
  8
0
 62
7
 10
21.04500000
 20
5.35400000
  0
VERTEX
  8
0
 62
7
 10
21.03954297
 20
5.31982617
  0
VERTEX
  8
0
 62
7
 10
21.03528125
 20
5.28554688
  0
VERTEX
  8
0
 62
7
 10
21.03237891
 20
5.25115039
  0
VERTEX
  8
0
 62
7
 10
21.03100000
 20
5.21662500
  0
VERTEX
  8
0
 62
7
 10
21.03130859
 20
5.18195898
  0
VERTEX
  8
0
 62
7
 10
21.03346875
 20
5.14714063
  0
VERTEX
  8
0
 62
7
 10
21.03764453
 20
5.11215820
  0
VERTEX
  8
0
 62
7
 10
21.04400000
 20
5.07700000
  0
VERTEX
  8
0
 62
7
 10
21.04838867
 20
5.05359570
  0
VERTEX
  8
0
 62
7
 10
21.05285938
 20
5.03001563
  0
VERTEX
  8
0
 62
7
 10
21.05786914
 20
5.00645898
  0
VERTEX
  8
0
 62
7
 10
21.06387500
 20
4.98312500
  0
VERTEX
  8
0
 62
7
 10
21.07133398
 20
4.96021289
  0
VERTEX
  8
0
 62
7
 10
21.08070313
 20
4.93792188
  0
VERTEX
  8
0
 62
7
 10
21.09243945
 20
4.91645117
  0
VERTEX
  8
0
 62
7
 10
21.10700000
 20
4.89600000
  0
VERTEX
  8
0
 62
7
 10
21.12035742
 20
4.87969531
  0
VERTEX
  8
0
 62
7
 10
21.13548438
 20
4.86587500
  0
VERTEX
  8
0
 62
7
 10
21.15208789
 20
4.85430469
  0
VERTEX
  8
0
 62
7
 10
21.16987500
 20
4.84475000
  0
VERTEX
  8
0
 62
7
 10
21.18855273
 20
4.83697656
  0
VERTEX
  8
0
 62
7
 10
21.20782813
 20
4.83075000
  0
VERTEX
  8
0
 62
7
 10
21.22740820
 20
4.82583594
  0
VERTEX
  8
0
 62
7
 10
21.24700000
 20
4.82200000
  0
VERTEX
  8
0
 62
7
 10
21.27921875
 20
4.81998438
  0
VERTEX
  8
0
 62
7
 10
21.30975000
 20
4.82012500
  0
VERTEX
  8
0
 62
7
 10
21.34065625
 20
4.82045313
  0
VERTEX
  8
0
 62
7
 10
21.37400000
 20
4.81900000
  0
VERTEX
  8
0
 62
7
 10
21.40120313
 20
4.81462500
  0
VERTEX
  8
0
 62
7
 10
21.42737500
 20
4.81100000
  0
VERTEX
  8
0
 62
7
 10
21.45260938
 20
4.80887500
  0
VERTEX
  8
0
 62
7
 10
21.47700000
 20
4.80900000
  0
VERTEX
  8
0
 62
7
 10
21.50625000
 20
4.81290625
  0
VERTEX
  8
0
 62
7
 10
21.53400000
 20
4.82000000
  0
VERTEX
  8
0
 62
7
 10
21.56025000
 20
4.83009375
  0
VERTEX
  8
0
 62
7
 10
21.58500000
 20
4.84300000
  0
SEQEND
  0
POLYLINE
  8
0
 62
7
 66
1
 70
1
  0
VERTEX
  8
0
 62
7
 10
23.50600000
 20
6.01400000
  0
VERTEX
  8
0
 62
7
 10
23.69700000
 20
6.05000000
  0
VERTEX
  8
0
 62
7
 10
23.71374219
 20
6.05090820
  0
VERTEX
  8
0
 62
7
 10
23.72912500
 20
6.04732813
  0
VERTEX
  8
0
 62
7
 10
23.74263281
 20
6.03992773
  0
VERTEX
  8
0
 62
7
 10
23.75375000
 20
6.02937500
  0
VERTEX
  8
0
 62
7
 10
23.76196094
 20
6.01633789
  0
VERTEX
  8
0
 62
7
 10
23.76675000
 20
6.00148438
  0
VERTEX
  8
0
 62
7
 10
23.76760156
 20
5.98548242
  0
VERTEX
  8
0
 62
7
 10
23.76400000
 20
5.96900000
  0
VERTEX
  8
0
 62
7
 10
23.75385938
 20
5.93784375
  0
VERTEX
  8
0
 62
7
 10
23.74587500
 20
5.90575000
  0
VERTEX
  8
0
 62
7
 10
23.73995313
 20
5.87253125
  0
VERTEX
  8
0
 62
7
 10
23.73600000
 20
5.83800000
  0
VERTEX
  8
0
 62
7
 10
23.73400000
 20
5.78300000
  0
VERTEX
  8
0
 62
7
 10
23.73509375
 20
5.74384375
  0
VERTEX
  8
0
 62
7
 10
23.73825000
 20
5.70450000
  0
VERTEX
  8
0
 62
7
 10
23.74328125
 20
5.66515625
  0
VERTEX
  8
0
 62
7
 10
23.75000000
 20
5.62600000
  0
VERTEX
  8
0
 62
7
 10
23.76003125
 20
5.58571875
  0
VERTEX
  8
0
 62
7
 10
23.77325000
 20
5.54525000
  0
VERTEX
  8
0
 62
7
 10
23.78909375
 20
5.50365625
  0
VERTEX
  8
0
 62
7
 10
23.80700000
 20
5.46000000
  0
VERTEX
  8
0
 62
7
 10
23.83289063
 20
5.40618750
  0
VERTEX
  8
0
 62
7
 10
23.86262500
 20
5.35425000
  0
VERTEX
  8
0
 62
7
 10
23.89629688
 20
5.30418750
  0
VERTEX
  8
0
 62
7
 10
23.93400000
 20
5.25600000
  0
VERTEX
  8
0
 62
7
 10
23.94283203
 20
5.24662891
  0
VERTEX
  8
0
 62
7
 10
23.95271875
 20
5.23821875
  0
VERTEX
  8
0
 62
7
 10
23.96349609
 20
5.23107422
  0
VERTEX
  8
0
 62
7
 10
23.97500000
 20
5.22550000
  0
VERTEX
  8
0
 62
7
 10
23.98706641
 20
5.22180078
  0
VERTEX
  8
0
 62
7
 10
23.99953125
 20
5.22028125
  0
VERTEX
  8
0
 62
7
 10
24.01223047
 20
5.22124609
  0
VERTEX
  8
0
 62
7
 10
24.02500000
 20
5.22500000
  0
VERTEX
  8
0
 62
7
 10
24.04481250
 20
5.23656250
  0
VERTEX
  8
0
 62
7
 10
24.06125000
 20
5.25225000
  0
VERTEX
  8
0
 62
7
 10
24.07506250
 20
5.27056250
  0
VERTEX
  8
0
 62
7
 10
24.08700000
 20
5.29000000
  0
VERTEX
  8
0
 62
7
 10
24.10178125
 20
5.32309375
  0
VERTEX
  8
0
 62
7
 10
24.11075000
 20
5.35825000
  0
VERTEX
  8
0
 62
7
 10
24.11484375
 20
5.39378125
  0
VERTEX
  8
0
 62
7
 10
24.11500000
 20
5.42800000
  0
VERTEX
  8
0
 62
7
 10
24.10975000
 20
5.51425000
  0
VERTEX
  8
0
 62
7
 10
24.10000000
 20
5.60200000
  0
VERTEX
  8
0
 62
7
 10
24.09231250
 20
5.65257813
  0
VERTEX
  8
0
 62
7
 10
24.08275000
 20
5.70437500
  0
VERTEX
  8
0
 62
7
 10
24.07131250
 20
5.75598438
  0
VERTEX
  8
0
 62
7
 10
24.05800000
 20
5.80600000
  0
VERTEX
  8
0
 62
7
 10
24.02575000
 20
5.90500000
  0
VERTEX
  8
0
 62
7
 10
23.98900000
 20
5.99800000
  0
VERTEX
  8
0
 62
7
 10
23.96942188
 20
6.03517188
  0
VERTEX
  8
0
 62
7
 10
23.94262500
 20
6.07862500
  0
VERTEX
  8
0
 62
7
 10
23.91376563
 20
6.12076563
  0
VERTEX
  8
0
 62
7
 10
23.88800000
 20
6.15400000
  0
VERTEX
  8
0
 62
7
 10
23.86328125
 20
6.18204688
  0
VERTEX
  8
0
 62
7
 10
23.84025000
 20
6.20587500
  0
VERTEX
  8
0
 62
7
 10
23.81459375
 20
6.22726563
  0
VERTEX
  8
0
 62
7
 10
23.78200000
 20
6.24800000
  0
VERTEX
  8
0
 62
7
 10
23.76507031
 20
6.25638086
  0
VERTEX
  8
0
 62
7
 10
23.74743750
 20
6.26329688
  0
VERTEX
  8
0
 62
7
 10
23.72933594
 20
6.26840820
  0
VERTEX
  8
0
 62
7
 10
23.71100000
 20
6.27137500
  0
VERTEX
  8
0
 62
7
 10
23.69266406
 20
6.27185742
  0
VERTEX
  8
0
 62
7
 10
23.67456250
 20
6.26951563
  0
VERTEX
  8
0
 62
7
 10
23.65692969
 20
6.26400977
  0
VERTEX
  8
0
 62
7
 10
23.64000000
 20
6.25500000
  0
VERTEX
  8
0
 62
7
 10
23.61303906
 20
6.23515625
  0
VERTEX
  8
0
 62
7
 10
23.58856250
 20
6.21250000
  0
VERTEX
  8
0
 62
7
 10
23.56680469
 20
6.18721875
  0
VERTEX
  8
0
 62
7
 10
23.54800000
 20
6.15950000
  0
VERTEX
  8
0
 62
7
 10
23.53238281
 20
6.12953125
  0
VERTEX
  8
0
 62
7
 10
23.52018750
 20
6.09750000
  0
VERTEX
  8
0
 62
7
 10
23.51164844
 20
6.06359375
  0
VERTEX
  8
0
 62
7
 10
23.50700000
 20
6.02800000
  0
VERTEX
  8
0
 62
7
 10
23.50600000
 20
6.01400000
  0
SEQEND
  0
POLYLINE
  8
0
 62
7
 66
1
 70
1
  0
VERTEX
  8
0
 62
7
 10
23.67400000
 20
5.17800000
  0
VERTEX
  8
0
 62
7
 10
23.76900000
 20
5.19800000
  0
VERTEX
  8
0
 62
7
 10
23.82812500
 20
5.20937500
  0
VERTEX
  8
0
 62
7
 10
23.88800000
 20
5.21700000
  0
VERTEX
  8
0
 62
7
 10
23.84734375
 20
5.26879688
  0
VERTEX
  8
0
 62
7
 10
23.81100000
 20
5.32237500
  0
VERTEX
  8
0
 62
7
 10
23.77915625
 20
5.37801563
  0
VERTEX
  8
0
 62
7
 10
23.75200000
 20
5.43600000
  0
VERTEX
  8
0
 62
7
 10
23.73304688
 20
5.48014063
  0
VERTEX
  8
0
 62
7
 10
23.71587500
 20
5.52437500
  0
VERTEX
  8
0
 62
7
 10
23.70151563
 20
5.56917188
  0
VERTEX
  8
0
 62
7
 10
23.69100000
 20
5.61500000
  0
VERTEX
  8
0
 62
7
 10
23.68050000
 20
5.67143750
  0
VERTEX
  8
0
 62
7
 10
23.67450000
 20
5.72900000
  0
VERTEX
  8
0
 62
7
 10
23.67300000
 20
5.78656250
  0
VERTEX
  8
0
 62
7
 10
23.67600000
 20
5.84300000
  0
VERTEX
  8
0
 62
7
 10
23.68015625
 20
5.88089063
  0
VERTEX
  8
0
 62
7
 10
23.68675000
 20
5.91812500
  0
VERTEX
  8
0
 62
7
 10
23.69596875
 20
5.95479688
  0
VERTEX
  8
0
 62
7
 10
23.70800000
 20
5.99100000
  0
VERTEX
  8
0
 62
7
 10
23.50400000
 20
5.95200000
  0
VERTEX
  8
0
 62
7
 10
23.51400000
 20
5.83500000
  0
VERTEX
  8
0
 62
7
 10
23.51500000
 20
5.83000000
  0
VERTEX
  8
0
 62
7
 10
23.52354688
 20
5.75700000
  0
VERTEX
  8
0
 62
7
 10
23.53312500
 20
5.68475000
  0
VERTEX
  8
0
 62
7
 10
23.54439063
 20
5.61287500
  0
VERTEX
  8
0
 62
7
 10
23.55800000
 20
5.54100000
  0
VERTEX
  8
0
 62
7
 10
23.58006250
 20
5.44954688
  0
VERTEX
  8
0
 62
7
 10
23.60700000
 20
5.35837500
  0
VERTEX
  8
0
 62
7
 10
23.63843750
 20
5.26776563
  0
VERTEX
  8
0
 62
7
 10
23.67400000
 20
5.17800000
  0
SEQEND
  0
POLYLINE
  8
0
 62
7
 66
1
 70
1
  0
VERTEX
  8
0
 62
7
 10
37.56400000
 20
4.81300000
  0
VERTEX
  8
0
 62
7
 10
37.66854688
 20
4.85014063
  0
VERTEX
  8
0
 62
7
 10
37.76812500
 20
4.88887500
  0
VERTEX
  8
0
 62
7
 10
37.86339063
 20
4.93042188
  0
VERTEX
  8
0
 62
7
 10
37.95500000
 20
4.97600000
  0
VERTEX
  8
0
 62
7
 10
38.02737500
 20
5.01600000
  0
VERTEX
  8
0
 62
7
 10
38.09900000
 20
5.05300000
  0
VERTEX
  8
0
 62
7
 10
38.15037500
 20
5.07725000
  0
VERTEX
  8
0
 62
7
 10
38.20400000
 20
5.09700000
  0
VERTEX
  8
0
 62
7
 10
38.22853125
 20
5.10467188
  0
VERTEX
  8
0
 62
7
 10
38.25400000
 20
5.11262500
  0
VERTEX
  8
0
 62
7
 10
38.28021875
 20
5.11851563
  0
VERTEX
  8
0
 62
7
 10
38.30700000
 20
5.12000000
  0
VERTEX
  8
0
 62
7
 10
38.33900000
 20
5.11550000
  0
VERTEX
  8
0
 62
7
 10
38.37100000
 20
5.10500000
  0
VERTEX
  8
0
 62
7
 10
38.39195313
 20
5.09410938
  0
VERTEX
  8
0
 62
7
 10
38.41112500
 20
5.08087500
  0
VERTEX
  8
0
 62
7
 10
38.42823438
 20
5.06520313
  0
VERTEX
  8
0
 62
7
 10
38.44300000
 20
5.04700000
  0
VERTEX
  8
0
 62
7
 10
38.45356250
 20
5.02982813
  0
VERTEX
  8
0
 62
7
 10
38.46150000
 20
5.01162500
  0
VERTEX
  8
0
 62
7
 10
38.46718750
 20
4.99285938
  0
VERTEX
  8
0
 62
7
 10
38.47100000
 20
4.97400000
  0
VERTEX
  8
0
 62
7
 10
38.48183008
 20
4.98128711
  0
VERTEX
  8
0
 62
7
 10
38.49107813
 20
4.99085938
  0
VERTEX
  8
0
 62
7
 10
38.49875586
 20
5.00228320
  0
VERTEX
  8
0
 62
7
 10
38.50487500
 20
5.01512500
  0
VERTEX
  8
0
 62
7
 10
38.50944727
 20
5.02895117
  0
VERTEX
  8
0
 62
7
 10
38.51248438
 20
5.04332813
  0
VERTEX
  8
0
 62
7
 10
38.51399805
 20
5.05782227
  0
VERTEX
  8
0
 62
7
 10
38.51400000
 20
5.07200000
  0
VERTEX
  8
0
 62
7
 10
38.51101563
 20
5.09506250
  0
VERTEX
  8
0
 62
7
 10
38.50512500
 20
5.11850000
  0
VERTEX
  8
0
 62
7
 10
38.49642188
 20
5.14118750
  0
VERTEX
  8
0
 62
7
 10
38.48500000
 20
5.16200000
  0
VERTEX
  8
0
 62
7
 10
38.47023438
 20
5.18262500
  0
VERTEX
  8
0
 62
7
 10
38.45387500
 20
5.20025000
  0
VERTEX
  8
0
 62
7
 10
38.43507813
 20
5.21600000
  0
VERTEX
  8
0
 62
7
 10
38.41300000
 20
5.23100000
  0
VERTEX
  8
0
 62
7
 10
38.39212500
 20
5.24132813
  0
VERTEX
  8
0
 62
7
 10
38.36675000
 20
5.25062500
  0
VERTEX
  8
0
 62
7
 10
38.34100000
 20
5.25785938
  0
VERTEX
  8
0
 62
7
 10
38.31900000
 20
5.26200000
  0
VERTEX
  8
0
 62
7
 10
38.33098438
 20
5.29073438
  0
VERTEX
  8
0
 62
7
 10
38.33837500
 20
5.31562500
  0
VERTEX
  8
0
 62
7
 10
38.34332813
 20
5.33920313
  0
VERTEX
  8
0
 62
7
 10
38.34800000
 20
5.36400000
  0
VERTEX
  8
0
 62
7
 10
38.35037500
 20
5.40350000
  0
VERTEX
  8
0
 62
7
 10
38.34600000
 20
5.44300000
  0
VERTEX
  8
0
 62
7
 10
38.34209375
 20
5.45693750
  0
VERTEX
  8
0
 62
7
 10
38.33650000
 20
5.47200000
  0
VERTEX
  8
0
 62
7
 10
38.32940625
 20
5.48631250
  0
VERTEX
  8
0
 62
7
 10
38.32100000
 20
5.49800000
  0
VERTEX
  8
0
 62
7
 10
38.30178125
 20
5.51510938
  0
VERTEX
  8
0
 62
7
 10
38.28350000
 20
5.52462500
  0
VERTEX
  8
0
 62
7
 10
38.26446875
 20
5.52907813
  0
VERTEX
  8
0
 62
7
 10
38.24300000
 20
5.53100000
  0
VERTEX
  8
0
 62
7
 10
38.22704688
 20
5.53043750
  0
VERTEX
  8
0
 62
7
 10
38.21212500
 20
5.52725000
  0
VERTEX
  8
0
 62
7
 10
38.19814063
 20
5.52143750
  0
VERTEX
  8
0
 62
7
 10
38.18500000
 20
5.51300000
  0
VERTEX
  8
0
 62
7
 10
38.17243750
 20
5.50081250
  0
VERTEX
  8
0
 62
7
 10
38.16250000
 20
5.48675000
  0
VERTEX
  8
0
 62
7
 10
38.15631250
 20
5.47081250
  0
VERTEX
  8
0
 62
7
 10
38.15500000
 20
5.45300000
  0
VERTEX
  8
0
 62
7
 10
38.16698438
 20
5.45435938
  0
VERTEX
  8
0
 62
7
 10
38.17962500
 20
5.45262500
  0
VERTEX
  8
0
 62
7
 10
38.19170313
 20
5.44807813
  0
VERTEX
  8
0
 62
7
 10
38.20200000
 20
5.44100000
  0
VERTEX
  8
0
 62
7
 10
38.21432813
 20
5.42381250
  0
VERTEX
  8
0
 62
7
 10
38.21887500
 20
5.40775000
  0
VERTEX
  8
0
 62
7
 10
38.21873438
 20
5.39206250
  0
VERTEX
  8
0
 62
7
 10
38.21700000
 20
5.37600000
  0
VERTEX
  8
0
 62
7
 10
38.21384375
 20
5.35948438
  0
VERTEX
  8
0
 62
7
 10
38.20825000
 20
5.34362500
  0
VERTEX
  8
0
 62
7
 10
38.20153125
 20
5.32945313
  0
VERTEX
  8
0
 62
7
 10
38.19500000
 20
5.31800000
  0
VERTEX
  8
0
 62
7
 10
38.16654688
 20
5.28115625
  0
VERTEX
  8
0
 62
7
 10
38.13387500
 20
5.24675000
  0
VERTEX
  8
0
 62
7
 10
38.09726563
 20
5.21421875
  0
VERTEX
  8
0
 62
7
 10
38.05700000
 20
5.18300000
  0
VERTEX
  8
0
 62
7
 10
37.94600000
 20
5.10712500
  0
VERTEX
  8
0
 62
7
 10
37.83500000
 20
5.03800000
  0
VERTEX
  8
0
 62
7
 10
37.70920313
 20
4.96656250
  0
VERTEX
  8
0
 62
7
 10
37.56287500
 20
4.88650000
  0
VERTEX
  8
0
 62
7
 10
37.42085938
 20
4.80793750
  0
VERTEX
  8
0
 62
7
 10
37.30800000
 20
4.74100000
  0
VERTEX
  8
0
 62
7
 10
37.30259180
 20
4.73392969
  0
VERTEX
  8
0
 62
7
 10
37.30860938
 20
4.73281250
  0
VERTEX
  8
0
 62
7
 10
37.32341602
 20
4.73628906
  0
VERTEX
  8
0
 62
7
 10
37.34437500
 20
4.74300000
  0
VERTEX
  8
0
 62
7
 10
37.36884961
 20
4.75158594
  0
VERTEX
  8
0
 62
7
 10
37.39420313
 20
4.76068750
  0
VERTEX
  8
0
 62
7
 10
37.41779883
 20
4.76894531
  0
VERTEX
  8
0
 62
7
 10
37.43700000
 20
4.77500000
  0
VERTEX
  8
0
 62
7
 10
37.56400000
 20
4.81300000
  0
SEQEND
  0
POLYLINE
  8
0
 62
7
 66
1
 70
1
  0
VERTEX
  8
0
 62
7
 10
20.99300000
 20
14.25000000
  0
VERTEX
  8
0
 62
7
 10
19.96154370
 20
14.24653320
  0
VERTEX
  8
0
 62
7
 10
18.93128711
 20
14.23614063
  0
VERTEX
  8
0
 62
7
 10
17.90239868
 20
14.21883398
  0
VERTEX
  8
0
 62
7
 10
16.87504688
 20
14.19462500
  0
VERTEX
  8
0
 62
7
 10
15.84940015
 20
14.16352539
  0
VERTEX
  8
0
 62
7
 10
14.82562695
 20
14.12554688
  0
VERTEX
  8
0
 62
7
 10
13.80389575
 20
14.08070117
  0
VERTEX
  8
0
 62
7
 10
12.78437500
 20
14.02900000
  0
VERTEX
  8
0
 62
7
 10
11.76723315
 20
13.97045508
  0
VERTEX
  8
0
 62
7
 10
10.75263867
 20
13.90507813
  0
VERTEX
  8
0
 62
7
 10
9.74076001
 20
13.83288086
  0
VERTEX
  8
0
 62
7
 10
8.73176563
 20
13.75387500
  0
VERTEX
  8
0
 62
7
 10
7.72582397
 20
13.66807227
  0
VERTEX
  8
0
 62
7
 10
6.72310352
 20
13.57548438
  0
VERTEX
  8
0
 62
7
 10
5.72377271
 20
13.47612305
  0
VERTEX
  8
0
 62
7
 10
4.72800000
 20
13.37000000
  0
VERTEX
  8
0
 62
7
 10
4.73100000
 20
5.49800000
  0
VERTEX
  8
0
 62
7
 10
4.82800000
 20
5.39200000
  0
VERTEX
  8
0
 62
7
 10
4.91487500
 20
5.30562500
  0
VERTEX
  8
0
 62
7
 10
5.00700000
 20
5.22300000
  0
VERTEX
  8
0
 62
7
 10
5.12489648
 20
5.12537500
  0
VERTEX
  8
0
 62
7
 10
5.24592188
 20
5.03187500
  0
VERTEX
  8
0
 62
7
 10
5.36983008
 20
4.94231250
  0
VERTEX
  8
0
 62
7
 10
5.49637500
 20
4.85650000
  0
VERTEX
  8
0
 62
7
 10
5.62531055
 20
4.77425000
  0
VERTEX
  8
0
 62
7
 10
5.75639063
 20
4.69537500
  0
VERTEX
  8
0
 62
7
 10
5.88936914
 20
4.61968750
  0
VERTEX
  8
0
 62
7
 10
6.02400000
 20
4.54700000
  0
VERTEX
  8
0
 62
7
 10
6.20300000
 20
4.45900000
  0
VERTEX
  8
0
 62
7
 10
6.27400000
 20
4.42600000
  0
VERTEX
  8
0
 62
7
 10
6.44100000
 20
4.34775000
  0
VERTEX
  8
0
 62
7
 10
6.61100000
 20
4.27100000
  0
VERTEX
  8
0
 62
7
 10
6.64200000
 20
4.25700000
  0
VERTEX
  8
0
 62
7
 10
6.70400000
 20
4.22900000
  0
VERTEX
  8
0
 62
7
 10
6.96500000
 20
4.11300000
  0
VERTEX
  8
0
 62
7
 10
7.15821875
 20
4.03128125
  0
VERTEX
  8
0
 62
7
 10
7.35350000
 20
3.95275000
  0
VERTEX
  8
0
 62
7
 10
7.55028125
 20
3.87759375
  0
VERTEX
  8
0
 62
7
 10
7.74800000
 20
3.80600000
  0
VERTEX
  8
0
 62
7
 10
7.97225000
 20
3.73012500
  0
VERTEX
  8
0
 62
7
 10
8.19800000
 20
3.65800000
  0
VERTEX
  8
0
 62
7
 10
8.28800000
 20
3.63000000
  0
VERTEX
  8
0
 62
7
 10
8.49512500
 20
3.56562500
  0
VERTEX
  8
0
 62
7
 10
8.70000000
 20
3.50500000
  0
VERTEX
  8
0
 62
7
 10
8.99900000
 20
3.42500000
  0
VERTEX
  8
0
 62
7
 10
9.08500000
 20
3.40200000
  0
VERTEX
  8
0
 62
7
 10
9.28200000
 20
3.35100000
  0
VERTEX
  8
0
 62
7
 10
9.46100000
 20
3.30500000
  0
VERTEX
  8
0
 62
7
 10
9.72418750
 20
3.23953320
  0
VERTEX
  8
0
 62
7
 10
9.98868750
 20
3.18026563
  0
VERTEX
  8
0
 62
7
 10
10.25440625
 20
3.12702148
  0
VERTEX
  8
0
 62
7
 10
10.52125000
 20
3.07962500
  0
VERTEX
  8
0
 62
7
 10
10.78912500
 20
3.03790039
  0
VERTEX
  8
0
 62
7
 10
11.05793750
 20
3.00167188
  0
VERTEX
  8
0
 62
7
 10
11.32759375
 20
2.97076367
  0
VERTEX
  8
0
 62
7
 10
11.59800000
 20
2.94500000
  0
VERTEX
  8
0
 62
7
 10
11.83587500
 20
2.92787500
  0
VERTEX
  8
0
 62
7
 10
12.07600000
 20
2.91600000
  0
VERTEX
  8
0
 62
7
 10
12.08000000
 20
2.91500000
  0
VERTEX
  8
0
 62
7
 10
12.35650000
 20
2.90412500
  0
VERTEX
  8
0
 62
7
 10
12.63300000
 20
2.90000000
  0
VERTEX
  8
0
 62
7
 10
12.79276563
 20
2.90048438
  0
VERTEX
  8
0
 62
7
 10
12.95262500
 20
2.90237500
  0
VERTEX
  8
0
 62
7
 10
13.11267188
 20
2.90632813
  0
VERTEX
  8
0
 62
7
 10
13.27300000
 20
2.91300000
  0
VERTEX
  8
0
 62
7
 10
13.44050000
 20
2.92371875
  0
VERTEX
  8
0
 62
7
 10
13.60725000
 20
2.93650000
  0
VERTEX
  8
0
 62
7
 10
13.77362500
 20
2.95153125
  0
VERTEX
  8
0
 62
7
 10
13.94000000
 20
2.96900000
  0
VERTEX
  8
0
 62
7
 10
14.15803125
 20
2.99381250
  0
VERTEX
  8
0
 62
7
 10
14.37550000
 20
3.02125000
  0
VERTEX
  8
0
 62
7
 10
14.59221875
 20
3.05281250
  0
VERTEX
  8
0
 62
7
 10
14.80800000
 20
3.09000000
  0
VERTEX
  8
0
 62
7
 10
15.06425000
 20
3.14289063
  0
VERTEX
  8
0
 62
7
 10
15.31975000
 20
3.20262500
  0
VERTEX
  8
0
 62
7
 10
15.57412500
 20
3.26929688
  0
VERTEX
  8
0
 62
7
 10
15.82700000
 20
3.34300000
  0
VERTEX
  8
0
 62
7
 10
15.95403125
 20
3.38207813
  0
VERTEX
  8
0
 62
7
 10
16.08125000
 20
3.42312500
  0
VERTEX
  8
0
 62
7
 10
16.20809375
 20
3.46660938
  0
VERTEX
  8
0
 62
7
 10
16.33400000
 20
3.51300000
  0
VERTEX
  8
0
 62
7
 10
16.49504688
 20
3.57678125
  0
VERTEX
  8
0
 62
7
 10
16.65412500
 20
3.64525000
  0
VERTEX
  8
0
 62
7
 10
16.81114063
 20
3.71859375
  0
VERTEX
  8
0
 62
7
 10
16.96600000
 20
3.79700000
  0
VERTEX
  8
0
 62
7
 10
17.05092188
 20
3.84170313
  0
VERTEX
  8
0
 62
7
 10
17.13462500
 20
3.88762500
  0
VERTEX
  8
0
 62
7
 10
17.21701563
 20
3.93523438
  0
VERTEX
  8
0
 62
7
 10
17.29800000
 20
3.98500000
  0
VERTEX
  8
0
 62
7
 10
17.37564063
 20
4.03635938
  0
VERTEX
  8
0
 62
7
 10
17.45112500
 20
4.08987500
  0
VERTEX
  8
0
 62
7
 10
17.52454688
 20
4.14545313
  0
VERTEX
  8
0
 62
7
 10
17.59600000
 20
4.20300000
  0
VERTEX
  8
0
 62
7
 10
17.66554688
 20
4.26231250
  0
VERTEX
  8
0
 62
7
 10
17.73312500
 20
4.32350000
  0
VERTEX
  8
0
 62
7
 10
17.79864063
 20
4.38693750
  0
VERTEX
  8
0
 62
7
 10
17.86200000
 20
4.45300000
  0
VERTEX
  8
0
 62
7
 10
17.94581250
 20
4.54951563
  0
VERTEX
  8
0
 62
7
 10
18.02475000
 20
4.64987500
  0
VERTEX
  8
0
 62
7
 10
18.09881250
 20
4.75379688
  0
VERTEX
  8
0
 62
7
 10
18.16800000
 20
4.86100000
  0
VERTEX
  8
0
 62
7
 10
18.20496875
 20
4.92442188
  0
VERTEX
  8
0
 62
7
 10
18.23950000
 20
4.98887500
  0
VERTEX
  8
0
 62
7
 10
18.27178125
 20
5.05464063
  0
VERTEX
  8
0
 62
7
 10
18.30200000
 20
5.12200000
  0
VERTEX
  8
0
 62
7
 10
18.28800000
 20
5.12400000
  0
VERTEX
  8
0
 62
7
 10
18.21700000
 20
5.14000000
  0
VERTEX
  8
0
 62
7
 10
18.16237500
 20
5.15000000
  0
VERTEX
  8
0
 62
7
 10
18.10700000
 20
5.15700000
  0
VERTEX
  8
0
 62
7
 10
18.03000000
 20
5.16400000
  0
VERTEX
  8
0
 62
7
 10
18.01487500
 20
5.16087500
  0
VERTEX
  8
0
 62
7
 10
17.99900000
 20
5.16000000
  0
VERTEX
  8
0
 62
7
 10
17.97550000
 20
5.16237500
  0
VERTEX
  8
0
 62
7
 10
17.95200000
 20
5.17000000
  0
VERTEX
  8
0
 62
7
 10
17.93434961
 20
5.17854297
  0
VERTEX
  8
0
 62
7
 10
17.91879688
 20
5.18884375
  0
VERTEX
  8
0
 62
7
 10
17.90518945
 20
5.20041016
  0
VERTEX
  8
0
 62
7
 10
17.89337500
 20
5.21275000
  0
VERTEX
  8
0
 62
7
 10
17.88320117
 20
5.22537109
  0
VERTEX
  8
0
 62
7
 10
17.87451563
 20
5.23778125
  0
VERTEX
  8
0
 62
7
 10
17.86716602
 20
5.24948828
  0
VERTEX
  8
0
 62
7
 10
17.86100000
 20
5.26000000
  0
VERTEX
  8
0
 62
7
 10
17.84356250
 20
5.29781250
  0
VERTEX
  8
0
 62
7
 10
17.83250000
 20
5.33675000
  0
VERTEX
  8
0
 62
7
 10
17.82668750
 20
5.37531250
  0
VERTEX
  8
0
 62
7
 10
17.82500000
 20
5.41200000
  0
VERTEX
  8
0
 62
7
 10
17.82500000
 20
5.43100000
  0
VERTEX
  8
0
 62
7
 10
17.83075000
 20
5.51900000
  0
VERTEX
  8
0
 62
7
 10
17.84100000
 20
5.61000000
  0
VERTEX
  8
0
 62
7
 10
17.84870313
 20
5.66226563
  0
VERTEX
  8
0
 62
7
 10
17.85837500
 20
5.71612500
  0
VERTEX
  8
0
 62
7
 10
17.87010938
 20
5.77017188
  0
VERTEX
  8
0
 62
7
 10
17.88400000
 20
5.82300000
  0
VERTEX
  8
0
 62
7
 10
17.91775000
 20
5.92512500
  0
VERTEX
  8
0
 62
7
 10
17.95600000
 20
6.02200000
  0
VERTEX
  8
0
 62
7
 10
17.97784375
 20
6.06404688
  0
VERTEX
  8
0
 62
7
 10
18.00700000
 20
6.11162500
  0
VERTEX
  8
0
 62
7
 10
18.03840625
 20
6.15714063
  0
VERTEX
  8
0
 62
7
 10
18.06700000
 20
6.19300000
  0
VERTEX
  8
0
 62
7
 10
18.10347266
 20
6.23029297
  0
VERTEX
  8
0
 62
7
 10
18.14296875
 20
6.26390625
  0
VERTEX
  8
0
 62
7
 10
18.18523047
 20
6.29344141
  0
VERTEX
  8
0
 62
7
 10
18.23000000
 20
6.31850000
  0
VERTEX
  8
0
 62
7
 10
18.27701953
 20
6.33868359
  0
VERTEX
  8
0
 62
7
 10
18.32603125
 20
6.35359375
  0
VERTEX
  8
0
 62
7
 10
18.37677734
 20
6.36283203
  0
VERTEX
  8
0
 62
7
 10
18.42900000
 20
6.36600000
  0
VERTEX
  8
0
 62
7
 10
18.47700000
 20
6.36387500
  0
VERTEX
  8
0
 62
7
 10
18.52500000
 20
6.35800000
  0
VERTEX
  8
0
 62
7
 10
18.56050000
 20
6.34875000
  0
VERTEX
  8
0
 62
7
 10
18.59000000
 20
6.33800000
  0
VERTEX
  8
0
 62
7
 10
18.63400000
 20
6.32500000
  0
VERTEX
  8
0
 62
7
 10
18.69750000
 20
6.31675000
  0
VERTEX
  8
0
 62
7
 10
18.76100000
 20
6.31300000
  0
VERTEX
  8
0
 62
7
 10
18.79700000
 20
6.31300000
  0
VERTEX
  8
0
 62
7
 10
18.83453125
 20
6.31212500
  0
VERTEX
  8
0
 62
7
 10
18.87525000
 20
6.30975000
  0
VERTEX
  8
0
 62
7
 10
18.91709375
 20
6.30400000
  0
VERTEX
  8
0
 62
7
 10
18.95800000
 20
6.29300000
  0
VERTEX
  8
0
 62
7
 10
18.98950000
 20
6.28017188
  0
VERTEX
  8
0
 62
7
 10
19.01950000
 20
6.26462500
  0
VERTEX
  8
0
 62
7
 10
19.04800000
 20
6.24476563
  0
VERTEX
  8
0
 62
7
 10
19.07500000
 20
6.21900000
  0
VERTEX
  8
0
 62
7
 10
19.09170313
 20
6.19851563
  0
VERTEX
  8
0
 62
7
 10
19.10587500
 20
6.17662500
  0
VERTEX
  8
0
 62
7
 10
19.11760938
 20
6.15417188
  0
VERTEX
  8
0
 62
7
 10
19.12700000
 20
6.13200000
  0
VERTEX
  8
0
 62
7
 10
19.17600000
 20
6.11100000
  0
VERTEX
  8
0
 62
7
 10
19.20600000
 20
6.09600000
  0
VERTEX
  8
0
 62
7
 10
19.24325000
 20
6.07012500
  0
VERTEX
  8
0
 62
7
 10
19.27900000
 20
6.03900000
  0
VERTEX
  8
0
 62
7
 10
19.30700000
 20
6.00800000
  0
VERTEX
  8
0
 62
7
 10
19.33200000
 20
5.98000000
  0
VERTEX
  8
0
 62
7
 10
19.37500000
 20
5.95200000
  0
VERTEX
  8
0
 62
7
 10
19.40200000
 20
5.93500000
  0
VERTEX
  8
0
 62
7
 10
19.42900000
 20
5.92000000
  0
VERTEX
  8
0
 62
7
 10
19.46600000
 20
5.89700000
  0
VERTEX
  8
0
 62
7
 10
19.50600000
 20
5.86000000
  0
VERTEX
  8
0
 62
7
 10
19.55300000
 20
5.86000000
  0
VERTEX
  8
0
 62
7
 10
19.55500000
 20
5.86000000
  0
VERTEX
  8
0
 62
7
 10
19.55600000
 20
5.86000000
  0
VERTEX
  8
0
 62
7
 10
19.58800000
 20
5.85900000
  0
VERTEX
  8
0
 62
7
 10
19.65112500
 20
5.84800000
  0
VERTEX
  8
0
 62
7
 10
19.70900000
 20
5.83400000
  0
VERTEX
  8
0
 62
7
 10
19.76300000
 20
5.82100000
  0
VERTEX
  8
0
 62
7
 10
19.78700000
 20
5.81500000
  0
VERTEX
  8
0
 62
7
 10
19.83400000
 20
5.80700000
  0
VERTEX
  8
0
 62
7
 10
19.86300000
 20
5.80200000
  0
VERTEX
  8
0
 62
7
 10
19.89248438
 20
5.79520313
  0
VERTEX
  8
0
 62
7
 10
19.92187500
 20
5.78512500
  0
VERTEX
  8
0
 62
7
 10
19.95032813
 20
5.77148438
  0
VERTEX
  8
0
 62
7
 10
19.97700000
 20
5.75400000
  0
VERTEX
  8
0
 62
7
 10
19.99800000
 20
5.76200000
  0
VERTEX
  8
0
 62
7
 10
20.02150000
 20
5.76937500
  0
VERTEX
  8
0
 62
7
 10
20.05100000
 20
5.77300000
  0
VERTEX
  8
0
 62
7
 10
20.08603125
 20
5.77139063
  0
VERTEX
  8
0
 62
7
 10
20.11900000
 20
5.76687500
  0
VERTEX
  8
0
 62
7
 10
20.14971875
 20
5.75992188
  0
VERTEX
  8
0
 62
7
 10
20.17800000
 20
5.75100000
  0
VERTEX
  8
0
 62
7
 10
20.20025000
 20
5.74475000
  0
VERTEX
  8
0
 62
7
 10
20.23000000
 20
5.74000000
  0
VERTEX
  8
0
 62
7
 10
20.25800000
 20
5.73500000
  0
VERTEX
  8
0
 62
7
 10
20.28100000
 20
5.73200000
  0
VERTEX
  8
0
 62
7
 10
20.30862500
 20
5.72925000
  0
VERTEX
  8
0
 62
7
 10
20.34300000
 20
5.72200000
  0
VERTEX
  8
0
 62
7
 10
20.36828125
 20
5.71287500
  0
VERTEX
  8
0
 62
7
 10
20.39300000
 20
5.70075000
  0
VERTEX
  8
0
 62
7
 10
20.41696875
 20
5.68600000
  0
VERTEX
  8
0
 62
7
 10
20.44000000
 20
5.66900000
  0
VERTEX
  8
0
 62
7
 10
20.47000000
 20
5.67800000
  0
VERTEX
  8
0
 62
7
 10
20.51600000
 20
5.68800000
  0
VERTEX
  8
0
 62
7
 10
20.55600000
 20
5.69200000
  0
VERTEX
  8
0
 62
7
 10
20.58800000
 20
5.69500000
  0
VERTEX
  8
0
 62
7
 10
20.59900000
 20
5.69600000
  0
VERTEX
  8
0
 62
7
 10
20.67700000
 20
5.70400000
  0
VERTEX
  8
0
 62
7
 10
20.69300000
 20
5.70500000
  0
VERTEX
  8
0
 62
7
 10
20.73200000
 20
5.70700000
  0
VERTEX
  8
0
 62
7
 10
20.74400000
 20
5.70700000
  0
VERTEX
  8
0
 62
7
 10
20.77600586
 20
5.70332227
  0
VERTEX
  8
0
 62
7
 10
20.80598438
 20
5.69557813
  0
VERTEX
  8
0
 62
7
 10
20.83387695
 20
5.68420117
  0
VERTEX
  8
0
 62
7
 10
20.85962500
 20
5.66962500
  0
VERTEX
  8
0
 62
7
 10
20.88316992
 20
5.65228320
  0
VERTEX
  8
0
 62
7
 10
20.90445313
 20
5.63260938
  0
VERTEX
  8
0
 62
7
 10
20.92341602
 20
5.61103711
  0
VERTEX
  8
0
 62
7
 10
20.94000000
 20
5.58800000
  0
VERTEX
  8
0
 62
7
 10
20.96076563
 20
5.55101563
  0
VERTEX
  8
0
 62
7
 10
20.97712500
 20
5.51262500
  0
VERTEX
  8
0
 62
7
 10
20.98992188
 20
5.47367188
  0
VERTEX
  8
0
 62
7
 10
21.00000000
 20
5.43500000
  0
VERTEX
  8
0
 62
7
 10
21.01007813
 20
5.47367188
  0
VERTEX
  8
0
 62
7
 10
21.02287500
 20
5.51262500
  0
VERTEX
  8
0
 62
7
 10
21.03923438
 20
5.55101563
  0
VERTEX
  8
0
 62
7
 10
21.06000000
 20
5.58800000
  0
VERTEX
  8
0
 62
7
 10
21.07658398
 20
5.61103711
  0
VERTEX
  8
0
 62
7
 10
21.09554688
 20
5.63260938
  0
VERTEX
  8
0
 62
7
 10
21.11683008
 20
5.65228320
  0
VERTEX
  8
0
 62
7
 10
21.14037500
 20
5.66962500
  0
VERTEX
  8
0
 62
7
 10
21.16612305
 20
5.68420117
  0
VERTEX
  8
0
 62
7
 10
21.19401563
 20
5.69557813
  0
VERTEX
  8
0
 62
7
 10
21.22399414
 20
5.70332227
  0
VERTEX
  8
0
 62
7
 10
21.25600000
 20
5.70700000
  0
VERTEX
  8
0
 62
7
 10
21.26800000
 20
5.70700000
  0
VERTEX
  8
0
 62
7
 10
21.30700000
 20
5.70500000
  0
VERTEX
  8
0
 62
7
 10
21.32300000
 20
5.70400000
  0
VERTEX
  8
0
 62
7
 10
21.40100000
 20
5.69600000
  0
VERTEX
  8
0
 62
7
 10
21.41200000
 20
5.69500000
  0
VERTEX
  8
0
 62
7
 10
21.44400000
 20
5.69200000
  0
VERTEX
  8
0
 62
7
 10
21.48400000
 20
5.68800000
  0
VERTEX
  8
0
 62
7
 10
21.53000000
 20
5.67800000
  0
VERTEX
  8
0
 62
7
 10
21.56000000
 20
5.66900000
  0
VERTEX
  8
0
 62
7
 10
21.58303125
 20
5.68600000
  0
VERTEX
  8
0
 62
7
 10
21.60700000
 20
5.70075000
  0
VERTEX
  8
0
 62
7
 10
21.63171875
 20
5.71287500
  0
VERTEX
  8
0
 62
7
 10
21.65700000
 20
5.72200000
  0
VERTEX
  8
0
 62
7
 10
21.69137500
 20
5.72925000
  0
VERTEX
  8
0
 62
7
 10
21.71900000
 20
5.73200000
  0
VERTEX
  8
0
 62
7
 10
21.74200000
 20
5.73500000
  0
VERTEX
  8
0
 62
7
 10
21.77000000
 20
5.74000000
  0
VERTEX
  8
0
 62
7
 10
21.79975000
 20
5.74475000
  0
VERTEX
  8
0
 62
7
 10
21.82200000
 20
5.75100000
  0
VERTEX
  8
0
 62
7
 10
21.85028125
 20
5.75992188
  0
VERTEX
  8
0
 62
7
 10
21.88100000
 20
5.76687500
  0
VERTEX
  8
0
 62
7
 10
21.91396875
 20
5.77139063
  0
VERTEX
  8
0
 62
7
 10
21.94900000
 20
5.77300000
  0
VERTEX
  8
0
 62
7
 10
21.97850000
 20
5.76937500
  0
VERTEX
  8
0
 62
7
 10
22.00200000
 20
5.76200000
  0
VERTEX
  8
0
 62
7
 10
22.02300000
 20
5.75400000
  0
VERTEX
  8
0
 62
7
 10
22.04967188
 20
5.77148438
  0
VERTEX
  8
0
 62
7
 10
22.07812500
 20
5.78512500
  0
VERTEX
  8
0
 62
7
 10
22.10751563
 20
5.79520313
  0
VERTEX
  8
0
 62
7
 10
22.13700000
 20
5.80200000
  0
VERTEX
  8
0
 62
7
 10
22.16600000
 20
5.80700000
  0
VERTEX
  8
0
 62
7
 10
22.21300000
 20
5.81500000
  0
VERTEX
  8
0
 62
7
 10
22.23700000
 20
5.82100000
  0
VERTEX
  8
0
 62
7
 10
22.29100000
 20
5.83400000
  0
VERTEX
  8
0
 62
7
 10
22.34887500
 20
5.84800000
  0
VERTEX
  8
0
 62
7
 10
22.41200000
 20
5.85900000
  0
VERTEX
  8
0
 62
7
 10
22.44400000
 20
5.86000000
  0
VERTEX
  8
0
 62
7
 10
22.44500000
 20
5.86000000
  0
VERTEX
  8
0
 62
7
 10
22.44700000
 20
5.86000000
  0
VERTEX
  8
0
 62
7
 10
22.49400000
 20
5.86000000
  0
VERTEX
  8
0
 62
7
 10
22.53400000
 20
5.89700000
  0
VERTEX
  8
0
 62
7
 10
22.57100000
 20
5.92000000
  0
VERTEX
  8
0
 62
7
 10
22.59800000
 20
5.93500000
  0
VERTEX
  8
0
 62
7
 10
22.62500000
 20
5.95200000
  0
VERTEX
  8
0
 62
7
 10
22.66800000
 20
5.98000000
  0
VERTEX
  8
0
 62
7
 10
22.69300000
 20
6.00800000
  0
VERTEX
  8
0
 62
7
 10
22.72100000
 20
6.03900000
  0
VERTEX
  8
0
 62
7
 10
22.75675000
 20
6.07012500
  0
VERTEX
  8
0
 62
7
 10
22.79400000
 20
6.09600000
  0
VERTEX
  8
0
 62
7
 10
22.82400000
 20
6.11100000
  0
VERTEX
  8
0
 62
7
 10
22.87300000
 20
6.13200000
  0
VERTEX
  8
0
 62
7
 10
22.88239063
 20
6.15417188
  0
VERTEX
  8
0
 62
7
 10
22.89412500
 20
6.17662500
  0
VERTEX
  8
0
 62
7
 10
22.90829688
 20
6.19851563
  0
VERTEX
  8
0
 62
7
 10
22.92500000
 20
6.21900000
  0
VERTEX
  8
0
 62
7
 10
22.95200000
 20
6.24476563
  0
VERTEX
  8
0
 62
7
 10
22.98050000
 20
6.26462500
  0
VERTEX
  8
0
 62
7
 10
23.01050000
 20
6.28017188
  0
VERTEX
  8
0
 62
7
 10
23.04200000
 20
6.29300000
  0
VERTEX
  8
0
 62
7
 10
23.08290625
 20
6.30400000
  0
VERTEX
  8
0
 62
7
 10
23.12475000
 20
6.30975000
  0
VERTEX
  8
0
 62
7
 10
23.16546875
 20
6.31212500
  0
VERTEX
  8
0
 62
7
 10
23.20300000
 20
6.31300000
  0
VERTEX
  8
0
 62
7
 10
23.23900000
 20
6.31300000
  0
VERTEX
  8
0
 62
7
 10
23.30250000
 20
6.31675000
  0
VERTEX
  8
0
 62
7
 10
23.36600000
 20
6.32500000
  0
VERTEX
  8
0
 62
7
 10
23.41000000
 20
6.33800000
  0
VERTEX
  8
0
 62
7
 10
23.43950000
 20
6.34875000
  0
VERTEX
  8
0
 62
7
 10
23.47500000
 20
6.35800000
  0
VERTEX
  8
0
 62
7
 10
23.52300000
 20
6.36387500
  0
VERTEX
  8
0
 62
7
 10
23.57100000
 20
6.36600000
  0
VERTEX
  8
0
 62
7
 10
23.62322266
 20
6.36283203
  0
VERTEX
  8
0
 62
7
 10
23.67396875
 20
6.35359375
  0
VERTEX
  8
0
 62
7
 10
23.72298047
 20
6.33868359
  0
VERTEX
  8
0
 62
7
 10
23.77000000
 20
6.31850000
  0
VERTEX
  8
0
 62
7
 10
23.81476953
 20
6.29344141
  0
VERTEX
  8
0
 62
7
 10
23.85703125
 20
6.26390625
  0
VERTEX
  8
0
 62
7
 10
23.89652734
 20
6.23029297
  0
VERTEX
  8
0
 62
7
 10
23.93300000
 20
6.19300000
  0
VERTEX
  8
0
 62
7
 10
23.96159375
 20
6.15714063
  0
VERTEX
  8
0
 62
7
 10
23.99300000
 20
6.11162500
  0
VERTEX
  8
0
 62
7
 10
24.02215625
 20
6.06404688
  0
VERTEX
  8
0
 62
7
 10
24.04400000
 20
6.02200000
  0
VERTEX
  8
0
 62
7
 10
24.08225000
 20
5.92512500
  0
VERTEX
  8
0
 62
7
 10
24.11600000
 20
5.82300000
  0
VERTEX
  8
0
 62
7
 10
24.12989063
 20
5.77017188
  0
VERTEX
  8
0
 62
7
 10
24.14162500
 20
5.71612500
  0
VERTEX
  8
0
 62
7
 10
24.15129688
 20
5.66226563
  0
VERTEX
  8
0
 62
7
 10
24.15900000
 20
5.61000000
  0
VERTEX
  8
0
 62
7
 10
24.16925000
 20
5.51900000
  0
VERTEX
  8
0
 62
7
 10
24.17500000
 20
5.43100000
  0
VERTEX
  8
0
 62
7
 10
24.17500000
 20
5.41200000
  0
VERTEX
  8
0
 62
7
 10
24.17331250
 20
5.37531250
  0
VERTEX
  8
0
 62
7
 10
24.16750000
 20
5.33675000
  0
VERTEX
  8
0
 62
7
 10
24.15643750
 20
5.29781250
  0
VERTEX
  8
0
 62
7
 10
24.13900000
 20
5.26000000
  0
VERTEX
  8
0
 62
7
 10
24.13283398
 20
5.24948828
  0
VERTEX
  8
0
 62
7
 10
24.12548438
 20
5.23778125
  0
VERTEX
  8
0
 62
7
 10
24.11679883
 20
5.22537109
  0
VERTEX
  8
0
 62
7
 10
24.10662500
 20
5.21275000
  0
VERTEX
  8
0
 62
7
 10
24.09481055
 20
5.20041016
  0
VERTEX
  8
0
 62
7
 10
24.08120313
 20
5.18884375
  0
VERTEX
  8
0
 62
7
 10
24.06565039
 20
5.17854297
  0
VERTEX
  8
0
 62
7
 10
24.04800000
 20
5.17000000
  0
VERTEX
  8
0
 62
7
 10
24.02450000
 20
5.16237500
  0
VERTEX
  8
0
 62
7
 10
24.00100000
 20
5.16000000
  0
VERTEX
  8
0
 62
7
 10
23.98512500
 20
5.16087500
  0
VERTEX
  8
0
 62
7
 10
23.97000000
 20
5.16400000
  0
VERTEX
  8
0
 62
7
 10
23.89300000
 20
5.15700000
  0
VERTEX
  8
0
 62
7
 10
23.83762500
 20
5.15000000
  0
VERTEX
  8
0
 62
7
 10
23.78300000
 20
5.14000000
  0
VERTEX
  8
0
 62
7
 10
23.71200000
 20
5.12400000
  0
VERTEX
  8
0
 62
7
 10
23.69800000
 20
5.12200000
  0
VERTEX
  8
0
 62
7
 10
23.72821875
 20
5.05464063
  0
VERTEX
  8
0
 62
7
 10
23.76050000
 20
4.98887500
  0
VERTEX
  8
0
 62
7
 10
23.79503125
 20
4.92442188
  0
VERTEX
  8
0
 62
7
 10
23.83200000
 20
4.86100000
  0
VERTEX
  8
0
 62
7
 10
23.90118750
 20
4.75379688
  0
VERTEX
  8
0
 62
7
 10
23.97525000
 20
4.64987500
  0
VERTEX
  8
0
 62
7
 10
24.05418750
 20
4.54951563
  0
VERTEX
  8
0
 62
7
 10
24.13800000
 20
4.45300000
  0
VERTEX
  8
0
 62
7
 10
24.20135938
 20
4.38693750
  0
VERTEX
  8
0
 62
7
 10
24.26687500
 20
4.32350000
  0
VERTEX
  8
0
 62
7
 10
24.33445313
 20
4.26231250
  0
VERTEX
  8
0
 62
7
 10
24.40400000
 20
4.20300000
  0
VERTEX
  8
0
 62
7
 10
24.47545313
 20
4.14545313
  0
VERTEX
  8
0
 62
7
 10
24.54887500
 20
4.08987500
  0
VERTEX
  8
0
 62
7
 10
24.62435938
 20
4.03635938
  0
VERTEX
  8
0
 62
7
 10
24.70200000
 20
3.98500000
  0
VERTEX
  8
0
 62
7
 10
24.78298438
 20
3.93523438
  0
VERTEX
  8
0
 62
7
 10
24.86537500
 20
3.88762500
  0
VERTEX
  8
0
 62
7
 10
24.94907813
 20
3.84170313
  0
VERTEX
  8
0
 62
7
 10
25.03400000
 20
3.79700000
  0
VERTEX
  8
0
 62
7
 10
25.18885938
 20
3.71859375
  0
VERTEX
  8
0
 62
7
 10
25.34587500
 20
3.64525000
  0
VERTEX
  8
0
 62
7
 10
25.50495313
 20
3.57678125
  0
VERTEX
  8
0
 62
7
 10
25.66600000
 20
3.51300000
  0
VERTEX
  8
0
 62
7
 10
25.79190625
 20
3.46660938
  0
VERTEX
  8
0
 62
7
 10
25.91875000
 20
3.42312500
  0
VERTEX
  8
0
 62
7
 10
26.04596875
 20
3.38207813
  0
VERTEX
  8
0
 62
7
 10
26.17300000
 20
3.34300000
  0
VERTEX
  8
0
 62
7
 10
26.42587500
 20
3.26929688
  0
VERTEX
  8
0
 62
7
 10
26.68025000
 20
3.20262500
  0
VERTEX
  8
0
 62
7
 10
26.93575000
 20
3.14289063
  0
VERTEX
  8
0
 62
7
 10
27.19200000
 20
3.09000000
  0
VERTEX
  8
0
 62
7
 10
27.40778125
 20
3.05281250
  0
VERTEX
  8
0
 62
7
 10
27.62450000
 20
3.02125000
  0
VERTEX
  8
0
 62
7
 10
27.84196875
 20
2.99381250
  0
VERTEX
  8
0
 62
7
 10
28.06000000
 20
2.96900000
  0
VERTEX
  8
0
 62
7
 10
28.22637500
 20
2.95153125
  0
VERTEX
  8
0
 62
7
 10
28.39275000
 20
2.93650000
  0
VERTEX
  8
0
 62
7
 10
28.55950000
 20
2.92371875
  0
VERTEX
  8
0
 62
7
 10
28.72700000
 20
2.91300000
  0
VERTEX
  8
0
 62
7
 10
28.88732813
 20
2.90632813
  0
VERTEX
  8
0
 62
7
 10
29.04737500
 20
2.90237500
  0
VERTEX
  8
0
 62
7
 10
29.20723438
 20
2.90048438
  0
VERTEX
  8
0
 62
7
 10
29.36700000
 20
2.90000000
  0
VERTEX
  8
0
 62
7
 10
29.64350000
 20
2.90412500
  0
VERTEX
  8
0
 62
7
 10
29.92000000
 20
2.91500000
  0
VERTEX
  8
0
 62
7
 10
29.92400000
 20
2.91600000
  0
VERTEX
  8
0
 62
7
 10
30.16412500
 20
2.92787500
  0
VERTEX
  8
0
 62
7
 10
30.40200000
 20
2.94500000
  0
VERTEX
  8
0
 62
7
 10
30.67240625
 20
2.97076367
  0
VERTEX
  8
0
 62
7
 10
30.94206250
 20
3.00167188
  0
VERTEX
  8
0
 62
7
 10
31.21087500
 20
3.03790039
  0
VERTEX
  8
0
 62
7
 10
31.47875000
 20
3.07962500
  0
VERTEX
  8
0
 62
7
 10
31.74559375
 20
3.12702148
  0
VERTEX
  8
0
 62
7
 10
32.01131250
 20
3.18026563
  0
VERTEX
  8
0
 62
7
 10
32.27581250
 20
3.23953320
  0
VERTEX
  8
0
 62
7
 10
32.53900000
 20
3.30500000
  0
VERTEX
  8
0
 62
7
 10
32.71800000
 20
3.35100000
  0
VERTEX
  8
0
 62
7
 10
32.91500000
 20
3.40200000
  0
VERTEX
  8
0
 62
7
 10
33.00100000
 20
3.42500000
  0
VERTEX
  8
0
 62
7
 10
33.30000000
 20
3.50500000
  0
VERTEX
  8
0
 62
7
 10
33.50487500
 20
3.56562500
  0
VERTEX
  8
0
 62
7
 10
33.71200000
 20
3.63000000
  0
VERTEX
  8
0
 62
7
 10
33.80200000
 20
3.65800000
  0
VERTEX
  8
0
 62
7
 10
34.02775000
 20
3.73012500
  0
VERTEX
  8
0
 62
7
 10
34.25200000
 20
3.80600000
  0
VERTEX
  8
0
 62
7
 10
34.44971875
 20
3.87759375
  0
VERTEX
  8
0
 62
7
 10
34.64650000
 20
3.95275000
  0
VERTEX
  8
0
 62
7
 10
34.84178125
 20
4.03128125
  0
VERTEX
  8
0
 62
7
 10
35.03500000
 20
4.11300000
  0
VERTEX
  8
0
 62
7
 10
35.29600000
 20
4.22900000
  0
VERTEX
  8
0
 62
7
 10
35.35800000
 20
4.25700000
  0
VERTEX
  8
0
 62
7
 10
35.38900000
 20
4.27100000
  0
VERTEX
  8
0
 62
7
 10
35.55900000
 20
4.34775000
  0
VERTEX
  8
0
 62
7
 10
35.72600000
 20
4.42600000
  0
VERTEX
  8
0
 62
7
 10
35.79700000
 20
4.45900000
  0
VERTEX
  8
0
 62
7
 10
35.97600000
 20
4.54700000
  0
VERTEX
  8
0
 62
7
 10
36.11063086
 20
4.61968750
  0
VERTEX
  8
0
 62
7
 10
36.24360938
 20
4.69537500
  0
VERTEX
  8
0
 62
7
 10
36.37468945
 20
4.77425000
  0
VERTEX
  8
0
 62
7
 10
36.50362500
 20
4.85650000
  0
VERTEX
  8
0
 62
7
 10
36.63016992
 20
4.94231250
  0
VERTEX
  8
0
 62
7
 10
36.75407813
 20
5.03187500
  0
VERTEX
  8
0
 62
7
 10
36.87510352
 20
5.12537500
  0
VERTEX
  8
0
 62
7
 10
36.99300000
 20
5.22300000
  0
VERTEX
  8
0
 62
7
 10
37.08512500
 20
5.30562500
  0
VERTEX
  8
0
 62
7
 10
37.17200000
 20
5.39200000
  0
VERTEX
  8
0
 62
7
 10
37.26900000
 20
5.49800000
  0
VERTEX
  8
0
 62
7
 10
37.27200000
 20
13.37000000
  0
VERTEX
  8
0
 62
7
 10
36.27607007
 20
13.47612305
  0
VERTEX
  8
0
 62
7
 10
35.27629492
 20
13.57548438
  0
VERTEX
  8
0
 62
7
 10
34.27288403
 20
13.66807227
  0
VERTEX
  8
0
 62
7
 10
33.26604688
 20
13.75387500
  0
VERTEX
  8
0
 62
7
 10
32.25599292
 20
13.83288086
  0
VERTEX
  8
0
 62
7
 10
31.24293164
 20
13.90507813
  0
VERTEX
  8
0
 62
7
 10
30.22707251
 20
13.97045508
  0
VERTEX
  8
0
 62
7
 10
29.20862500
 20
14.02900000
  0
VERTEX
  8
0
 62
7
 10
28.18779858
 20
14.08070117
  0
VERTEX
  8
0
 62
7
 10
27.16480273
 20
14.12554688
  0
VERTEX
  8
0
 62
7
 10
26.13984692
 20
14.16352539
  0
VERTEX
  8
0
 62
7
 10
25.11314063
 20
14.19462500
  0
VERTEX
  8
0
 62
7
 10
24.08489331
 20
14.21883398
  0
VERTEX
  8
0
 62
7
 10
23.05531445
 20
14.23614063
  0
VERTEX
  8
0
 62
7
 10
22.02461353
 20
14.24653320
  0
VERTEX
  8
0
 62
7
 10
20.99300000
 20
14.25000000
  0
SEQEND
  0
POLYLINE
  8
0
 62
7
 66
1
 70
1
  0
VERTEX
  8
0
 62
7
 10
23.60700000
 20
6.30500000
  0
VERTEX
  8
0
 62
7
 10
23.54602132
 20
6.30579020
  0
VERTEX
  8
0
 62
7
 10
23.48583287
 20
6.29867839
  0
VERTEX
  8
0
 62
7
 10
23.45866904
 20
6.29209337
  0
VERTEX
  8
0
 62
7
 10
23.43209788
 20
6.28313776
  0
VERTEX
  8
0
 62
7
 10
23.40552672
 20
6.27378704
  0
VERTEX
  8
0
 62
7
 10
23.37836289
 20
6.26601672
  0
VERTEX
  8
0
 62
7
 10
23.30711135
 20
6.25692940
  0
VERTEX
  8
0
 62
7
 10
23.24139135
 20
6.25337349
  0
VERTEX
  8
0
 62
7
 10
23.19547625
 20
6.25251744
  0
VERTEX
  8
0
 62
7
 10
23.14906726
 20
6.25126629
  0
VERTEX
  8
0
 62
7
 10
23.10404116
 20
6.24685433
  0
VERTEX
  8
0
 62
7
 10
23.06227472
 20
6.23651586
  0
VERTEX
  8
0
 62
7
 10
23.03547307
 20
6.22568351
  0
VERTEX
  8
0
 62
7
 10
23.01143720
 20
6.21307321
  0
VERTEX
  8
0
 62
7
 10
22.98937688
 20
6.19769720
  0
VERTEX
  8
0
 62
7
 10
22.96850189
 20
6.17856774
  0
VERTEX
  8
0
 62
7
 10
22.95060669
 20
6.15402210
  0
VERTEX
  8
0
 62
7
 10
22.93597115
 20
6.12601933
  0
VERTEX
  8
0
 62
7
 10
22.92390383
 20
6.09663371
  0
VERTEX
  8
0
 62
7
 10
22.91371328
 20
6.06793951
  0
VERTEX
  8
0
 62
7
 10
22.90312761
 20
6.02775447
  0
VERTEX
  8
0
 62
7
 10
22.89619672
 20
5.98747065
  0
VERTEX
  8
0
 62
7
 10
22.89222916
 20
5.94659418
  0
VERTEX
  8
0
 62
7
 10
22.89053348
 20
5.90463118
  0
VERTEX
  8
0
 62
7
 10
22.89015483
 20
5.84009805
  0
VERTEX
  8
0
 62
7
 10
22.89224562
 20
5.77477471
  0
VERTEX
  8
0
 62
7
 10
22.89690463
 20
5.70905628
  0
VERTEX
  8
0
 62
7
 10
22.90423063
 20
5.64333784
  0
VERTEX
  8
0
 62
7
 10
22.91433887
 20
5.57732308
  0
VERTEX
  8
0
 62
7
 10
22.92899087
 20
5.51111077
  0
VERTEX
  8
0
 62
7
 10
22.94601354
 20
5.44568866
  0
VERTEX
  8
0
 62
7
 10
22.96323376
 20
5.38204450
  0
VERTEX
  8
0
 62
7
 10
22.98145821
 20
5.31642484
  0
VERTEX
  8
0
 62
7
 10
23.00234967
 20
5.25297824
  0
VERTEX
  8
0
 62
7
 10
23.02501912
 20
5.19032184
  0
VERTEX
  8
0
 62
7
 10
23.04857756
 20
5.12707278
  0
VERTEX
  8
0
 62
7
 10
23.07875410
 20
5.05751858
  0
VERTEX
  8
0
 62
7
 10
23.11219031
 20
4.98944600
  0
VERTEX
  8
0
 62
7
 10
23.14858984
 20
4.92275627
  0
VERTEX
  8
0
 62
7
 10
23.18765636
 20
4.85735063
  0
VERTEX
  8
0
 62
7
 10
23.24066698
 20
4.77553183
  0
VERTEX
  8
0
 62
7
 10
23.29802381
 20
4.69588610
  0
VERTEX
  8
0
 62
7
 10
23.35893664
 20
4.61821586
  0
VERTEX
  8
0
 62
7
 10
23.42261523
 20
4.54232358
  0
VERTEX
  8
0
 62
7
 10
23.48530605
 20
4.47138652
  0
VERTEX
  8
0
 62
7
 10
23.55115776
 20
4.40232619
  0
VERTEX
  8
0
 62
7
 10
23.61938012
 20
4.33504382
  0
VERTEX
  8
0
 62
7
 10
23.68918292
 20
4.26944062
  0
VERTEX
  8
0
 62
7
 10
23.77658460
 20
4.19242889
  0
VERTEX
  8
0
 62
7
 10
23.86606060
 20
4.11877551
  0
VERTEX
  8
0
 62
7
 10
23.95691948
 20
4.04749274
  0
VERTEX
  8
0
 62
7
 10
24.04846981
 20
3.97759282
  0
VERTEX
  8
0
 62
7
 10
24.21375759
 20
3.85642857
  0
VERTEX
  8
0
 62
7
 10
24.38141602
 20
3.74158594
  0
VERTEX
  8
0
 62
7
 10
24.50773605
 20
3.66327366
  0
VERTEX
  8
0
 62
7
 10
24.63652552
 20
3.58999892
  0
VERTEX
  8
0
 62
7
 10
24.76709298
 20
3.52008254
  0
VERTEX
  8
0
 62
7
 10
24.89874700
 20
3.45184534
  0
VERTEX
  8
0
 62
7
 10
25.02175798
 20
3.38797071
  0
VERTEX
  8
0
 62
7
 10
25.14634940
 20
3.32646668
  0
VERTEX
  8
0
 62
7
 10
25.24850185
 20
3.27971309
  0
VERTEX
  8
0
 62
7
 10
25.35114819
 20
3.23453989
  0
VERTEX
  8
0
 62
7
 10
25.45438720
 20
3.19134221
  0
VERTEX
  8
0
 62
7
 10
25.55831765
 20
3.15051512
  0
VERTEX
  8
0
 62
7
 10
25.66916253
 20
3.11184463
  0
VERTEX
  8
0
 62
7
 10
25.78129152
 20
3.07584107
  0
VERTEX
  8
0
 62
7
 10
25.89361806
 20
3.04161546
  0
VERTEX
  8
0
 62
7
 10
26.00505560
 20
3.00827883
  0
VERTEX
  8
0
 62
7
 10
26.24699476
 20
2.94137509
  0
VERTEX
  8
0
 62
7
 10
26.48972413
 20
2.88079297
  0
VERTEX
  8
0
 62
7
 10
26.63909226
 20
2.84608995
  0
VERTEX
  8
0
 62
7
 10
26.78855916
 20
2.81415263
  0
VERTEX
  8
0
 62
7
 10
26.93822362
 20
2.78419082
  0
VERTEX
  8
0
 62
7
 10
27.08818441
 20
2.75541431
  0
VERTEX
  8
0
 62
7
 10
27.36344452
 20
2.70734371
  0
VERTEX
  8
0
 62
7
 10
27.63712420
 20
2.66480452
  0
VERTEX
  8
0
 62
7
 10
27.87445373
 20
2.63451346
  0
VERTEX
  8
0
 62
7
 10
28.11020283
 20
2.60896361
  0
VERTEX
  8
0
 62
7
 10
28.29003740
 20
2.59217928
  0
VERTEX
  8
0
 62
7
 10
28.46998155
 20
2.57810665
  0
VERTEX
  8
0
 62
7
 10
28.65002139
 20
2.56664229
  0
VERTEX
  8
0
 62
7
 10
28.83014303
 20
2.55768282
  0
VERTEX
  8
0
 62
7
 10
29.01033258
 20
2.55112481
  0
VERTEX
  8
0
 62
7
 10
29.19057615
 20
2.54686487
  0
VERTEX
  8
0
 62
7
 10
29.37085985
 20
2.54479960
  0
VERTEX
  8
0
 62
7
 10
29.55116979
 20
2.54482558
  0
VERTEX
  8
0
 62
7
 10
29.73149207
 20
2.54683941
  0
VERTEX
  8
0
 62
7
 10
29.91181281
 20
2.55073769
  0
VERTEX
  8
0
 62
7
 10
30.09211811
 20
2.55641700
  0
VERTEX
  8
0
 62
7
 10
30.27239409
 20
2.56377395
  0
VERTEX
  8
0
 62
7
 10
30.45262686
 20
2.57270514
  0
VERTEX
  8
0
 62
7
 10
30.63280252
 20
2.58310714
  0
VERTEX
  8
0
 62
7
 10
30.81290718
 20
2.59487657
  0
VERTEX
  8
0
 62
7
 10
30.99292696
 20
2.60791001
  0
VERTEX
  8
0
 62
7
 10
31.15908727
 20
2.62221595
  0
VERTEX
  8
0
 62
7
 10
31.32416103
 20
2.63938637
  0
VERTEX
  8
0
 62
7
 10
31.48824701
 20
2.65872985
  0
VERTEX
  8
0
 62
7
 10
31.65144399
 20
2.67955495
  0
VERTEX
  8
0
 62
7
 10
31.90826563
 20
2.71458723
  0
VERTEX
  8
0
 62
7
 10
32.16350683
 20
2.75436071
  0
VERTEX
  8
0
 62
7
 10
32.38542706
 20
2.79755840
  0
VERTEX
  8
0
 62
7
 10
32.60813752
 20
2.84391689
  0
VERTEX
  8
0
 62
7
 10
33.03801744
 20
2.94295550
  0
VERTEX
  8
0
 62
7
 10
33.48896990
 20
3.05463732
  0
VERTEX
  8
0
 62
7
 10
33.82586721
 20
3.14682751
  0
VERTEX
  8
0
 62
7
 10
34.16118408
 20
3.24533932
  0
VERTEX
  8
0
 62
7
 10
34.40641582
 20
3.31935487
  0
VERTEX
  8
0
 62
7
 10
34.65006712
 20
3.39811163
  0
VERTEX
  8
0
 62
7
 10
34.76822153
 20
3.43913626
  0
VERTEX
  8
0
 62
7
 10
34.88489429
 20
3.48213640
  0
VERTEX
  8
0
 62
7
 10
35.00136949
 20
3.52553164
  0
VERTEX
  8
0
 62
7
 10
35.11893124
 20
3.56774158
  0
VERTEX
  8
0
 62
7
 10
35.55302566
 20
3.71208507
  0
VERTEX
  8
0
 62
7
 10
36.10091183
 20
3.88487583
  0
VERTEX
  8
0
 62
7
 10
36.48970028
 20
3.99761126
  0
VERTEX
  8
0
 62
7
 10
36.94908176
 20
4.12193632
  0
VERTEX
  8
0
 62
7
 10
37.38844432
 20
4.23361815
  0
VERTEX
  8
0
 62
7
 10
37.58270684
 20
4.28103024
  0
VERTEX
  8
0
 62
7
 10
37.77617914
 20
4.32528153
  0
VERTEX
  8
0
 62
7
 10
37.85148056
 20
4.34150536
  0
VERTEX
  8
0
 62
7
 10
37.92658443
 20
4.35807490
  0
VERTEX
  8
0
 62
7
 10
38.00168830
 20
4.37424934
  0
VERTEX
  8
0
 62
7
 10
38.07698972
 20
4.38928787
  0
VERTEX
  8
0
 62
7
 10
38.15268625
 20
4.40244966
  0
VERTEX
  8
0
 62
7
 10
38.22897545
 20
4.41299391
  0
VERTEX
  8
0
 62
7
 10
38.30605487
 20
4.42017981
  0
VERTEX
  8
0
 62
7
 10
38.38412206
 20
4.42326654
  0
VERTEX
  8
0
 62
7
 10
38.47991982
 20
4.42216355
  0
VERTEX
  8
0
 62
7
 10
38.57601392
 20
4.41760342
  0
VERTEX
  8
0
 62
7
 10
38.67230557
 20
4.40770944
  0
VERTEX
  8
0
 62
7
 10
38.76869600
 20
4.39060487
  0
VERTEX
  8
0
 62
7
 10
38.83639155
 20
4.37554165
  0
VERTEX
  8
0
 62
7
 10
38.90329688
 20
4.35702130
  0
VERTEX
  8
0
 62
7
 10
38.96901688
 20
4.33474749
  0
VERTEX
  8
0
 62
7
 10
39.03315644
 20
4.30842390
  0
VERTEX
  8
0
 62
7
 10
39.09650578
 20
4.27828100
  0
VERTEX
  8
0
 62
7
 10
39.15827468
 20
4.24428587
  0
VERTEX
  8
0
 62
7
 10
39.21806802
 20
4.20574708
  0
VERTEX
  8
0
 62
7
 10
39.27549071
 20
4.16197320
  0
VERTEX
  8
0
 62
7
 10
39.31964427
 20
4.12187047
  0
VERTEX
  8
0
 62
7
 10
39.36162473
 20
4.07900203
  0
VERTEX
  8
0
 62
7
 10
39.40083942
 20
4.03336788
  0
VERTEX
  8
0
 62
7
 10
39.43669567
 20
3.98496804
  0
VERTEX
  8
0
 62
7
 10
39.45624128
 20
3.95640760
  0
VERTEX
  8
0
 62
7
 10
39.47512014
 20
3.92756318
  0
VERTEX
  8
0
 62
7
 10
39.49296184
 20
3.89834836
  0
VERTEX
  8
0
 62
7
 10
39.50939595
 20
3.86867670
  0
VERTEX
  8
0
 62
7
 10
39.52405207
 20
3.83846177
  0
VERTEX
  8
0
 62
7
 10
39.53655978
 20
3.80761716
  0
VERTEX
  8
0
 62
7
 10
39.54654866
 20
3.77605642
  0
VERTEX
  8
0
 62
7
 10
39.55364830
 20
3.74369314
  0
VERTEX
  8
0
 62
7
 10
39.55773728
 20
3.71982041
  0
VERTEX
  8
0
 62
7
 10
39.56107308
 20
3.69573778
  0
VERTEX
  8
0
 62
7
 10
39.56329763
 20
3.67163046
  0
VERTEX
  8
0
 62
7
 10
39.56405287
 20
3.64768364
  0
VERTEX
  8
0
 62
7
 10
39.56298072
 20
3.62408254
  0
VERTEX
  8
0
 62
7
 10
39.55972312
 20
3.60101236
  0
VERTEX
  8
0
 62
7
 10
39.55392199
 20
3.57865830
  0
VERTEX
  8
0
 62
7
 10
39.54521928
 20
3.55720556
  0
VERTEX
  8
0
 62
7
 10
39.52697836
 20
3.52801748
  0
VERTEX
  8
0
 62
7
 10
39.50439122
 20
3.50228654
  0
VERTEX
  8
0
 62
7
 10
39.47824810
 20
3.48030906
  0
VERTEX
  8
0
 62
7
 10
39.44933920
 20
3.46238136
  0
VERTEX
  8
0
 62
7
 10
39.49210988
 20
3.44348237
  0
VERTEX
  8
0
 62
7
 10
39.53626345
 20
3.42813929
  0
VERTEX
  8
0
 62
7
 10
39.58120723
 20
3.41674722
  0
VERTEX
  8
0
 62
7
 10
39.62634858
 20
3.40970125
  0
VERTEX
  8
0
 62
7
 10
39.68171340
 20
3.40657337
  0
VERTEX
  8
0
 62
7
 10
39.73658433
 20
3.40996465
  0
VERTEX
  8
0
 62
7
 10
39.79007237
 20
3.42007265
  0
VERTEX
  8
0
 62
7
 10
39.84128853
 20
3.43709491
  0
VERTEX
  8
0
 62
7
 10
39.87908741
 20
3.45535186
  0
VERTEX
  8
0
 62
7
 10
39.91451563
 20
3.47726349
  0
VERTEX
  8
0
 62
7
 10
39.94678296
 20
3.50332368
  0
VERTEX
  8
0
 62
7
 10
39.97509919
 20
3.53402631
  0
VERTEX
  8
0
 62
7
 10
39.99469008
 20
3.56316499
  0
VERTEX
  8
0
 62
7
 10
40.01072497
 20
3.59427918
  0
VERTEX
  8
0
 62
7
 10
40.02310509
 20
3.62707255
  0
VERTEX
  8
0
 62
7
 10
40.03173166
 20
3.66124877
  0
VERTEX
  8
0
 62
7
 10
40.03650591
 20
3.69651152
  0
VERTEX
  8
0
 62
7
 10
40.03732905
 20
3.73256447
  0
VERTEX
  8
0
 62
7
 10
40.03410232
 20
3.76911129
  0
VERTEX
  8
0
 62
7
 10
40.02672693
 20
3.80585567
  0
VERTEX
  8
0
 62
7
 10
40.05515840
 20
3.81276993
  0
VERTEX
  8
0
 62
7
 10
40.08191066
 20
3.82244990
  0
VERTEX
  8
0
 62
7
 10
40.10688491
 20
3.83489558
  0
VERTEX
  8
0
 62
7
 10
40.12998240
 20
3.85010696
  0
VERTEX
  8
0
 62
7
 10
40.16256253
 20
3.88008523
  0
VERTEX
  8
0
 62
7
 10
40.18832701
 20
3.91529859
  0
VERTEX
  8
0
 62
7
 10
40.20836239
 20
3.95426541
  0
VERTEX
  8
0
 62
7
 10
40.22375522
 20
3.99550406
  0
VERTEX
  8
0
 62
7
 10
40.23250938
 20
4.02274749
  0
VERTEX
  8
0
 62
7
 10
40.23906574
 20
4.05067001
  0
VERTEX
  8
0
 62
7
 10
40.24349839
 20
4.07916048
  0
VERTEX
  8
0
 62
7
 10
40.24588139
 20
4.10810779
  0
VERTEX
  8
0
 62
7
 10
40.24628885
 20
4.13740081
  0
VERTEX
  8
0
 62
7
 10
40.24479484
 20
4.16692842
  0
VERTEX
  8
0
 62
7
 10
40.24147345
 20
4.19657950
  0
VERTEX
  8
0
 62
7
 10
40.23639875
 20
4.22624293
  0
VERTEX
  8
0
 62
7
 10
40.22980123
 20
4.25602777
  0
VERTEX
  8
0
 62
7
 10
40.22056142
 20
4.28534343
  0
VERTEX
  8
0
 62
7
 10
40.20909910
 20
4.31421460
  0
VERTEX
  8
0
 62
7
 10
40.19583410
 20
4.34266597
  0
VERTEX
  8
0
 62
7
 10
40.18118621
 20
4.37072224
  0
VERTEX
  8
0
 62
7
 10
40.16557524
 20
4.39840811
  0
VERTEX
  8
0
 62
7
 10
40.14942100
 20
4.42574826
  0
VERTEX
  8
0
 62
7
 10
40.13314328
 20
4.45276740
  0
VERTEX
  8
0
 62
7
 10
40.10235761
 20
4.50111786
  0
VERTEX
  8
0
 62
7
 10
40.06860861
 20
4.54798669
  0
VERTEX
  8
0
 62
7
 10
40.03209384
 20
4.59307757
  0
VERTEX
  8
0
 62
7
 10
39.99301086
 20
4.63609417
  0
VERTEX
  8
0
 62
7
 10
39.94053734
 20
4.68655801
  0
VERTEX
  8
0
 62
7
 10
39.88456957
 20
4.73221891
  0
VERTEX
  8
0
 62
7
 10
39.82556438
 20
4.77331145
  0
VERTEX
  8
0
 62
7
 10
39.76397864
 20
4.81007023
  0
VERTEX
  8
0
 62
7
 10
39.70026917
 20
4.84272984
  0
VERTEX
  8
0
 62
7
 10
39.63489284
 20
4.87152487
  0
VERTEX
  8
0
 62
7
 10
39.56830647
 20
4.89668991
  0
VERTEX
  8
0
 62
7
 10
39.50096694
 20
4.91845955
  0
VERTEX
  8
0
 62
7
 10
39.42907334
 20
4.93638725
  0
VERTEX
  8
0
 62
7
 10
39.35727852
 20
4.94888231
  0
VERTEX
  8
0
 62
7
 10
39.28568126
 20
4.95801902
  0
VERTEX
  8
0
 62
7
 10
39.21438033
 20
4.96587165
  0
VERTEX
  8
0
 62
7
 10
39.13993498
 20
4.97260483
  0
VERTEX
  8
0
 62
7
 10
39.06529207
 20
4.97706617
  0
VERTEX
  8
0
 62
7
 10
38.99064917
 20
4.97935447
  0
VERTEX
  8
0
 62
7
 10
38.91620382
 20
4.97956848
  0
VERTEX
  8
0
 62
7
 10
38.78041761
 20
4.97601257
  0
VERTEX
  8
0
 62
7
 10
38.64542162
 20
4.96692525
  0
VERTEX
  8
0
 62
7
 10
38.53000004
 20
4.95479236
  0
VERTEX
  8
0
 62
7
 10
38.41586258
 20
4.94019010
  0
VERTEX
  8
0
 62
7
 10
38.30271289
 20
4.92262457
  0
VERTEX
  8
0
 62
7
 10
38.19025465
 20
4.90160192
  0
VERTEX
  8
0
 62
7
 10
37.99283124
 20
4.86051143
  0
VERTEX
  8
0
 62
7
 10
37.79935894
 20
4.81626014
  0
VERTEX
  8
0
 62
7
 10
37.71156216
 20
4.79367355
  0
VERTEX
  8
0
 62
7
 10
37.62485193
 20
4.76832124
  0
VERTEX
  8
0
 62
7
 10
37.53873436
 20
4.74217874
  0
VERTEX
  8
0
 62
7
 10
37.45271558
 20
4.71722154
  0
VERTEX
  8
0
 62
7
 10
37.35145212
 20
4.68775360
  0
VERTEX
  8
0
 62
7
 10
37.25028744
 20
4.65611261
  0
VERTEX
  8
0
 62
7
 10
37.14971543
 20
4.62210102
  0
VERTEX
  8
0
 62
7
 10
37.05022997
 20
4.58552127
  0
VERTEX
  8
0
 62
7
 10
36.91009755
 20
4.52757315
  0
VERTEX
  8
0
 62
7
 10
36.72255190
 20
4.44012417
  0
VERTEX
  8
0
 62
7
 10
36.45914509
 20
4.30947750
  0
VERTEX
  8
0
 62
7
 10
36.44123343
 20
4.32001352
  0
VERTEX
  8
0
 62
7
 10
36.71306925
 20
4.46119621
  0
VERTEX
  8
0
 62
7
 10
36.83752897
 20
4.52572935
  0
VERTEX
  8
0
 62
7
 10
36.95961803
 20
4.59184288
  0
VERTEX
  8
0
 62
7
 10
37.09698468
 20
4.67244345
  0
VERTEX
  8
0
 62
7
 10
37.23040023
 20
4.75620482
  0
VERTEX
  8
0
 62
7
 10
37.37053265
 20
4.85972123
  0
VERTEX
  8
0
 62
7
 10
37.50750419
 20
4.96797885
  0
VERTEX
  8
0
 62
7
 10
37.65198283
 20
5.08268979
  0
VERTEX
  8
0
 62
7
 10
37.79409080
 20
5.19977133
  0
VERTEX
  8
0
 62
7
 10
37.95200319
 20
5.33344710
  0
VERTEX
  8
0
 62
7
 10
38.10596447
 20
5.47265429
  0
VERTEX
  8
0
 62
7
 10
38.23213633
 20
5.60343266
  0
VERTEX
  8
0
 62
7
 10
38.35356687
 20
5.73816204
  0
VERTEX
  8
0
 62
7
 10
38.46749032
 20
5.87815942
  0
VERTEX
  8
0
 62
7
 10
38.57588222
 20
6.02368822
  0
VERTEX
  8
0
 62
7
 10
38.67136719
 20
6.16934872
  0
VERTEX
  8
0
 62
7
 10
38.76132061
 20
6.31975043
  0
VERTEX
  8
0
 62
7
 10
38.81760735
 20
6.42028712
  0
VERTEX
  8
0
 62
7
 10
38.87102955
 20
6.52270055
  0
VERTEX
  8
0
 62
7
 10
38.92148842
 20
6.62689192
  0
VERTEX
  8
0
 62
7
 10
38.96888518
 20
6.73276248
  0
VERTEX
  8
0
 62
7
 10
39.00327623
 20
6.81492698
  0
VERTEX
  8
0
 62
7
 10
39.03539540
 20
6.89857312
  0
VERTEX
  8
0
 62
7
 10
39.06534146
 20
6.98360211
  0
VERTEX
  8
0
 62
7
 10
39.09321319
 20
7.06991517
  0
VERTEX
  8
0
 62
7
 10
39.11619338
 20
7.14897237
  0
VERTEX
  8
0
 62
7
 10
39.13698811
 20
7.22884447
  0
VERTEX
  8
0
 62
7
 10
39.15568382
 20
7.30945738
  0
VERTEX
  8
0
 62
7
 10
39.17236694
 20
7.39073703
  0
VERTEX
  8
0
 62
7
 10
39.18712389
 20
7.47260933
  0
VERTEX
  8
0
 62
7
 10
39.20004112
 20
7.55500019
  0
VERTEX
  8
0
 62
7
 10
39.21120504
 20
7.63783555
  0
VERTEX
  8
0
 62
7
 10
39.22070209
 20
7.72104131
  0
VERTEX
  8
0
 62
7
 10
39.23097495
 20
7.82684601
  0
VERTEX
  8
0
 62
7
 10
39.23729672
 20
7.93373724
  0
VERTEX
  8
0
 62
7
 10
39.24085271
 20
8.04122113
  0
VERTEX
  8
0
 62
7
 10
39.24282826
 20
8.14880379
  0
VERTEX
  8
0
 62
7
 10
39.24309578
 20
8.23468265
  0
VERTEX
  8
0
 62
7
 10
39.24220267
 20
8.32082080
  0
VERTEX
  8
0
 62
7
 10
39.23997606
 20
8.40718120
  0
VERTEX
  8
0
 62
7
 10
39.23624309
 20
8.49372679
  0
VERTEX
  8
0
 62
7
 10
39.23083090
 20
8.58042056
  0
VERTEX
  8
0
 62
7
 10
39.22356664
 20
8.66722544
  0
VERTEX
  8
0
 62
7
 10
39.21427743
 20
8.75410440
  0
VERTEX
  8
0
 62
7
 10
39.20279043
 20
8.84102041
  0
VERTEX
  8
0
 62
7
 10
39.18110875
 20
8.97197986
  0
VERTEX
  8
0
 62
7
 10
39.15261143
 20
9.10244545
  0
VERTEX
  8
0
 62
7
 10
39.11996545
 20
9.23231837
  0
VERTEX
  8
0
 62
7
 10
39.08583780
 20
9.36149988
  0
VERTEX
  8
0
 62
7
 10
39.01919588
 20
9.59566296
  0
VERTEX
  8
0
 62
7
 10
38.94781263
 20
9.82824564
  0
VERTEX
  8
0
 62
7
 10
38.79925119
 20
10.28024096
  0
VERTEX
  8
0
 62
7
 10
38.64858250
 20
10.73434350
  0
VERTEX
  8
0
 62
7
 10
38.47789488
 20
11.20108925
  0
VERTEX
  8
0
 62
7
 10
38.44335567
 20
11.29509032
  0
VERTEX
  8
0
 62
7
 10
38.40782867
 20
11.38889384
  0
VERTEX
  8
0
 62
7
 10
38.37388212
 20
11.48230226
  0
VERTEX
  8
0
 62
7
 10
38.34408422
 20
11.57511802
  0
VERTEX
  8
0
 62
7
 10
38.32551404
 20
11.63793905
  0
VERTEX
  8
0
 62
7
 10
38.31247541
 20
11.70155028
  0
VERTEX
  8
0
 62
7
 10
38.30837614
 20
11.73164379
  0
VERTEX
  8
0
 62
7
 10
38.30496831
 20
11.75897160
  0
VERTEX
  8
0
 62
7
 10
38.30373359
 20
11.78629941
  0
VERTEX
  8
0
 62
7
 10
38.30615364
 20
11.81639292
  0
VERTEX
  8
0
 62
7
 10
38.31647590
 20
11.85865224
  0
VERTEX
  8
0
 62
7
 10
38.33341625
 20
11.89765199
  0
VERTEX
  8
0
 62
7
 10
38.35727103
 20
11.93210807
  0
VERTEX
  8
0
 62
7
 10
38.38833657
 20
11.96073642
  0
VERTEX
  8
0
 62
7
 10
38.42414343
 20
11.97980003
  0
VERTEX
  8
0
 62
7
 10
38.46301240
 20
11.99234448
  0
VERTEX
  8
0
 62
7
 10
38.50405447
 20
11.99777712
  0
VERTEX
  8
0
 62
7
 10
38.54638065
 20
11.99550529
  0
VERTEX
  8
0
 62
7
 10
38.54675930
 20
12.03552571
  0
VERTEX
  8
0
 62
7
 10
38.54308807
 20
12.07623755
  0
VERTEX
  8
0
 62
7
 10
38.53526818
 20
12.11714695
  0
VERTEX
  8
0
 62
7
 10
38.52320086
 20
12.15776002
  0
VERTEX
  8
0
 62
7
 10
38.50726474
 20
12.20038152
  0
VERTEX
  8
0
 62
7
 10
38.48658731
 20
12.24112629
  0
VERTEX
  8
0
 62
7
 10
38.46156366
 20
12.27969801
  0
VERTEX
  8
0
 62
7
 10
38.43258891
 20
12.31580034
  0
VERTEX
  8
0
 62
7
 10
38.40280748
 20
12.34785290
  0
VERTEX
  8
0
 62
7
 10
38.37134683
 20
12.37704097
  0
VERTEX
  8
0
 62
7
 10
38.33731796
 20
12.40247558
  0
VERTEX
  8
0
 62
7
 10
38.29983188
 20
12.42326776
  0
VERTEX
  8
0
 62
7
 10
38.25594172
 20
12.43921996
  0
VERTEX
  8
0
 62
7
 10
38.20948334
 20
12.45052972
  0
VERTEX
  8
0
 62
7
 10
38.16262986
 20
12.45690072
  0
VERTEX
  8
0
 62
7
 10
38.11755437
 20
12.45803664
  0
VERTEX
  8
0
 62
7
 10
38.07183682
 20
12.45266985
  0
VERTEX
  8
0
 62
7
 10
38.02839116
 20
12.44117900
  0
VERTEX
  8
0
 62
7
 10
37.98790883
 20
12.42336654
  0
VERTEX
  8
0
 62
7
 10
37.95108126
 20
12.39903492
  0
VERTEX
  8
0
 62
7
 10
37.92032852
 20
12.37109800
  0
VERTEX
  8
0
 62
7
 10
37.89550243
 20
12.33753089
  0
VERTEX
  8
0
 62
7
 10
37.87581277
 20
12.30021032
  0
VERTEX
  8
0
 62
7
 10
37.86046932
 20
12.26101303
  0
VERTEX
  8
0
 62
7
 10
37.85297869
 20
12.23060673
  0
VERTEX
  8
0
 62
7
 10
37.84874772
 20
12.19950901
  0
VERTEX
  8
0
 62
7
 10
37.84668985
 20
12.16781863
  0
VERTEX
  8
0
 62
7
 10
37.84571854
 20
12.13563437
  0
VERTEX
  8
0
 62
7
 10
37.85085497
 20
12.08496270
  0
VERTEX
  8
0
 62
7
 10
37.85994251
 20
12.03448857
  0
VERTEX
  8
0
 62
7
 10
37.87298114
 20
11.98480464
  0
VERTEX
  8
0
 62
7
 10
37.88997088
 20
11.93650357
  0
VERTEX
  8
0
 62
7
 10
37.87943461
 20
11.93018195
  0
VERTEX
  8
0
 62
7
 10
37.83913337
 20
12.02803525
  0
VERTEX
  8
0
 62
7
 10
37.80357345
 20
12.12825916
  0
VERTEX
  8
0
 62
7
 10
37.77789129
 20
12.23111707
  0
VERTEX
  8
0
 62
7
 10
37.75932111
 20
12.33476518
  0
VERTEX
  8
0
 62
7
 10
37.75562724
 20
12.36566947
  0
VERTEX
  8
0
 62
7
 10
37.75189633
 20
12.39669724
  0
VERTEX
  8
0
 62
7
 10
37.74848644
 20
12.42777438
  0
VERTEX
  8
0
 62
7
 10
37.74575565
 20
12.45882684
  0
VERTEX
  8
0
 62
7
 10
37.74406203
 20
12.48978052
  0
VERTEX
  8
0
 62
7
 10
37.74376364
 20
12.52056134
  0
VERTEX
  8
0
 62
7
 10
37.74521855
 20
12.55109522
  0
VERTEX
  8
0
 62
7
 10
37.74878483
 20
12.58130809
  0
VERTEX
  8
0
 62
7
 10
37.75734555
 20
12.63090970
  0
VERTEX
  8
0
 62
7
 10
37.77064760
 20
12.67942479
  0
VERTEX
  8
0
 62
7
 10
37.78908608
 20
12.72576682
  0
VERTEX
  8
0
 62
7
 10
37.81305609
 20
12.76884927
  0
VERTEX
  8
0
 62
7
 10
37.84110892
 20
12.80649909
  0
VERTEX
  8
0
 62
7
 10
37.87232263
 20
12.84088932
  0
VERTEX
  8
0
 62
7
 10
37.90788255
 20
12.87034080
  0
VERTEX
  8
0
 62
7
 10
37.94897401
 20
12.89317433
  0
VERTEX
  8
0
 62
7
 10
37.98896246
 20
12.90808939
  0
VERTEX
  8
0
 62
7
 10
38.03102523
 20
12.91767058
  0
VERTEX
  8
0
 62
7
 10
38.07447089
 20
12.92132526
  0
VERTEX
  8
0
 62
7
 10
38.11860799
 20
12.91846078
  0
VERTEX
  8
0
 62
7
 10
38.15563311
 20
12.91123373
  0
VERTEX
  8
0
 62
7
 10
38.19196679
 20
12.90015444
  0
VERTEX
  8
0
 62
7
 10
38.22691758
 20
12.88453150
  0
VERTEX
  8
0
 62
7
 10
38.25979405
 20
12.86367347
  0
VERTEX
  8
0
 62
7
 10
38.28899928
 20
12.83939123
  0
VERTEX
  8
0
 62
7
 10
38.31405585
 20
12.81165186
  0
VERTEX
  8
0
 62
7
 10
38.33595154
 20
12.78173944
  0
VERTEX
  8
0
 62
7
 10
38.35567412
 20
12.75093804
  0
VERTEX
  8
0
 62
7
 10
38.38581774
 20
12.69829085
  0
VERTEX
  8
0
 62
7
 10
38.40954082
 20
12.64347062
  0
VERTEX
  8
0
 62
7
 10
38.42634946
 20
12.58706998
  0
VERTEX
  8
0
 62
7
 10
38.43574979
 20
12.52968158
  0
VERTEX
  8
0
 62
7
 10
38.47769733
 20
12.56497726
  0
VERTEX
  8
0
 62
7
 10
38.51529865
 20
12.60422394
  0
VERTEX
  8
0
 62
7
 10
38.54894887
 20
12.64702652
  0
VERTEX
  8
0
 62
7
 10
38.57904310
 20
12.69298992
  0
VERTEX
  8
0
 62
7
 10
38.60441247
 20
12.74222936
  0
VERTEX
  8
0
 62
7
 10
38.62553440
 20
12.79453083
  0
VERTEX
  8
0
 62
7
 10
38.64290279
 20
12.84900535
  0
VERTEX
  8
0
 62
7
 10
38.65701152
 20
12.90476395
  0
VERTEX
  8
0
 62
7
 10
38.66716914
 20
12.96537900
  0
VERTEX
  8
0
 62
7
 10
38.67347444
 20
13.02698180
  0
VERTEX
  8
0
 62
7
 10
38.67523597
 20
13.08937481
  0
VERTEX
  8
0
 62
7
 10
38.67176230
 20
13.15236046
  0
VERTEX
  8
0
 62
7
 10
38.66580272
 20
13.19954208
  0
VERTEX
  8
0
 62
7
 10
38.65806514
 20
13.24613105
  0
VERTEX
  8
0
 62
7
 10
38.64716669
 20
13.29192982
  0
VERTEX
  8
0
 62
7
 10
38.63172446
 20
13.33674084
  0
VERTEX
  8
0
 62
7
 10
38.60513684
 20
13.38859782
  0
VERTEX
  8
0
 62
7
 10
38.57311645
 20
13.43788665
  0
VERTEX
  8
0
 62
7
 10
38.53615718
 20
13.48401467
  0
VERTEX
  8
0
 62
7
 10
38.49475292
 20
13.52638923
  0
VERTEX
  8
0
 62
7
 10
38.46202668
 20
13.55274575
  0
VERTEX
  8
0
 62
7
 10
38.42792990
 20
13.57643533
  0
VERTEX
  8
0
 62
7
 10
38.39257371
 20
13.59735921
  0
VERTEX
  8
0
 62
7
 10
38.35606923
 20
13.61541861
  0
VERTEX
  8
0
 62
7
 10
38.31852759
 20
13.63051476
  0
VERTEX
  8
0
 62
7
 10
38.28005991
 20
13.64254887
  0
VERTEX
  8
0
 62
7
 10
38.24077731
 20
13.65142217
  0
VERTEX
  8
0
 62
7
 10
38.20079092
 20
13.65703590
  0
VERTEX
  8
0
 62
7
 10
38.22818523
 20
13.86143472
  0
VERTEX
  8
0
 62
7
 10
38.18375179
 20
13.87765031
  0
VERTEX
  8
0
 62
7
 10
38.13902202
 20
13.89001368
  0
VERTEX
  8
0
 62
7
 10
38.09409470
 20
13.89862358
  0
VERTEX
  8
0
 62
7
 10
38.04906860
 20
13.90357881
  0
VERTEX
  8
0
 62
7
 10
38.00580403
 20
13.90385867
  0
VERTEX
  8
0
 62
7
 10
37.96293457
 20
13.90028630
  0
VERTEX
  8
0
 62
7
 10
37.92046022
 20
13.89335557
  0
VERTEX
  8
0
 62
7
 10
37.87838098
 20
13.88356036
  0
VERTEX
  8
0
 62
7
 10
37.82665447
 20
13.86698259
  0
VERTEX
  8
0
 62
7
 10
37.77749618
 20
13.84576239
  0
VERTEX
  8
0
 62
7
 10
37.73110365
 20
13.81999852
  0
VERTEX
  8
0
 62
7
 10
37.68767445
 20
13.78978977
  0
VERTEX
  8
0
 62
7
 10
37.65160418
 20
13.75869204
  0
VERTEX
  8
0
 62
7
 10
37.61879357
 20
13.72433474
  0
VERTEX
  8
0
 62
7
 10
37.58855118
 20
13.68740927
  0
VERTEX
  8
0
 62
7
 10
37.56018556
 20
13.64860708
  0
VERTEX
  8
0
 62
7
 10
37.53134251
 20
13.60629837
  0
VERTEX
  8
0
 62
7
 10
37.50566035
 20
13.56300191
  0
VERTEX
  8
0
 62
7
 10
37.48195373
 20
13.51852014
  0
VERTEX
  8
0
 62
7
 10
37.45903734
 20
13.47265552
  0
VERTEX
  8
0
 62
7
 10
37.43724043
 20
13.42101255
  0
VERTEX
  8
0
 62
7
 10
37.41741907
 20
13.36769040
  0
VERTEX
  8
0
 62
7
 10
37.39917814
 20
13.31338051
  0
VERTEX
  8
0
 62
7
 10
37.38212255
 20
13.25877428
  0
VERTEX
  8
0
 62
7
 10
37.36873819
 20
13.20291690
  0
VERTEX
  8
0
 62
7
 10
37.35723061
 20
13.14617055
  0
VERTEX
  8
0
 62
7
 10
37.34789613
 20
13.08883154
  0
VERTEX
  8
0
 62
7
 10
37.34103109
 20
13.03119621
  0
VERTEX
  8
0
 62
7
 10
37.33571357
 20
12.95339428
  0
VERTEX
  8
0
 62
7
 10
37.33405081
 20
12.87499969
  0
VERTEX
  8
0
 62
7
 10
37.33614160
 20
12.79621001
  0
VERTEX
  8
0
 62
7
 10
37.34208472
 20
12.71722277
  0
VERTEX
  8
0
 62
7
 10
37.34993753
 20
12.65244270
  0
VERTEX
  8
0
 62
7
 10
37.36065490
 20
12.58776140
  0
VERTEX
  8
0
 62
7
 10
37.37394048
 20
12.52327766
  0
VERTEX
  8
0
 62
7
 10
37.38949794
 20
12.45909024
  0
VERTEX
  8
0
 62
7
 10
37.42518957
 20
12.32910207
  0
VERTEX
  8
0
 62
7
 10
37.46641273
 20
12.19990411
  0
VERTEX
  8
0
 62
7
 10
37.51185041
 20
12.06846724
  0
VERTEX
  8
0
 62
7
 10
37.56123918
 20
11.93861077
  0
VERTEX
  8
0
 62
7
 10
37.59156389
 20
11.86778895
  0
VERTEX
  8
0
 62
7
 10
37.62366660
 20
11.80032549
  0
VERTEX
  8
0
 62
7
 10
37.65695463
 20
11.73325712
  0
VERTEX
  8
0
 62
7
 10
37.69083533
 20
11.66362060
  0
VERTEX
  8
0
 62
7
 10
37.75958451
 20
11.52217451
  0
VERTEX
  8
0
 62
7
 10
37.83307501
 20
11.38230883
  0
VERTEX
  8
0
 62
7
 10
37.90552835
 20
11.24672340
  0
VERTEX
  8
0
 62
7
 10
37.97650002
 20
11.10758206
  0
VERTEX
  8
0
 62
7
 10
38.04450837
 20
10.97041623
  0
VERTEX
  8
0
 62
7
 10
38.10807172
 20
10.84075731
  0
VERTEX
  8
0
 62
7
 10
38.16859767
 20
10.71816494
  0
VERTEX
  8
0
 62
7
 10
38.22956811
 20
10.59589359
  0
VERTEX
  8
0
 62
7
 10
38.29142756
 20
10.47120224
  0
VERTEX
  8
0
 62
7
 10
38.35462050
 20
10.34134989
  0
VERTEX
  8
0
 62
7
 10
38.41959143
 20
10.20359552
  0
VERTEX
  8
0
 62
7
 10
38.48678486
 20
10.05519813
  0
VERTEX
  8
0
 62
7
 10
38.55664529
 20
9.89341669
  0
VERTEX
  8
0
 62
7
 10
38.62961721
 20
9.71551020
  0
VERTEX
  8
0
 62
7
 10
38.67479147
 20
9.59930118
  0
VERTEX
  8
0
 62
7
 10
38.71996574
 20
9.47726441
  0
VERTEX
  8
0
 62
7
 10
38.76237424
 20
9.35503010
  0
VERTEX
  8
0
 62
7
 10
38.79925119
 20
9.23822842
  0
VERTEX
  8
0
 62
7
 10
38.83388919
 20
9.10843781
  0
VERTEX
  8
0
 62
7
 10
38.86299564
 20
8.97825209
  0
VERTEX
  8
0
 62
7
 10
38.88815099
 20
8.84767127
  0
VERTEX
  8
0
 62
7
 10
38.91093568
 20
8.71669535
  0
VERTEX
  8
0
 62
7
 10
38.94030554
 20
8.52164725
  0
VERTEX
  8
0
 62
7
 10
38.96256342
 20
8.32580895
  0
VERTEX
  8
0
 62
7
 10
38.97428502
 20
8.18186055
  0
VERTEX
  8
0
 62
7
 10
38.98126530
 20
8.03791216
  0
VERTEX
  8
0
 62
7
 10
38.98389937
 20
7.89435886
  0
VERTEX
  8
0
 62
7
 10
38.98258233
 20
7.75159577
  0
VERTEX
  8
0
 62
7
 10
38.97099243
 20
7.75581018
  0
VERTEX
  8
0
 62
7
 10
38.95953424
 20
7.89593927
  0
VERTEX
  8
0
 62
7
 10
38.94254450
 20
8.03606836
  0
VERTEX
  8
0
 62
7
 10
38.92593341
 20
8.13385581
  0
VERTEX
  8
0
 62
7
 10
38.90527243
 20
8.23124816
  0
VERTEX
  8
0
 62
7
 10
38.88164814
 20
8.32824541
  0
VERTEX
  8
0
 62
7
 10
38.85614706
 20
8.42484755
  0
VERTEX
  8
0
 62
7
 10
38.82276025
 20
8.54991342
  0
VERTEX
  8
0
 62
7
 10
38.78502722
 20
8.67389276
  0
VERTEX
  8
0
 62
7
 10
38.74176266
 20
8.79688436
  0
VERTEX
  8
0
 62
7
 10
38.69178121
 20
8.91898697
  0
VERTEX
  8
0
 62
7
 10
38.61802731
 20
9.08124170
  0
VERTEX
  8
0
 62
7
 10
38.59840350
 20
9.12167368
  0
VERTEX
  8
0
 62
7
 10
38.58115035
 20
9.16447627
  0
VERTEX
  8
0
 62
7
 10
38.57179941
 20
9.19965671
  0
VERTEX
  8
0
 62
7
 10
38.56798001
 20
9.23493592
  0
VERTEX
  8
0
 62
7
 10
38.57048238
 20
9.26922738
  0
VERTEX
  8
0
 62
7
 10
38.58009673
 20
9.30144455
  0
VERTEX
  8
0
 62
7
 10
38.58952998
 20
9.32021184
  0
VERTEX
  8
0
 62
7
 10
38.59945713
 20
9.33621343
  0
VERTEX
  8
0
 62
7
 10
38.61313782
 20
9.35063460
  0
VERTEX
  8
0
 62
7
 10
38.63383172
 20
9.36466068
  0
VERTEX
  8
0
 62
7
 10
38.65758772
 20
9.37313889
  0
VERTEX
  8
0
 62
7
 10
38.68559115
 20
9.37480160
  0
VERTEX
  8
0
 62
7
 10
38.71458237
 20
9.36955006
  0
VERTEX
  8
0
 62
7
 10
38.74130169
 20
9.35728547
  0
VERTEX
  8
0
 62
7
 10
38.74014929
 20
9.38087628
  0
VERTEX
  8
0
 62
7
 10
38.73366290
 20
9.40377566
  0
VERTEX
  8
0
 62
7
 10
38.72204007
 20
9.42529220
  0
VERTEX
  8
0
 62
7
 10
38.70547837
 20
9.44473445
  0
VERTEX
  8
0
 62
7
 10
38.68519604
 20
9.45961658
  0
VERTEX
  8
0
 62
7
 10
38.66333328
 20
9.46896730
  0
VERTEX
  8
0
 62
7
 10
38.63755234
 20
9.47334633
  0
VERTEX
  8
0
 62
7
 10
38.61354939
 20
9.47397191
  0
VERTEX
  8
0
 62
7
 10
38.59073178
 20
9.47104158
  0
VERTEX
  8
0
 62
7
 10
38.56850683
 20
9.46475289
  0
VERTEX
  8
0
 62
7
 10
38.54600201
 20
9.45477659
  0
VERTEX
  8
0
 62
7
 10
38.52596663
 20
9.44104684
  0
VERTEX
  8
0
 62
7
 10
38.50849946
 20
9.42415628
  0
VERTEX
  8
0
 62
7
 10
38.49369929
 20
9.40469757
  0
VERTEX
  8
0
 62
7
 10
38.47786196
 20
9.37272733
  0
VERTEX
  8
0
 62
7
 10
38.46972927
 20
9.33779383
  0
VERTEX
  8
0
 62
7
 10
38.46910368
 20
9.30127993
  0
VERTEX
  8
0
 62
7
 10
38.47578763
 20
9.26456848
  0
VERTEX
  8
0
 62
7
 10
38.44549585
 20
9.27194369
  0
VERTEX
  8
0
 62
7
 10
38.41362362
 20
9.27299730
  0
VERTEX
  8
0
 62
7
 10
38.39708867
 20
9.26987765
  0
VERTEX
  8
0
 62
7
 10
38.38150445
 20
9.26463433
  0
VERTEX
  8
0
 62
7
 10
38.36693271
 20
9.25751428
  0
VERTEX
  8
0
 62
7
 10
38.35343517
 20
9.24876445
  0
VERTEX
  8
0
 62
7
 10
38.34107357
 20
9.23863176
  0
VERTEX
  8
0
 62
7
 10
38.32990965
 20
9.22736315
  0
VERTEX
  8
0
 62
7
 10
38.32000514
 20
9.21520557
  0
VERTEX
  8
0
 62
7
 10
38.31142178
 20
9.20240595
  0
VERTEX
  8
0
 62
7
 10
38.30463494
 20
9.18837370
  0
VERTEX
  8
0
 62
7
 10
38.29940384
 20
9.17193380
  0
VERTEX
  8
0
 62
7
 10
38.29590136
 20
9.15364187
  0
VERTEX
  8
0
 62
7
 10
38.29430034
 20
9.13405351
  0
VERTEX
  8
0
 62
7
 10
38.29477365
 20
9.11372434
  0
VERTEX
  8
0
 62
7
 10
38.29749414
 20
9.09320996
  0
VERTEX
  8
0
 62
7
 10
38.30263469
 20
9.07306600
  0
VERTEX
  8
0
 62
7
 10
38.31036815
 20
9.05384805
  0
VERTEX
  8
0
 62
7
 10
38.32426286
 20
9.03119560
  0
VERTEX
  8
0
 62
7
 10
38.34171356
 20
9.01091376
  0
VERTEX
  8
0
 62
7
 10
38.36193004
 20
8.99339762
  0
VERTEX
  8
0
 62
7
 10
38.38412206
 20
8.97904229
  0
VERTEX
  8
0
 62
7
 10
38.37643387
 20
8.99991678
  0
VERTEX
  8
0
 62
7
 10
38.37240046
 20
9.02118638
  0
VERTEX
  8
0
 62
7
 10
38.37212059
 20
9.04245597
  0
VERTEX
  8
0
 62
7
 10
38.37569304
 20
9.06333046
  0
VERTEX
  8
0
 62
7
 10
38.38180079
 20
9.07845953
  0
VERTEX
  8
0
 62
7
 10
38.39057553
 20
9.09190942
  0
VERTEX
  8
0
 62
7
 10
38.40191848
 20
9.10318626
  0
VERTEX
  8
0
 62
7
 10
38.41573088
 20
9.11179616
  0
VERTEX
  8
0
 62
7
 10
38.43058044
 20
9.11727819
  0
VERTEX
  8
0
 62
7
 10
38.44523244
 20
9.11930308
  0
VERTEX
  8
0
 62
7
 10
38.45988444
 20
9.11757451
  0
VERTEX
  8
0
 62
7
 10
38.47473400
 20
9.11179616
  0
VERTEX
  8
0
 62
7
 10
38.48879334
 20
9.10290640
  0
VERTEX
  8
0
 62
7
 10
38.50107468
 20
9.09125092
  0
VERTEX
  8
0
 62
7
 10
38.51177559
 20
9.07801504
  0
VERTEX
  8
0
 62
7
 10
38.52109360
 20
9.06438407
  0
VERTEX
  8
0
 62
7
 10
38.54861961
 20
9.01249416
  0
VERTEX
  8
0
 62
7
 10
38.57061408
 20
8.96534546
  0
VERTEX
  8
0
 62
7
 10
38.62448077
 20
8.84615672
  0
VERTEX
  8
0
 62
7
 10
38.67281592
 20
8.72617777
  0
VERTEX
  8
0
 62
7
 10
38.70322295
 20
8.64243286
  0
VERTEX
  8
0
 62
7
 10
38.73037031
 20
8.55957693
  0
VERTEX
  8
0
 62
7
 10
38.75534457
 20
8.47652345
  0
VERTEX
  8
0
 62
7
 10
38.77923228
 20
8.39218589
  0
VERTEX
  8
0
 62
7
 10
38.80256024
 20
8.29617639
  0
VERTEX
  8
0
 62
7
 10
38.82361632
 20
8.19858649
  0
VERTEX
  8
0
 62
7
 10
38.84249930
 20
8.10060149
  0
VERTEX
  8
0
 62
7
 10
38.85930795
 20
8.00340669
  0
VERTEX
  8
0
 62
7
 10
38.86780282
 20
7.93930158
  0
VERTEX
  8
0
 62
7
 10
38.87432213
 20
7.87144302
  0
VERTEX
  8
0
 62
7
 10
38.87886590
 20
7.80397955
  0
VERTEX
  8
0
 62
7
 10
38.88143412
 20
7.74105975
  0
VERTEX
  8
0
 62
7
 10
38.88261945
 20
7.63556783
  0
VERTEX
  8
0
 62
7
 10
38.88143412
 20
7.53797793
  0
VERTEX
  8
0
 62
7
 10
38.87787813
 20
7.43999293
  0
VERTEX
  8
0
 62
7
 10
38.87195147
 20
7.33331571
  0
VERTEX
  8
0
 62
7
 10
38.84771805
 20
7.33647652
  0
VERTEX
  8
0
 62
7
 10
38.84626931
 20
7.46066987
  0
VERTEX
  8
0
 62
7
 10
38.84244991
 20
7.58407303
  0
VERTEX
  8
0
 62
7
 10
38.83594705
 20
7.68600904
  0
VERTEX
  8
0
 62
7
 10
38.82835765
 20
7.78794505
  0
VERTEX
  8
0
 62
7
 10
38.81859513
 20
7.88988105
  0
VERTEX
  8
0
 62
7
 10
38.80557296
 20
7.99181706
  0
VERTEX
  8
0
 62
7
 10
38.79121728
 20
8.08013856
  0
VERTEX
  8
0
 62
7
 10
38.77528117
 20
8.16816373
  0
VERTEX
  8
0
 62
7
 10
38.75578907
 20
8.25599134
  0
VERTEX
  8
0
 62
7
 10
38.73076542
 20
8.34372019
  0
VERTEX
  8
0
 62
7
 10
38.70901790
 20
8.41019590
  0
VERTEX
  8
0
 62
7
 10
38.68559115
 20
8.47647406
  0
VERTEX
  8
0
 62
7
 10
38.65920108
 20
8.54196202
  0
VERTEX
  8
0
 62
7
 10
38.62856358
 20
8.60606713
  0
VERTEX
  8
0
 62
7
 10
38.58882208
 20
8.67392569
  0
VERTEX
  8
0
 62
7
 10
38.54453681
 20
8.73882100
  0
VERTEX
  8
0
 62
7
 10
38.49669555
 20
8.80134570
  0
VERTEX
  8
0
 62
7
 10
38.44628607
 20
8.86209245
  0
VERTEX
  8
0
 62
7
 10
38.39841188
 20
8.91444331
  0
VERTEX
  8
0
 62
7
 10
38.34698170
 20
8.96481866
  0
VERTEX
  8
0
 62
7
 10
38.29278575
 20
9.01203321
  0
VERTEX
  8
0
 62
7
 10
38.23661425
 20
9.05490165
  0
VERTEX
  8
0
 62
7
 10
38.18057445
 20
9.09462574
  0
VERTEX
  8
0
 62
7
 10
38.12492976
 20
9.13010250
  0
VERTEX
  8
0
 62
7
 10
38.06770463
 20
9.16143070
  0
VERTEX
  8
0
 62
7
 10
38.00692351
 20
9.18870912
  0
VERTEX
  8
0
 62
7
 10
37.93213244
 20
9.21578999
  0
VERTEX
  8
0
 62
7
 10
37.86455213
 20
9.23467252
  0
VERTEX
  8
0
 62
7
 10
37.80230580
 20
9.24664078
  0
VERTEX
  8
0
 62
7
 10
37.74351670
 20
9.25297885
  0
VERTEX
  8
0
 62
7
 10
37.71260344
 20
9.25413946
  0
VERTEX
  8
0
 62
7
 10
37.68230754
 20
9.25297885
  0
VERTEX
  8
0
 62
7
 10
37.65265369
 20
9.24964519
  0
VERTEX
  8
0
 62
7
 10
37.62366660
 20
9.24428664
  0
VERTEX
  8
0
 62
7
 10
37.59537094
 20
9.23705135
  0
VERTEX
  8
0
 62
7
 10
37.56779143
 20
9.22808750
  0
VERTEX
  8
0
 62
7
 10
37.54095274
 20
9.21754325
  0
VERTEX
  8
0
 62
7
 10
37.51487959
 20
9.20556676
  0
VERTEX
  8
0
 62
7
 10
37.47810141
 20
9.18227227
  0
VERTEX
  8
0
 62
7
 10
37.44507678
 20
9.15433535
  0
VERTEX
  8
0
 62
7
 10
37.41560814
 20
9.12304007
  0
VERTEX
  8
0
 62
7
 10
37.38949794
 20
9.08967052
  0
VERTEX
  8
0
 62
7
 10
37.36144512
 20
9.04709841
  0
VERTEX
  8
0
 62
7
 10
37.33892384
 20
9.00353854
  0
VERTEX
  8
0
 62
7
 10
37.32193410
 20
8.95721297
  0
VERTEX
  8
0
 62
7
 10
37.31047590
 20
8.90634374
  0
VERTEX
  8
0
 62
7
 10
37.30428584
 20
8.85231371
  0
VERTEX
  8
0
 62
7
 10
37.30362732
 20
8.79492531
  0
VERTEX
  8
0
 62
7
 10
37.30691991
 20
8.73714182
  0
VERTEX
  8
0
 62
7
 10
37.31258316
 20
8.68192648
  0
VERTEX
  8
0
 62
7
 10
37.31788010
 20
8.64850342
  0
VERTEX
  8
0
 62
7
 10
37.32512790
 20
8.61683362
  0
VERTEX
  8
0
 62
7
 10
37.33440065
 20
8.58669484
  0
VERTEX
  8
0
 62
7
 10
37.34577241
 20
8.55786483
  0
VERTEX
  8
0
 62
7
 10
37.35931729
 20
8.53012134
  0
VERTEX
  8
0
 62
7
 10
37.37510935
 20
8.50324214
  0
VERTEX
  8
0
 62
7
 10
37.39322268
 20
8.47700498
  0
VERTEX
  8
0
 62
7
 10
37.41373137
 20
8.45118761
  0
VERTEX
  8
0
 62
7
 10
37.44669015
 20
8.41690232
  0
VERTEX
  8
0
 62
7
 10
37.48280981
 20
8.38690141
  0
VERTEX
  8
0
 62
7
 10
37.52159646
 20
8.36141947
  0
VERTEX
  8
0
 62
7
 10
37.56255622
 20
8.34069108
  0
VERTEX
  8
0
 62
7
 10
37.60519520
 20
8.32495084
  0
VERTEX
  8
0
 62
7
 10
37.64901950
 20
8.31443334
  0
VERTEX
  8
0
 62
7
 10
37.69353525
 20
8.30937317
  0
VERTEX
  8
0
 62
7
 10
37.73824856
 20
8.31000492
  0
VERTEX
  8
0
 62
7
 10
37.75001955
 20
8.33148852
  0
VERTEX
  8
0
 62
7
 10
37.76445754
 20
8.35149050
  0
VERTEX
  8
0
 62
7
 10
37.78106863
 20
8.36971453
  0
VERTEX
  8
0
 62
7
 10
37.79935894
 20
8.38586427
  0
VERTEX
  8
0
 62
7
 10
37.82535390
 20
8.40346272
  0
VERTEX
  8
0
 62
7
 10
37.85401585
 20
8.41602364
  0
VERTEX
  8
0
 62
7
 10
37.88485091
 20
8.42483109
  0
VERTEX
  8
0
 62
7
 10
37.91736519
 20
8.43116917
  0
VERTEX
  8
0
 62
7
 10
37.96354370
 20
8.43335868
  0
VERTEX
  8
0
 62
7
 10
38.01021609
 20
8.42814006
  0
VERTEX
  8
0
 62
7
 10
38.05708604
 20
8.41679737
  0
VERTEX
  8
0
 62
7
 10
38.10385721
 20
8.40061470
  0
VERTEX
  8
0
 62
7
 10
38.14461942
 20
8.38196265
  0
VERTEX
  8
0
 62
7
 10
38.18340607
 20
8.35965592
  0
VERTEX
  8
0
 62
7
 10
38.22061228
 20
8.33438593
  0
VERTEX
  8
0
 62
7
 10
38.25663316
 20
8.30684411
  0
VERTEX
  8
0
 62
7
 10
38.29538689
 20
8.27164721
  0
VERTEX
  8
0
 62
7
 10
38.33117729
 20
8.23309196
  0
VERTEX
  8
0
 62
7
 10
38.36420192
 20
8.19216610
  0
VERTEX
  8
0
 62
7
 10
38.39465833
 20
8.14985739
  0
VERTEX
  8
0
 62
7
 10
38.43342852
 20
8.09050995
  0
VERTEX
  8
0
 62
7
 10
38.46775372
 20
8.02829804
  0
VERTEX
  8
0
 62
7
 10
38.49793026
 20
7.96391307
  0
VERTEX
  8
0
 62
7
 10
38.52425448
 20
7.89804647
  0
VERTEX
  8
0
 62
7
 10
38.54649590
 20
7.82920016
  0
VERTEX
  8
0
 62
7
 10
38.56468743
 20
7.75897099
  0
VERTEX
  8
0
 62
7
 10
38.57952052
 20
7.68795162
  0
VERTEX
  8
0
 62
7
 10
38.59168663
 20
7.61673469
  0
VERTEX
  8
0
 62
7
 10
38.60670081
 20
7.48806353
  0
VERTEX
  8
0
 62
7
 10
38.61697368
 20
7.35860216
  0
VERTEX
  8
0
 62
7
 10
38.61985469
 20
7.28786266
  0
VERTEX
  8
0
 62
7
 10
38.62105649
 20
7.21781457
  0
VERTEX
  8
0
 62
7
 10
38.61889984
 20
7.14835914
  0
VERTEX
  8
0
 62
7
 10
38.61170554
 20
7.07939759
  0
VERTEX
  8
0
 62
7
 10
38.59744865
 20
6.98814577
  0
VERTEX
  8
0
 62
7
 10
38.57904310
 20
6.89699272
  0
VERTEX
  8
0
 62
7
 10
38.55510601
 20
6.80722252
  0
VERTEX
  8
0
 62
7
 10
38.52425448
 20
6.72011925
  0
VERTEX
  8
0
 62
7
 10
38.51161096
 20
6.72644087
  0
VERTEX
  8
0
 62
7
 10
38.53452735
 20
6.82653307
  0
VERTEX
  8
0
 62
7
 10
38.55270242
 20
6.92978608
  0
VERTEX
  8
0
 62
7
 10
38.55991318
 20
6.99795744
  0
VERTEX
  8
0
 62
7
 10
38.56534595
 20
7.06662266
  0
VERTEX
  8
0
 62
7
 10
38.56840805
 20
7.13588054
  0
VERTEX
  8
0
 62
7
 10
38.56850683
 20
7.20582985
  0
VERTEX
  8
0
 62
7
 10
38.56554350
 20
7.27554868
  0
VERTEX
  8
0
 62
7
 10
38.55981440
 20
7.34556384
  0
VERTEX
  8
0
 62
7
 10
38.55131953
 20
7.41577654
  0
VERTEX
  8
0
 62
7
 10
38.54005889
 20
7.48608803
  0
VERTEX
  8
0
 62
7
 10
38.53072030
 20
7.53041340
  0
VERTEX
  8
0
 62
7
 10
38.52066556
 20
7.57478816
  0
VERTEX
  8
0
 62
7
 10
38.50957367
 20
7.61906414
  0
VERTEX
  8
0
 62
7
 10
38.49712358
 20
7.66309319
  0
VERTEX
  8
0
 62
7
 10
38.48299428
 20
7.70672713
  0
VERTEX
  8
0
 62
7
 10
38.46686472
 20
7.74981782
  0
VERTEX
  8
0
 62
7
 10
38.44841390
 20
7.79221707
  0
VERTEX
  8
0
 62
7
 10
38.42732078
 20
7.83377674
  0
VERTEX
  8
0
 62
7
 10
38.39258400
 20
7.89700933
  0
VERTEX
  8
0
 62
7
 10
38.35488390
 20
7.95797009
  0
VERTEX
  8
0
 62
7
 10
38.31204737
 20
8.01557250
  0
VERTEX
  8
0
 62
7
 10
38.26190130
 20
8.06873002
  0
VERTEX
  8
0
 62
7
 10
38.22616029
 20
8.10233005
  0
VERTEX
  8
0
 62
7
 10
38.18854250
 20
8.13365826
  0
VERTEX
  8
0
 62
7
 10
38.14914672
 20
8.16281340
  0
VERTEX
  8
0
 62
7
 10
38.10807172
 20
8.18989427
  0
VERTEX
  8
0
 62
7
 10
38.05972011
 20
8.21626725
  0
VERTEX
  8
0
 62
7
 10
38.00889906
 20
8.23967697
  0
VERTEX
  8
0
 62
7
 10
37.95709023
 20
8.25953079
  0
VERTEX
  8
0
 62
7
 10
37.90577529
 20
8.27523605
  0
VERTEX
  8
0
 62
7
 10
37.86407470
 20
8.28330269
  0
VERTEX
  8
0
 62
7
 10
37.82267044
 20
8.28761587
  0
VERTEX
  8
0
 62
7
 10
37.78146374
 20
8.28916335
  0
VERTEX
  8
0
 62
7
 10
37.74035582
 20
8.28893287
  0
VERTEX
  8
0
 62
7
 10
37.70947548
 20
8.28696354
  0
VERTEX
  8
0
 62
7
 10
37.67861984
 20
8.28404350
  0
VERTEX
  8
0
 62
7
 10
37.64801115
 20
8.27991346
  0
VERTEX
  8
0
 62
7
 10
37.61787165
 20
8.27431414
  0
VERTEX
  8
0
 62
7
 10
37.58842359
 20
8.26698626
  0
VERTEX
  8
0
 62
7
 10
37.55988922
 20
8.25767052
  0
VERTEX
  8
0
 62
7
 10
37.53249080
 20
8.24610765
  0
VERTEX
  8
0
 62
7
 10
37.50645057
 20
8.23203836
  0
VERTEX
  8
0
 62
7
 10
37.46698893
 20
8.20602755
  0
VERTEX
  8
0
 62
7
 10
37.43098452
 20
8.17567064
  0
VERTEX
  8
0
 62
7
 10
37.39873365
 20
8.14136272
  0
VERTEX
  8
0
 62
7
 10
37.37053265
 20
8.10349889
  0
VERTEX
  8
0
 62
7
 10
37.34443892
 20
8.05328817
  0
VERTEX
  8
0
 62
7
 10
37.32535839
 20
7.99971908
  0
VERTEX
  8
0
 62
7
 10
37.31200695
 20
7.94377939
  0
VERTEX
  8
0
 62
7
 10
37.30310051
 20
7.88645685
  0
VERTEX
  8
0
 62
7
 10
37.30015365
 20
7.81703434
  0
VERTEX
  8
0
 62
7
 10
37.30402243
 20
7.74672286
  0
VERTEX
  8
0
 62
7
 10
37.31480565
 20
7.67621383
  0
VERTEX
  8
0
 62
7
 10
37.33260207
 20
7.60619867
  0
VERTEX
  8
0
 62
7
 10
37.35439899
 20
7.53973942
  0
VERTEX
  8
0
 62
7
 10
37.38212255
 20
7.47515690
  0
VERTEX
  8
0
 62
7
 10
37.41616788
 20
7.41314254
  0
VERTEX
  8
0
 62
7
 10
37.45693009
 20
7.35438776
  0
VERTEX
  8
0
 62
7
 10
37.50836027
 20
7.29561651
  0
VERTEX
  8
0
 62
7
 10
37.56571710
 20
7.24296933
  0
VERTEX
  8
0
 62
7
 10
37.62821037
 20
7.19703886
  0
VERTEX
  8
0
 62
7
 10
37.69504984
 20
7.15841775
  0
VERTEX
  8
0
 62
7
 10
37.70295205
 20
7.18526815
  0
VERTEX
  8
0
 62
7
 10
37.71401513
 20
7.21043936
  0
VERTEX
  8
0
 62
7
 10
37.72823910
 20
7.23383262
  0
VERTEX
  8
0
 62
7
 10
37.74562395
 20
7.25534915
  0
VERTEX
  8
0
 62
7
 10
37.76669650
 20
7.27571331
  0
VERTEX
  8
0
 62
7
 10
37.79013970
 20
7.29262033
  0
VERTEX
  8
0
 62
7
 10
37.81555846
 20
7.30616899
  0
VERTEX
  8
0
 62
7
 10
37.84255766
 20
7.31645808
  0
VERTEX
  8
0
 62
7
 10
37.88313877
 20
7.32491982
  0
VERTEX
  8
0
 62
7
 10
37.92539910
 20
7.32567710
  0
VERTEX
  8
0
 62
7
 10
37.96864721
 20
7.31971766
  0
VERTEX
  8
0
 62
7
 10
38.01219164
 20
7.30802926
  0
VERTEX
  8
0
 62
7
 10
38.04538090
 20
7.29347638
  0
VERTEX
  8
0
 62
7
 10
38.07698972
 20
7.27536759
  0
VERTEX
  8
0
 62
7
 10
38.10701810
 20
7.25409800
  0
VERTEX
  8
0
 62
7
 10
38.13546603
 20
7.23006270
  0
VERTEX
  8
0
 62
7
 10
38.16425969
 20
7.20105572
  0
VERTEX
  8
0
 62
7
 10
38.19038635
 20
7.16948058
  0
VERTEX
  8
0
 62
7
 10
38.21354969
 20
7.13553483
  0
VERTEX
  8
0
 62
7
 10
38.23345336
 20
7.09941603
  0
VERTEX
  8
0
 62
7
 10
38.25022909
 20
7.06158513
  0
VERTEX
  8
0
 62
7
 10
38.26255982
 20
7.02276647
  0
VERTEX
  8
0
 62
7
 10
38.27271744
 20
6.98355272
  0
VERTEX
  8
0
 62
7
 10
38.28297384
 20
6.94453651
  0
VERTEX
  8
0
 62
7
 10
38.29179797
 20
6.89712442
  0
VERTEX
  8
0
 62
7
 10
38.29904166
 20
6.84971232
  0
VERTEX
  8
0
 62
7
 10
38.30430980
 20
6.80230022
  0
VERTEX
  8
0
 62
7
 10
38.30720727
 20
6.75488812
  0
VERTEX
  8
0
 62
7
 10
38.30562683
 20
6.69758204
  0
VERTEX
  8
0
 62
7
 10
38.30009529
 20
6.64096739
  0
VERTEX
  8
0
 62
7
 10
38.29179797
 20
6.58494539
  0
VERTEX
  8
0
 62
7
 10
38.28192022
 20
6.52941726
  0
VERTEX
  8
0
 62
7
 10
38.26995167
 20
6.47071187
  0
VERTEX
  8
0
 62
7
 10
38.25492102
 20
6.41299422
  0
VERTEX
  8
0
 62
7
 10
38.23732215
 20
6.35606678
  0
VERTEX
  8
0
 62
7
 10
38.21764896
 20
6.29973199
  0
VERTEX
  8
0
 62
7
 10
38.18050860
 20
6.21623402
  0
VERTEX
  8
0
 62
7
 10
38.13862691
 20
6.13431645
  0
VERTEX
  8
0
 62
7
 10
38.10688639
 20
6.07327337
  0
VERTEX
  8
0
 62
7
 10
38.07435565
 20
6.01341560
  0
VERTEX
  8
0
 62
7
 10
38.04024447
 20
5.95474313
  0
VERTEX
  8
0
 62
7
 10
38.00376263
 20
5.89725596
  0
VERTEX
  8
0
 62
7
 10
37.96276994
 20
5.83685493
  0
VERTEX
  8
0
 62
7
 10
37.91920904
 20
5.77833062
  0
VERTEX
  8
0
 62
7
 10
37.87367259
 20
5.72079406
  0
VERTEX
  8
0
 62
7
 10
37.82675325
 20
5.66335628
  0
VERTEX
  8
0
 62
7
 10
37.76537946
 20
5.58827067
  0
VERTEX
  8
0
 62
7
 10
37.70163501
 20
5.51466668
  0
VERTEX
  8
0
 62
7
 10
37.63591501
 20
5.44244554
  0
VERTEX
  8
0
 62
7
 10
37.56861457
 20
5.37150848
  0
VERTEX
  8
0
 62
7
 10
37.40214147
 20
5.19871773
  0
VERTEX
  8
0
 62
7
 10
37.25647750
 20
5.06491025
  0
VERTEX
  8
0
 62
7
 10
37.10291133
 20
4.93742439
  0
VERTEX
  8
0
 62
7
 10
37.08289242
 20
4.95955004
  0
VERTEX
  8
0
 62
7
 10
37.23988288
 20
5.10073273
  0
VERTEX
  8
0
 62
7
 10
37.47062724
 20
5.32620359
  0
VERTEX
  8
0
 62
7
 10
37.57256568
 20
5.43090530
  0
VERTEX
  8
0
 62
7
 10
37.66976279
 20
5.53797762
  0
VERTEX
  8
0
 62
7
 10
37.77038419
 20
5.65874677
  0
VERTEX
  8
0
 62
7
 10
37.86468383
 20
5.78346693
  0
VERTEX
  8
0
 62
7
 10
37.91395737
 20
5.84870795
  0
VERTEX
  8
0
 62
7
 10
37.96253946
 20
5.91424530
  0
VERTEX
  8
0
 62
7
 10
38.00855334
 20
5.98156060
  0
VERTEX
  8
0
 62
7
 10
38.05012222
 20
6.05213548
  0
VERTEX
  8
0
 62
7
 10
38.07838907
 20
6.10642892
  0
VERTEX
  8
0
 62
7
 10
38.10477914
 20
6.16408071
  0
VERTEX
  8
0
 62
7
 10
38.12939121
 20
6.22133740
  0
VERTEX
  8
0
 62
7
 10
38.15232407
 20
6.27444554
  0
VERTEX
  8
0
 62
7
 10
38.16832603
 20
6.31820295
  0
VERTEX
  8
0
 62
7
 10
38.18156222
 20
6.36610893
  0
VERTEX
  8
0
 62
7
 10
38.19203264
 20
6.41638550
  0
VERTEX
  8
0
 62
7
 10
38.19973729
 20
6.46725473
  0
VERTEX
  8
0
 62
7
 10
38.20459386
 20
6.52400109
  0
VERTEX
  8
0
 62
7
 10
38.20698098
 20
6.58064867
  0
VERTEX
  8
0
 62
7
 10
38.20521945
 20
6.63749380
  0
VERTEX
  8
0
 62
7
 10
38.19763004
 20
6.69483280
  0
VERTEX
  8
0
 62
7
 10
38.18523345
 20
6.75060787
  0
VERTEX
  8
0
 62
7
 10
38.16799677
 20
6.80440743
  0
VERTEX
  8
0
 62
7
 10
38.14503099
 20
6.85662658
  0
VERTEX
  8
0
 62
7
 10
38.11544711
 20
6.90766044
  0
VERTEX
  8
0
 62
7
 10
38.07899820
 20
6.95408478
  0
VERTEX
  8
0
 62
7
 10
38.03800551
 20
6.99537282
  0
VERTEX
  8
0
 62
7
 10
37.99306172
 20
7.03152454
  0
VERTEX
  8
0
 62
7
 10
37.94475950
 20
7.06253996
  0
VERTEX
  8
0
 62
7
 10
37.90551189
 20
7.08101092
  0
VERTEX
  8
0
 62
7
 10
37.86547405
 20
7.09572842
  0
VERTEX
  8
0
 62
7
 10
37.82504110
 20
7.10728512
  0
VERTEX
  8
0
 62
7
 10
37.78460816
 20
7.11627367
  0
VERTEX
  8
0
 62
7
 10
37.74271001
 20
7.12275990
  0
VERTEX
  8
0
 62
7
 10
37.70229353
 20
7.12470248
  0
VERTEX
  8
0
 62
7
 10
37.66088927
 20
7.12190385
  0
VERTEX
  8
0
 62
7
 10
37.61602780
 20
7.11416646
  0
VERTEX
  8
0
 62
7
 10
37.55565825
 20
7.09684788
  0
VERTEX
  8
0
 62
7
 10
37.50684568
 20
7.07518318
  0
VERTEX
  8
0
 62
7
 10
37.46652797
 20
7.04956748
  0
VERTEX
  8
0
 62
7
 10
37.43164303
 20
7.02039587
  0
VERTEX
  8
0
 62
7
 10
37.39937570
 20
6.98603856
  0
VERTEX
  8
0
 62
7
 10
37.36868881
 20
6.94624862
  0
VERTEX
  8
0
 62
7
 10
37.34155790
 20
6.90112481
  0
VERTEX
  8
0
 62
7
 10
37.31995855
 20
6.85076592
  0
VERTEX
  8
0
 62
7
 10
37.30132251
 20
6.78519565
  0
VERTEX
  8
0
 62
7
 10
37.29177402
 20
6.72288496
  0
VERTEX
  8
0
 62
7
 10
37.28973261
 20
6.66156202
  0
VERTEX
  8
0
 62
7
 10
37.29361786
 20
6.59895500
  0
VERTEX
  8
0
 62
7
 10
37.30021744
 20
6.55053663
  0
VERTEX
  8
0
 62
7
 10
37.31045944
 20
6.50259979
  0
VERTEX
  8
0
 62
7
 10
37.32423273
 20
6.45532969
  0
VERTEX
  8
0
 62
7
 10
37.34142620
 20
6.40891151
  0
VERTEX
  8
0
 62
7
 10
37.36192872
 20
6.36353048
  0
VERTEX
  8
0
 62
7
 10
37.38562916
 20
6.31937179
  0
VERTEX
  8
0
 62
7
 10
37.41241639
 20
6.27662065
  0
VERTEX
  8
0
 62
7
 10
37.44217931
 20
6.23546226
  0
VERTEX
  8
0
 62
7
 10
37.47168087
 20
6.27747464
  0
VERTEX
  8
0
 62
7
 10
37.50750419
 20
6.31553602
  0
VERTEX
  8
0
 62
7
 10
37.52373664
 20
6.32692810
  0
VERTEX
  8
0
 62
7
 10
37.54095686
 20
6.33713487
  0
VERTEX
  8
0
 62
7
 10
37.55936241
 20
6.34576123
  0
VERTEX
  8
0
 62
7
 10
37.57915085
 20
6.35241210
  0
VERTEX
  8
0
 62
7
 10
37.60267637
 20
6.35585277
  0
VERTEX
  8
0
 62
7
 10
37.62590556
 20
6.35465100
  0
VERTEX
  8
0
 62
7
 10
37.64893719
 20
6.34811538
  0
VERTEX
  8
0
 62
7
 10
37.67187004
 20
6.33555446
  0
VERTEX
  8
0
 62
7
 10
37.69584006
 20
6.31105821
  0
VERTEX
  8
0
 62
7
 10
37.71190788
 20
6.28182075
  0
VERTEX
  8
0
 62
7
 10
37.72280634
 20
6.24291979
  0
VERTEX
  8
0
 62
7
 10
37.72876592
 20
6.20372249
  0
VERTEX
  8
0
 62
7
 10
37.72998417
 20
6.16432765
  0
VERTEX
  8
0
 62
7
 10
37.72665866
 20
6.12483403
  0
VERTEX
  8
0
 62
7
 10
37.71906925
 20
6.08757932
  0
VERTEX
  8
0
 62
7
 10
37.70703485
 20
6.05279398
  0
VERTEX
  8
0
 62
7
 10
37.69243224
 20
6.01978660
  0
VERTEX
  8
0
 62
7
 10
37.67713818
 20
5.98786575
  0
VERTEX
  8
0
 62
7
 10
37.64515072
 20
5.92563737
  0
VERTEX
  8
0
 62
7
 10
37.61089137
 20
5.86617470
  0
VERTEX
  8
0
 62
7
 10
37.57445891
 20
5.80829243
  0
VERTEX
  8
0
 62
7
 10
37.53595213
 20
5.75080526
  0
VERTEX
  8
0
 62
7
 10
37.46153971
 20
5.64241594
  0
VERTEX
  8
0
 62
7
 10
37.38001530
 20
5.53797762
  0
VERTEX
  8
0
 62
7
 10
37.30099326
 20
5.44223153
  0
VERTEX
  8
0
 62
7
 10
37.21564945
 20
5.35043644
  0
VERTEX
  8
0
 62
7
 10
37.12635454
 20
5.26206556
  0
VERTEX
  8
0
 62
7
 10
37.03231831
 20
5.17764568
  0
VERTEX
  8
0
 62
7
 10
36.91298062
 20
5.07929439
  0
VERTEX
  8
0
 62
7
 10
36.79059317
 20
4.98486941
  0
VERTEX
  8
0
 62
7
 10
36.66536587
 20
4.89424728
  0
VERTEX
  8
0
 62
7
 10
36.53750862
 20
4.80730452
  0
VERTEX
  8
0
 62
7
 10
36.40723131
 20
4.72391767
  0
VERTEX
  8
0
 62
7
 10
36.27474386
 20
4.64396326
  0
VERTEX
  8
0
 62
7
 10
36.14025616
 20
4.56731782
  0
VERTEX
  8
0
 62
7
 10
36.00397812
 20
4.49385788
  0
VERTEX
  8
0
 62
7
 10
35.75216121
 20
4.37164003
  0
VERTEX
  8
0
 62
7
 10
35.38233805
 20
4.20201008
  0
VERTEX
  8
0
 62
7
 10
35.05887449
 20
4.05766658
  0
VERTEX
  8
0
 62
7
 10
34.86477659
 20
3.97565024
  0
VERTEX
  8
0
 62
7
 10
34.66850559
 20
3.89699225
  0
VERTEX
  8
0
 62
7
 10
34.47065415
 20
3.82149507
  0
VERTEX
  8
0
 62
7
 10
34.27181494
 20
3.74896115
  0
VERTEX
  8
0
 62
7
 10
34.00103274
 20
3.65980007
  0
VERTEX
  8
0
 62
7
 10
33.73025053
 20
3.57300959
  0
VERTEX
  8
0
 62
7
 10
33.31617503
 20
3.44763093
  0
VERTEX
  8
0
 62
7
 10
32.93054746
 20
3.34437792
  0
VERTEX
  8
0
 62
7
 10
32.55440253
 20
3.24744652
  0
VERTEX
  8
0
 62
7
 10
32.28979393
 20
3.18148526
  0
VERTEX
  8
0
 62
7
 10
32.02390122
 20
3.12177154
  0
VERTEX
  8
0
 62
7
 10
31.75682317
 20
3.06813249
  0
VERTEX
  8
0
 62
7
 10
31.48865858
 20
3.02039525
  0
VERTEX
  8
0
 62
7
 10
31.21950621
 20
2.97838698
  0
VERTEX
  8
0
 62
7
 10
30.94946484
 20
2.94193482
  0
VERTEX
  8
0
 62
7
 10
30.67863325
 20
2.91086590
  0
VERTEX
  8
0
 62
7
 10
30.40711022
 20
2.88500738
  0
VERTEX
  8
0
 62
7
 10
30.16517106
 20
2.86828144
  0
VERTEX
  8
0
 62
7
 10
29.92244168
 20
2.85550652
  0
VERTEX
  8
0
 62
7
 10
29.78397202
 20
2.84948123
  0
VERTEX
  8
0
 62
7
 10
29.64520602
 20
2.84444369
  0
VERTEX
  8
0
 62
7
 10
29.50624246
 20
2.84098656
  0
VERTEX
  8
0
 62
7
 10
29.36718013
 20
2.83970248
  0
VERTEX
  8
0
 62
7
 10
29.20673245
 20
2.83917568
  0
VERTEX
  8
0
 62
7
 10
29.04608723
 20
2.84101949
  0
VERTEX
  8
0
 62
7
 10
28.88504689
 20
2.84562900
  0
VERTEX
  8
0
 62
7
 10
28.72341388
 20
2.85339931
  0
VERTEX
  8
0
 62
7
 10
28.55544265
 20
2.86360608
  0
VERTEX
  8
0
 62
7
 10
28.38796531
 20
2.87657856
  0
VERTEX
  8
0
 62
7
 10
28.22068552
 20
2.89192164
  0
VERTEX
  8
0
 62
7
 10
28.05330696
 20
2.90924023
  0
VERTEX
  8
0
 62
7
 10
27.83505795
 20
2.93426328
  0
VERTEX
  8
0
 62
7
 10
27.61671017
 20
2.96165693
  0
VERTEX
  8
0
 62
7
 10
27.39855994
 20
2.99339670
  0
VERTEX
  8
0
 62
7
 10
27.18090360
 20
3.03145808
  0
VERTEX
  8
0
 62
7
 10
26.92292956
 20
3.08417111
  0
VERTEX
  8
0
 62
7
 10
26.66594329
 20
3.14419351
  0
VERTEX
  8
0
 62
7
 10
26.41014235
 20
3.21132772
  0
VERTEX
  8
0
 62
7
 10
26.15572430
 20
3.28537620
  0
VERTEX
  8
0
 62
7
 10
26.02802138
 20
3.32480397
  0
VERTEX
  8
0
 62
7
 10
25.89982458
 20
3.36610846
  0
VERTEX
  8
0
 62
7
 10
25.77182533
 20
3.40998112
  0
VERTEX
  8
0
 62
7
 10
25.64471508
 20
3.45711335
  0
VERTEX
  8
0
 62
7
 10
25.48212723
 20
3.52130077
  0
VERTEX
  8
0
 62
7
 10
25.32151493
 20
3.59052573
  0
VERTEX
  8
0
 62
7
 10
25.16287818
 20
3.66468944
  0
VERTEX
  8
0
 62
7
 10
25.00621698
 20
3.74369314
  0
VERTEX
  8
0
 62
7
 10
24.92095548
 20
3.78904742
  0
VERTEX
  8
0
 62
7
 10
24.83618788
 20
3.83548823
  0
VERTEX
  8
0
 62
7
 10
24.75240805
 20
3.88370699
  0
VERTEX
  8
0
 62
7
 10
24.67010989
 20
3.93439513
  0
VERTEX
  8
0
 62
7
 10
24.59067627
 20
3.98676245
  0
VERTEX
  8
0
 62
7
 10
24.51351454
 20
4.04120405
  0
VERTEX
  8
0
 62
7
 10
24.43852591
 20
4.09781870
  0
VERTEX
  8
0
 62
7
 10
24.36561161
 20
4.15670519
  0
VERTEX
  8
0
 62
7
 10
24.29483750
 20
4.21715561
  0
VERTEX
  8
0
 62
7
 10
24.22613771
 20
4.27997664
  0
VERTEX
  8
0
 62
7
 10
24.15921591
 20
4.34516828
  0
VERTEX
  8
0
 62
7
 10
24.09377579
 20
4.41273051
  0
VERTEX
  8
0
 62
7
 10
24.00887648
 20
4.51170327
  0
VERTEX
  8
0
 62
7
 10
23.92822461
 20
4.61423193
  0
VERTEX
  8
0
 62
7
 10
23.85211650
 20
4.72031650
  0
VERTEX
  8
0
 62
7
 10
23.78084849
 20
4.82995697
  0
VERTEX
  8
0
 62
7
 10
23.73628336
 20
4.90721564
  0
VERTEX
  8
0
 62
7
 10
23.69537298
 20
4.98575839
  0
VERTEX
  8
0
 62
7
 10
23.65742594
 20
5.06568399
  0
VERTEX
  8
0
 62
7
 10
23.62175078
 20
5.14709122
  0
VERTEX
  8
0
 62
7
 10
23.58487383
 20
5.24091120
  0
VERTEX
  8
0
 62
7
 10
23.55194798
 20
5.33581771
  0
VERTEX
  8
0
 62
7
 10
23.52336834
 20
5.43171197
  0
VERTEX
  8
0
 62
7
 10
23.49953002
 20
5.52849521
  0
VERTEX
  8
0
 62
7
 10
23.47384786
 20
5.67599951
  0
VERTEX
  8
0
 62
7
 10
23.45527768
 20
5.82350381
  0
VERTEX
  8
0
 62
7
 10
23.44951565
 20
5.87595344
  0
VERTEX
  8
0
 62
7
 10
23.44553163
 20
5.92543982
  0
VERTEX
  8
0
 62
7
 10
23.44431337
 20
5.97611150
  0
VERTEX
  8
0
 62
7
 10
23.44684866
 20
6.03211704
  0
VERTEX
  8
0
 62
7
 10
23.45243371
 20
6.07469738
  0
VERTEX
  8
0
 62
7
 10
23.46268599
 20
6.11535161
  0
VERTEX
  8
0
 62
7
 10
23.47733388
 20
6.15383278
  0
VERTEX
  8
0
 62
7
 10
23.49610573
 20
6.18989396
  0
VERTEX
  8
0
 62
7
 10
23.51872991
 20
6.22328821
  0
VERTEX
  8
0
 62
7
 10
23.54493477
 20
6.25376859
  0
VERTEX
  8
0
 62
7
 10
23.57444868
 20
6.28108817
  0
VERTEX
  8
0
 62
7
 10
23.60700000
 20
6.30500000
  0
SEQEND
  0
POLYLINE
  8
0
 62
7
 66
1
 70
1
  0
VERTEX
  8
0
 62
7
 10
21.00700000
 20
14.34000000
  0
VERTEX
  8
0
 62
7
 10
19.97482373
 20
14.33653296
  0
VERTEX
  8
0
 62
7
 10
18.94355859
 20
14.32613867
  0
VERTEX
  8
0
 62
7
 10
17.91341260
 20
14.30882739
  0
VERTEX
  8
0
 62
7
 10
16.88459375
 20
14.28460938
  0
VERTEX
  8
0
 62
7
 10
15.85731006
 20
14.25349487
  0
VERTEX
  8
0
 62
7
 10
14.83176953
 20
14.21549414
  0
VERTEX
  8
0
 62
7
 10
13.80818018
 20
14.17061743
  0
VERTEX
  8
0
 62
7
 10
12.78675000
 20
14.11887500
  0
VERTEX
  8
0
 62
7
 10
11.76768701
 20
14.06027710
  0
VERTEX
  8
0
 62
7
 10
10.75119922
 20
13.99483398
  0
VERTEX
  8
0
 62
7
 10
9.73749463
 20
13.92255591
  0
VERTEX
  8
0
 62
7
 10
8.72678125
 20
13.84345313
  0
VERTEX
  8
0
 62
7
 10
7.71926709
 20
13.75753589
  0
VERTEX
  8
0
 62
7
 10
6.71516016
 20
13.66481445
  0
VERTEX
  8
0
 62
7
 10
5.71466846
 20
13.56529907
  0
VERTEX
  8
0
 62
7
 10
4.71800000
 20
13.45900000
  0
VERTEX
  8
0
 62
7
 10
4.64800000
 20
13.45200000
  0
VERTEX
  8
0
 62
7
 10
4.62200000
 20
13.51100000
  0
VERTEX
  8
0
 62
7
 10
4.59821875
 20
13.55981250
  0
VERTEX
  8
0
 62
7
 10
4.57275000
 20
13.60750000
  0
VERTEX
  8
0
 62
7
 10
4.54465625
 20
13.65443750
  0
VERTEX
  8
0
 62
7
 10
4.51300000
 20
13.70100000
  0
VERTEX
  8
0
 62
7
 10
4.48245313
 20
13.74217188
  0
VERTEX
  8
0
 62
7
 10
4.44862500
 20
13.78362500
  0
VERTEX
  8
0
 62
7
 10
4.41048438
 20
13.82376563
  0
VERTEX
  8
0
 62
7
 10
4.36700000
 20
13.86100000
  0
VERTEX
  8
0
 62
7
 10
4.31642188
 20
13.89660938
  0
VERTEX
  8
0
 62
7
 10
4.26237500
 20
13.92687500
  0
VERTEX
  8
0
 62
7
 10
4.20514063
 20
13.95170313
  0
VERTEX
  8
0
 62
7
 10
4.14500000
 20
13.97100000
  0
VERTEX
  8
0
 62
7
 10
4.10468750
 20
13.98050000
  0
VERTEX
  8
0
 62
7
 10
4.06325000
 20
13.98775000
  0
VERTEX
  8
0
 62
7
 10
4.02068750
 20
13.99237500
  0
VERTEX
  8
0
 62
7
 10
3.97700000
 20
13.99400000
  0
VERTEX
  8
0
 62
7
 10
3.94500000
 20
13.99300000
  0
VERTEX
  8
0
 62
7
 10
3.89254688
 20
13.98760938
  0
VERTEX
  8
0
 62
7
 10
3.84037500
 20
13.97762500
  0
VERTEX
  8
0
 62
7
 10
3.78876563
 20
13.96332813
  0
VERTEX
  8
0
 62
7
 10
3.73800000
 20
13.94500000
  0
VERTEX
  8
0
 62
7
 10
3.72452148
 20
13.93825000
  0
VERTEX
  8
0
 62
7
 10
3.71267188
 20
13.92943750
  0
VERTEX
  8
0
 62
7
 10
3.70258008
 20
13.91884375
  0
VERTEX
  8
0
 62
7
 10
3.69437500
 20
13.90675000
  0
VERTEX
  8
0
 62
7
 10
3.68818555
 20
13.89343750
  0
VERTEX
  8
0
 62
7
 10
3.68414063
 20
13.87918750
  0
VERTEX
  8
0
 62
7
 10
3.68236914
 20
13.86428125
  0
VERTEX
  8
0
 62
7
 10
3.68300000
 20
13.84900000
  0
VERTEX
  8
0
 62
7
 10
3.69900000
 20
13.73000000
  0
VERTEX
  8
0
 62
7
 10
3.66441992
 20
13.71993164
  0
VERTEX
  8
0
 62
7
 10
3.63048438
 20
13.70776563
  0
VERTEX
  8
0
 62
7
 10
3.59727539
 20
13.69356055
  0
VERTEX
  8
0
 62
7
 10
3.56487500
 20
13.67737500
  0
VERTEX
  8
0
 62
7
 10
3.53336523
 20
13.65926758
  0
VERTEX
  8
0
 62
7
 10
3.50282813
 20
13.63929688
  0
VERTEX
  8
0
 62
7
 10
3.47334570
 20
13.61752148
  0
VERTEX
  8
0
 62
7
 10
3.44500000
 20
13.59400000
  0
VERTEX
  8
0
 62
7
 10
3.39596875
 20
13.54482813
  0
VERTEX
  8
0
 62
7
 10
3.35275000
 20
13.49087500
  0
VERTEX
  8
0
 62
7
 10
3.31590625
 20
13.43298438
  0
VERTEX
  8
0
 62
7
 10
3.28600000
 20
13.37200000
  0
VERTEX
  8
0
 62
7
 10
3.26600000
 20
13.31767188
  0
VERTEX
  8
0
 62
7
 10
3.25275000
 20
13.26362500
  0
VERTEX
  8
0
 62
7
 10
3.24437500
 20
13.21126563
  0
VERTEX
  8
0
 62
7
 10
3.23900000
 20
13.16200000
  0
VERTEX
  8
0
 62
7
 10
3.23537500
 20
13.11912500
  0
VERTEX
  8
0
 62
7
 10
3.23400000
 20
13.07700000
  0
VERTEX
  8
0
 62
7
 10
3.23545313
 20
13.02789063
  0
VERTEX
  8
0
 62
7
 10
3.23962500
 20
12.97962500
  0
VERTEX
  8
0
 62
7
 10
3.24623438
 20
12.93229688
  0
VERTEX
  8
0
 62
7
 10
3.25500000
 20
12.88600000
  0
VERTEX
  8
0
 62
7
 10
3.26987500
 20
12.82489063
  0
VERTEX
  8
0
 62
7
 10
3.28925000
 20
12.76387500
  0
VERTEX
  8
0
 62
7
 10
3.31350000
 20
12.70417188
  0
VERTEX
  8
0
 62
7
 10
3.34300000
 20
12.64700000
  0
VERTEX
  8
0
 62
7
 10
3.37739063
 20
12.59440625
  0
VERTEX
  8
0
 62
7
 10
3.41637500
 20
12.54500000
  0
VERTEX
  8
0
 62
7
 10
3.46042188
 20
12.49934375
  0
VERTEX
  8
0
 62
7
 10
3.51000000
 20
12.45800000
  0
VERTEX
  8
0
 62
7
 10
3.55000000
 20
12.42800000
  0
VERTEX
  8
0
 62
7
 10
3.50000000
 20
12.37500000
  0
VERTEX
  8
0
 62
7
 10
3.46553125
 20
12.33196875
  0
VERTEX
  8
0
 62
7
 10
3.43575000
 20
12.28575000
  0
VERTEX
  8
0
 62
7
 10
3.41084375
 20
12.23690625
  0
VERTEX
  8
0
 62
7
 10
3.39100000
 20
12.18600000
  0
VERTEX
  8
0
 62
7
 10
3.37903125
 20
12.14440625
  0
VERTEX
  8
0
 62
7
 10
3.37025000
 20
12.10225000
  0
VERTEX
  8
0
 62
7
 10
3.36484375
 20
12.05971875
  0
VERTEX
  8
0
 62
7
 10
3.36300000
 20
12.01700000
  0
VERTEX
  8
0
 62
7
 10
3.36578711
 20
11.99308008
  0
VERTEX
  8
0
 62
7
 10
3.37367188
 20
11.97170313
  0
VERTEX
  8
0
 62
7
 10
3.38593945
 20
11.95306836
  0
VERTEX
  8
0
 62
7
 10
3.40187500
 20
11.93737500
  0
VERTEX
  8
0
 62
7
 10
3.42076367
 20
11.92482227
  0
VERTEX
  8
0
 62
7
 10
3.44189063
 20
11.91560938
  0
VERTEX
  8
0
 62
7
 10
3.46454102
 20
11.90993555
  0
VERTEX
  8
0
 62
7
 10
3.48800000
 20
11.90800000
  0
VERTEX
  8
0
 62
7
 10
3.50840625
 20
11.90654688
  0
VERTEX
  8
0
 62
7
 10
3.52750000
 20
11.90237500
  0
VERTEX
  8
0
 62
7
 10
3.54509375
 20
11.89576563
  0
VERTEX
  8
0
 62
7
 10
3.56100000
 20
11.88700000
  0
VERTEX
  8
0
 62
7
 10
3.57532813
 20
11.87343750
  0
VERTEX
  8
0
 62
7
 10
3.58787500
 20
11.85500000
  0
VERTEX
  8
0
 62
7
 10
3.59798438
 20
11.83131250
  0
VERTEX
  8
0
 62
7
 10
3.60500000
 20
11.80200000
  0
VERTEX
  8
0
 62
7
 10
3.60600000
 20
11.78300000
  0
VERTEX
  8
0
 62
7
 10
3.60200000
 20
11.74200000
  0
VERTEX
  8
0
 62
7
 10
3.59800000
 20
11.71200000
  0
VERTEX
  8
0
 62
7
 10
3.58737500
 20
11.66237500
  0
VERTEX
  8
0
 62
7
 10
3.57000000
 20
11.60300000
  0
VERTEX
  8
0
 62
7
 10
3.57000000
 20
11.60100000
  0
VERTEX
  8
0
 62
7
 10
3.52862500
 20
11.47787500
  0
VERTEX
  8
0
 62
7
 10
3.48200000
 20
11.35100000
  0
VERTEX
  8
0
 62
7
 10
3.43700000
 20
11.23200000
  0
VERTEX
  8
0
 62
7
 10
3.36700000
 20
11.04000000
  0
VERTEX
  8
0
 62
7
 10
3.26600000
 20
10.76400000
  0
VERTEX
  8
0
 62
7
 10
3.16200000
 20
10.45200000
  0
VERTEX
  8
0
 62
7
 10
3.11500000
 20
10.30900000
  0
VERTEX
  8
0
 62
7
 10
3.01700000
 20
10.01000000
  0
VERTEX
  8
0
 62
7
 10
2.96700000
 20
9.85600000
  0
VERTEX
  8
0
 62
7
 10
2.89362500
 20
9.62125000
  0
VERTEX
  8
0
 62
7
 10
2.82700000
 20
9.38500000
  0
VERTEX
  8
0
 62
7
 10
2.82200000
 20
9.36700000
  0
VERTEX
  8
0
 62
7
 10
2.78956250
 20
9.24168750
  0
VERTEX
  8
0
 62
7
 10
2.75825000
 20
9.11375000
  0
VERTEX
  8
0
 62
7
 10
2.73031250
 20
8.98393750
  0
VERTEX
  8
0
 62
7
 10
2.70800000
 20
8.85300000
  0
VERTEX
  8
0
 62
7
 10
2.68893750
 20
8.69271875
  0
VERTEX
  8
0
 62
7
 10
2.67625000
 20
8.53300000
  0
VERTEX
  8
0
 62
7
 10
2.66918750
 20
8.37403125
  0
VERTEX
  8
0
 62
7
 10
2.66700000
 20
8.21600000
  0
VERTEX
  8
0
 62
7
 10
2.66700000
 20
8.14800000
  0
VERTEX
  8
0
 62
7
 10
2.66918750
 20
8.03893750
  0
VERTEX
  8
0
 62
7
 10
2.67325000
 20
7.92950000
  0
VERTEX
  8
0
 62
7
 10
2.67993750
 20
7.82006250
  0
VERTEX
  8
0
 62
7
 10
2.69000000
 20
7.71100000
  0
VERTEX
  8
0
 62
7
 10
2.70005859
 20
7.62631055
  0
VERTEX
  8
0
 62
7
 10
2.71159375
 20
7.54179688
  0
VERTEX
  8
0
 62
7
 10
2.72476953
 20
7.45754102
  0
VERTEX
  8
0
 62
7
 10
2.73975000
 20
7.37362500
  0
VERTEX
  8
0
 62
7
 10
2.75669922
 20
7.29013086
  0
VERTEX
  8
0
 62
7
 10
2.77578125
 20
7.20714063
  0
VERTEX
  8
0
 62
7
 10
2.79716016
 20
7.12473633
  0
VERTEX
  8
0
 62
7
 10
2.82100000
 20
7.04300000
  0
VERTEX
  8
0
 62
7
 10
2.85250000
 20
6.94525000
  0
VERTEX
  8
0
 62
7
 10
2.88700000
 20
6.84900000
  0
VERTEX
  8
0
 62
7
 10
2.85287500
 20
6.85350000
  0
VERTEX
  8
0
 62
7
 10
2.81800000
 20
6.85500000
  0
VERTEX
  8
0
 62
7
 10
2.76753125
 20
6.85176563
  0
VERTEX
  8
0
 62
7
 10
2.71725000
 20
6.84187500
  0
VERTEX
  8
0
 62
7
 10
2.66809375
 20
6.82504688
  0
VERTEX
  8
0
 62
7
 10
2.62100000
 20
6.80100000
  0
VERTEX
  8
0
 62
7
 10
2.57548438
 20
6.76814063
  0
VERTEX
  8
0
 62
7
 10
2.53737500
 20
6.73087500
  0
VERTEX
  8
0
 62
7
 10
2.50582813
 20
6.69117188
  0
VERTEX
  8
0
 62
7
 10
2.48000000
 20
6.65100000
  0
VERTEX
  8
0
 62
7
 10
2.46532031
 20
6.62306250
  0
VERTEX
  8
0
 62
7
 10
2.45331250
 20
6.59493750
  0
VERTEX
  8
0
 62
7
 10
2.44364844
 20
6.56690625
  0
VERTEX
  8
0
 62
7
 10
2.43600000
 20
6.53925000
  0
VERTEX
  8
0
 62
7
 10
2.43003906
 20
6.51225000
  0
VERTEX
  8
0
 62
7
 10
2.42543750
 20
6.48618750
  0
VERTEX
  8
0
 62
7
 10
2.42186719
 20
6.46134375
  0
VERTEX
  8
0
 62
7
 10
2.41900000
 20
6.43800000
  0
VERTEX
  8
0
 62
7
 10
2.41587500
 20
6.40250000
  0
VERTEX
  8
0
 62
7
 10
2.41500000
 20
6.36700000
  0
VERTEX
  8
0
 62
7
 10
2.41600000
 20
6.32800000
  0
VERTEX
  8
0
 62
7
 10
2.39700000
 20
6.31275000
  0
VERTEX
  8
0
 62
7
 10
2.38100000
 20
6.29600000
  0
VERTEX
  8
0
 62
7
 10
2.36542188
 20
6.27578125
  0
VERTEX
  8
0
 62
7
 10
2.35237500
 20
6.25275000
  0
VERTEX
  8
0
 62
7
 10
2.34289063
 20
6.22709375
  0
VERTEX
  8
0
 62
7
 10
2.33800000
 20
6.19900000
  0
VERTEX
  8
0
 62
7
 10
2.33600000
 20
6.15800000
  0
VERTEX
  8
0
 62
7
 10
2.33787891
 20
6.12043750
  0
VERTEX
  8
0
 62
7
 10
2.34315625
 20
6.08625000
  0
VERTEX
  8
0
 62
7
 10
2.35129297
 20
6.05506250
  0
VERTEX
  8
0
 62
7
 10
2.36175000
 20
6.02650000
  0
VERTEX
  8
0
 62
7
 10
2.37398828
 20
6.00018750
  0
VERTEX
  8
0
 62
7
 10
2.38746875
 20
5.97575000
  0
VERTEX
  8
0
 62
7
 10
2.40165234
 20
5.95281250
  0
VERTEX
  8
0
 62
7
 10
2.41600000
 20
5.93100000
  0
VERTEX
  8
0
 62
7
 10
2.45037500
 20
5.88687500
  0
VERTEX
  8
0
 62
7
 10
2.49000000
 20
5.84200000
  0
VERTEX
  8
0
 62
7
 10
2.45325000
 20
5.84562500
  0
VERTEX
  8
0
 62
7
 10
2.41500000
 20
5.84700000
  0
VERTEX
  8
0
 62
7
 10
2.39900000
 20
5.84700000
  0
VERTEX
  8
0
 62
7
 10
2.35725000
 20
5.84600000
  0
VERTEX
  8
0
 62
7
 10
2.31475000
 20
5.84275000
  0
VERTEX
  8
0
 62
7
 10
2.27187500
 20
5.83687500
  0
VERTEX
  8
0
 62
7
 10
2.22900000
 20
5.82800000
  0
VERTEX
  8
0
 62
7
 10
2.20190625
 20
5.82078125
  0
VERTEX
  8
0
 62
7
 10
2.17350000
 20
5.81225000
  0
VERTEX
  8
0
 62
7
 10
2.14434375
 20
5.80184375
  0
VERTEX
  8
0
 62
7
 10
2.11500000
 20
5.78900000
  0
VERTEX
  8
0
 62
7
 10
2.11300000
 20
5.78800000
  0
VERTEX
  8
0
 62
7
 10
2.08846875
 20
5.77585938
  0
VERTEX
  8
0
 62
7
 10
2.06000000
 20
5.75987500
  0
VERTEX
  8
0
 62
7
 10
2.03003125
 20
5.73920313
  0
VERTEX
  8
0
 62
7
 10
2.00100000
 20
5.71300000
  0
VERTEX
  8
0
 62
7
 10
1.97859375
 20
5.68785938
  0
VERTEX
  8
0
 62
7
 10
1.95750000
 20
5.65887500
  0
VERTEX
  8
0
 62
7
 10
1.93940625
 20
5.62595313
  0
VERTEX
  8
0
 62
7
 10
1.92600000
 20
5.58900000
  0
VERTEX
  8
0
 62
7
 10
1.92062500
 20
5.55975000
  0
VERTEX
  8
0
 62
7
 10
1.91900000
 20
5.53200000
  0
VERTEX
  8
0
 62
7
 10
1.92287500
 20
5.48650000
  0
VERTEX
  8
0
 62
7
 10
1.93200000
 20
5.44700000
  0
VERTEX
  8
0
 62
7
 10
1.94200000
 20
5.42000000
  0
VERTEX
  8
0
 62
7
 10
1.91178125
 20
5.37809375
  0
VERTEX
  8
0
 62
7
 10
1.88700000
 20
5.33375000
  0
VERTEX
  8
0
 62
7
 10
1.86746875
 20
5.28753125
  0
VERTEX
  8
0
 62
7
 10
1.85300000
 20
5.24000000
  0
VERTEX
  8
0
 62
7
 10
1.84400000
 20
5.19112500
  0
VERTEX
  8
0
 62
7
 10
1.84100000
 20
5.14300000
  0
VERTEX
  8
0
 62
7
 10
1.84359375
 20
5.09842188
  0
VERTEX
  8
0
 62
7
 10
1.85125000
 20
5.05487500
  0
VERTEX
  8
0
 62
7
 10
1.86378125
 20
5.01264063
  0
VERTEX
  8
0
 62
7
 10
1.88100000
 20
4.97200000
  0
VERTEX
  8
0
 62
7
 10
1.89642969
 20
4.94435156
  0
VERTEX
  8
0
 62
7
 10
1.91406250
 20
4.91843750
  0
VERTEX
  8
0
 62
7
 10
1.93366406
 20
4.89430469
  0
VERTEX
  8
0
 62
7
 10
1.95500000
 20
4.87200000
  0
VERTEX
  8
0
 62
7
 10
1.97783594
 20
4.85157031
  0
VERTEX
  8
0
 62
7
 10
2.00193750
 20
4.83306250
  0
VERTEX
  8
0
 62
7
 10
2.02707031
 20
4.81652344
  0
VERTEX
  8
0
 62
7
 10
2.05300000
 20
4.80200000
  0
VERTEX
  8
0
 62
7
 10
2.05700000
 20
4.80000000
  0
VERTEX
  8
0
 62
7
 10
1.99762500
 20
4.75162500
  0
VERTEX
  8
0
 62
7
 10
1.94200000
 20
4.69800000
  0
VERTEX
  8
0
 62
7
 10
1.89968750
 20
4.65157813
  0
VERTEX
  8
0
 62
7
 10
1.86000000
 20
4.60262500
  0
VERTEX
  8
0
 62
7
 10
1.82331250
 20
4.55160938
  0
VERTEX
  8
0
 62
7
 10
1.79000000
 20
4.49900000
  0
VERTEX
  8
0
 62
7
 10
1.78800000
 20
4.49600000
  0
VERTEX
  8
0
 62
7
 10
1.77211133
 20
4.46958398
  0
VERTEX
  8
0
 62
7
 10
1.75557813
 20
4.44142188
  0
VERTEX
  8
0
 62
7
 10
1.73897461
 20
4.41164258
  0
VERTEX
  8
0
 62
7
 10
1.72287500
 20
4.38037500
  0
VERTEX
  8
0
 62
7
 10
1.70785352
 20
4.34774805
  0
VERTEX
  8
0
 62
7
 10
1.69448438
 20
4.31389063
  0
VERTEX
  8
0
 62
7
 10
1.68334180
 20
4.27893164
  0
VERTEX
  8
0
 62
7
 10
1.67500000
 20
4.24300000
  0
VERTEX
  8
0
 62
7
 10
1.66687500
 20
4.18687500
  0
VERTEX
  8
0
 62
7
 10
1.66400000
 20
4.13000000
  0
VERTEX
  8
0
 62
7
 10
1.66568750
 20
4.08876563
  0
VERTEX
  8
0
 62
7
 10
1.67075000
 20
4.04762500
  0
VERTEX
  8
0
 62
7
 10
1.67918750
 20
4.00667188
  0
VERTEX
  8
0
 62
7
 10
1.69100000
 20
3.96600000
  0
VERTEX
  8
0
 62
7
 10
1.69952930
 20
3.94282813
  0
VERTEX
  8
0
 62
7
 10
1.70954688
 20
3.91862500
  0
VERTEX
  8
0
 62
7
 10
1.72132227
 20
3.89385938
  0
VERTEX
  8
0
 62
7
 10
1.73512500
 20
3.86900000
  0
VERTEX
  8
0
 62
7
 10
1.75122461
 20
3.84451563
  0
VERTEX
  8
0
 62
7
 10
1.76989063
 20
3.82087500
  0
VERTEX
  8
0
 62
7
 10
1.79139258
 20
3.79854688
  0
VERTEX
  8
0
 62
7
 10
1.81600000
 20
3.77800000
  0
VERTEX
  8
0
 62
7
 10
1.84375000
 20
3.75950000
  0
VERTEX
  8
0
 62
7
 10
1.87300000
 20
3.74400000
  0
VERTEX
  8
0
 62
7
 10
1.87200000
 20
3.72100000
  0
VERTEX
  8
0
 62
7
 10
1.87330859
 20
3.68849414
  0
VERTEX
  8
0
 62
7
 10
1.87721875
 20
3.65632813
  0
VERTEX
  8
0
 62
7
 10
1.88370703
 20
3.62465430
  0
VERTEX
  8
0
 62
7
 10
1.89275000
 20
3.59362500
  0
VERTEX
  8
0
 62
7
 10
1.90432422
 20
3.56339258
  0
VERTEX
  8
0
 62
7
 10
1.91840625
 20
3.53410938
  0
VERTEX
  8
0
 62
7
 10
1.93497266
 20
3.50592773
  0
VERTEX
  8
0
 62
7
 10
1.95400000
 20
3.47900000
  0
VERTEX
  8
0
 62
7
 10
1.99139063
 20
3.43739063
  0
VERTEX
  8
0
 62
7
 10
2.03337500
 20
3.40337500
  0
VERTEX
  8
0
 62
7
 10
2.07817188
 20
3.37592188
  0
VERTEX
  8
0
 62
7
 10
2.12400000
 20
3.35400000
  0
VERTEX
  8
0
 62
7
 10
2.17134375
 20
3.33725000
  0
VERTEX
  8
0
 62
7
 10
2.22000000
 20
3.32575000
  0
VERTEX
  8
0
 62
7
 10
2.26940625
 20
3.31912500
  0
VERTEX
  8
0
 62
7
 10
2.31900000
 20
3.31700000
  0
VERTEX
  8
0
 62
7
 10
2.38400000
 20
3.32000000
  0
VERTEX
  8
0
 62
7
 10
2.43714063
 20
3.32856250
  0
VERTEX
  8
0
 62
7
 10
2.48962500
 20
3.34200000
  0
VERTEX
  8
0
 62
7
 10
2.54079688
 20
3.35993750
  0
VERTEX
  8
0
 62
7
 10
2.59000000
 20
3.38200000
  0
VERTEX
  8
0
 62
7
 10
2.61149805
 20
3.39695508
  0
VERTEX
  8
0
 62
7
 10
2.62717188
 20
3.41614063
  0
VERTEX
  8
0
 62
7
 10
2.63691602
 20
3.43816211
  0
VERTEX
  8
0
 62
7
 10
2.64062500
 20
3.46162500
  0
VERTEX
  8
0
 62
7
 10
2.63819336
 20
3.48513477
  0
VERTEX
  8
0
 62
7
 10
2.62951563
 20
3.50729688
  0
VERTEX
  8
0
 62
7
 10
2.61448633
 20
3.52671680
  0
VERTEX
  8
0
 62
7
 10
2.59300000
 20
3.54200000
  0
VERTEX
  8
0
 62
7
 10
2.57409375
 20
3.55354688
  0
VERTEX
  8
0
 62
7
 10
2.55800000
 20
3.56687500
  0
VERTEX
  8
0
 62
7
 10
2.54490625
 20
3.58151563
  0
VERTEX
  8
0
 62
7
 10
2.53500000
 20
3.59700000
  0
VERTEX
  8
0
 62
7
 10
2.52862500
 20
3.61837500
  0
VERTEX
  8
0
 62
7
 10
2.52600000
 20
3.64800000
  0
VERTEX
  8
0
 62
7
 10
2.52862500
 20
3.68500000
  0
VERTEX
  8
0
 62
7
 10
2.53500000
 20
3.72800000
  0
VERTEX
  8
0
 62
7
 10
2.54069531
 20
3.75264258
  0
VERTEX
  8
0
 62
7
 10
2.54868750
 20
3.77720313
  0
VERTEX
  8
0
 62
7
 10
2.55883594
 20
3.80188086
  0
VERTEX
  8
0
 62
7
 10
2.57100000
 20
3.82687500
  0
VERTEX
  8
0
 62
7
 10
2.58503906
 20
3.85238477
  0
VERTEX
  8
0
 62
7
 10
2.60081250
 20
3.87860938
  0
VERTEX
  8
0
 62
7
 10
2.61817969
 20
3.90574805
  0
VERTEX
  8
0
 62
7
 10
2.63700000
 20
3.93400000
  0
VERTEX
  8
0
 62
7
 10
2.66937500
 20
3.97726563
  0
VERTEX
  8
0
 62
7
 10
2.70475000
 20
4.01837500
  0
VERTEX
  8
0
 62
7
 10
2.74275000
 20
4.05704688
  0
VERTEX
  8
0
 62
7
 10
2.78300000
 20
4.09300000
  0
VERTEX
  8
0
 62
7
 10
2.83356250
 20
4.13234375
  0
VERTEX
  8
0
 62
7
 10
2.88750000
 20
4.16700000
  0
VERTEX
  8
0
 62
7
 10
2.94443750
 20
4.19790625
  0
VERTEX
  8
0
 62
7
 10
3.00400000
 20
4.22600000
  0
VERTEX
  8
0
 62
7
 10
3.06226563
 20
4.25012500
  0
VERTEX
  8
0
 62
7
 10
3.12287500
 20
4.27050000
  0
VERTEX
  8
0
 62
7
 10
3.18554688
 20
4.28787500
  0
VERTEX
  8
0
 62
7
 10
3.25000000
 20
4.30300000
  0
VERTEX
  8
0
 62
7
 10
3.34009375
 20
4.31823438
  0
VERTEX
  8
0
 62
7
 10
3.43075000
 20
4.32737500
  0
VERTEX
  8
0
 62
7
 10
3.52253125
 20
4.33182813
  0
VERTEX
  8
0
 62
7
 10
3.61600000
 20
4.33300000
  0
VERTEX
  8
0
 62
7
 10
3.67387695
 20
4.33151367
  0
VERTEX
  8
0
 62
7
 10
3.73139063
 20
4.32729688
  0
VERTEX
  8
0
 62
7
 10
3.78874023
 20
4.32071289
  0
VERTEX
  8
0
 62
7
 10
3.84612500
 20
4.31212500
  0
VERTEX
  8
0
 62
7
 10
3.90374414
 20
4.30189648
  0
VERTEX
  8
0
 62
7
 10
3.96179688
 20
4.29039063
  0
VERTEX
  8
0
 62
7
 10
4.02048242
 20
4.27797070
  0
VERTEX
  8
0
 62
7
 10
4.08000000
 20
4.26500000
  0
VERTEX
  8
0
 62
7
 10
4.20600000
 20
4.23700000
  0
VERTEX
  8
0
 62
7
 10
4.36050000
 20
4.20237500
  0
VERTEX
  8
0
 62
7
 10
4.51800000
 20
4.16400000
  0
VERTEX
  8
0
 62
7
 10
4.59000000
 20
4.14600000
  0
VERTEX
  8
0
 62
7
 10
4.80825000
 20
4.09200000
  0
VERTEX
  8
0
 62
7
 10
5.02800000
 20
4.03500000
  0
VERTEX
  8
0
 62
7
 10
5.48600000
 20
3.91100000
  0
VERTEX
  8
0
 62
7
 10
5.87300000
 20
3.79900000
  0
VERTEX
  8
0
 62
7
 10
6.14525000
 20
3.71437500
  0
VERTEX
  8
0
 62
7
 10
6.41900000
 20
3.62600000
  0
VERTEX
  8
0
 62
7
 10
6.63662500
 20
3.55525000
  0
VERTEX
  8
0
 62
7
 10
6.85200000
 20
3.48300000
  0
VERTEX
  8
0
 62
7
 10
7.07100000
 20
3.40300000
  0
VERTEX
  8
0
 62
7
 10
7.19487500
 20
3.35687500
  0
VERTEX
  8
0
 62
7
 10
7.32100000
 20
3.31300000
  0
VERTEX
  8
0
 62
7
 10
7.56700000
 20
3.23375000
  0
VERTEX
  8
0
 62
7
 10
7.81300000
 20
3.15900000
  0
VERTEX
  8
0
 62
7
 10
8.14937500
 20
3.06050000
  0
VERTEX
  8
0
 62
7
 10
8.48800000
 20
2.96800000
  0
VERTEX
  8
0
 62
7
 10
8.71525000
 20
2.91000000
  0
VERTEX
  8
0
 62
7
 10
8.94100000
 20
2.85500000
  0
VERTEX
  8
0
 62
7
 10
8.96900000
 20
2.84900000
  0
VERTEX
  8
0
 62
7
 10
9.17062500
 20
2.80137500
  0
VERTEX
  8
0
 62
7
 10
9.37300000
 20
2.75600000
  0
VERTEX
  8
0
 62
7
 10
9.59625000
 20
2.70875000
  0
VERTEX
  8
0
 62
7
 10
9.82100000
 20
2.66600000
  0
VERTEX
  8
0
 62
7
 10
10.07900000
 20
2.62537500
  0
VERTEX
  8
0
 62
7
 10
10.33700000
 20
2.59000000
  0
VERTEX
  8
0
 62
7
 10
10.50050000
 20
2.56932813
  0
VERTEX
  8
0
 62
7
 10
10.66550000
 20
2.54987500
  0
VERTEX
  8
0
 62
7
 10
10.83200000
 20
2.53248438
  0
VERTEX
  8
0
 62
7
 10
11.00000000
 20
2.51800000
  0
VERTEX
  8
0
 62
7
 10
11.19241992
 20
2.50409570
  0
VERTEX
  8
0
 62
7
 10
11.38492188
 20
2.49170313
  0
VERTEX
  8
0
 62
7
 10
11.57749414
 20
2.48092773
  0
VERTEX
  8
0
 62
7
 10
11.77012500
 20
2.47187500
  0
VERTEX
  8
0
 62
7
 10
11.96280273
 20
2.46465039
  0
VERTEX
  8
0
 62
7
 10
12.15551563
 20
2.45935938
  0
VERTEX
  8
0
 62
7
 10
12.34825195
 20
2.45610742
  0
VERTEX
  8
0
 62
7
 10
12.54100000
 20
2.45500000
  0
VERTEX
  8
0
 62
7
 10
12.71087305
 20
2.45590430
  0
VERTEX
  8
0
 62
7
 10
12.88073438
 20
2.45867188
  0
VERTEX
  8
0
 62
7
 10
13.05057227
 20
2.46338477
  0
VERTEX
  8
0
 62
7
 10
13.22037500
 20
2.47012500
  0
VERTEX
  8
0
 62
7
 10
13.39013086
 20
2.47897461
  0
VERTEX
  8
0
 62
7
 10
13.55982813
 20
2.49001563
  0
VERTEX
  8
0
 62
7
 10
13.72945508
 20
2.50333008
  0
VERTEX
  8
0
 62
7
 10
13.89900000
 20
2.51900000
  0
VERTEX
  8
0
 62
7
 10
14.13600000
 20
2.54487500
  0
VERTEX
  8
0
 62
7
 10
14.37600000
 20
2.57600000
  0
VERTEX
  8
0
 62
7
 10
14.65125000
 20
2.61812500
  0
VERTEX
  8
0
 62
7
 10
14.92800000
 20
2.66700000
  0
VERTEX
  8
0
 62
7
 10
15.07875000
 20
2.69554688
  0
VERTEX
  8
0
 62
7
 10
15.22950000
 20
2.72587500
  0
VERTEX
  8
0
 62
7
 10
15.38025000
 20
2.75826563
  0
VERTEX
  8
0
 62
7
 10
15.53100000
 20
2.79300000
  0
VERTEX
  8
0
 62
7
 10
15.65326563
 20
2.82314063
  0
VERTEX
  8
0
 62
7
 10
15.77562500
 20
2.85412500
  0
VERTEX
  8
0
 62
7
 10
15.89817188
 20
2.88679688
  0
VERTEX
  8
0
 62
7
 10
16.02100000
 20
2.92200000
  0
VERTEX
  8
0
 62
7
 10
16.06700000
 20
2.93600000
  0
VERTEX
  8
0
 62
7
 10
16.16770313
 20
2.96573438
  0
VERTEX
  8
0
 62
7
 10
16.26962500
 20
2.99687500
  0
VERTEX
  8
0
 62
7
 10
16.37173438
 20
3.03007813
  0
VERTEX
  8
0
 62
7
 10
16.47300000
 20
3.06600000
  0
VERTEX
  8
0
 62
7
 10
16.57953125
 20
3.10732813
  0
VERTEX
  8
0
 62
7
 10
16.68475000
 20
3.15137500
  0
VERTEX
  8
0
 62
7
 10
16.78884375
 20
3.19748438
  0
VERTEX
  8
0
 62
7
 10
16.89200000
 20
3.24500000
  0
VERTEX
  8
0
 62
7
 10
17.11400000
 20
3.35700000
  0
VERTEX
  8
0
 62
7
 10
17.14300000
 20
3.37200000
  0
VERTEX
  8
0
 62
7
 10
17.17500000
 20
3.38900000
  0
VERTEX
  8
0
 62
7
 10
17.29857813
 20
3.45337500
  0
VERTEX
  8
0
 62
7
 10
17.42262500
 20
3.52000000
  0
VERTEX
  8
0
 62
7
 10
17.54610938
 20
3.59037500
  0
VERTEX
  8
0
 62
7
 10
17.66800000
 20
3.66600000
  0
VERTEX
  8
0
 62
7
 10
17.83850000
 20
3.78300000
  0
VERTEX
  8
0
 62
7
 10
18.00600000
 20
3.90600000
  0
VERTEX
  8
0
 62
7
 10
18.09792188
 20
3.97589063
  0
VERTEX
  8
0
 62
7
 10
18.19012500
 20
4.04812500
  0
VERTEX
  8
0
 62
7
 10
18.28176563
 20
4.12354688
  0
VERTEX
  8
0
 62
7
 10
18.37200000
 20
4.20300000
  0
VERTEX
  8
0
 62
7
 10
18.44293750
 20
4.27010938
  0
VERTEX
  8
0
 62
7
 10
18.51275000
 20
4.33937500
  0
VERTEX
  8
0
 62
7
 10
18.58068750
 20
4.41070313
  0
VERTEX
  8
0
 62
7
 10
18.64600000
 20
4.48400000
  0
VERTEX
  8
0
 62
7
 10
18.71068750
 20
4.56165625
  0
VERTEX
  8
0
 62
7
 10
18.77350000
 20
4.64175000
  0
VERTEX
  8
0
 62
7
 10
18.83331250
 20
4.72446875
  0
VERTEX
  8
0
 62
7
 10
18.88900000
 20
4.81000000
  0
VERTEX
  8
0
 62
7
 10
18.94187500
 20
4.89962500
  0
VERTEX
  8
0
 62
7
 10
18.99100000
 20
4.99300000
  0
VERTEX
  8
0
 62
7
 10
19.03825000
 20
4.98087500
  0
VERTEX
  8
0
 62
7
 10
19.08700000
 20
4.96500000
  0
VERTEX
  8
0
 62
7
 10
19.12600000
 20
4.94800000
  0
VERTEX
  8
0
 62
7
 10
19.15925000
 20
4.93262500
  0
VERTEX
  8
0
 62
7
 10
19.19700000
 20
4.91800000
  0
VERTEX
  8
0
 62
7
 10
19.23325000
 20
4.91037500
  0
VERTEX
  8
0
 62
7
 10
19.27100000
 20
4.90800000
  0
VERTEX
  8
0
 62
7
 10
19.29912500
 20
4.90950000
  0
VERTEX
  8
0
 62
7
 10
19.33100000
 20
4.91400000
  0
VERTEX
  8
0
 62
7
 10
19.33200000
 20
4.91300000
  0
VERTEX
  8
0
 62
7
 10
19.36931250
 20
4.88209375
  0
VERTEX
  8
0
 62
7
 10
19.41075000
 20
4.85700000
  0
VERTEX
  8
0
 62
7
 10
19.45631250
 20
4.83790625
  0
VERTEX
  8
0
 62
7
 10
19.50600000
 20
4.82500000
  0
VERTEX
  8
0
 62
7
 10
19.55537500
 20
4.81837500
  0
VERTEX
  8
0
 62
7
 10
19.60100000
 20
4.81700000
  0
VERTEX
  8
0
 62
7
 10
19.63300000
 20
4.81800000
  0
VERTEX
  8
0
 62
7
 10
19.65800000
 20
4.81800000
  0
VERTEX
  8
0
 62
7
 10
19.69600000
 20
4.81700000
  0
VERTEX
  8
0
 62
7
 10
19.74100000
 20
4.81600000
  0
VERTEX
  8
0
 62
7
 10
19.79200000
 20
4.81800000
  0
VERTEX
  8
0
 62
7
 10
19.80400000
 20
4.82000000
  0
VERTEX
  8
0
 62
7
 10
19.84400000
 20
4.79800000
  0
VERTEX
  8
0
 62
7
 10
19.87162500
 20
4.78575000
  0
VERTEX
  8
0
 62
7
 10
19.89400000
 20
4.77800000
  0
VERTEX
  8
0
 62
7
 10
19.93001563
 20
4.76840625
  0
VERTEX
  8
0
 62
7
 10
19.96612500
 20
4.76275000
  0
VERTEX
  8
0
 62
7
 10
20.00017188
 20
4.75971875
  0
VERTEX
  8
0
 62
7
 10
20.03000000
 20
4.75800000
  0
VERTEX
  8
0
 62
7
 10
20.05600000
 20
4.75700000
  0
VERTEX
  8
0
 62
7
 10
20.08600000
 20
4.75412500
  0
VERTEX
  8
0
 62
7
 10
20.11600000
 20
4.74900000
  0
VERTEX
  8
0
 62
7
 10
20.15712500
 20
4.74287500
  0
VERTEX
  8
0
 62
7
 10
20.20800000
 20
4.73900000
  0
VERTEX
  8
0
 62
7
 10
20.22200000
 20
4.73900000
  0
VERTEX
  8
0
 62
7
 10
20.25460938
 20
4.74015625
  0
VERTEX
  8
0
 62
7
 10
20.29012500
 20
4.74450000
  0
VERTEX
  8
0
 62
7
 10
20.32732813
 20
4.75334375
  0
VERTEX
  8
0
 62
7
 10
20.36500000
 20
4.76800000
  0
VERTEX
  8
0
 62
7
 10
20.36900000
 20
4.76600000
  0
VERTEX
  8
0
 62
7
 10
20.40253125
 20
4.74825000
  0
VERTEX
  8
0
 62
7
 10
20.43850000
 20
4.73425000
  0
VERTEX
  8
0
 62
7
 10
20.47671875
 20
4.72437500
  0
VERTEX
  8
0
 62
7
 10
20.51700000
 20
4.71900000
  0
VERTEX
  8
0
 62
7
 10
20.53500000
 20
4.71900000
  0
VERTEX
  8
0
 62
7
 10
20.57450000
 20
4.72137500
  0
VERTEX
  8
0
 62
7
 10
20.60800000
 20
4.72600000
  0
VERTEX
  8
0
 62
7
 10
20.63700000
 20
4.73000000
  0
VERTEX
  8
0
 62
7
 10
20.66100000
 20
4.73100000
  0
VERTEX
  8
0
 62
7
 10
20.68500000
 20
4.73000000
  0
VERTEX
  8
0
 62
7
 10
20.71600000
 20
4.73000000
  0
VERTEX
  8
0
 62
7
 10
20.73950000
 20
4.73037500
  0
VERTEX
  8
0
 62
7
 10
20.76600000
 20
4.73300000
  0
VERTEX
  8
0
 62
7
 10
20.79095703
 20
4.73731445
  0
VERTEX
  8
0
 62
7
 10
20.81678125
 20
4.74370313
  0
VERTEX
  8
0
 62
7
 10
20.84302734
 20
4.75245898
  0
VERTEX
  8
0
 62
7
 10
20.86925000
 20
4.76387500
  0
VERTEX
  8
0
 62
7
 10
20.89500391
 20
4.77824414
  0
VERTEX
  8
0
 62
7
 10
20.91984375
 20
4.79585938
  0
VERTEX
  8
0
 62
7
 10
20.94332422
 20
4.81701367
  0
VERTEX
  8
0
 62
7
 10
20.96500000
 20
4.84200000
  0
VERTEX
  8
0
 62
7
 10
20.98437500
 20
4.87100000
  0
VERTEX
  8
0
 62
7
 10
21.00000000
 20
4.90000000
  0
VERTEX
  8
0
 62
7
 10
21.01562500
 20
4.87100000
  0
VERTEX
  8
0
 62
7
 10
21.03500000
 20
4.84200000
  0
VERTEX
  8
0
 62
7
 10
21.05667578
 20
4.81701367
  0
VERTEX
  8
0
 62
7
 10
21.08015625
 20
4.79585938
  0
VERTEX
  8
0
 62
7
 10
21.10499609
 20
4.77824414
  0
VERTEX
  8
0
 62
7
 10
21.13075000
 20
4.76387500
  0
VERTEX
  8
0
 62
7
 10
21.15697266
 20
4.75245898
  0
VERTEX
  8
0
 62
7
 10
21.18321875
 20
4.74370313
  0
VERTEX
  8
0
 62
7
 10
21.20904297
 20
4.73731445
  0
VERTEX
  8
0
 62
7
 10
21.23400000
 20
4.73300000
  0
VERTEX
  8
0
 62
7
 10
21.26050000
 20
4.73037500
  0
VERTEX
  8
0
 62
7
 10
21.28400000
 20
4.73000000
  0
VERTEX
  8
0
 62
7
 10
21.31500000
 20
4.73000000
  0
VERTEX
  8
0
 62
7
 10
21.33900000
 20
4.73100000
  0
VERTEX
  8
0
 62
7
 10
21.36300000
 20
4.73000000
  0
VERTEX
  8
0
 62
7
 10
21.39200000
 20
4.72600000
  0
VERTEX
  8
0
 62
7
 10
21.42550000
 20
4.72137500
  0
VERTEX
  8
0
 62
7
 10
21.46500000
 20
4.71900000
  0
VERTEX
  8
0
 62
7
 10
21.48300000
 20
4.71900000
  0
VERTEX
  8
0
 62
7
 10
21.52328125
 20
4.72437500
  0
VERTEX
  8
0
 62
7
 10
21.56150000
 20
4.73425000
  0
VERTEX
  8
0
 62
7
 10
21.59746875
 20
4.74825000
  0
VERTEX
  8
0
 62
7
 10
21.63100000
 20
4.76600000
  0
VERTEX
  8
0
 62
7
 10
21.63500000
 20
4.76800000
  0
VERTEX
  8
0
 62
7
 10
21.67267188
 20
4.75334375
  0
VERTEX
  8
0
 62
7
 10
21.70987500
 20
4.74450000
  0
VERTEX
  8
0
 62
7
 10
21.74539063
 20
4.74015625
  0
VERTEX
  8
0
 62
7
 10
21.77800000
 20
4.73900000
  0
VERTEX
  8
0
 62
7
 10
21.79200000
 20
4.73900000
  0
VERTEX
  8
0
 62
7
 10
21.84287500
 20
4.74287500
  0
VERTEX
  8
0
 62
7
 10
21.88400000
 20
4.74900000
  0
VERTEX
  8
0
 62
7
 10
21.91400000
 20
4.75412500
  0
VERTEX
  8
0
 62
7
 10
21.94400000
 20
4.75700000
  0
VERTEX
  8
0
 62
7
 10
21.97000000
 20
4.75800000
  0
VERTEX
  8
0
 62
7
 10
21.99982813
 20
4.75971875
  0
VERTEX
  8
0
 62
7
 10
22.03387500
 20
4.76275000
  0
VERTEX
  8
0
 62
7
 10
22.06998438
 20
4.76840625
  0
VERTEX
  8
0
 62
7
 10
22.10600000
 20
4.77800000
  0
VERTEX
  8
0
 62
7
 10
22.12837500
 20
4.78575000
  0
VERTEX
  8
0
 62
7
 10
22.15600000
 20
4.79800000
  0
VERTEX
  8
0
 62
7
 10
22.19600000
 20
4.82000000
  0
VERTEX
  8
0
 62
7
 10
22.20800000
 20
4.81800000
  0
VERTEX
  8
0
 62
7
 10
22.25900000
 20
4.81600000
  0
VERTEX
  8
0
 62
7
 10
22.30400000
 20
4.81700000
  0
VERTEX
  8
0
 62
7
 10
22.34200000
 20
4.81800000
  0
VERTEX
  8
0
 62
7
 10
22.36700000
 20
4.81800000
  0
VERTEX
  8
0
 62
7
 10
22.39900000
 20
4.81700000
  0
VERTEX
  8
0
 62
7
 10
22.44462500
 20
4.81837500
  0
VERTEX
  8
0
 62
7
 10
22.49400000
 20
4.82500000
  0
VERTEX
  8
0
 62
7
 10
22.54368750
 20
4.83790625
  0
VERTEX
  8
0
 62
7
 10
22.58925000
 20
4.85700000
  0
VERTEX
  8
0
 62
7
 10
22.63068750
 20
4.88209375
  0
VERTEX
  8
0
 62
7
 10
22.66800000
 20
4.91300000
  0
VERTEX
  8
0
 62
7
 10
22.66900000
 20
4.91400000
  0
VERTEX
  8
0
 62
7
 10
22.70087500
 20
4.90950000
  0
VERTEX
  8
0
 62
7
 10
22.72900000
 20
4.90800000
  0
VERTEX
  8
0
 62
7
 10
22.76675000
 20
4.91037500
  0
VERTEX
  8
0
 62
7
 10
22.80300000
 20
4.91800000
  0
VERTEX
  8
0
 62
7
 10
22.84075000
 20
4.93262500
  0
VERTEX
  8
0
 62
7
 10
22.87400000
 20
4.94800000
  0
VERTEX
  8
0
 62
7
 10
22.91300000
 20
4.96500000
  0
VERTEX
  8
0
 62
7
 10
22.96175000
 20
4.98087500
  0
VERTEX
  8
0
 62
7
 10
23.00900000
 20
4.99300000
  0
VERTEX
  8
0
 62
7
 10
23.05812500
 20
4.89962500
  0
VERTEX
  8
0
 62
7
 10
23.11100000
 20
4.81000000
  0
VERTEX
  8
0
 62
7
 10
23.16668750
 20
4.72446875
  0
VERTEX
  8
0
 62
7
 10
23.22650000
 20
4.64175000
  0
VERTEX
  8
0
 62
7
 10
23.28931250
 20
4.56165625
  0
VERTEX
  8
0
 62
7
 10
23.35400000
 20
4.48400000
  0
VERTEX
  8
0
 62
7
 10
23.41931250
 20
4.41070313
  0
VERTEX
  8
0
 62
7
 10
23.48725000
 20
4.33937500
  0
VERTEX
  8
0
 62
7
 10
23.55706250
 20
4.27010938
  0
VERTEX
  8
0
 62
7
 10
23.62800000
 20
4.20300000
  0
VERTEX
  8
0
 62
7
 10
23.71823438
 20
4.12354688
  0
VERTEX
  8
0
 62
7
 10
23.80987500
 20
4.04812500
  0
VERTEX
  8
0
 62
7
 10
23.90207813
 20
3.97589063
  0
VERTEX
  8
0
 62
7
 10
23.99400000
 20
3.90600000
  0
VERTEX
  8
0
 62
7
 10
24.16150000
 20
3.78300000
  0
VERTEX
  8
0
 62
7
 10
24.33200000
 20
3.66600000
  0
VERTEX
  8
0
 62
7
 10
24.45389063
 20
3.59037500
  0
VERTEX
  8
0
 62
7
 10
24.57737500
 20
3.52000000
  0
VERTEX
  8
0
 62
7
 10
24.70142188
 20
3.45337500
  0
VERTEX
  8
0
 62
7
 10
24.82500000
 20
3.38900000
  0
VERTEX
  8
0
 62
7
 10
24.85700000
 20
3.37200000
  0
VERTEX
  8
0
 62
7
 10
24.88600000
 20
3.35700000
  0
VERTEX
  8
0
 62
7
 10
25.10800000
 20
3.24500000
  0
VERTEX
  8
0
 62
7
 10
25.21115625
 20
3.19748438
  0
VERTEX
  8
0
 62
7
 10
25.31525000
 20
3.15137500
  0
VERTEX
  8
0
 62
7
 10
25.42046875
 20
3.10732813
  0
VERTEX
  8
0
 62
7
 10
25.52700000
 20
3.06600000
  0
VERTEX
  8
0
 62
7
 10
25.62826563
 20
3.03007813
  0
VERTEX
  8
0
 62
7
 10
25.73037500
 20
2.99687500
  0
VERTEX
  8
0
 62
7
 10
25.83229688
 20
2.96573438
  0
VERTEX
  8
0
 62
7
 10
25.93300000
 20
2.93600000
  0
VERTEX
  8
0
 62
7
 10
25.97900000
 20
2.92200000
  0
VERTEX
  8
0
 62
7
 10
26.10182813
 20
2.88679688
  0
VERTEX
  8
0
 62
7
 10
26.22437500
 20
2.85412500
  0
VERTEX
  8
0
 62
7
 10
26.34673438
 20
2.82314063
  0
VERTEX
  8
0
 62
7
 10
26.46900000
 20
2.79300000
  0
VERTEX
  8
0
 62
7
 10
26.61975000
 20
2.75826563
  0
VERTEX
  8
0
 62
7
 10
26.77050000
 20
2.72587500
  0
VERTEX
  8
0
 62
7
 10
26.92125000
 20
2.69554688
  0
VERTEX
  8
0
 62
7
 10
27.07200000
 20
2.66700000
  0
VERTEX
  8
0
 62
7
 10
27.34875000
 20
2.61812500
  0
VERTEX
  8
0
 62
7
 10
27.62400000
 20
2.57600000
  0
VERTEX
  8
0
 62
7
 10
27.86400000
 20
2.54487500
  0
VERTEX
  8
0
 62
7
 10
28.10100000
 20
2.51900000
  0
VERTEX
  8
0
 62
7
 10
28.27054492
 20
2.50333008
  0
VERTEX
  8
0
 62
7
 10
28.44017188
 20
2.49001563
  0
VERTEX
  8
0
 62
7
 10
28.60986914
 20
2.47897461
  0
VERTEX
  8
0
 62
7
 10
28.77962500
 20
2.47012500
  0
VERTEX
  8
0
 62
7
 10
28.94942773
 20
2.46338477
  0
VERTEX
  8
0
 62
7
 10
29.11926563
 20
2.45867188
  0
VERTEX
  8
0
 62
7
 10
29.28912695
 20
2.45590430
  0
VERTEX
  8
0
 62
7
 10
29.45900000
 20
2.45500000
  0
VERTEX
  8
0
 62
7
 10
29.65174805
 20
2.45610742
  0
VERTEX
  8
0
 62
7
 10
29.84448438
 20
2.45935938
  0
VERTEX
  8
0
 62
7
 10
30.03719727
 20
2.46465039
  0
VERTEX
  8
0
 62
7
 10
30.22987500
 20
2.47187500
  0
VERTEX
  8
0
 62
7
 10
30.42250586
 20
2.48092773
  0
VERTEX
  8
0
 62
7
 10
30.61507813
 20
2.49170313
  0
VERTEX
  8
0
 62
7
 10
30.80758008
 20
2.50409570
  0
VERTEX
  8
0
 62
7
 10
31.00000000
 20
2.51800000
  0
VERTEX
  8
0
 62
7
 10
31.16800000
 20
2.53248438
  0
VERTEX
  8
0
 62
7
 10
31.33450000
 20
2.54987500
  0
VERTEX
  8
0
 62
7
 10
31.49950000
 20
2.56932813
  0
VERTEX
  8
0
 62
7
 10
31.66300000
 20
2.59000000
  0
VERTEX
  8
0
 62
7
 10
31.92100000
 20
2.62537500
  0
VERTEX
  8
0
 62
7
 10
32.17900000
 20
2.66600000
  0
VERTEX
  8
0
 62
7
 10
32.40375000
 20
2.70875000
  0
VERTEX
  8
0
 62
7
 10
32.62700000
 20
2.75600000
  0
VERTEX
  8
0
 62
7
 10
32.82937500
 20
2.80137500
  0
VERTEX
  8
0
 62
7
 10
33.03100000
 20
2.84900000
  0
VERTEX
  8
0
 62
7
 10
33.05900000
 20
2.85500000
  0
VERTEX
  8
0
 62
7
 10
33.28475000
 20
2.91000000
  0
VERTEX
  8
0
 62
7
 10
33.51200000
 20
2.96800000
  0
VERTEX
  8
0
 62
7
 10
33.85062500
 20
3.06050000
  0
VERTEX
  8
0
 62
7
 10
34.18700000
 20
3.15900000
  0
VERTEX
  8
0
 62
7
 10
34.43300000
 20
3.23375000
  0
VERTEX
  8
0
 62
7
 10
34.67900000
 20
3.31300000
  0
VERTEX
  8
0
 62
7
 10
34.80512500
 20
3.35687500
  0
VERTEX
  8
0
 62
7
 10
34.92900000
 20
3.40300000
  0
VERTEX
  8
0
 62
7
 10
35.14800000
 20
3.48300000
  0
VERTEX
  8
0
 62
7
 10
35.36337500
 20
3.55525000
  0
VERTEX
  8
0
 62
7
 10
35.58100000
 20
3.62600000
  0
VERTEX
  8
0
 62
7
 10
35.85475000
 20
3.71437500
  0
VERTEX
  8
0
 62
7
 10
36.12700000
 20
3.79900000
  0
VERTEX
  8
0
 62
7
 10
36.51400000
 20
3.91100000
  0
VERTEX
  8
0
 62
7
 10
36.97200000
 20
4.03500000
  0
VERTEX
  8
0
 62
7
 10
37.19175000
 20
4.09200000
  0
VERTEX
  8
0
 62
7
 10
37.41000000
 20
4.14600000
  0
VERTEX
  8
0
 62
7
 10
37.48200000
 20
4.16400000
  0
VERTEX
  8
0
 62
7
 10
37.63950000
 20
4.20237500
  0
VERTEX
  8
0
 62
7
 10
37.79400000
 20
4.23700000
  0
VERTEX
  8
0
 62
7
 10
37.92000000
 20
4.26500000
  0
VERTEX
  8
0
 62
7
 10
37.97951758
 20
4.27797070
  0
VERTEX
  8
0
 62
7
 10
38.03820313
 20
4.29039063
  0
VERTEX
  8
0
 62
7
 10
38.09625586
 20
4.30189648
  0
VERTEX
  8
0
 62
7
 10
38.15387500
 20
4.31212500
  0
VERTEX
  8
0
 62
7
 10
38.21125977
 20
4.32071289
  0
VERTEX
  8
0
 62
7
 10
38.26860938
 20
4.32729688
  0
VERTEX
  8
0
 62
7
 10
38.32612305
 20
4.33151367
  0
VERTEX
  8
0
 62
7
 10
38.38400000
 20
4.33300000
  0
VERTEX
  8
0
 62
7
 10
38.47746875
 20
4.33182813
  0
VERTEX
  8
0
 62
7
 10
38.56925000
 20
4.32737500
  0
VERTEX
  8
0
 62
7
 10
38.65990625
 20
4.31823438
  0
VERTEX
  8
0
 62
7
 10
38.75000000
 20
4.30300000
  0
VERTEX
  8
0
 62
7
 10
38.81445313
 20
4.28787500
  0
VERTEX
  8
0
 62
7
 10
38.87712500
 20
4.27050000
  0
VERTEX
  8
0
 62
7
 10
38.93773438
 20
4.25012500
  0
VERTEX
  8
0
 62
7
 10
38.99600000
 20
4.22600000
  0
VERTEX
  8
0
 62
7
 10
39.05556250
 20
4.19790625
  0
VERTEX
  8
0
 62
7
 10
39.11250000
 20
4.16700000
  0
VERTEX
  8
0
 62
7
 10
39.16643750
 20
4.13234375
  0
VERTEX
  8
0
 62
7
 10
39.21700000
 20
4.09300000
  0
VERTEX
  8
0
 62
7
 10
39.25725000
 20
4.05704688
  0
VERTEX
  8
0
 62
7
 10
39.29525000
 20
4.01837500
  0
VERTEX
  8
0
 62
7
 10
39.33062500
 20
3.97726563
  0
VERTEX
  8
0
 62
7
 10
39.36300000
 20
3.93400000
  0
VERTEX
  8
0
 62
7
 10
39.38182031
 20
3.90574805
  0
VERTEX
  8
0
 62
7
 10
39.39918750
 20
3.87860938
  0
VERTEX
  8
0
 62
7
 10
39.41496094
 20
3.85238477
  0
VERTEX
  8
0
 62
7
 10
39.42900000
 20
3.82687500
  0
VERTEX
  8
0
 62
7
 10
39.44116406
 20
3.80188086
  0
VERTEX
  8
0
 62
7
 10
39.45131250
 20
3.77720313
  0
VERTEX
  8
0
 62
7
 10
39.45930469
 20
3.75264258
  0
VERTEX
  8
0
 62
7
 10
39.46500000
 20
3.72800000
  0
VERTEX
  8
0
 62
7
 10
39.47137500
 20
3.68500000
  0
VERTEX
  8
0
 62
7
 10
39.47400000
 20
3.64800000
  0
VERTEX
  8
0
 62
7
 10
39.47137500
 20
3.61837500
  0
VERTEX
  8
0
 62
7
 10
39.46500000
 20
3.59700000
  0
VERTEX
  8
0
 62
7
 10
39.45509375
 20
3.58151563
  0
VERTEX
  8
0
 62
7
 10
39.44200000
 20
3.56687500
  0
VERTEX
  8
0
 62
7
 10
39.42590625
 20
3.55354688
  0
VERTEX
  8
0
 62
7
 10
39.40700000
 20
3.54200000
  0
VERTEX
  8
0
 62
7
 10
39.38551367
 20
3.52671680
  0
VERTEX
  8
0
 62
7
 10
39.37048438
 20
3.50729688
  0
VERTEX
  8
0
 62
7
 10
39.36180664
 20
3.48513477
  0
VERTEX
  8
0
 62
7
 10
39.35937500
 20
3.46162500
  0
VERTEX
  8
0
 62
7
 10
39.36308398
 20
3.43816211
  0
VERTEX
  8
0
 62
7
 10
39.37282813
 20
3.41614063
  0
VERTEX
  8
0
 62
7
 10
39.38850195
 20
3.39695508
  0
VERTEX
  8
0
 62
7
 10
39.41000000
 20
3.38200000
  0
VERTEX
  8
0
 62
7
 10
39.45920313
 20
3.35993750
  0
VERTEX
  8
0
 62
7
 10
39.51037500
 20
3.34200000
  0
VERTEX
  8
0
 62
7
 10
39.56285938
 20
3.32856250
  0
VERTEX
  8
0
 62
7
 10
39.61600000
 20
3.32000000
  0
VERTEX
  8
0
 62
7
 10
39.68100000
 20
3.31700000
  0
VERTEX
  8
0
 62
7
 10
39.73059375
 20
3.31912500
  0
VERTEX
  8
0
 62
7
 10
39.78000000
 20
3.32575000
  0
VERTEX
  8
0
 62
7
 10
39.82865625
 20
3.33725000
  0
VERTEX
  8
0
 62
7
 10
39.87600000
 20
3.35400000
  0
VERTEX
  8
0
 62
7
 10
39.92182813
 20
3.37592188
  0
VERTEX
  8
0
 62
7
 10
39.96662500
 20
3.40337500
  0
VERTEX
  8
0
 62
7
 10
40.00860938
 20
3.43739063
  0
VERTEX
  8
0
 62
7
 10
40.04600000
 20
3.47900000
  0
VERTEX
  8
0
 62
7
 10
40.06502734
 20
3.50592773
  0
VERTEX
  8
0
 62
7
 10
40.08159375
 20
3.53410938
  0
VERTEX
  8
0
 62
7
 10
40.09567578
 20
3.56339258
  0
VERTEX
  8
0
 62
7
 10
40.10725000
 20
3.59362500
  0
VERTEX
  8
0
 62
7
 10
40.11629297
 20
3.62465430
  0
VERTEX
  8
0
 62
7
 10
40.12278125
 20
3.65632813
  0
VERTEX
  8
0
 62
7
 10
40.12669141
 20
3.68849414
  0
VERTEX
  8
0
 62
7
 10
40.12800000
 20
3.72100000
  0
VERTEX
  8
0
 62
7
 10
40.12700000
 20
3.74400000
  0
VERTEX
  8
0
 62
7
 10
40.15625000
 20
3.75950000
  0
VERTEX
  8
0
 62
7
 10
40.18400000
 20
3.77800000
  0
VERTEX
  8
0
 62
7
 10
40.20860742
 20
3.79854688
  0
VERTEX
  8
0
 62
7
 10
40.23010938
 20
3.82087500
  0
VERTEX
  8
0
 62
7
 10
40.24877539
 20
3.84451563
  0
VERTEX
  8
0
 62
7
 10
40.26487500
 20
3.86900000
  0
VERTEX
  8
0
 62
7
 10
40.27867773
 20
3.89385938
  0
VERTEX
  8
0
 62
7
 10
40.29045313
 20
3.91862500
  0
VERTEX
  8
0
 62
7
 10
40.30047070
 20
3.94282813
  0
VERTEX
  8
0
 62
7
 10
40.30900000
 20
3.96600000
  0
VERTEX
  8
0
 62
7
 10
40.32081250
 20
4.00667188
  0
VERTEX
  8
0
 62
7
 10
40.32925000
 20
4.04762500
  0
VERTEX
  8
0
 62
7
 10
40.33431250
 20
4.08876563
  0
VERTEX
  8
0
 62
7
 10
40.33600000
 20
4.13000000
  0
VERTEX
  8
0
 62
7
 10
40.33312500
 20
4.18687500
  0
VERTEX
  8
0
 62
7
 10
40.32500000
 20
4.24300000
  0
VERTEX
  8
0
 62
7
 10
40.31665820
 20
4.27893164
  0
VERTEX
  8
0
 62
7
 10
40.30551563
 20
4.31389063
  0
VERTEX
  8
0
 62
7
 10
40.29214648
 20
4.34774805
  0
VERTEX
  8
0
 62
7
 10
40.27712500
 20
4.38037500
  0
VERTEX
  8
0
 62
7
 10
40.26102539
 20
4.41164258
  0
VERTEX
  8
0
 62
7
 10
40.24442188
 20
4.44142188
  0
VERTEX
  8
0
 62
7
 10
40.22788867
 20
4.46958398
  0
VERTEX
  8
0
 62
7
 10
40.21200000
 20
4.49600000
  0
VERTEX
  8
0
 62
7
 10
40.21000000
 20
4.49900000
  0
VERTEX
  8
0
 62
7
 10
40.17668750
 20
4.55160938
  0
VERTEX
  8
0
 62
7
 10
40.14000000
 20
4.60262500
  0
VERTEX
  8
0
 62
7
 10
40.10031250
 20
4.65157813
  0
VERTEX
  8
0
 62
7
 10
40.05800000
 20
4.69800000
  0
VERTEX
  8
0
 62
7
 10
40.00237500
 20
4.75162500
  0
VERTEX
  8
0
 62
7
 10
39.94300000
 20
4.80000000
  0
VERTEX
  8
0
 62
7
 10
39.94700000
 20
4.80200000
  0
VERTEX
  8
0
 62
7
 10
39.97292969
 20
4.81652344
  0
VERTEX
  8
0
 62
7
 10
39.99806250
 20
4.83306250
  0
VERTEX
  8
0
 62
7
 10
40.02216406
 20
4.85157031
  0
VERTEX
  8
0
 62
7
 10
40.04500000
 20
4.87200000
  0
VERTEX
  8
0
 62
7
 10
40.06633594
 20
4.89430469
  0
VERTEX
  8
0
 62
7
 10
40.08593750
 20
4.91843750
  0
VERTEX
  8
0
 62
7
 10
40.10357031
 20
4.94435156
  0
VERTEX
  8
0
 62
7
 10
40.11900000
 20
4.97200000
  0
VERTEX
  8
0
 62
7
 10
40.13621875
 20
5.01264063
  0
VERTEX
  8
0
 62
7
 10
40.14875000
 20
5.05487500
  0
VERTEX
  8
0
 62
7
 10
40.15640625
 20
5.09842188
  0
VERTEX
  8
0
 62
7
 10
40.15900000
 20
5.14300000
  0
VERTEX
  8
0
 62
7
 10
40.15600000
 20
5.19112500
  0
VERTEX
  8
0
 62
7
 10
40.14700000
 20
5.24000000
  0
VERTEX
  8
0
 62
7
 10
40.13253125
 20
5.28753125
  0
VERTEX
  8
0
 62
7
 10
40.11300000
 20
5.33375000
  0
VERTEX
  8
0
 62
7
 10
40.08821875
 20
5.37809375
  0
VERTEX
  8
0
 62
7
 10
40.05800000
 20
5.42000000
  0
VERTEX
  8
0
 62
7
 10
40.06800000
 20
5.44700000
  0
VERTEX
  8
0
 62
7
 10
40.07712500
 20
5.48650000
  0
VERTEX
  8
0
 62
7
 10
40.08100000
 20
5.53200000
  0
VERTEX
  8
0
 62
7
 10
40.07937500
 20
5.55975000
  0
VERTEX
  8
0
 62
7
 10
40.07400000
 20
5.58900000
  0
VERTEX
  8
0
 62
7
 10
40.06059375
 20
5.62595313
  0
VERTEX
  8
0
 62
7
 10
40.04250000
 20
5.65887500
  0
VERTEX
  8
0
 62
7
 10
40.02140625
 20
5.68785938
  0
VERTEX
  8
0
 62
7
 10
39.99900000
 20
5.71300000
  0
VERTEX
  8
0
 62
7
 10
39.96996875
 20
5.73920313
  0
VERTEX
  8
0
 62
7
 10
39.94000000
 20
5.75987500
  0
VERTEX
  8
0
 62
7
 10
39.91153125
 20
5.77585938
  0
VERTEX
  8
0
 62
7
 10
39.88700000
 20
5.78800000
  0
VERTEX
  8
0
 62
7
 10
39.88500000
 20
5.78900000
  0
VERTEX
  8
0
 62
7
 10
39.85565625
 20
5.80184375
  0
VERTEX
  8
0
 62
7
 10
39.82650000
 20
5.81225000
  0
VERTEX
  8
0
 62
7
 10
39.79809375
 20
5.82078125
  0
VERTEX
  8
0
 62
7
 10
39.77100000
 20
5.82800000
  0
VERTEX
  8
0
 62
7
 10
39.72812500
 20
5.83687500
  0
VERTEX
  8
0
 62
7
 10
39.68525000
 20
5.84275000
  0
VERTEX
  8
0
 62
7
 10
39.64275000
 20
5.84600000
  0
VERTEX
  8
0
 62
7
 10
39.60100000
 20
5.84700000
  0
VERTEX
  8
0
 62
7
 10
39.58500000
 20
5.84700000
  0
VERTEX
  8
0
 62
7
 10
39.54675000
 20
5.84562500
  0
VERTEX
  8
0
 62
7
 10
39.51000000
 20
5.84200000
  0
VERTEX
  8
0
 62
7
 10
39.54962500
 20
5.88687500
  0
VERTEX
  8
0
 62
7
 10
39.58400000
 20
5.93100000
  0
VERTEX
  8
0
 62
7
 10
39.59834766
 20
5.95281250
  0
VERTEX
  8
0
 62
7
 10
39.61253125
 20
5.97575000
  0
VERTEX
  8
0
 62
7
 10
39.62601172
 20
6.00018750
  0
VERTEX
  8
0
 62
7
 10
39.63825000
 20
6.02650000
  0
VERTEX
  8
0
 62
7
 10
39.64870703
 20
6.05506250
  0
VERTEX
  8
0
 62
7
 10
39.65684375
 20
6.08625000
  0
VERTEX
  8
0
 62
7
 10
39.66212109
 20
6.12043750
  0
VERTEX
  8
0
 62
7
 10
39.66400000
 20
6.15800000
  0
VERTEX
  8
0
 62
7
 10
39.66200000
 20
6.19900000
  0
VERTEX
  8
0
 62
7
 10
39.65710938
 20
6.22709375
  0
VERTEX
  8
0
 62
7
 10
39.64762500
 20
6.25275000
  0
VERTEX
  8
0
 62
7
 10
39.63457813
 20
6.27578125
  0
VERTEX
  8
0
 62
7
 10
39.61900000
 20
6.29600000
  0
VERTEX
  8
0
 62
7
 10
39.60300000
 20
6.31275000
  0
VERTEX
  8
0
 62
7
 10
39.58400000
 20
6.32800000
  0
VERTEX
  8
0
 62
7
 10
39.58500000
 20
6.36700000
  0
VERTEX
  8
0
 62
7
 10
39.58412500
 20
6.40250000
  0
VERTEX
  8
0
 62
7
 10
39.58100000
 20
6.43800000
  0
VERTEX
  8
0
 62
7
 10
39.57813281
 20
6.46134375
  0
VERTEX
  8
0
 62
7
 10
39.57456250
 20
6.48618750
  0
VERTEX
  8
0
 62
7
 10
39.56996094
 20
6.51225000
  0
VERTEX
  8
0
 62
7
 10
39.56400000
 20
6.53925000
  0
VERTEX
  8
0
 62
7
 10
39.55635156
 20
6.56690625
  0
VERTEX
  8
0
 62
7
 10
39.54668750
 20
6.59493750
  0
VERTEX
  8
0
 62
7
 10
39.53467969
 20
6.62306250
  0
VERTEX
  8
0
 62
7
 10
39.52000000
 20
6.65100000
  0
VERTEX
  8
0
 62
7
 10
39.49417188
 20
6.69117188
  0
VERTEX
  8
0
 62
7
 10
39.46262500
 20
6.73087500
  0
VERTEX
  8
0
 62
7
 10
39.42451563
 20
6.76814063
  0
VERTEX
  8
0
 62
7
 10
39.37900000
 20
6.80100000
  0
VERTEX
  8
0
 62
7
 10
39.33190625
 20
6.82504688
  0
VERTEX
  8
0
 62
7
 10
39.28275000
 20
6.84187500
  0
VERTEX
  8
0
 62
7
 10
39.23246875
 20
6.85176563
  0
VERTEX
  8
0
 62
7
 10
39.18200000
 20
6.85500000
  0
VERTEX
  8
0
 62
7
 10
39.14712500
 20
6.85350000
  0
VERTEX
  8
0
 62
7
 10
39.11300000
 20
6.84900000
  0
VERTEX
  8
0
 62
7
 10
39.14750000
 20
6.94525000
  0
VERTEX
  8
0
 62
7
 10
39.17900000
 20
7.04300000
  0
VERTEX
  8
0
 62
7
 10
39.20283984
 20
7.12473633
  0
VERTEX
  8
0
 62
7
 10
39.22421875
 20
7.20714063
  0
VERTEX
  8
0
 62
7
 10
39.24330078
 20
7.29013086
  0
VERTEX
  8
0
 62
7
 10
39.26025000
 20
7.37362500
  0
VERTEX
  8
0
 62
7
 10
39.27523047
 20
7.45754102
  0
VERTEX
  8
0
 62
7
 10
39.28840625
 20
7.54179688
  0
VERTEX
  8
0
 62
7
 10
39.29994141
 20
7.62631055
  0
VERTEX
  8
0
 62
7
 10
39.31000000
 20
7.71100000
  0
VERTEX
  8
0
 62
7
 10
39.32006250
 20
7.82006250
  0
VERTEX
  8
0
 62
7
 10
39.32675000
 20
7.92950000
  0
VERTEX
  8
0
 62
7
 10
39.33081250
 20
8.03893750
  0
VERTEX
  8
0
 62
7
 10
39.33300000
 20
8.14800000
  0
VERTEX
  8
0
 62
7
 10
39.33300000
 20
8.21600000
  0
VERTEX
  8
0
 62
7
 10
39.33081250
 20
8.37403125
  0
VERTEX
  8
0
 62
7
 10
39.32375000
 20
8.53300000
  0
VERTEX
  8
0
 62
7
 10
39.31106250
 20
8.69271875
  0
VERTEX
  8
0
 62
7
 10
39.29200000
 20
8.85300000
  0
VERTEX
  8
0
 62
7
 10
39.26968750
 20
8.98393750
  0
VERTEX
  8
0
 62
7
 10
39.24175000
 20
9.11375000
  0
VERTEX
  8
0
 62
7
 10
39.21043750
 20
9.24168750
  0
VERTEX
  8
0
 62
7
 10
39.17800000
 20
9.36700000
  0
VERTEX
  8
0
 62
7
 10
39.17300000
 20
9.38500000
  0
VERTEX
  8
0
 62
7
 10
39.10637500
 20
9.62125000
  0
VERTEX
  8
0
 62
7
 10
39.03300000
 20
9.85600000
  0
VERTEX
  8
0
 62
7
 10
38.98300000
 20
10.01000000
  0
VERTEX
  8
0
 62
7
 10
38.88500000
 20
10.30900000
  0
VERTEX
  8
0
 62
7
 10
38.83800000
 20
10.45200000
  0
VERTEX
  8
0
 62
7
 10
38.73400000
 20
10.76400000
  0
VERTEX
  8
0
 62
7
 10
38.63300000
 20
11.04000000
  0
VERTEX
  8
0
 62
7
 10
38.56300000
 20
11.23200000
  0
VERTEX
  8
0
 62
7
 10
38.51800000
 20
11.35100000
  0
VERTEX
  8
0
 62
7
 10
38.47137500
 20
11.47787500
  0
VERTEX
  8
0
 62
7
 10
38.43000000
 20
11.60100000
  0
VERTEX
  8
0
 62
7
 10
38.43000000
 20
11.60300000
  0
VERTEX
  8
0
 62
7
 10
38.41262500
 20
11.66237500
  0
VERTEX
  8
0
 62
7
 10
38.40200000
 20
11.71200000
  0
VERTEX
  8
0
 62
7
 10
38.39800000
 20
11.74200000
  0
VERTEX
  8
0
 62
7
 10
38.39400000
 20
11.78300000
  0
VERTEX
  8
0
 62
7
 10
38.39500000
 20
11.80200000
  0
VERTEX
  8
0
 62
7
 10
38.40201563
 20
11.83131250
  0
VERTEX
  8
0
 62
7
 10
38.41212500
 20
11.85500000
  0
VERTEX
  8
0
 62
7
 10
38.42467188
 20
11.87343750
  0
VERTEX
  8
0
 62
7
 10
38.43900000
 20
11.88700000
  0
VERTEX
  8
0
 62
7
 10
38.45490625
 20
11.89576563
  0
VERTEX
  8
0
 62
7
 10
38.47250000
 20
11.90237500
  0
VERTEX
  8
0
 62
7
 10
38.49159375
 20
11.90654688
  0
VERTEX
  8
0
 62
7
 10
38.51200000
 20
11.90800000
  0
VERTEX
  8
0
 62
7
 10
38.53545898
 20
11.90993555
  0
VERTEX
  8
0
 62
7
 10
38.55810938
 20
11.91560938
  0
VERTEX
  8
0
 62
7
 10
38.57923633
 20
11.92482227
  0
VERTEX
  8
0
 62
7
 10
38.59812500
 20
11.93737500
  0
VERTEX
  8
0
 62
7
 10
38.61406055
 20
11.95306836
  0
VERTEX
  8
0
 62
7
 10
38.62632813
 20
11.97170313
  0
VERTEX
  8
0
 62
7
 10
38.63421289
 20
11.99308008
  0
VERTEX
  8
0
 62
7
 10
38.63700000
 20
12.01700000
  0
VERTEX
  8
0
 62
7
 10
38.63515625
 20
12.05971875
  0
VERTEX
  8
0
 62
7
 10
38.62975000
 20
12.10225000
  0
VERTEX
  8
0
 62
7
 10
38.62096875
 20
12.14440625
  0
VERTEX
  8
0
 62
7
 10
38.60900000
 20
12.18600000
  0
VERTEX
  8
0
 62
7
 10
38.58915625
 20
12.23690625
  0
VERTEX
  8
0
 62
7
 10
38.56425000
 20
12.28575000
  0
VERTEX
  8
0
 62
7
 10
38.53446875
 20
12.33196875
  0
VERTEX
  8
0
 62
7
 10
38.50000000
 20
12.37500000
  0
VERTEX
  8
0
 62
7
 10
38.45000000
 20
12.42800000
  0
VERTEX
  8
0
 62
7
 10
38.49000000
 20
12.45800000
  0
VERTEX
  8
0
 62
7
 10
38.53957813
 20
12.49934375
  0
VERTEX
  8
0
 62
7
 10
38.58362500
 20
12.54500000
  0
VERTEX
  8
0
 62
7
 10
38.62260938
 20
12.59440625
  0
VERTEX
  8
0
 62
7
 10
38.65700000
 20
12.64700000
  0
VERTEX
  8
0
 62
7
 10
38.68650000
 20
12.70417188
  0
VERTEX
  8
0
 62
7
 10
38.71075000
 20
12.76387500
  0
VERTEX
  8
0
 62
7
 10
38.73012500
 20
12.82489063
  0
VERTEX
  8
0
 62
7
 10
38.74500000
 20
12.88600000
  0
VERTEX
  8
0
 62
7
 10
38.75376563
 20
12.93229688
  0
VERTEX
  8
0
 62
7
 10
38.76037500
 20
12.97962500
  0
VERTEX
  8
0
 62
7
 10
38.76454688
 20
13.02789063
  0
VERTEX
  8
0
 62
7
 10
38.76600000
 20
13.07700000
  0
VERTEX
  8
0
 62
7
 10
38.76462500
 20
13.11912500
  0
VERTEX
  8
0
 62
7
 10
38.76100000
 20
13.16200000
  0
VERTEX
  8
0
 62
7
 10
38.75562500
 20
13.21126563
  0
VERTEX
  8
0
 62
7
 10
38.74725000
 20
13.26362500
  0
VERTEX
  8
0
 62
7
 10
38.73400000
 20
13.31767188
  0
VERTEX
  8
0
 62
7
 10
38.71400000
 20
13.37200000
  0
VERTEX
  8
0
 62
7
 10
38.68409375
 20
13.43298438
  0
VERTEX
  8
0
 62
7
 10
38.64725000
 20
13.49087500
  0
VERTEX
  8
0
 62
7
 10
38.60403125
 20
13.54482813
  0
VERTEX
  8
0
 62
7
 10
38.55500000
 20
13.59400000
  0
VERTEX
  8
0
 62
7
 10
38.52665430
 20
13.61752148
  0
VERTEX
  8
0
 62
7
 10
38.49717188
 20
13.63929688
  0
VERTEX
  8
0
 62
7
 10
38.46663477
 20
13.65926758
  0
VERTEX
  8
0
 62
7
 10
38.43512500
 20
13.67737500
  0
VERTEX
  8
0
 62
7
 10
38.40272461
 20
13.69356055
  0
VERTEX
  8
0
 62
7
 10
38.36951563
 20
13.70776563
  0
VERTEX
  8
0
 62
7
 10
38.33558008
 20
13.71993164
  0
VERTEX
  8
0
 62
7
 10
38.30100000
 20
13.73000000
  0
VERTEX
  8
0
 62
7
 10
38.31700000
 20
13.84900000
  0
VERTEX
  8
0
 62
7
 10
38.31763086
 20
13.86428125
  0
VERTEX
  8
0
 62
7
 10
38.31585938
 20
13.87918750
  0
VERTEX
  8
0
 62
7
 10
38.31181445
 20
13.89343750
  0
VERTEX
  8
0
 62
7
 10
38.30562500
 20
13.90675000
  0
VERTEX
  8
0
 62
7
 10
38.29741992
 20
13.91884375
  0
VERTEX
  8
0
 62
7
 10
38.28732813
 20
13.92943750
  0
VERTEX
  8
0
 62
7
 10
38.27547852
 20
13.93825000
  0
VERTEX
  8
0
 62
7
 10
38.26200000
 20
13.94500000
  0
VERTEX
  8
0
 62
7
 10
38.21123438
 20
13.96332813
  0
VERTEX
  8
0
 62
7
 10
38.15962500
 20
13.97762500
  0
VERTEX
  8
0
 62
7
 10
38.10745313
 20
13.98760938
  0
VERTEX
  8
0
 62
7
 10
38.05500000
 20
13.99300000
  0
VERTEX
  8
0
 62
7
 10
38.02300000
 20
13.99400000
  0
VERTEX
  8
0
 62
7
 10
37.97931250
 20
13.99237500
  0
VERTEX
  8
0
 62
7
 10
37.93675000
 20
13.98775000
  0
VERTEX
  8
0
 62
7
 10
37.89531250
 20
13.98050000
  0
VERTEX
  8
0
 62
7
 10
37.85500000
 20
13.97100000
  0
VERTEX
  8
0
 62
7
 10
37.79485938
 20
13.95170313
  0
VERTEX
  8
0
 62
7
 10
37.73762500
 20
13.92687500
  0
VERTEX
  8
0
 62
7
 10
37.68357813
 20
13.89660938
  0
VERTEX
  8
0
 62
7
 10
37.63300000
 20
13.86100000
  0
VERTEX
  8
0
 62
7
 10
37.58951563
 20
13.82376563
  0
VERTEX
  8
0
 62
7
 10
37.55137500
 20
13.78362500
  0
VERTEX
  8
0
 62
7
 10
37.51754688
 20
13.74217188
  0
VERTEX
  8
0
 62
7
 10
37.48700000
 20
13.70100000
  0
VERTEX
  8
0
 62
7
 10
37.45534375
 20
13.65443750
  0
VERTEX
  8
0
 62
7
 10
37.42725000
 20
13.60750000
  0
VERTEX
  8
0
 62
7
 10
37.40178125
 20
13.55981250
  0
VERTEX
  8
0
 62
7
 10
37.37800000
 20
13.51100000
  0
VERTEX
  8
0
 62
7
 10
37.35200000
 20
13.45200000
  0
VERTEX
  8
0
 62
7
 10
37.28200000
 20
13.45900000
  0
VERTEX
  8
0
 62
7
 10
36.28548877
 20
13.56529907
  0
VERTEX
  8
0
 62
7
 10
35.28544141
 20
13.66481445
  0
VERTEX
  8
0
 62
7
 10
34.28202490
 20
13.75753589
  0
VERTEX
  8
0
 62
7
 10
33.27540625
 20
13.84345313
  0
VERTEX
  8
0
 62
7
 10
32.26575244
 20
13.92255591
  0
VERTEX
  8
0
 62
7
 10
31.25323047
 20
13.99483398
  0
VERTEX
  8
0
 62
7
 10
30.23800732
 20
14.06027710
  0
VERTEX
  8
0
 62
7
 10
29.22025000
 20
14.11887500
  0
VERTEX
  8
0
 62
7
 10
28.20012549
 20
14.17061743
  0
VERTEX
  8
0
 62
7
 10
27.17780078
 20
14.21549414
  0
VERTEX
  8
0
 62
7
 10
26.15344287
 20
14.25349487
  0
VERTEX
  8
0
 62
7
 10
25.12721875
 20
14.28460938
  0
VERTEX
  8
0
 62
7
 10
24.09929541
 20
14.30882739
  0
VERTEX
  8
0
 62
7
 10
23.06983984
 20
14.32613867
  0
VERTEX
  8
0
 62
7
 10
22.03901904
 20
14.33653296
  0
VERTEX
  8
0
 62
7
 10
21.00700000
 20
14.34000000
  0
SEQEND
  0
POLYLINE
  8
0
 62
7
 66
1
 70
1
  0
VERTEX
  8
0
 62
7
 10
38.96900000
 20
6.65500000
  0
VERTEX
  8
0
 62
7
 10
38.97086031
 20
6.62357302
  0
VERTEX
  8
0
 62
7
 10
38.97123896
 20
6.59244237
  0
VERTEX
  8
0
 62
7
 10
38.96944450
 20
6.56150927
  0
VERTEX
  8
0
 62
7
 10
38.96478549
 20
6.53067494
  0
VERTEX
  8
0
 62
7
 10
38.94805916
 20
6.47615103
  0
VERTEX
  8
0
 62
7
 10
38.92580128
 20
6.42320752
  0
VERTEX
  8
0
 62
7
 10
38.89313884
 20
6.36157180
  0
VERTEX
  8
0
 62
7
 10
38.85415463
 20
6.30309688
  0
VERTEX
  8
0
 62
7
 10
38.78869804
 20
6.22052081
  0
VERTEX
  8
0
 62
7
 10
38.71929034
 20
6.14189575
  0
VERTEX
  8
0
 62
7
 10
38.60549860
 20
6.01651709
  0
VERTEX
  8
0
 62
7
 10
38.57486110
 20
5.97987149
  0
VERTEX
  8
0
 62
7
 10
38.54293948
 20
5.94144793
  0
VERTEX
  8
0
 62
7
 10
38.51200565
 20
5.90183908
  0
VERTEX
  8
0
 62
7
 10
38.48433147
 20
5.86163757
  0
VERTEX
  8
0
 62
7
 10
38.45771092
 20
5.81949348
  0
VERTEX
  8
0
 62
7
 10
38.43336225
 20
5.77734940
  0
VERTEX
  8
0
 62
7
 10
38.41158180
 20
5.73362491
  0
VERTEX
  8
0
 62
7
 10
38.39266590
 20
5.68673961
  0
VERTEX
  8
0
 62
7
 10
38.38125709
 20
5.64746001
  0
VERTEX
  8
0
 62
7
 10
38.37251528
 20
5.60719265
  0
VERTEX
  8
0
 62
7
 10
38.36673679
 20
5.56613509
  0
VERTEX
  8
0
 62
7
 10
38.36421796
 20
5.52448488
  0
VERTEX
  8
0
 62
7
 10
38.36571609
 20
5.47947631
  0
VERTEX
  8
0
 62
7
 10
38.37067143
 20
5.43466529
  0
VERTEX
  8
0
 62
7
 10
38.37977543
 20
5.39024938
  0
VERTEX
  8
0
 62
7
 10
38.39371953
 20
5.34642611
  0
VERTEX
  8
0
 62
7
 10
38.41041293
 20
5.30457835
  0
VERTEX
  8
0
 62
7
 10
38.43165011
 20
5.26450854
  0
VERTEX
  8
0
 62
7
 10
38.45683838
 20
5.22641424
  0
VERTEX
  8
0
 62
7
 10
38.48538510
 20
5.19049299
  0
VERTEX
  8
0
 62
7
 10
38.52023711
 20
5.15796303
  0
VERTEX
  8
0
 62
7
 10
38.55795367
 20
5.12938407
  0
VERTEX
  8
0
 62
7
 10
38.59784334
 20
5.10396591
  0
VERTEX
  8
0
 62
7
 10
38.63921467
 20
5.08091837
  0
VERTEX
  8
0
 62
7
 10
38.68242985
 20
5.05928660
  0
VERTEX
  8
0
 62
7
 10
38.72653403
 20
5.04140829
  0
VERTEX
  8
0
 62
7
 10
38.77123087
 20
5.02669078
  0
VERTEX
  8
0
 62
7
 10
38.81622405
 20
5.01454143
  0
VERTEX
  8
0
 62
7
 10
38.86301168
 20
5.00530595
  0
VERTEX
  8
0
 62
7
 10
38.90999687
 20
4.99913250
  0
VERTEX
  8
0
 62
7
 10
38.95698206
 20
4.99513210
  0
VERTEX
  8
0
 62
7
 10
39.00376970
 20
4.99241579
  0
VERTEX
  8
0
 62
7
 10
39.06776109
 20
4.99187252
  0
VERTEX
  8
0
 62
7
 10
39.13165371
 20
4.99518149
  0
VERTEX
  8
0
 62
7
 10
39.19534876
 20
5.00026841
  0
VERTEX
  8
0
 62
7
 10
39.25874749
 20
5.00505901
  0
VERTEX
  8
0
 62
7
 10
39.31073741
 20
5.00991546
  0
VERTEX
  8
0
 62
7
 10
39.36252977
 20
5.01625353
  0
VERTEX
  8
0
 62
7
 10
39.41432214
 20
5.02120876
  0
VERTEX
  8
0
 62
7
 10
39.46631206
 20
5.02191665
  0
VERTEX
  8
0
 62
7
 10
39.50106529
 20
5.01984237
  0
VERTEX
  8
0
 62
7
 10
39.53571975
 20
5.01717544
  0
VERTEX
  8
0
 62
7
 10
39.57017666
 20
5.01213790
  0
VERTEX
  8
0
 62
7
 10
39.60433723
 20
5.00295181
  0
VERTEX
  8
0
 62
7
 10
39.64065444
 20
4.98895865
  0
VERTEX
  8
0
 62
7
 10
39.67598388
 20
4.97160714
  0
VERTEX
  8
0
 62
7
 10
39.70894266
 20
4.94990952
  0
VERTEX
  8
0
 62
7
 10
39.73814789
 20
4.92287804
  0
VERTEX
  8
0
 62
7
 10
39.75405107
 20
4.90478572
  0
VERTEX
  8
0
 62
7
 10
39.76738604
 20
4.88560687
  0
VERTEX
  8
0
 62
7
 10
39.77874546
 20
4.86583536
  0
VERTEX
  8
0
 62
7
 10
39.78872199
 20
4.84596508
  0
VERTEX
  8
0
 62
7
 10
39.81914548
 20
4.85067337
  0
VERTEX
  8
0
 62
7
 10
39.84877875
 20
4.85834491
  0
VERTEX
  8
0
 62
7
 10
39.87762179
 20
4.86878216
  0
VERTEX
  8
0
 62
7
 10
39.90567462
 20
4.88178756
  0
VERTEX
  8
0
 62
7
 10
39.94597586
 20
4.90664598
  0
VERTEX
  8
0
 62
7
 10
39.98232600
 20
4.93683827
  0
VERTEX
  8
0
 62
7
 10
40.01353971
 20
4.97216687
  0
VERTEX
  8
0
 62
7
 10
40.03843165
 20
5.01243423
  0
VERTEX
  8
0
 62
7
 10
40.04884445
 20
5.03586864
  0
VERTEX
  8
0
 62
7
 10
40.05713353
 20
5.06024142
  0
VERTEX
  8
0
 62
7
 10
40.06324951
 20
5.08540441
  0
VERTEX
  8
0
 62
7
 10
40.06714299
 20
5.11120943
  0
VERTEX
  8
0
 62
7
 10
40.06876459
 20
5.13750833
  0
VERTEX
  8
0
 62
7
 10
40.06806492
 20
5.16415294
  0
VERTEX
  8
0
 62
7
 10
40.06499458
 20
5.19099510
  0
VERTEX
  8
0
 62
7
 10
40.05950419
 20
5.21788665
  0
VERTEX
  8
0
 62
7
 10
40.04228397
 20
5.27125818
  0
VERTEX
  8
0
 62
7
 10
40.01735911
 20
5.32166646
  0
VERTEX
  8
0
 62
7
 10
39.98453203
 20
5.36812373
  0
VERTEX
  8
0
 62
7
 10
39.94360520
 20
5.40964224
  0
VERTEX
  8
0
 62
7
 10
39.95619934
 20
5.42366832
  0
VERTEX
  8
0
 62
7
 10
39.96691670
 20
5.43887970
  0
VERTEX
  8
0
 62
7
 10
39.97546096
 20
5.45527639
  0
VERTEX
  8
0
 62
7
 10
39.98153578
 20
5.47285837
  0
VERTEX
  8
0
 62
7
 10
39.98739658
 20
5.49534619
  0
VERTEX
  8
0
 62
7
 10
39.99049161
 20
5.51842667
  0
VERTEX
  8
0
 62
7
 10
39.99042576
 20
5.54190224
  0
VERTEX
  8
0
 62
7
 10
39.98680392
 20
5.56557536
  0
VERTEX
  8
0
 62
7
 10
39.97812795
 20
5.58868876
  0
VERTEX
  8
0
 62
7
 10
39.96638989
 20
5.61061686
  0
VERTEX
  8
0
 62
7
 10
39.95168849
 20
5.63135965
  0
VERTEX
  8
0
 62
7
 10
39.93412255
 20
5.65091714
  0
VERTEX
  8
0
 62
7
 10
39.91451521
 20
5.66869667
  0
VERTEX
  8
0
 62
7
 10
39.89263598
 20
5.68331540
  0
VERTEX
  8
0
 62
7
 10
39.86937387
 20
5.69595863
  0
VERTEX
  8
0
 62
7
 10
39.84561786
 20
5.70781165
  0
VERTEX
  8
0
 62
7
 10
39.79846805
 20
5.72651309
  0
VERTEX
  8
0
 62
7
 10
39.74973779
 20
5.74047332
  0
VERTEX
  8
0
 62
7
 10
39.70910729
 20
5.74858935
  0
VERTEX
  8
0
 62
7
 10
39.66808167
 20
5.75403845
  0
VERTEX
  8
0
 62
7
 10
39.62705606
 20
5.75691939
  0
VERTEX
  8
0
 62
7
 10
39.58642556
 20
5.75733096
  0
VERTEX
  8
0
 62
7
 10
39.54806695
 20
5.75509205
  0
VERTEX
  8
0
 62
7
 10
39.51030100
 20
5.75048254
  0
VERTEX
  8
0
 62
7
 10
39.47293015
 20
5.74429263
  0
VERTEX
  8
0
 62
7
 10
39.43575687
 20
5.73731252
  0
VERTEX
  8
0
 62
7
 10
39.39706899
 20
5.72830751
  0
VERTEX
  8
0
 62
7
 10
39.35857867
 20
5.71821598
  0
VERTEX
  8
0
 62
7
 10
39.32048346
 20
5.70634649
  0
VERTEX
  8
0
 62
7
 10
39.28298092
 20
5.69200762
  0
VERTEX
  8
0
 62
7
 10
39.24612043
 20
5.67534754
  0
VERTEX
  8
0
 62
7
 10
39.21014893
 20
5.65671195
  0
VERTEX
  8
0
 62
7
 10
39.17556033
 20
5.63570576
  0
VERTEX
  8
0
 62
7
 10
39.14284849
 20
5.61193386
  0
VERTEX
  8
0
 62
7
 10
39.11556943
 20
5.58719067
  0
VERTEX
  8
0
 62
7
 10
39.09056224
 20
5.55938545
  0
VERTEX
  8
0
 62
7
 10
39.06535750
 20
5.53177778
  0
VERTEX
  8
0
 62
7
 10
39.03748577
 20
5.50762724
  0
VERTEX
  8
0
 62
7
 10
38.98730677
 20
5.47667768
  0
VERTEX
  8
0
 62
7
 10
38.93633756
 20
5.45283993
  0
VERTEX
  8
0
 62
7
 10
38.90925604
 20
5.44431234
  0
VERTEX
  8
0
 62
7
 10
38.88089042
 20
5.43598230
  0
VERTEX
  8
0
 62
7
 10
38.85232725
 20
5.43002286
  0
VERTEX
  8
0
 62
7
 10
38.82465307
 20
5.42860708
  0
VERTEX
  8
0
 62
7
 10
38.81418882
 20
5.42906186
  0
VERTEX
  8
0
 62
7
 10
38.80356406
 20
5.42987470
  0
VERTEX
  8
0
 62
7
 10
38.79311216
 20
5.43140365
  0
VERTEX
  8
0
 62
7
 10
38.78316650
 20
5.43400679
  0
VERTEX
  8
0
 62
7
 10
38.77406044
 20
5.43804217
  0
VERTEX
  8
0
 62
7
 10
38.76612737
 20
5.44386785
  0
VERTEX
  8
0
 62
7
 10
38.75970065
 20
5.45184189
  0
VERTEX
  8
0
 62
7
 10
38.75511367
 20
5.46232235
  0
VERTEX
  8
0
 62
7
 10
38.75359908
 20
5.47239742
  0
VERTEX
  8
0
 62
7
 10
38.75485026
 20
5.48207739
  0
VERTEX
  8
0
 62
7
 10
38.75807700
 20
5.49136226
  0
VERTEX
  8
0
 62
7
 10
38.76248906
 20
5.50025203
  0
VERTEX
  8
0
 62
7
 10
38.77488564
 20
5.51674749
  0
VERTEX
  8
0
 62
7
 10
38.79291255
 20
5.52790909
  0
VERTEX
  8
0
 62
7
 10
38.81390278
 20
5.53551478
  0
VERTEX
  8
0
 62
7
 10
38.83518934
 20
5.54134251
  0
VERTEX
  8
0
 62
7
 10
38.87628080
 20
5.55174683
  0
VERTEX
  8
0
 62
7
 10
38.91737227
 20
5.56452176
  0
VERTEX
  8
0
 62
7
 10
38.98414589
 20
5.59349582
  0
VERTEX
  8
0
 62
7
 10
39.05012930
 20
5.62563069
  0
VERTEX
  8
0
 62
7
 10
39.09800349
 20
5.65073605
  0
VERTEX
  8
0
 62
7
 10
39.14627278
 20
5.67633529
  0
VERTEX
  8
0
 62
7
 10
39.19414697
 20
5.70371248
  0
VERTEX
  8
0
 62
7
 10
39.24083583
 20
5.73415171
  0
VERTEX
  8
0
 62
7
 10
39.28787041
 20
5.76743895
  0
VERTEX
  8
0
 62
7
 10
39.33184288
 20
5.79973844
  0
VERTEX
  8
0
 62
7
 10
39.37403736
 20
5.83401344
  0
VERTEX
  8
0
 62
7
 10
39.41573795
 20
5.87322719
  0
VERTEX
  8
0
 62
7
 10
39.46459991
 20
5.92590730
  0
VERTEX
  8
0
 62
7
 10
39.50951077
 20
5.98174822
  0
VERTEX
  8
0
 62
7
 10
39.52406812
 20
6.00428131
  0
VERTEX
  8
0
 62
7
 10
39.53746482
 20
6.02649338
  0
VERTEX
  8
0
 62
7
 10
39.54933048
 20
6.04905117
  0
VERTEX
  8
0
 62
7
 10
39.55929466
 20
6.07262140
  0
VERTEX
  8
0
 62
7
 10
39.56698696
 20
6.09787082
  0
VERTEX
  8
0
 62
7
 10
39.57203697
 20
6.12546614
  0
VERTEX
  8
0
 62
7
 10
39.57407425
 20
6.15607410
  0
VERTEX
  8
0
 62
7
 10
39.57272841
 20
6.19036145
  0
VERTEX
  8
0
 62
7
 10
39.56614324
 20
6.21512110
  0
VERTEX
  8
0
 62
7
 10
39.55165586
 20
6.23671994
  0
VERTEX
  8
0
 62
7
 10
39.53789286
 20
6.25089418
  0
VERTEX
  8
0
 62
7
 10
39.52215430
 20
6.26161129
  0
VERTEX
  8
0
 62
7
 10
39.50483530
 20
6.26857494
  0
VERTEX
  8
0
 62
7
 10
39.48633098
 20
6.27148881
  0
VERTEX
  8
0
 62
7
 10
39.49204361
 20
6.30978067
  0
VERTEX
  8
0
 62
7
 10
39.49489170
 20
6.34866517
  0
VERTEX
  8
0
 62
7
 10
39.49477646
 20
6.38794478
  0
VERTEX
  8
0
 62
7
 10
39.49159911
 20
6.42742193
  0
VERTEX
  8
0
 62
7
 10
39.48549137
 20
6.47272683
  0
VERTEX
  8
0
 62
7
 10
39.47671663
 20
6.51803172
  0
VERTEX
  8
0
 62
7
 10
39.46300301
 20
6.56254641
  0
VERTEX
  8
0
 62
7
 10
39.44207863
 20
6.60548070
  0
VERTEX
  8
0
 62
7
 10
39.42066037
 20
6.63932767
  0
VERTEX
  8
0
 62
7
 10
39.39558733
 20
6.67080403
  0
VERTEX
  8
0
 62
7
 10
39.36636564
 20
6.69911959
  0
VERTEX
  8
0
 62
7
 10
39.33250140
 20
6.72348414
  0
VERTEX
  8
0
 62
7
 10
39.30833382
 20
6.73647720
  0
VERTEX
  8
0
 62
7
 10
39.28337603
 20
6.74702556
  0
VERTEX
  8
0
 62
7
 10
39.25782557
 20
6.75515394
  0
VERTEX
  8
0
 62
7
 10
39.23188000
 20
6.76088702
  0
VERTEX
  8
0
 62
7
 10
39.20573687
 20
6.76424949
  0
VERTEX
  8
0
 62
7
 10
39.17959374
 20
6.76526605
  0
VERTEX
  8
0
 62
7
 10
39.15364817
 20
6.76396140
  0
VERTEX
  8
0
 62
7
 10
39.12809771
 20
6.76036022
  0
VERTEX
  8
0
 62
7
 10
39.10406184
 20
6.75440695
  0
VERTEX
  8
0
 62
7
 10
39.08101375
 20
6.74612012
  0
VERTEX
  8
0
 62
7
 10
39.05905220
 20
6.73563555
  0
VERTEX
  8
0
 62
7
 10
39.03827599
 20
6.72308904
  0
VERTEX
  8
0
 62
7
 10
39.01878389
 20
6.70861641
  0
VERTEX
  8
0
 62
7
 10
39.00067467
 20
6.69235349
  0
VERTEX
  8
0
 62
7
 10
38.98404711
 20
6.67443608
  0
VERTEX
  8
0
 62
7
 10
38.96900000
 20
6.65500000
  0
SEQEND
  0
POLYLINE
  8
0
 62
7
 66
1
 70
1
  0
VERTEX
  8
0
 62
7
 10
37.50200000
 20
9.22800000
  0
VERTEX
  8
0
 62
7
 10
37.54914982
 20
9.25473515
  0
VERTEX
  8
0
 62
7
 10
37.60104096
 20
9.27435850
  0
VERTEX
  8
0
 62
7
 10
37.63633747
 20
9.28127276
  0
VERTEX
  8
0
 62
7
 10
37.67242421
 20
9.28384091
  0
VERTEX
  8
0
 62
7
 10
37.70890605
 20
9.28324826
  0
VERTEX
  8
0
 62
7
 10
37.74538789
 20
9.28068011
  0
VERTEX
  8
0
 62
7
 10
37.80070332
 20
9.27462190
  0
VERTEX
  8
0
 62
7
 10
37.85917963
 20
9.26382247
  0
VERTEX
  8
0
 62
7
 10
37.96348873
 20
9.23748242
  0
VERTEX
  8
0
 62
7
 10
38.02262356
 20
9.22431239
  0
VERTEX
  8
0
 62
7
 10
38.08254861
 20
9.21430317
  0
VERTEX
  8
0
 62
7
 10
38.10758666
 20
9.21118146
  0
VERTEX
  8
0
 62
7
 10
38.13350136
 20
9.20908455
  0
VERTEX
  8
0
 62
7
 10
38.15998404
 20
9.20824702
  0
VERTEX
  8
0
 62
7
 10
38.18672600
 20
9.20890346
  0
VERTEX
  8
0
 62
7
 10
38.21341858
 20
9.21128847
  0
VERTEX
  8
0
 62
7
 10
38.23975309
 20
9.21563664
  0
VERTEX
  8
0
 62
7
 10
38.26542085
 20
9.22218255
  0
VERTEX
  8
0
 62
7
 10
38.29011318
 20
9.23116081
  0
VERTEX
  8
0
 62
7
 10
38.31915378
 20
9.24581246
  0
VERTEX
  8
0
 62
7
 10
38.34621883
 20
9.26382247
  0
VERTEX
  8
0
 62
7
 10
38.37130833
 20
9.28420309
  0
VERTEX
  8
0
 62
7
 10
38.39442227
 20
9.30596656
  0
VERTEX
  8
0
 62
7
 10
38.41977518
 20
9.33268525
  0
VERTEX
  8
0
 62
7
 10
38.44315253
 20
9.36088557
  0
VERTEX
  8
0
 62
7
 10
38.46376412
 20
9.39086385
  0
VERTEX
  8
0
 62
7
 10
38.48081971
 20
9.42291640
  0
VERTEX
  8
0
 62
7
 10
38.49400651
 20
9.45114965
  0
VERTEX
  8
0
 62
7
 10
38.50492143
 20
9.48046942
  0
VERTEX
  8
0
 62
7
 10
38.51326813
 20
9.51077694
  0
VERTEX
  8
0
 62
7
 10
38.51875029
 20
9.54197344
  0
VERTEX
  8
0
 62
7
 10
38.52304917
 20
9.57147019
  0
VERTEX
  8
0
 62
7
 10
38.52508851
 20
9.60074469
  0
VERTEX
  8
0
 62
7
 10
38.52517700
 20
9.62987103
  0
VERTEX
  8
0
 62
7
 10
38.52362331
 20
9.65892328
  0
VERTEX
  8
0
 62
7
 10
38.52073613
 20
9.68797554
  0
VERTEX
  8
0
 62
7
 10
38.51682413
 20
9.71710188
  0
VERTEX
  8
0
 62
7
 10
38.51219599
 20
9.74637638
  0
VERTEX
  8
0
 62
7
 10
38.50716039
 20
9.77587313
  0
VERTEX
  8
0
 62
7
 10
38.49012126
 20
9.84758392
  0
VERTEX
  8
0
 62
7
 10
38.46725426
 20
9.91968982
  0
VERTEX
  8
0
 62
7
 10
38.44063371
 20
9.99100552
  0
VERTEX
  8
0
 62
7
 10
38.41233394
 20
10.06034571
  0
VERTEX
  8
0
 62
7
 10
38.38635544
 20
10.12046688
  0
VERTEX
  8
0
 62
7
 10
38.35780873
 20
10.17940275
  0
VERTEX
  8
0
 62
7
 10
38.32728646
 20
10.23754842
  0
VERTEX
  8
0
 62
7
 10
38.29538131
 20
10.29529899
  0
VERTEX
  8
0
 62
7
 10
38.23005642
 20
10.39921051
  0
VERTEX
  8
0
 62
7
 10
38.16157065
 20
10.50075141
  0
VERTEX
  8
0
 62
7
 10
38.04251077
 20
10.65984534
  0
VERTEX
  8
0
 62
7
 10
38.01202144
 20
10.70146263
  0
VERTEX
  8
0
 62
7
 10
37.98034677
 20
10.74307991
  0
VERTEX
  8
0
 62
7
 10
37.94946232
 20
10.78548740
  0
VERTEX
  8
0
 62
7
 10
37.92134364
 20
10.82947529
  0
VERTEX
  8
0
 62
7
 10
37.88907631
 20
10.88874041
  0
VERTEX
  8
0
 62
7
 10
37.86234052
 20
10.94958594
  0
VERTEX
  8
0
 62
7
 10
37.84806716
 20
10.98595167
  0
VERTEX
  8
0
 62
7
 10
37.83665835
 20
11.02241619
  0
VERTEX
  8
0
 62
7
 10
37.82781776
 20
11.05907825
  0
VERTEX
  8
0
 62
7
 10
37.82124905
 20
11.09603664
  0
VERTEX
  8
0
 62
7
 10
37.81700162
 20
11.12384186
  0
VERTEX
  8
0
 62
7
 10
37.81413707
 20
11.15174585
  0
VERTEX
  8
0
 62
7
 10
37.81324807
 20
11.17945230
  0
VERTEX
  8
0
 62
7
 10
37.81492729
 20
11.20666486
  0
VERTEX
  8
0
 62
7
 10
37.81723210
 20
11.23567185
  0
VERTEX
  8
0
 62
7
 10
37.82230268
 20
11.26408618
  0
VERTEX
  8
0
 62
7
 10
37.82974392
 20
11.29171031
  0
VERTEX
  8
0
 62
7
 10
37.83916072
 20
11.31834669
  0
VERTEX
  8
0
 62
7
 10
37.82340570
 20
11.34621159
  0
VERTEX
  8
0
 62
7
 10
37.80478613
 20
11.37196517
  0
VERTEX
  8
0
 62
7
 10
37.78359834
 20
11.39537283
  0
VERTEX
  8
0
 62
7
 10
37.76013867
 20
11.41619999
  0
VERTEX
  8
0
 62
7
 10
37.73470345
 20
11.43421206
  0
VERTEX
  8
0
 62
7
 10
37.70758902
 20
11.44917445
  0
VERTEX
  8
0
 62
7
 10
37.67909169
 20
11.46085256
  0
VERTEX
  8
0
 62
7
 10
37.64950781
 20
11.46901180
  0
VERTEX
  8
0
 62
7
 10
37.60917365
 20
11.47404934
  0
VERTEX
  8
0
 62
7
 10
37.56943214
 20
11.47217261
  0
VERTEX
  8
0
 62
7
 10
37.53127108
 20
11.46397427
  0
VERTEX
  8
0
 62
7
 10
37.49567824
 20
11.45004696
  0
VERTEX
  8
0
 62
7
 10
37.46872843
 20
11.43440756
  0
VERTEX
  8
0
 62
7
 10
37.44444561
 20
11.41501469
  0
VERTEX
  8
0
 62
7
 10
37.42233590
 20
11.39285612
  0
VERTEX
  8
0
 62
7
 10
37.40190541
 20
11.36891960
  0
VERTEX
  8
0
 62
7
 10
37.38127737
 20
11.33961629
  0
VERTEX
  8
0
 62
7
 10
37.36331631
 20
11.30991788
  0
VERTEX
  8
0
 62
7
 10
37.34752837
 20
11.27468805
  0
VERTEX
  8
0
 62
7
 10
37.33341964
 20
11.22879051
  0
VERTEX
  8
0
 62
7
 10
37.32217546
 20
11.17502387
  0
VERTEX
  8
0
 62
7
 10
37.31616650
 20
11.12105969
  0
VERTEX
  8
0
 62
7
 10
37.31430618
 20
11.06670040
  0
VERTEX
  8
0
 62
7
 10
37.31550798
 20
11.01174846
  0
VERTEX
  8
0
 62
7
 10
37.31861947
 20
10.96654235
  0
VERTEX
  8
0
 62
7
 10
37.32459551
 20
10.92113868
  0
VERTEX
  8
0
 62
7
 10
37.33313977
 20
10.87573501
  0
VERTEX
  8
0
 62
7
 10
37.34395591
 20
10.83052889
  0
VERTEX
  8
0
 62
7
 10
37.37135022
 20
10.74887472
  0
VERTEX
  8
0
 62
7
 10
37.40506629
 20
10.67038136
  0
VERTEX
  8
0
 62
7
 10
37.29654269
 20
10.61137964
  0
VERTEX
  8
0
 62
7
 10
37.30304966
 20
10.57204242
  0
VERTEX
  8
0
 62
7
 10
37.31224832
 20
10.53314968
  0
VERTEX
  8
0
 62
7
 10
37.32406458
 20
10.49484960
  0
VERTEX
  8
0
 62
7
 10
37.33842437
 20
10.45729032
  0
VERTEX
  8
0
 62
7
 10
37.35525360
 20
10.42062003
  0
VERTEX
  8
0
 62
7
 10
37.37447818
 20
10.38498688
  0
VERTEX
  8
0
 62
7
 10
37.39602403
 20
10.35053902
  0
VERTEX
  8
0
 62
7
 10
37.41981708
 20
10.31742464
  0
VERTEX
  8
0
 62
7
 10
37.45261122
 20
10.28051564
  0
VERTEX
  8
0
 62
7
 10
37.48856625
 20
10.24656989
  0
VERTEX
  8
0
 62
7
 10
37.52649683
 20
10.21459965
  0
VERTEX
  8
0
 62
7
 10
37.56521763
 20
10.18361716
  0
VERTEX
  8
0
 62
7
 10
37.64081539
 20
10.12869815
  0
VERTEX
  8
0
 62
7
 10
37.72115447
 20
10.07931055
  0
VERTEX
  8
0
 62
7
 10
37.76710249
 20
10.05539049
  0
VERTEX
  8
0
 62
7
 10
37.81374196
 20
10.03413736
  0
VERTEX
  8
0
 62
7
 10
37.86176431
 20
10.01308177
  0
VERTEX
  8
0
 62
7
 10
37.91186100
 20
9.98975436
  0
VERTEX
  8
0
 62
7
 10
37.94886965
 20
9.97059198
  0
VERTEX
  8
0
 62
7
 10
37.98429787
 20
9.94945408
  0
VERTEX
  8
0
 62
7
 10
38.01854076
 20
9.92634068
  0
VERTEX
  8
0
 62
7
 10
38.05199342
 20
9.90125178
  0
VERTEX
  8
0
 62
7
 10
38.09176785
 20
9.87135582
  0
VERTEX
  8
0
 62
7
 10
38.12996184
 20
9.83276764
  0
VERTEX
  8
0
 62
7
 10
38.14074505
 20
9.81940006
  0
VERTEX
  8
0
 62
7
 10
38.15063927
 20
9.80563739
  0
VERTEX
  8
0
 62
7
 10
38.15677994
 20
9.79068941
  0
VERTEX
  8
0
 62
7
 10
38.15630252
 20
9.77376592
  0
VERTEX
  8
0
 62
7
 10
38.15157766
 20
9.76072759
  0
VERTEX
  8
0
 62
7
 10
38.14379069
 20
9.75243048
  0
VERTEX
  8
0
 62
7
 10
38.13304040
 20
9.74768927
  0
VERTEX
  8
0
 62
7
 10
38.11942556
 20
9.74531866
  0
VERTEX
  8
0
 62
7
 10
38.10396688
 20
9.74525281
  0
VERTEX
  8
0
 62
7
 10
38.08821186
 20
9.74795267
  0
VERTEX
  8
0
 62
7
 10
38.07304950
 20
9.75302313
  0
VERTEX
  8
0
 62
7
 10
38.05936881
 20
9.76006909
  0
VERTEX
  8
0
 62
7
 10
38.02650881
 20
9.78188195
  0
VERTEX
  8
0
 62
7
 10
37.99641458
 20
9.80892989
  0
VERTEX
  8
0
 62
7
 10
37.96750569
 20
9.83815089
  0
VERTEX
  8
0
 62
7
 10
37.93820168
 20
9.86648291
  0
VERTEX
  8
0
 62
7
 10
37.81914180
 20
9.96552151
  0
VERTEX
  8
0
 62
7
 10
37.70008192
 20
10.06034571
  0
VERTEX
  8
0
 62
7
 10
37.67184800
 20
10.07919531
  0
VERTEX
  8
0
 62
7
 10
37.64252753
 20
10.09577308
  0
VERTEX
  8
0
 62
7
 10
37.61221929
 20
10.10938760
  0
VERTEX
  8
0
 62
7
 10
37.58102204
 20
10.11934743
  0
VERTEX
  8
0
 62
7
 10
37.54760230
 20
10.12532333
  0
VERTEX
  8
0
 62
7
 10
37.51438012
 20
10.12764455
  0
VERTEX
  8
0
 62
7
 10
37.48234327
 20
10.12660741
  0
VERTEX
  8
0
 62
7
 10
37.45247952
 20
10.12250824
  0
VERTEX
  8
0
 62
7
 10
37.42370233
 20
10.11342092
  0
VERTEX
  8
0
 62
7
 10
37.39769090
 20
10.10038259
  0
VERTEX
  8
0
 62
7
 10
37.37484036
 20
10.08339326
  0
VERTEX
  8
0
 62
7
 10
37.35554581
 20
10.06245291
  0
VERTEX
  8
0
 62
7
 10
37.34374190
 20
10.04222046
  0
VERTEX
  8
0
 62
7
 10
37.33539519
 20
10.01991373
  0
VERTEX
  8
0
 62
7
 10
37.33080204
 20
9.99622414
  0
VERTEX
  8
0
 62
7
 10
37.33025876
 20
9.97184313
  0
VERTEX
  8
0
 62
7
 10
37.43351423
 20
9.87596533
  0
VERTEX
  8
0
 62
7
 10
37.40305782
 20
9.83961606
  0
VERTEX
  8
0
 62
7
 10
37.37477451
 20
9.80010597
  0
VERTEX
  8
0
 62
7
 10
37.35083742
 20
9.75743509
  0
VERTEX
  8
0
 62
7
 10
37.33341964
 20
9.71160339
  0
VERTEX
  8
0
 62
7
 10
37.32291629
 20
9.65752397
  0
VERTEX
  8
0
 62
7
 10
37.31735183
 20
9.59978986
  0
VERTEX
  8
0
 62
7
 10
37.31771401
 20
9.54106801
  0
VERTEX
  8
0
 62
7
 10
37.32499062
 20
9.48402533
  0
VERTEX
  8
0
 62
7
 10
37.33709087
 20
9.43880275
  0
VERTEX
  8
0
 62
7
 10
37.35541411
 20
9.39486424
  0
VERTEX
  8
0
 62
7
 10
37.37907133
 20
9.35230859
  0
VERTEX
  8
0
 62
7
 10
37.40717355
 20
9.31123457
  0
VERTEX
  8
0
 62
7
 10
37.42895400
 20
9.28711696
  0
VERTEX
  8
0
 62
7
 10
37.45182100
 20
9.26527118
  0
VERTEX
  8
0
 62
7
 10
37.47607089
 20
9.24559845
  0
VERTEX
  8
0
 62
7
 10
37.50200000
 20
9.22800000
  0
SEQEND
  0
POLYLINE
  8
0
 62
7
 66
1
 70
1
  0
VERTEX
  8
0
 62
7
 10
19.39500000
 20
4.97800000
  0
VERTEX
  8
0
 62
7
 10
19.40200000
 20
4.98400000
  0
VERTEX
  8
0
 62
7
 10
19.40900000
 20
4.99000000
  0
VERTEX
  8
0
 62
7
 10
19.43865625
 20
5.01946875
  0
VERTEX
  8
0
 62
7
 10
19.46625000
 20
5.05025000
  0
VERTEX
  8
0
 62
7
 10
19.49196875
 20
5.08590625
  0
VERTEX
  8
0
 62
7
 10
19.51600000
 20
5.13000000
  0
VERTEX
  8
0
 62
7
 10
19.53633203
 20
5.17628320
  0
VERTEX
  8
0
 62
7
 10
19.55509375
 20
5.22614063
  0
VERTEX
  8
0
 62
7
 10
19.57193359
 20
5.27883398
  0
VERTEX
  8
0
 62
7
 10
19.58650000
 20
5.33362500
  0
VERTEX
  8
0
 62
7
 10
19.59844141
 20
5.38977539
  0
VERTEX
  8
0
 62
7
 10
19.60740625
 20
5.44654688
  0
VERTEX
  8
0
 62
7
 10
19.61304297
 20
5.50320117
  0
VERTEX
  8
0
 62
7
 10
19.61500000
 20
5.55900000
  0
VERTEX
  8
0
 62
7
 10
19.61420313
 20
5.59404688
  0
VERTEX
  8
0
 62
7
 10
19.61162500
 20
5.62862500
  0
VERTEX
  8
0
 62
7
 10
19.60698438
 20
5.66264063
  0
VERTEX
  8
0
 62
7
 10
19.60000000
 20
5.69600000
  0
VERTEX
  8
0
 62
7
 10
19.59181250
 20
5.72237500
  0
VERTEX
  8
0
 62
7
 10
19.58100000
 20
5.74875000
  0
VERTEX
  8
0
 62
7
 10
19.56793750
 20
5.77475000
  0
VERTEX
  8
0
 62
7
 10
19.55300000
 20
5.80000000
  0
VERTEX
  8
0
 62
7
 10
19.58100000
 20
5.79900000
  0
VERTEX
  8
0
 62
7
 10
19.63887500
 20
5.78937500
  0
VERTEX
  8
0
 62
7
 10
19.69300000
 20
5.77600000
  0
VERTEX
  8
0
 62
7
 10
19.77400000
 20
5.75700000
  0
VERTEX
  8
0
 62
7
 10
19.85200000
 20
5.74300000
  0
VERTEX
  8
0
 62
7
 10
19.88925000
 20
5.73262500
  0
VERTEX
  8
0
 62
7
 10
19.92350000
 20
5.71625000
  0
VERTEX
  8
0
 62
7
 10
19.95325000
 20
5.69350000
  0
VERTEX
  8
0
 62
7
 10
19.97700000
 20
5.66400000
  0
VERTEX
  8
0
 62
7
 10
19.99301563
 20
5.62932813
  0
VERTEX
  8
0
 62
7
 10
20.00462500
 20
5.59212500
  0
VERTEX
  8
0
 62
7
 10
20.01342188
 20
5.55360938
  0
VERTEX
  8
0
 62
7
 10
20.02100000
 20
5.51500000
  0
VERTEX
  8
0
 62
7
 10
20.02689063
 20
5.45734375
  0
VERTEX
  8
0
 62
7
 10
20.02837500
 20
5.39950000
  0
VERTEX
  8
0
 62
7
 10
20.02592188
 20
5.34090625
  0
VERTEX
  8
0
 62
7
 10
20.02000000
 20
5.28100000
  0
VERTEX
  8
0
 62
7
 10
20.01362500
 20
5.23616602
  0
VERTEX
  8
0
 62
7
 10
20.00500000
 20
5.19082813
  0
VERTEX
  8
0
 62
7
 10
19.99412500
 20
5.14598242
  0
VERTEX
  8
0
 62
7
 10
19.98100000
 20
5.10262500
  0
VERTEX
  8
0
 62
7
 10
19.96562500
 20
5.06175195
  0
VERTEX
  8
0
 62
7
 10
19.94800000
 20
5.02435938
  0
VERTEX
  8
0
 62
7
 10
19.92812500
 20
4.99144336
  0
VERTEX
  8
0
 62
7
 10
19.90600000
 20
4.96400000
  0
VERTEX
  8
0
 62
7
 10
19.87820313
 20
4.94062500
  0
VERTEX
  8
0
 62
7
 10
19.84637500
 20
4.92400000
  0
VERTEX
  8
0
 62
7
 10
19.81360938
 20
4.91337500
  0
VERTEX
  8
0
 62
7
 10
19.78300000
 20
4.90800000
  0
VERTEX
  8
0
 62
7
 10
19.71975000
 20
4.90650000
  0
VERTEX
  8
0
 62
7
 10
19.65800000
 20
4.90800000
  0
VERTEX
  8
0
 62
7
 10
19.62551563
 20
4.90737500
  0
VERTEX
  8
0
 62
7
 10
19.59087500
 20
4.90750000
  0
VERTEX
  8
0
 62
7
 10
19.55604688
 20
4.90912500
  0
VERTEX
  8
0
 62
7
 10
19.52300000
 20
4.91300000
  0
VERTEX
  8
0
 62
7
 10
19.48584375
 20
4.92315625
  0
VERTEX
  8
0
 62
7
 10
19.45225000
 20
4.93725000
  0
VERTEX
  8
0
 62
7
 10
19.42203125
 20
4.95546875
  0
VERTEX
  8
0
 62
7
 10
19.39500000
 20
4.97800000
  0
SEQEND
  0
POLYLINE
  8
0
 62
7
 66
1
 70
1
  0
VERTEX
  8
0
 62
7
 10
18.99800000
 20
5.08300000
  0
VERTEX
  8
0
 62
7
 10
19.00700000
 20
5.10500000
  0
VERTEX
  8
0
 62
7
 10
19.03171875
 20
5.16914063
  0
VERTEX
  8
0
 62
7
 10
19.05475000
 20
5.23337500
  0
VERTEX
  8
0
 62
7
 10
19.07590625
 20
5.29892188
  0
VERTEX
  8
0
 62
7
 10
19.09500000
 20
5.36700000
  0
VERTEX
  8
0
 62
7
 10
19.10800000
 20
5.41700000
  0
VERTEX
  8
0
 62
7
 10
19.12167188
 20
5.46935938
  0
VERTEX
  8
0
 62
7
 10
19.13487500
 20
5.52387500
  0
VERTEX
  8
0
 62
7
 10
19.14639063
 20
5.57970313
  0
VERTEX
  8
0
 62
7
 10
19.15500000
 20
5.63600000
  0
VERTEX
  8
0
 62
7
 10
19.16625000
 20
5.75287500
  0
VERTEX
  8
0
 62
7
 10
19.17000000
 20
5.86900000
  0
VERTEX
  8
0
 62
7
 10
19.16900000
 20
5.90600000
  0
VERTEX
  8
0
 62
7
 10
19.16775000
 20
5.94293750
  0
VERTEX
  8
0
 62
7
 10
19.16500000
 20
5.98025000
  0
VERTEX
  8
0
 62
7
 10
19.16000000
 20
6.01793750
  0
VERTEX
  8
0
 62
7
 10
19.15200000
 20
6.05600000
  0
VERTEX
  8
0
 62
7
 10
19.17400000
 20
6.04500000
  0
VERTEX
  8
0
 62
7
 10
19.20625000
 20
6.02237500
  0
VERTEX
  8
0
 62
7
 10
19.23700000
 20
5.99600000
  0
VERTEX
  8
0
 62
7
 10
19.29300000
 20
5.93500000
  0
VERTEX
  8
0
 62
7
 10
19.31064063
 20
5.92071875
  0
VERTEX
  8
0
 62
7
 10
19.32987500
 20
5.90850000
  0
VERTEX
  8
0
 62
7
 10
19.34967188
 20
5.89703125
  0
VERTEX
  8
0
 62
7
 10
19.36900000
 20
5.88500000
  0
VERTEX
  8
0
 62
7
 10
19.42900000
 20
5.85000000
  0
VERTEX
  8
0
 62
7
 10
19.44812891
 20
5.83285352
  0
VERTEX
  8
0
 62
7
 10
19.46634375
 20
5.81389063
  0
VERTEX
  8
0
 62
7
 10
19.48338672
 20
5.79345117
  0
VERTEX
  8
0
 62
7
 10
19.49900000
 20
5.77187500
  0
VERTEX
  8
0
 62
7
 10
19.51292578
 20
5.74950195
  0
VERTEX
  8
0
 62
7
 10
19.52490625
 20
5.72667188
  0
VERTEX
  8
0
 62
7
 10
19.53468359
 20
5.70372461
  0
VERTEX
  8
0
 62
7
 10
19.54200000
 20
5.68100000
  0
VERTEX
  8
0
 62
7
 10
19.54812183
 20
5.65100000
  0
VERTEX
  8
0
 62
7
 10
19.55230273
 20
5.61964063
  0
VERTEX
  8
0
 62
7
 10
19.55464087
 20
5.58713281
  0
VERTEX
  8
0
 62
7
 10
19.55523438
 20
5.55368750
  0
VERTEX
  8
0
 62
7
 10
19.55418140
 20
5.51951563
  0
VERTEX
  8
0
 62
7
 10
19.55158008
 20
5.48482813
  0
VERTEX
  8
0
 62
7
 10
19.54752856
 20
5.44983594
  0
VERTEX
  8
0
 62
7
 10
19.54212500
 20
5.41475000
  0
VERTEX
  8
0
 62
7
 10
19.53546753
 20
5.37978125
  0
VERTEX
  8
0
 62
7
 10
19.52765430
 20
5.34514063
  0
VERTEX
  8
0
 62
7
 10
19.51878345
 20
5.31103906
  0
VERTEX
  8
0
 62
7
 10
19.50895313
 20
5.27768750
  0
VERTEX
  8
0
 62
7
 10
19.49826147
 20
5.24529688
  0
VERTEX
  8
0
 62
7
 10
19.48680664
 20
5.21407813
  0
VERTEX
  8
0
 62
7
 10
19.47468677
 20
5.18424219
  0
VERTEX
  8
0
 62
7
 10
19.46200000
 20
5.15600000
  0
VERTEX
  8
0
 62
7
 10
19.44059375
 20
5.11700000
  0
VERTEX
  8
0
 62
7
 10
19.41750000
 20
5.08550000
  0
VERTEX
  8
0
 62
7
 10
19.39140625
 20
5.05700000
  0
VERTEX
  8
0
 62
7
 10
19.36100000
 20
5.02700000
  0
VERTEX
  8
0
 62
7
 10
19.34678711
 20
5.01608594
  0
VERTEX
  8
0
 62
7
 10
19.33017188
 20
5.00793750
  0
VERTEX
  8
0
 62
7
 10
19.31193945
 20
5.00232031
  0
VERTEX
  8
0
 62
7
 10
19.29287500
 20
4.99900000
  0
VERTEX
  8
0
 62
7
 10
19.27376367
 20
4.99774219
  0
VERTEX
  8
0
 62
7
 10
19.25539063
 20
4.99831250
  0
VERTEX
  8
0
 62
7
 10
19.23854102
 20
5.00047656
  0
VERTEX
  8
0
 62
7
 10
19.22400000
 20
5.00400000
  0
VERTEX
  8
0
 62
7
 10
19.11800000
 20
5.05000000
  0
VERTEX
  8
0
 62
7
 10
19.05687500
 20
5.06950000
  0
VERTEX
  8
0
 62
7
 10
18.99800000
 20
5.08300000
  0
SEQEND
  0
POLYLINE
  8
0
 62
7
 66
1
 70
1
  0
VERTEX
  8
0
 62
7
 10
19.88700000
 20
4.87700000
  0
VERTEX
  8
0
 62
7
 10
19.92000000
 20
4.89662500
  0
VERTEX
  8
0
 62
7
 10
19.95000000
 20
4.92300000
  0
VERTEX
  8
0
 62
7
 10
19.97650195
 20
4.95641602
  0
VERTEX
  8
0
 62
7
 10
19.99982813
 20
4.99514063
  0
VERTEX
  8
0
 62
7
 10
20.02008398
 20
5.03801367
  0
VERTEX
  8
0
 62
7
 10
20.03737500
 20
5.08387500
  0
VERTEX
  8
0
 62
7
 10
20.05180664
 20
5.13156445
  0
VERTEX
  8
0
 62
7
 10
20.06348438
 20
5.17992188
  0
VERTEX
  8
0
 62
7
 10
20.07251367
 20
5.22778711
  0
VERTEX
  8
0
 62
7
 10
20.07900000
 20
5.27400000
  0
VERTEX
  8
0
 62
7
 10
20.08625000
 20
5.34300000
  0
VERTEX
  8
0
 62
7
 10
20.08900000
 20
5.41200000
  0
VERTEX
  8
0
 62
7
 10
20.08675000
 20
5.46812500
  0
VERTEX
  8
0
 62
7
 10
20.08000000
 20
5.52500000
  0
VERTEX
  8
0
 62
7
 10
20.07300000
 20
5.56448438
  0
VERTEX
  8
0
 62
7
 10
20.06300000
 20
5.60762500
  0
VERTEX
  8
0
 62
7
 10
20.04850000
 20
5.65170313
  0
VERTEX
  8
0
 62
7
 10
20.02800000
 20
5.69400000
  0
VERTEX
  8
0
 62
7
 10
20.02000000
 20
5.70600000
  0
VERTEX
  8
0
 62
7
 10
20.03550000
 20
5.71100000
  0
VERTEX
  8
0
 62
7
 10
20.05100000
 20
5.71300000
  0
VERTEX
  8
0
 62
7
 10
20.08023438
 20
5.71214063
  0
VERTEX
  8
0
 62
7
 10
20.10787500
 20
5.70837500
  0
VERTEX
  8
0
 62
7
 10
20.13382813
 20
5.70217188
  0
VERTEX
  8
0
 62
7
 10
20.15800000
 20
5.69400000
  0
VERTEX
  8
0
 62
7
 10
20.20212500
 20
5.68387500
  0
VERTEX
  8
0
 62
7
 10
20.24700000
 20
5.67600000
  0
VERTEX
  8
0
 62
7
 10
20.26539063
 20
5.67384375
  0
VERTEX
  8
0
 62
7
 10
20.28462500
 20
5.67225000
  0
VERTEX
  8
0
 62
7
 10
20.30479688
 20
5.66953125
  0
VERTEX
  8
0
 62
7
 10
20.32600000
 20
5.66400000
  0
VERTEX
  8
0
 62
7
 10
20.34708398
 20
5.65669141
  0
VERTEX
  8
0
 62
7
 10
20.36810938
 20
5.64621875
  0
VERTEX
  8
0
 62
7
 10
20.38873633
 20
5.63288672
  0
VERTEX
  8
0
 62
7
 10
20.40862500
 20
5.61700000
  0
VERTEX
  8
0
 62
7
 10
20.42743555
 20
5.59886328
  0
VERTEX
  8
0
 62
7
 10
20.44482813
 20
5.57878125
  0
VERTEX
  8
0
 62
7
 10
20.46046289
 20
5.55705859
  0
VERTEX
  8
0
 62
7
 10
20.47400000
 20
5.53400000
  0
VERTEX
  8
0
 62
7
 10
20.48616602
 20
5.50675000
  0
VERTEX
  8
0
 62
7
 10
20.49520313
 20
5.47837500
  0
VERTEX
  8
0
 62
7
 10
20.50154492
 20
5.44906250
  0
VERTEX
  8
0
 62
7
 10
20.50562500
 20
5.41900000
  0
VERTEX
  8
0
 62
7
 10
20.50787695
 20
5.38837500
  0
VERTEX
  8
0
 62
7
 10
20.50873438
 20
5.35737500
  0
VERTEX
  8
0
 62
7
 10
20.50863086
 20
5.32618750
  0
VERTEX
  8
0
 62
7
 10
20.50800000
 20
5.29500000
  0
VERTEX
  8
0
 62
7
 10
20.50446875
 20
5.23290625
  0
VERTEX
  8
0
 62
7
 10
20.49625000
 20
5.17025000
  0
VERTEX
  8
0
 62
7
 10
20.48240625
 20
5.10796875
  0
VERTEX
  8
0
 62
7
 10
20.46200000
 20
5.04700000
  0
VERTEX
  8
0
 62
7
 10
20.45265625
 20
5.02397852
  0
VERTEX
  8
0
 62
7
 10
20.44312500
 20
5.00082813
  0
VERTEX
  8
0
 62
7
 10
20.43303125
 20
4.97779492
  0
VERTEX
  8
0
 62
7
 10
20.42200000
 20
4.95512500
  0
VERTEX
  8
0
 62
7
 10
20.40965625
 20
4.93306445
  0
VERTEX
  8
0
 62
7
 10
20.39562500
 20
4.91185938
  0
VERTEX
  8
0
 62
7
 10
20.37953125
 20
4.89175586
  0
VERTEX
  8
0
 62
7
 10
20.36100000
 20
4.87300000
  0
VERTEX
  8
0
 62
7
 10
20.34429883
 20
4.86011719
  0
VERTEX
  8
0
 62
7
 10
20.32657813
 20
4.84981250
  0
VERTEX
  8
0
 62
7
 10
20.30803711
 20
4.84185156
  0
VERTEX
  8
0
 62
7
 10
20.28887500
 20
4.83600000
  0
VERTEX
  8
0
 62
7
 10
20.26929102
 20
4.83202344
  0
VERTEX
  8
0
 62
7
 10
20.24948438
 20
4.82968750
  0
VERTEX
  8
0
 62
7
 10
20.22965430
 20
4.82875781
  0
VERTEX
  8
0
 62
7
 10
20.21000000
 20
4.82900000
  0
VERTEX
  8
0
 62
7
 10
20.17068750
 20
4.83181250
  0
VERTEX
  8
0
 62
7
 10
20.13550000
 20
4.83725000
  0
VERTEX
  8
0
 62
7
 10
20.10031250
 20
4.84306250
  0
VERTEX
  8
0
 62
7
 10
20.06100000
 20
4.84700000
  0
VERTEX
  8
0
 62
7
 10
20.02437500
 20
4.84879688
  0
VERTEX
  8
0
 62
7
 10
19.98850000
 20
4.85087500
  0
VERTEX
  8
0
 62
7
 10
19.95412500
 20
4.85501563
  0
VERTEX
  8
0
 62
7
 10
19.92200000
 20
4.86300000
  0
VERTEX
  8
0
 62
7
 10
19.88700000
 20
4.87700000
  0
SEQEND
  0
POLYLINE
  8
0
 62
7
 66
1
 70
1
  0
VERTEX
  8
0
 62
7
 10
20.41500000
 20
4.84300000
  0
VERTEX
  8
0
 62
7
 10
20.44929688
 20
4.88417188
  0
VERTEX
  8
0
 62
7
 10
20.47562500
 20
4.92787500
  0
VERTEX
  8
0
 62
7
 10
20.49614063
 20
4.97139063
  0
VERTEX
  8
0
 62
7
 10
20.51300000
 20
5.01200000
  0
VERTEX
  8
0
 62
7
 10
20.51800000
 20
5.02500000
  0
VERTEX
  8
0
 62
7
 10
20.54043750
 20
5.09178125
  0
VERTEX
  8
0
 62
7
 10
20.55575000
 20
5.15950000
  0
VERTEX
  8
0
 62
7
 10
20.56468750
 20
5.22721875
  0
VERTEX
  8
0
 62
7
 10
20.56800000
 20
5.29400000
  0
VERTEX
  8
0
 62
7
 10
20.56900000
 20
5.34000000
  0
VERTEX
  8
0
 62
7
 10
20.56871289
 20
5.36639648
  0
VERTEX
  8
0
 62
7
 10
20.56764063
 20
5.39367188
  0
VERTEX
  8
0
 62
7
 10
20.56546680
 20
5.42158008
  0
VERTEX
  8
0
 62
7
 10
20.56187500
 20
5.44987500
  0
VERTEX
  8
0
 62
7
 10
20.55654883
 20
5.47831055
  0
VERTEX
  8
0
 62
7
 10
20.54917188
 20
5.50664063
  0
VERTEX
  8
0
 62
7
 10
20.53942773
 20
5.53461914
  0
VERTEX
  8
0
 62
7
 10
20.52700000
 20
5.56200000
  0
VERTEX
  8
0
 62
7
 10
20.50900000
 20
5.59225000
  0
VERTEX
  8
0
 62
7
 10
20.48800000
 20
5.62100000
  0
VERTEX
  8
0
 62
7
 10
20.51428125
 20
5.62712500
  0
VERTEX
  8
0
 62
7
 10
20.54075000
 20
5.63025000
  0
VERTEX
  8
0
 62
7
 10
20.56759375
 20
5.63225000
  0
VERTEX
  8
0
 62
7
 10
20.59500000
 20
5.63500000
  0
VERTEX
  8
0
 62
7
 10
20.68100000
 20
5.64400000
  0
VERTEX
  8
0
 62
7
 10
20.74100000
 20
5.64700000
  0
VERTEX
  8
0
 62
7
 10
20.76434180
 20
5.64423633
  0
VERTEX
  8
0
 62
7
 10
20.78635938
 20
5.63839063
  0
VERTEX
  8
0
 62
7
 10
20.80704102
 20
5.62975586
  0
VERTEX
  8
0
 62
7
 10
20.82637500
 20
5.61862500
  0
VERTEX
  8
0
 62
7
 10
20.84434961
 20
5.60529102
  0
VERTEX
  8
0
 62
7
 10
20.86095313
 20
5.59004688
  0
VERTEX
  8
0
 62
7
 10
20.87617383
 20
5.57318555
  0
VERTEX
  8
0
 62
7
 10
20.89000000
 20
5.55500000
  0
VERTEX
  8
0
 62
7
 10
20.91365625
 20
5.50798438
  0
VERTEX
  8
0
 62
7
 10
20.93150000
 20
5.45787500
  0
VERTEX
  8
0
 62
7
 10
20.94484375
 20
5.40607813
  0
VERTEX
  8
0
 62
7
 10
20.95500000
 20
5.35400000
  0
VERTEX
  8
0
 62
7
 10
20.96045703
 20
5.31982617
  0
VERTEX
  8
0
 62
7
 10
20.96471875
 20
5.28554688
  0
VERTEX
  8
0
 62
7
 10
20.96762109
 20
5.25115039
  0
VERTEX
  8
0
 62
7
 10
20.96900000
 20
5.21662500
  0
VERTEX
  8
0
 62
7
 10
20.96869141
 20
5.18195898
  0
VERTEX
  8
0
 62
7
 10
20.96653125
 20
5.14714063
  0
VERTEX
  8
0
 62
7
 10
20.96235547
 20
5.11215820
  0
VERTEX
  8
0
 62
7
 10
20.95600000
 20
5.07700000
  0
VERTEX
  8
0
 62
7
 10
20.95161133
 20
5.05359570
  0
VERTEX
  8
0
 62
7
 10
20.94714063
 20
5.03001563
  0
VERTEX
  8
0
 62
7
 10
20.94213086
 20
5.00645898
  0
VERTEX
  8
0
 62
7
 10
20.93612500
 20
4.98312500
  0
VERTEX
  8
0
 62
7
 10
20.92866602
 20
4.96021289
  0
VERTEX
  8
0
 62
7
 10
20.91929688
 20
4.93792188
  0
VERTEX
  8
0
 62
7
 10
20.90756055
 20
4.91645117
  0
VERTEX
  8
0
 62
7
 10
20.89300000
 20
4.89600000
  0
VERTEX
  8
0
 62
7
 10
20.87964258
 20
4.87969531
  0
VERTEX
  8
0
 62
7
 10
20.86451563
 20
4.86587500
  0
VERTEX
  8
0
 62
7
 10
20.84791211
 20
4.85430469
  0
VERTEX
  8
0
 62
7
 10
20.83012500
 20
4.84475000
  0
VERTEX
  8
0
 62
7
 10
20.81144727
 20
4.83697656
  0
VERTEX
  8
0
 62
7
 10
20.79217188
 20
4.83075000
  0
VERTEX
  8
0
 62
7
 10
20.77259180
 20
4.82583594
  0
VERTEX
  8
0
 62
7
 10
20.75300000
 20
4.82200000
  0
VERTEX
  8
0
 62
7
 10
20.72078125
 20
4.81998438
  0
VERTEX
  8
0
 62
7
 10
20.69025000
 20
4.82012500
  0
VERTEX
  8
0
 62
7
 10
20.65934375
 20
4.82045313
  0
VERTEX
  8
0
 62
7
 10
20.62600000
 20
4.81900000
  0
VERTEX
  8
0
 62
7
 10
20.59879688
 20
4.81462500
  0
VERTEX
  8
0
 62
7
 10
20.57262500
 20
4.81100000
  0
VERTEX
  8
0
 62
7
 10
20.54739063
 20
4.80887500
  0
VERTEX
  8
0
 62
7
 10
20.52300000
 20
4.80900000
  0
VERTEX
  8
0
 62
7
 10
20.49375000
 20
4.81290625
  0
VERTEX
  8
0
 62
7
 10
20.46600000
 20
4.82000000
  0
VERTEX
  8
0
 62
7
 10
20.43975000
 20
4.83009375
  0
VERTEX
  8
0
 62
7
 10
20.41500000
 20
4.84300000
  0
SEQEND
  0
POLYLINE
  8
0
 62
7
 66
1
 70
1
  0
VERTEX
  8
0
 62
7
 10
18.49400000
 20
6.01400000
  0
VERTEX
  8
0
 62
7
 10
18.30300000
 20
6.05000000
  0
VERTEX
  8
0
 62
7
 10
18.28625781
 20
6.05090820
  0
VERTEX
  8
0
 62
7
 10
18.27087500
 20
6.04732813
  0
VERTEX
  8
0
 62
7
 10
18.25736719
 20
6.03992773
  0
VERTEX
  8
0
 62
7
 10
18.24625000
 20
6.02937500
  0
VERTEX
  8
0
 62
7
 10
18.23803906
 20
6.01633789
  0
VERTEX
  8
0
 62
7
 10
18.23325000
 20
6.00148438
  0
VERTEX
  8
0
 62
7
 10
18.23239844
 20
5.98548242
  0
VERTEX
  8
0
 62
7
 10
18.23600000
 20
5.96900000
  0
VERTEX
  8
0
 62
7
 10
18.24614063
 20
5.93784375
  0
VERTEX
  8
0
 62
7
 10
18.25412500
 20
5.90575000
  0
VERTEX
  8
0
 62
7
 10
18.26004688
 20
5.87253125
  0
VERTEX
  8
0
 62
7
 10
18.26400000
 20
5.83800000
  0
VERTEX
  8
0
 62
7
 10
18.26600000
 20
5.78300000
  0
VERTEX
  8
0
 62
7
 10
18.26490625
 20
5.74384375
  0
VERTEX
  8
0
 62
7
 10
18.26175000
 20
5.70450000
  0
VERTEX
  8
0
 62
7
 10
18.25671875
 20
5.66515625
  0
VERTEX
  8
0
 62
7
 10
18.25000000
 20
5.62600000
  0
VERTEX
  8
0
 62
7
 10
18.23996875
 20
5.58571875
  0
VERTEX
  8
0
 62
7
 10
18.22675000
 20
5.54525000
  0
VERTEX
  8
0
 62
7
 10
18.21090625
 20
5.50365625
  0
VERTEX
  8
0
 62
7
 10
18.19300000
 20
5.46000000
  0
VERTEX
  8
0
 62
7
 10
18.16710938
 20
5.40618750
  0
VERTEX
  8
0
 62
7
 10
18.13737500
 20
5.35425000
  0
VERTEX
  8
0
 62
7
 10
18.10370313
 20
5.30418750
  0
VERTEX
  8
0
 62
7
 10
18.06600000
 20
5.25600000
  0
VERTEX
  8
0
 62
7
 10
18.05716797
 20
5.24662891
  0
VERTEX
  8
0
 62
7
 10
18.04728125
 20
5.23821875
  0
VERTEX
  8
0
 62
7
 10
18.03650391
 20
5.23107422
  0
VERTEX
  8
0
 62
7
 10
18.02500000
 20
5.22550000
  0
VERTEX
  8
0
 62
7
 10
18.01293359
 20
5.22180078
  0
VERTEX
  8
0
 62
7
 10
18.00046875
 20
5.22028125
  0
VERTEX
  8
0
 62
7
 10
17.98776953
 20
5.22124609
  0
VERTEX
  8
0
 62
7
 10
17.97500000
 20
5.22500000
  0
VERTEX
  8
0
 62
7
 10
17.95518750
 20
5.23656250
  0
VERTEX
  8
0
 62
7
 10
17.93875000
 20
5.25225000
  0
VERTEX
  8
0
 62
7
 10
17.92493750
 20
5.27056250
  0
VERTEX
  8
0
 62
7
 10
17.91300000
 20
5.29000000
  0
VERTEX
  8
0
 62
7
 10
17.89821875
 20
5.32309375
  0
VERTEX
  8
0
 62
7
 10
17.88925000
 20
5.35825000
  0
VERTEX
  8
0
 62
7
 10
17.88515625
 20
5.39378125
  0
VERTEX
  8
0
 62
7
 10
17.88500000
 20
5.42800000
  0
VERTEX
  8
0
 62
7
 10
17.89025000
 20
5.51425000
  0
VERTEX
  8
0
 62
7
 10
17.90000000
 20
5.60200000
  0
VERTEX
  8
0
 62
7
 10
17.90768750
 20
5.65257813
  0
VERTEX
  8
0
 62
7
 10
17.91725000
 20
5.70437500
  0
VERTEX
  8
0
 62
7
 10
17.92868750
 20
5.75598438
  0
VERTEX
  8
0
 62
7
 10
17.94200000
 20
5.80600000
  0
VERTEX
  8
0
 62
7
 10
17.97425000
 20
5.90500000
  0
VERTEX
  8
0
 62
7
 10
18.01100000
 20
5.99800000
  0
VERTEX
  8
0
 62
7
 10
18.03057813
 20
6.03517188
  0
VERTEX
  8
0
 62
7
 10
18.05737500
 20
6.07862500
  0
VERTEX
  8
0
 62
7
 10
18.08623438
 20
6.12076563
  0
VERTEX
  8
0
 62
7
 10
18.11200000
 20
6.15400000
  0
VERTEX
  8
0
 62
7
 10
18.13671875
 20
6.18204688
  0
VERTEX
  8
0
 62
7
 10
18.15975000
 20
6.20587500
  0
VERTEX
  8
0
 62
7
 10
18.18540625
 20
6.22726563
  0
VERTEX
  8
0
 62
7
 10
18.21800000
 20
6.24800000
  0
VERTEX
  8
0
 62
7
 10
18.23492969
 20
6.25638086
  0
VERTEX
  8
0
 62
7
 10
18.25256250
 20
6.26329688
  0
VERTEX
  8
0
 62
7
 10
18.27066406
 20
6.26840820
  0
VERTEX
  8
0
 62
7
 10
18.28900000
 20
6.27137500
  0
VERTEX
  8
0
 62
7
 10
18.30733594
 20
6.27185742
  0
VERTEX
  8
0
 62
7
 10
18.32543750
 20
6.26951563
  0
VERTEX
  8
0
 62
7
 10
18.34307031
 20
6.26400977
  0
VERTEX
  8
0
 62
7
 10
18.36000000
 20
6.25500000
  0
VERTEX
  8
0
 62
7
 10
18.38696094
 20
6.23515625
  0
VERTEX
  8
0
 62
7
 10
18.41143750
 20
6.21250000
  0
VERTEX
  8
0
 62
7
 10
18.43319531
 20
6.18721875
  0
VERTEX
  8
0
 62
7
 10
18.45200000
 20
6.15950000
  0
VERTEX
  8
0
 62
7
 10
18.46761719
 20
6.12953125
  0
VERTEX
  8
0
 62
7
 10
18.47981250
 20
6.09750000
  0
VERTEX
  8
0
 62
7
 10
18.48835156
 20
6.06359375
  0
VERTEX
  8
0
 62
7
 10
18.49300000
 20
6.02800000
  0
VERTEX
  8
0
 62
7
 10
18.49400000
 20
6.01400000
  0
SEQEND
  0
POLYLINE
  8
0
 62
7
 66
1
 70
1
  0
VERTEX
  8
0
 62
7
 10
18.32600000
 20
5.17800000
  0
VERTEX
  8
0
 62
7
 10
18.23100000
 20
5.19800000
  0
VERTEX
  8
0
 62
7
 10
18.17187500
 20
5.20937500
  0
VERTEX
  8
0
 62
7
 10
18.11200000
 20
5.21700000
  0
VERTEX
  8
0
 62
7
 10
18.15265625
 20
5.26879688
  0
VERTEX
  8
0
 62
7
 10
18.18900000
 20
5.32237500
  0
VERTEX
  8
0
 62
7
 10
18.22084375
 20
5.37801563
  0
VERTEX
  8
0
 62
7
 10
18.24800000
 20
5.43600000
  0
VERTEX
  8
0
 62
7
 10
18.26695313
 20
5.48014063
  0
VERTEX
  8
0
 62
7
 10
18.28412500
 20
5.52437500
  0
VERTEX
  8
0
 62
7
 10
18.29848438
 20
5.56917188
  0
VERTEX
  8
0
 62
7
 10
18.30900000
 20
5.61500000
  0
VERTEX
  8
0
 62
7
 10
18.31950000
 20
5.67143750
  0
VERTEX
  8
0
 62
7
 10
18.32550000
 20
5.72900000
  0
VERTEX
  8
0
 62
7
 10
18.32700000
 20
5.78656250
  0
VERTEX
  8
0
 62
7
 10
18.32400000
 20
5.84300000
  0
VERTEX
  8
0
 62
7
 10
18.31984375
 20
5.88089063
  0
VERTEX
  8
0
 62
7
 10
18.31325000
 20
5.91812500
  0
VERTEX
  8
0
 62
7
 10
18.30403125
 20
5.95479688
  0
VERTEX
  8
0
 62
7
 10
18.29200000
 20
5.99100000
  0
VERTEX
  8
0
 62
7
 10
18.49600000
 20
5.95200000
  0
VERTEX
  8
0
 62
7
 10
18.48600000
 20
5.83500000
  0
VERTEX
  8
0
 62
7
 10
18.48500000
 20
5.83000000
  0
VERTEX
  8
0
 62
7
 10
18.47645313
 20
5.75700000
  0
VERTEX
  8
0
 62
7
 10
18.46687500
 20
5.68475000
  0
VERTEX
  8
0
 62
7
 10
18.45560938
 20
5.61287500
  0
VERTEX
  8
0
 62
7
 10
18.44200000
 20
5.54100000
  0
VERTEX
  8
0
 62
7
 10
18.41993750
 20
5.44954688
  0
VERTEX
  8
0
 62
7
 10
18.39300000
 20
5.35837500
  0
VERTEX
  8
0
 62
7
 10
18.36156250
 20
5.26776563
  0
VERTEX
  8
0
 62
7
 10
18.32600000
 20
5.17800000
  0
SEQEND
  0
POLYLINE
  8
0
 62
7
 66
1
 70
1
  0
VERTEX
  8
0
 62
7
 10
4.43600000
 20
4.81300000
  0
VERTEX
  8
0
 62
7
 10
4.33145313
 20
4.85014063
  0
VERTEX
  8
0
 62
7
 10
4.23187500
 20
4.88887500
  0
VERTEX
  8
0
 62
7
 10
4.13660938
 20
4.93042188
  0
VERTEX
  8
0
 62
7
 10
4.04500000
 20
4.97600000
  0
VERTEX
  8
0
 62
7
 10
3.97262500
 20
5.01600000
  0
VERTEX
  8
0
 62
7
 10
3.90100000
 20
5.05300000
  0
VERTEX
  8
0
 62
7
 10
3.84962500
 20
5.07725000
  0
VERTEX
  8
0
 62
7
 10
3.79600000
 20
5.09700000
  0
VERTEX
  8
0
 62
7
 10
3.77146875
 20
5.10467188
  0
VERTEX
  8
0
 62
7
 10
3.74600000
 20
5.11262500
  0
VERTEX
  8
0
 62
7
 10
3.71978125
 20
5.11851563
  0
VERTEX
  8
0
 62
7
 10
3.69300000
 20
5.12000000
  0
VERTEX
  8
0
 62
7
 10
3.66100000
 20
5.11550000
  0
VERTEX
  8
0
 62
7
 10
3.62900000
 20
5.10500000
  0
VERTEX
  8
0
 62
7
 10
3.60804688
 20
5.09410938
  0
VERTEX
  8
0
 62
7
 10
3.58887500
 20
5.08087500
  0
VERTEX
  8
0
 62
7
 10
3.57176563
 20
5.06520313
  0
VERTEX
  8
0
 62
7
 10
3.55700000
 20
5.04700000
  0
VERTEX
  8
0
 62
7
 10
3.54643750
 20
5.02982813
  0
VERTEX
  8
0
 62
7
 10
3.53850000
 20
5.01162500
  0
VERTEX
  8
0
 62
7
 10
3.53281250
 20
4.99285938
  0
VERTEX
  8
0
 62
7
 10
3.52900000
 20
4.97400000
  0
VERTEX
  8
0
 62
7
 10
3.51816992
 20
4.98128711
  0
VERTEX
  8
0
 62
7
 10
3.50892188
 20
4.99085938
  0
VERTEX
  8
0
 62
7
 10
3.50124414
 20
5.00228320
  0
VERTEX
  8
0
 62
7
 10
3.49512500
 20
5.01512500
  0
VERTEX
  8
0
 62
7
 10
3.49055273
 20
5.02895117
  0
VERTEX
  8
0
 62
7
 10
3.48751563
 20
5.04332813
  0
VERTEX
  8
0
 62
7
 10
3.48600195
 20
5.05782227
  0
VERTEX
  8
0
 62
7
 10
3.48600000
 20
5.07200000
  0
VERTEX
  8
0
 62
7
 10
3.48898438
 20
5.09506250
  0
VERTEX
  8
0
 62
7
 10
3.49487500
 20
5.11850000
  0
VERTEX
  8
0
 62
7
 10
3.50357813
 20
5.14118750
  0
VERTEX
  8
0
 62
7
 10
3.51500000
 20
5.16200000
  0
VERTEX
  8
0
 62
7
 10
3.52976563
 20
5.18262500
  0
VERTEX
  8
0
 62
7
 10
3.54612500
 20
5.20025000
  0
VERTEX
  8
0
 62
7
 10
3.56492188
 20
5.21600000
  0
VERTEX
  8
0
 62
7
 10
3.58700000
 20
5.23100000
  0
VERTEX
  8
0
 62
7
 10
3.60787500
 20
5.24132813
  0
VERTEX
  8
0
 62
7
 10
3.63325000
 20
5.25062500
  0
VERTEX
  8
0
 62
7
 10
3.65900000
 20
5.25785938
  0
VERTEX
  8
0
 62
7
 10
3.68100000
 20
5.26200000
  0
VERTEX
  8
0
 62
7
 10
3.66901563
 20
5.29073438
  0
VERTEX
  8
0
 62
7
 10
3.66162500
 20
5.31562500
  0
VERTEX
  8
0
 62
7
 10
3.65667188
 20
5.33920313
  0
VERTEX
  8
0
 62
7
 10
3.65200000
 20
5.36400000
  0
VERTEX
  8
0
 62
7
 10
3.64962500
 20
5.40350000
  0
VERTEX
  8
0
 62
7
 10
3.65400000
 20
5.44300000
  0
VERTEX
  8
0
 62
7
 10
3.65790625
 20
5.45693750
  0
VERTEX
  8
0
 62
7
 10
3.66350000
 20
5.47200000
  0
VERTEX
  8
0
 62
7
 10
3.67059375
 20
5.48631250
  0
VERTEX
  8
0
 62
7
 10
3.67900000
 20
5.49800000
  0
VERTEX
  8
0
 62
7
 10
3.69821875
 20
5.51510938
  0
VERTEX
  8
0
 62
7
 10
3.71650000
 20
5.52462500
  0
VERTEX
  8
0
 62
7
 10
3.73553125
 20
5.52907813
  0
VERTEX
  8
0
 62
7
 10
3.75700000
 20
5.53100000
  0
VERTEX
  8
0
 62
7
 10
3.77295313
 20
5.53043750
  0
VERTEX
  8
0
 62
7
 10
3.78787500
 20
5.52725000
  0
VERTEX
  8
0
 62
7
 10
3.80185938
 20
5.52143750
  0
VERTEX
  8
0
 62
7
 10
3.81500000
 20
5.51300000
  0
VERTEX
  8
0
 62
7
 10
3.82756250
 20
5.50081250
  0
VERTEX
  8
0
 62
7
 10
3.83750000
 20
5.48675000
  0
VERTEX
  8
0
 62
7
 10
3.84368750
 20
5.47081250
  0
VERTEX
  8
0
 62
7
 10
3.84500000
 20
5.45300000
  0
VERTEX
  8
0
 62
7
 10
3.83301563
 20
5.45435938
  0
VERTEX
  8
0
 62
7
 10
3.82037500
 20
5.45262500
  0
VERTEX
  8
0
 62
7
 10
3.80829688
 20
5.44807813
  0
VERTEX
  8
0
 62
7
 10
3.79800000
 20
5.44100000
  0
VERTEX
  8
0
 62
7
 10
3.78567188
 20
5.42381250
  0
VERTEX
  8
0
 62
7
 10
3.78112500
 20
5.40775000
  0
VERTEX
  8
0
 62
7
 10
3.78126563
 20
5.39206250
  0
VERTEX
  8
0
 62
7
 10
3.78300000
 20
5.37600000
  0
VERTEX
  8
0
 62
7
 10
3.78615625
 20
5.35948438
  0
VERTEX
  8
0
 62
7
 10
3.79175000
 20
5.34362500
  0
VERTEX
  8
0
 62
7
 10
3.79846875
 20
5.32945313
  0
VERTEX
  8
0
 62
7
 10
3.80500000
 20
5.31800000
  0
VERTEX
  8
0
 62
7
 10
3.83345313
 20
5.28115625
  0
VERTEX
  8
0
 62
7
 10
3.86612500
 20
5.24675000
  0
VERTEX
  8
0
 62
7
 10
3.90273438
 20
5.21421875
  0
VERTEX
  8
0
 62
7
 10
3.94300000
 20
5.18300000
  0
VERTEX
  8
0
 62
7
 10
4.05400000
 20
5.10712500
  0
VERTEX
  8
0
 62
7
 10
4.16500000
 20
5.03800000
  0
VERTEX
  8
0
 62
7
 10
4.29079688
 20
4.96656250
  0
VERTEX
  8
0
 62
7
 10
4.43712500
 20
4.88650000
  0
VERTEX
  8
0
 62
7
 10
4.57914063
 20
4.80793750
  0
VERTEX
  8
0
 62
7
 10
4.69200000
 20
4.74100000
  0
VERTEX
  8
0
 62
7
 10
4.69740820
 20
4.73392969
  0
VERTEX
  8
0
 62
7
 10
4.69139063
 20
4.73281250
  0
VERTEX
  8
0
 62
7
 10
4.67658398
 20
4.73628906
  0
VERTEX
  8
0
 62
7
 10
4.65562500
 20
4.74300000
  0
VERTEX
  8
0
 62
7
 10
4.63115039
 20
4.75158594
  0
VERTEX
  8
0
 62
7
 10
4.60579688
 20
4.76068750
  0
VERTEX
  8
0
 62
7
 10
4.58220117
 20
4.76894531
  0
VERTEX
  8
0
 62
7
 10
4.56300000
 20
4.77500000
  0
VERTEX
  8
0
 62
7
 10
4.43600000
 20
4.81300000
  0
SEQEND
  0
POLYLINE
  8
0
 62
7
 66
1
 70
1
  0
VERTEX
  8
0
 62
7
 10
18.39300000
 20
6.30500000
  0
VERTEX
  8
0
 62
7
 10
18.45397868
 20
6.30579020
  0
VERTEX
  8
0
 62
7
 10
18.51416713
 20
6.29867839
  0
VERTEX
  8
0
 62
7
 10
18.54133096
 20
6.29209337
  0
VERTEX
  8
0
 62
7
 10
18.56790212
 20
6.28313776
  0
VERTEX
  8
0
 62
7
 10
18.59447328
 20
6.27378704
  0
VERTEX
  8
0
 62
7
 10
18.62163711
 20
6.26601672
  0
VERTEX
  8
0
 62
7
 10
18.69288865
 20
6.25692940
  0
VERTEX
  8
0
 62
7
 10
18.75860865
 20
6.25337349
  0
VERTEX
  8
0
 62
7
 10
18.80452375
 20
6.25251744
  0
VERTEX
  8
0
 62
7
 10
18.85093274
 20
6.25126629
  0
VERTEX
  8
0
 62
7
 10
18.89595884
 20
6.24685433
  0
VERTEX
  8
0
 62
7
 10
18.93772528
 20
6.23651586
  0
VERTEX
  8
0
 62
7
 10
18.96452693
 20
6.22568351
  0
VERTEX
  8
0
 62
7
 10
18.98856280
 20
6.21307321
  0
VERTEX
  8
0
 62
7
 10
19.01062312
 20
6.19769720
  0
VERTEX
  8
0
 62
7
 10
19.03149811
 20
6.17856774
  0
VERTEX
  8
0
 62
7
 10
19.04939331
 20
6.15402210
  0
VERTEX
  8
0
 62
7
 10
19.06402885
 20
6.12601933
  0
VERTEX
  8
0
 62
7
 10
19.07609617
 20
6.09663371
  0
VERTEX
  8
0
 62
7
 10
19.08628672
 20
6.06793951
  0
VERTEX
  8
0
 62
7
 10
19.09687239
 20
6.02775447
  0
VERTEX
  8
0
 62
7
 10
19.10380328
 20
5.98747065
  0
VERTEX
  8
0
 62
7
 10
19.10777084
 20
5.94659418
  0
VERTEX
  8
0
 62
7
 10
19.10946652
 20
5.90463118
  0
VERTEX
  8
0
 62
7
 10
19.10984517
 20
5.84009805
  0
VERTEX
  8
0
 62
7
 10
19.10775438
 20
5.77477471
  0
VERTEX
  8
0
 62
7
 10
19.10309537
 20
5.70905628
  0
VERTEX
  8
0
 62
7
 10
19.09576937
 20
5.64333784
  0
VERTEX
  8
0
 62
7
 10
19.08566113
 20
5.57732308
  0
VERTEX
  8
0
 62
7
 10
19.07100913
 20
5.51111077
  0
VERTEX
  8
0
 62
7
 10
19.05398646
 20
5.44568866
  0
VERTEX
  8
0
 62
7
 10
19.03676624
 20
5.38204450
  0
VERTEX
  8
0
 62
7
 10
19.01854179
 20
5.31642484
  0
VERTEX
  8
0
 62
7
 10
18.99765033
 20
5.25297824
  0
VERTEX
  8
0
 62
7
 10
18.97498088
 20
5.19032184
  0
VERTEX
  8
0
 62
7
 10
18.95142244
 20
5.12707278
  0
VERTEX
  8
0
 62
7
 10
18.92124590
 20
5.05751858
  0
VERTEX
  8
0
 62
7
 10
18.88780969
 20
4.98944600
  0
VERTEX
  8
0
 62
7
 10
18.85141016
 20
4.92275627
  0
VERTEX
  8
0
 62
7
 10
18.81234364
 20
4.85735063
  0
VERTEX
  8
0
 62
7
 10
18.75933302
 20
4.77553183
  0
VERTEX
  8
0
 62
7
 10
18.70197619
 20
4.69588610
  0
VERTEX
  8
0
 62
7
 10
18.64106336
 20
4.61821586
  0
VERTEX
  8
0
 62
7
 10
18.57738477
 20
4.54232358
  0
VERTEX
  8
0
 62
7
 10
18.51469395
 20
4.47138652
  0
VERTEX
  8
0
 62
7
 10
18.44884224
 20
4.40232619
  0
VERTEX
  8
0
 62
7
 10
18.38061988
 20
4.33504382
  0
VERTEX
  8
0
 62
7
 10
18.31081708
 20
4.26944062
  0
VERTEX
  8
0
 62
7
 10
18.22341540
 20
4.19242889
  0
VERTEX
  8
0
 62
7
 10
18.13393940
 20
4.11877551
  0
VERTEX
  8
0
 62
7
 10
18.04308052
 20
4.04749274
  0
VERTEX
  8
0
 62
7
 10
17.95153019
 20
3.97759282
  0
VERTEX
  8
0
 62
7
 10
17.78624241
 20
3.85642857
  0
VERTEX
  8
0
 62
7
 10
17.61858398
 20
3.74158594
  0
VERTEX
  8
0
 62
7
 10
17.49226395
 20
3.66327366
  0
VERTEX
  8
0
 62
7
 10
17.36347448
 20
3.58999892
  0
VERTEX
  8
0
 62
7
 10
17.23290702
 20
3.52008254
  0
VERTEX
  8
0
 62
7
 10
17.10125300
 20
3.45184534
  0
VERTEX
  8
0
 62
7
 10
16.97824202
 20
3.38797071
  0
VERTEX
  8
0
 62
7
 10
16.85365060
 20
3.32646668
  0
VERTEX
  8
0
 62
7
 10
16.75149815
 20
3.27971309
  0
VERTEX
  8
0
 62
7
 10
16.64885181
 20
3.23453989
  0
VERTEX
  8
0
 62
7
 10
16.54561280
 20
3.19134221
  0
VERTEX
  8
0
 62
7
 10
16.44168235
 20
3.15051512
  0
VERTEX
  8
0
 62
7
 10
16.33083747
 20
3.11184463
  0
VERTEX
  8
0
 62
7
 10
16.21870848
 20
3.07584107
  0
VERTEX
  8
0
 62
7
 10
16.10638194
 20
3.04161546
  0
VERTEX
  8
0
 62
7
 10
15.99494440
 20
3.00827883
  0
VERTEX
  8
0
 62
7
 10
15.75300524
 20
2.94137509
  0
VERTEX
  8
0
 62
7
 10
15.51027587
 20
2.88079297
  0
VERTEX
  8
0
 62
7
 10
15.36090774
 20
2.84608995
  0
VERTEX
  8
0
 62
7
 10
15.21144084
 20
2.81415263
  0
VERTEX
  8
0
 62
7
 10
15.06177638
 20
2.78419082
  0
VERTEX
  8
0
 62
7
 10
14.91181559
 20
2.75541431
  0
VERTEX
  8
0
 62
7
 10
14.63655548
 20
2.70734371
  0
VERTEX
  8
0
 62
7
 10
14.36287580
 20
2.66480452
  0
VERTEX
  8
0
 62
7
 10
14.12554627
 20
2.63451346
  0
VERTEX
  8
0
 62
7
 10
13.88979717
 20
2.60896361
  0
VERTEX
  8
0
 62
7
 10
13.70996260
 20
2.59217928
  0
VERTEX
  8
0
 62
7
 10
13.53001845
 20
2.57810665
  0
VERTEX
  8
0
 62
7
 10
13.34997861
 20
2.56664229
  0
VERTEX
  8
0
 62
7
 10
13.16985697
 20
2.55768282
  0
VERTEX
  8
0
 62
7
 10
12.98966742
 20
2.55112481
  0
VERTEX
  8
0
 62
7
 10
12.80942385
 20
2.54686487
  0
VERTEX
  8
0
 62
7
 10
12.62914015
 20
2.54479960
  0
VERTEX
  8
0
 62
7
 10
12.44883021
 20
2.54482558
  0
VERTEX
  8
0
 62
7
 10
12.26850793
 20
2.54683941
  0
VERTEX
  8
0
 62
7
 10
12.08818719
 20
2.55073769
  0
VERTEX
  8
0
 62
7
 10
11.90788189
 20
2.55641700
  0
VERTEX
  8
0
 62
7
 10
11.72760591
 20
2.56377395
  0
VERTEX
  8
0
 62
7
 10
11.54737314
 20
2.57270514
  0
VERTEX
  8
0
 62
7
 10
11.36719748
 20
2.58310714
  0
VERTEX
  8
0
 62
7
 10
11.18709282
 20
2.59487657
  0
VERTEX
  8
0
 62
7
 10
11.00707304
 20
2.60791001
  0
VERTEX
  8
0
 62
7
 10
10.84091273
 20
2.62221595
  0
VERTEX
  8
0
 62
7
 10
10.67583897
 20
2.63938637
  0
VERTEX
  8
0
 62
7
 10
10.51175299
 20
2.65872985
  0
VERTEX
  8
0
 62
7
 10
10.34855601
 20
2.67955495
  0
VERTEX
  8
0
 62
7
 10
10.09173437
 20
2.71458723
  0
VERTEX
  8
0
 62
7
 10
9.83649317
 20
2.75436071
  0
VERTEX
  8
0
 62
7
 10
9.61457294
 20
2.79755840
  0
VERTEX
  8
0
 62
7
 10
9.39186248
 20
2.84391689
  0
VERTEX
  8
0
 62
7
 10
8.96198256
 20
2.94295550
  0
VERTEX
  8
0
 62
7
 10
8.51103010
 20
3.05463732
  0
VERTEX
  8
0
 62
7
 10
8.17413279
 20
3.14682751
  0
VERTEX
  8
0
 62
7
 10
7.83881592
 20
3.24533932
  0
VERTEX
  8
0
 62
7
 10
7.59358418
 20
3.31935487
  0
VERTEX
  8
0
 62
7
 10
7.34993288
 20
3.39811163
  0
VERTEX
  8
0
 62
7
 10
7.23177847
 20
3.43913626
  0
VERTEX
  8
0
 62
7
 10
7.11510571
 20
3.48213640
  0
VERTEX
  8
0
 62
7
 10
6.99863051
 20
3.52553164
  0
VERTEX
  8
0
 62
7
 10
6.88106876
 20
3.56774158
  0
VERTEX
  8
0
 62
7
 10
6.44697434
 20
3.71208507
  0
VERTEX
  8
0
 62
7
 10
5.89908817
 20
3.88487583
  0
VERTEX
  8
0
 62
7
 10
5.51029972
 20
3.99761126
  0
VERTEX
  8
0
 62
7
 10
5.05091824
 20
4.12193632
  0
VERTEX
  8
0
 62
7
 10
4.61155568
 20
4.23361815
  0
VERTEX
  8
0
 62
7
 10
4.41729316
 20
4.28103024
  0
VERTEX
  8
0
 62
7
 10
4.22382086
 20
4.32528153
  0
VERTEX
  8
0
 62
7
 10
4.14851944
 20
4.34150536
  0
VERTEX
  8
0
 62
7
 10
4.07341557
 20
4.35807490
  0
VERTEX
  8
0
 62
7
 10
3.99831170
 20
4.37424934
  0
VERTEX
  8
0
 62
7
 10
3.92301028
 20
4.38928787
  0
VERTEX
  8
0
 62
7
 10
3.84731375
 20
4.40244966
  0
VERTEX
  8
0
 62
7
 10
3.77102455
 20
4.41299391
  0
VERTEX
  8
0
 62
7
 10
3.69394513
 20
4.42017981
  0
VERTEX
  8
0
 62
7
 10
3.61587794
 20
4.42326654
  0
VERTEX
  8
0
 62
7
 10
3.52008018
 20
4.42216355
  0
VERTEX
  8
0
 62
7
 10
3.42398608
 20
4.41760342
  0
VERTEX
  8
0
 62
7
 10
3.32769443
 20
4.40770944
  0
VERTEX
  8
0
 62
7
 10
3.23130400
 20
4.39060487
  0
VERTEX
  8
0
 62
7
 10
3.16360845
 20
4.37554165
  0
VERTEX
  8
0
 62
7
 10
3.09670312
 20
4.35702130
  0
VERTEX
  8
0
 62
7
 10
3.03098312
 20
4.33474749
  0
VERTEX
  8
0
 62
7
 10
2.96684356
 20
4.30842390
  0
VERTEX
  8
0
 62
7
 10
2.90349422
 20
4.27828100
  0
VERTEX
  8
0
 62
7
 10
2.84172532
 20
4.24428587
  0
VERTEX
  8
0
 62
7
 10
2.78193198
 20
4.20574708
  0
VERTEX
  8
0
 62
7
 10
2.72450929
 20
4.16197320
  0
VERTEX
  8
0
 62
7
 10
2.68035573
 20
4.12187047
  0
VERTEX
  8
0
 62
7
 10
2.63837527
 20
4.07900203
  0
VERTEX
  8
0
 62
7
 10
2.59916058
 20
4.03336788
  0
VERTEX
  8
0
 62
7
 10
2.56330433
 20
3.98496804
  0
VERTEX
  8
0
 62
7
 10
2.54375872
 20
3.95640760
  0
VERTEX
  8
0
 62
7
 10
2.52487986
 20
3.92756318
  0
VERTEX
  8
0
 62
7
 10
2.50703816
 20
3.89834836
  0
VERTEX
  8
0
 62
7
 10
2.49060405
 20
3.86867670
  0
VERTEX
  8
0
 62
7
 10
2.47594793
 20
3.83846177
  0
VERTEX
  8
0
 62
7
 10
2.46344022
 20
3.80761716
  0
VERTEX
  8
0
 62
7
 10
2.45345134
 20
3.77605642
  0
VERTEX
  8
0
 62
7
 10
2.44635170
 20
3.74369314
  0
VERTEX
  8
0
 62
7
 10
2.44226272
 20
3.71982041
  0
VERTEX
  8
0
 62
7
 10
2.43892692
 20
3.69573778
  0
VERTEX
  8
0
 62
7
 10
2.43670237
 20
3.67163046
  0
VERTEX
  8
0
 62
7
 10
2.43594713
 20
3.64768364
  0
VERTEX
  8
0
 62
7
 10
2.43701928
 20
3.62408254
  0
VERTEX
  8
0
 62
7
 10
2.44027688
 20
3.60101236
  0
VERTEX
  8
0
 62
7
 10
2.44607801
 20
3.57865830
  0
VERTEX
  8
0
 62
7
 10
2.45478072
 20
3.55720556
  0
VERTEX
  8
0
 62
7
 10
2.47302164
 20
3.52801748
  0
VERTEX
  8
0
 62
7
 10
2.49560878
 20
3.50228654
  0
VERTEX
  8
0
 62
7
 10
2.52175190
 20
3.48030906
  0
VERTEX
  8
0
 62
7
 10
2.55066080
 20
3.46238136
  0
VERTEX
  8
0
 62
7
 10
2.50789012
 20
3.44348237
  0
VERTEX
  8
0
 62
7
 10
2.46373655
 20
3.42813929
  0
VERTEX
  8
0
 62
7
 10
2.41879277
 20
3.41674722
  0
VERTEX
  8
0
 62
7
 10
2.37365142
 20
3.40970125
  0
VERTEX
  8
0
 62
7
 10
2.31828660
 20
3.40657337
  0
VERTEX
  8
0
 62
7
 10
2.26341567
 20
3.40996465
  0
VERTEX
  8
0
 62
7
 10
2.20992763
 20
3.42007265
  0
VERTEX
  8
0
 62
7
 10
2.15871147
 20
3.43709491
  0
VERTEX
  8
0
 62
7
 10
2.12091259
 20
3.45535186
  0
VERTEX
  8
0
 62
7
 10
2.08548437
 20
3.47726349
  0
VERTEX
  8
0
 62
7
 10
2.05321704
 20
3.50332368
  0
VERTEX
  8
0
 62
7
 10
2.02490081
 20
3.53402631
  0
VERTEX
  8
0
 62
7
 10
2.00530992
 20
3.56316499
  0
VERTEX
  8
0
 62
7
 10
1.98927503
 20
3.59427918
  0
VERTEX
  8
0
 62
7
 10
1.97689491
 20
3.62707255
  0
VERTEX
  8
0
 62
7
 10
1.96826834
 20
3.66124877
  0
VERTEX
  8
0
 62
7
 10
1.96349409
 20
3.69651152
  0
VERTEX
  8
0
 62
7
 10
1.96267095
 20
3.73256447
  0
VERTEX
  8
0
 62
7
 10
1.96589768
 20
3.76911129
  0
VERTEX
  8
0
 62
7
 10
1.97327307
 20
3.80585567
  0
VERTEX
  8
0
 62
7
 10
1.94484160
 20
3.81276993
  0
VERTEX
  8
0
 62
7
 10
1.91808934
 20
3.82244990
  0
VERTEX
  8
0
 62
7
 10
1.89311509
 20
3.83489558
  0
VERTEX
  8
0
 62
7
 10
1.87001760
 20
3.85010696
  0
VERTEX
  8
0
 62
7
 10
1.83743747
 20
3.88008523
  0
VERTEX
  8
0
 62
7
 10
1.81167299
 20
3.91529859
  0
VERTEX
  8
0
 62
7
 10
1.79163761
 20
3.95426541
  0
VERTEX
  8
0
 62
7
 10
1.77624478
 20
3.99550406
  0
VERTEX
  8
0
 62
7
 10
1.76749062
 20
4.02274749
  0
VERTEX
  8
0
 62
7
 10
1.76093426
 20
4.05067001
  0
VERTEX
  8
0
 62
7
 10
1.75650161
 20
4.07916048
  0
VERTEX
  8
0
 62
7
 10
1.75411861
 20
4.10810779
  0
VERTEX
  8
0
 62
7
 10
1.75371115
 20
4.13740081
  0
VERTEX
  8
0
 62
7
 10
1.75520516
 20
4.16692842
  0
VERTEX
  8
0
 62
7
 10
1.75852655
 20
4.19657950
  0
VERTEX
  8
0
 62
7
 10
1.76360125
 20
4.22624293
  0
VERTEX
  8
0
 62
7
 10
1.77019877
 20
4.25602777
  0
VERTEX
  8
0
 62
7
 10
1.77943858
 20
4.28534343
  0
VERTEX
  8
0
 62
7
 10
1.79090090
 20
4.31421460
  0
VERTEX
  8
0
 62
7
 10
1.80416590
 20
4.34266597
  0
VERTEX
  8
0
 62
7
 10
1.81881379
 20
4.37072224
  0
VERTEX
  8
0
 62
7
 10
1.83442476
 20
4.39840811
  0
VERTEX
  8
0
 62
7
 10
1.85057900
 20
4.42574826
  0
VERTEX
  8
0
 62
7
 10
1.86685672
 20
4.45276740
  0
VERTEX
  8
0
 62
7
 10
1.89764239
 20
4.50111786
  0
VERTEX
  8
0
 62
7
 10
1.93139139
 20
4.54798669
  0
VERTEX
  8
0
 62
7
 10
1.96790616
 20
4.59307757
  0
VERTEX
  8
0
 62
7
 10
2.00698914
 20
4.63609417
  0
VERTEX
  8
0
 62
7
 10
2.05946266
 20
4.68655801
  0
VERTEX
  8
0
 62
7
 10
2.11543043
 20
4.73221891
  0
VERTEX
  8
0
 62
7
 10
2.17443562
 20
4.77331145
  0
VERTEX
  8
0
 62
7
 10
2.23602136
 20
4.81007023
  0
VERTEX
  8
0
 62
7
 10
2.29973083
 20
4.84272984
  0
VERTEX
  8
0
 62
7
 10
2.36510716
 20
4.87152487
  0
VERTEX
  8
0
 62
7
 10
2.43169353
 20
4.89668991
  0
VERTEX
  8
0
 62
7
 10
2.49903306
 20
4.91845955
  0
VERTEX
  8
0
 62
7
 10
2.57092666
 20
4.93638725
  0
VERTEX
  8
0
 62
7
 10
2.64272148
 20
4.94888231
  0
VERTEX
  8
0
 62
7
 10
2.71431874
 20
4.95801902
  0
VERTEX
  8
0
 62
7
 10
2.78561967
 20
4.96587165
  0
VERTEX
  8
0
 62
7
 10
2.86006502
 20
4.97260483
  0
VERTEX
  8
0
 62
7
 10
2.93470793
 20
4.97706617
  0
VERTEX
  8
0
 62
7
 10
3.00935083
 20
4.97935447
  0
VERTEX
  8
0
 62
7
 10
3.08379618
 20
4.97956848
  0
VERTEX
  8
0
 62
7
 10
3.21958239
 20
4.97601257
  0
VERTEX
  8
0
 62
7
 10
3.35457838
 20
4.96692525
  0
VERTEX
  8
0
 62
7
 10
3.46999996
 20
4.95479236
  0
VERTEX
  8
0
 62
7
 10
3.58413742
 20
4.94019010
  0
VERTEX
  8
0
 62
7
 10
3.69728711
 20
4.92262457
  0
VERTEX
  8
0
 62
7
 10
3.80974535
 20
4.90160192
  0
VERTEX
  8
0
 62
7
 10
4.00716876
 20
4.86051143
  0
VERTEX
  8
0
 62
7
 10
4.20064106
 20
4.81626014
  0
VERTEX
  8
0
 62
7
 10
4.28843784
 20
4.79367355
  0
VERTEX
  8
0
 62
7
 10
4.37514807
 20
4.76832124
  0
VERTEX
  8
0
 62
7
 10
4.46126564
 20
4.74217874
  0
VERTEX
  8
0
 62
7
 10
4.54728442
 20
4.71722154
  0
VERTEX
  8
0
 62
7
 10
4.64854788
 20
4.68775360
  0
VERTEX
  8
0
 62
7
 10
4.74971256
 20
4.65611261
  0
VERTEX
  8
0
 62
7
 10
4.85028457
 20
4.62210102
  0
VERTEX
  8
0
 62
7
 10
4.94977003
 20
4.58552127
  0
VERTEX
  8
0
 62
7
 10
5.08990245
 20
4.52757315
  0
VERTEX
  8
0
 62
7
 10
5.27744810
 20
4.44012417
  0
VERTEX
  8
0
 62
7
 10
5.54085491
 20
4.30947750
  0
VERTEX
  8
0
 62
7
 10
5.55876657
 20
4.32001352
  0
VERTEX
  8
0
 62
7
 10
5.28693075
 20
4.46119621
  0
VERTEX
  8
0
 62
7
 10
5.16247103
 20
4.52572935
  0
VERTEX
  8
0
 62
7
 10
5.04038197
 20
4.59184288
  0
VERTEX
  8
0
 62
7
 10
4.90301532
 20
4.67244345
  0
VERTEX
  8
0
 62
7
 10
4.76959977
 20
4.75620482
  0
VERTEX
  8
0
 62
7
 10
4.62946735
 20
4.85972123
  0
VERTEX
  8
0
 62
7
 10
4.49249581
 20
4.96797885
  0
VERTEX
  8
0
 62
7
 10
4.34801717
 20
5.08268979
  0
VERTEX
  8
0
 62
7
 10
4.20590920
 20
5.19977133
  0
VERTEX
  8
0
 62
7
 10
4.04799681
 20
5.33344710
  0
VERTEX
  8
0
 62
7
 10
3.89403553
 20
5.47265429
  0
VERTEX
  8
0
 62
7
 10
3.76786367
 20
5.60343266
  0
VERTEX
  8
0
 62
7
 10
3.64643313
 20
5.73816204
  0
VERTEX
  8
0
 62
7
 10
3.53250968
 20
5.87815942
  0
VERTEX
  8
0
 62
7
 10
3.42411778
 20
6.02368822
  0
VERTEX
  8
0
 62
7
 10
3.32863281
 20
6.16934872
  0
VERTEX
  8
0
 62
7
 10
3.23867939
 20
6.31975043
  0
VERTEX
  8
0
 62
7
 10
3.18239265
 20
6.42028712
  0
VERTEX
  8
0
 62
7
 10
3.12897045
 20
6.52270055
  0
VERTEX
  8
0
 62
7
 10
3.07851158
 20
6.62689192
  0
VERTEX
  8
0
 62
7
 10
3.03111482
 20
6.73276248
  0
VERTEX
  8
0
 62
7
 10
2.99672377
 20
6.81492698
  0
VERTEX
  8
0
 62
7
 10
2.96460460
 20
6.89857312
  0
VERTEX
  8
0
 62
7
 10
2.93465854
 20
6.98360211
  0
VERTEX
  8
0
 62
7
 10
2.90678681
 20
7.06991517
  0
VERTEX
  8
0
 62
7
 10
2.88380662
 20
7.14897237
  0
VERTEX
  8
0
 62
7
 10
2.86301189
 20
7.22884447
  0
VERTEX
  8
0
 62
7
 10
2.84431618
 20
7.30945738
  0
VERTEX
  8
0
 62
7
 10
2.82763306
 20
7.39073703
  0
VERTEX
  8
0
 62
7
 10
2.81287611
 20
7.47260933
  0
VERTEX
  8
0
 62
7
 10
2.79995888
 20
7.55500019
  0
VERTEX
  8
0
 62
7
 10
2.78879496
 20
7.63783555
  0
VERTEX
  8
0
 62
7
 10
2.77929791
 20
7.72104131
  0
VERTEX
  8
0
 62
7
 10
2.76902505
 20
7.82684601
  0
VERTEX
  8
0
 62
7
 10
2.76270328
 20
7.93373724
  0
VERTEX
  8
0
 62
7
 10
2.75914729
 20
8.04122113
  0
VERTEX
  8
0
 62
7
 10
2.75717174
 20
8.14880379
  0
VERTEX
  8
0
 62
7
 10
2.75690422
 20
8.23468265
  0
VERTEX
  8
0
 62
7
 10
2.75779733
 20
8.32082080
  0
VERTEX
  8
0
 62
7
 10
2.76002394
 20
8.40718120
  0
VERTEX
  8
0
 62
7
 10
2.76375691
 20
8.49372679
  0
VERTEX
  8
0
 62
7
 10
2.76916910
 20
8.58042056
  0
VERTEX
  8
0
 62
7
 10
2.77643336
 20
8.66722544
  0
VERTEX
  8
0
 62
7
 10
2.78572257
 20
8.75410440
  0
VERTEX
  8
0
 62
7
 10
2.79720957
 20
8.84102041
  0
VERTEX
  8
0
 62
7
 10
2.81889125
 20
8.97197986
  0
VERTEX
  8
0
 62
7
 10
2.84738857
 20
9.10244545
  0
VERTEX
  8
0
 62
7
 10
2.88003455
 20
9.23231837
  0
VERTEX
  8
0
 62
7
 10
2.91416220
 20
9.36149988
  0
VERTEX
  8
0
 62
7
 10
2.98080412
 20
9.59566296
  0
VERTEX
  8
0
 62
7
 10
3.05218737
 20
9.82824564
  0
VERTEX
  8
0
 62
7
 10
3.20074881
 20
10.28024096
  0
VERTEX
  8
0
 62
7
 10
3.35141750
 20
10.73434350
  0
VERTEX
  8
0
 62
7
 10
3.52210512
 20
11.20108925
  0
VERTEX
  8
0
 62
7
 10
3.55664433
 20
11.29509032
  0
VERTEX
  8
0
 62
7
 10
3.59217133
 20
11.38889384
  0
VERTEX
  8
0
 62
7
 10
3.62611788
 20
11.48230226
  0
VERTEX
  8
0
 62
7
 10
3.65591578
 20
11.57511802
  0
VERTEX
  8
0
 62
7
 10
3.67448596
 20
11.63793905
  0
VERTEX
  8
0
 62
7
 10
3.68752459
 20
11.70155028
  0
VERTEX
  8
0
 62
7
 10
3.69162386
 20
11.73164379
  0
VERTEX
  8
0
 62
7
 10
3.69503169
 20
11.75897160
  0
VERTEX
  8
0
 62
7
 10
3.69626641
 20
11.78629941
  0
VERTEX
  8
0
 62
7
 10
3.69384636
 20
11.81639292
  0
VERTEX
  8
0
 62
7
 10
3.68352410
 20
11.85865224
  0
VERTEX
  8
0
 62
7
 10
3.66658375
 20
11.89765199
  0
VERTEX
  8
0
 62
7
 10
3.64272897
 20
11.93210807
  0
VERTEX
  8
0
 62
7
 10
3.61166343
 20
11.96073642
  0
VERTEX
  8
0
 62
7
 10
3.57585657
 20
11.97980003
  0
VERTEX
  8
0
 62
7
 10
3.53698760
 20
11.99234448
  0
VERTEX
  8
0
 62
7
 10
3.49594553
 20
11.99777712
  0
VERTEX
  8
0
 62
7
 10
3.45361935
 20
11.99550529
  0
VERTEX
  8
0
 62
7
 10
3.45324070
 20
12.03552571
  0
VERTEX
  8
0
 62
7
 10
3.45691193
 20
12.07623755
  0
VERTEX
  8
0
 62
7
 10
3.46473182
 20
12.11714695
  0
VERTEX
  8
0
 62
7
 10
3.47679914
 20
12.15776002
  0
VERTEX
  8
0
 62
7
 10
3.49273526
 20
12.20038152
  0
VERTEX
  8
0
 62
7
 10
3.51341269
 20
12.24112629
  0
VERTEX
  8
0
 62
7
 10
3.53843634
 20
12.27969801
  0
VERTEX
  8
0
 62
7
 10
3.56741109
 20
12.31580034
  0
VERTEX
  8
0
 62
7
 10
3.59719252
 20
12.34785290
  0
VERTEX
  8
0
 62
7
 10
3.62865317
 20
12.37704097
  0
VERTEX
  8
0
 62
7
 10
3.66268204
 20
12.40247558
  0
VERTEX
  8
0
 62
7
 10
3.70016812
 20
12.42326776
  0
VERTEX
  8
0
 62
7
 10
3.74405828
 20
12.43921996
  0
VERTEX
  8
0
 62
7
 10
3.79051666
 20
12.45052972
  0
VERTEX
  8
0
 62
7
 10
3.83737014
 20
12.45690072
  0
VERTEX
  8
0
 62
7
 10
3.88244563
 20
12.45803664
  0
VERTEX
  8
0
 62
7
 10
3.92816318
 20
12.45266985
  0
VERTEX
  8
0
 62
7
 10
3.97160884
 20
12.44117900
  0
VERTEX
  8
0
 62
7
 10
4.01209117
 20
12.42336654
  0
VERTEX
  8
0
 62
7
 10
4.04891874
 20
12.39903492
  0
VERTEX
  8
0
 62
7
 10
4.07967148
 20
12.37109800
  0
VERTEX
  8
0
 62
7
 10
4.10449757
 20
12.33753089
  0
VERTEX
  8
0
 62
7
 10
4.12418723
 20
12.30021032
  0
VERTEX
  8
0
 62
7
 10
4.13953068
 20
12.26101303
  0
VERTEX
  8
0
 62
7
 10
4.14702131
 20
12.23060673
  0
VERTEX
  8
0
 62
7
 10
4.15125228
 20
12.19950901
  0
VERTEX
  8
0
 62
7
 10
4.15331015
 20
12.16781863
  0
VERTEX
  8
0
 62
7
 10
4.15428146
 20
12.13563437
  0
VERTEX
  8
0
 62
7
 10
4.14914503
 20
12.08496270
  0
VERTEX
  8
0
 62
7
 10
4.14005749
 20
12.03448857
  0
VERTEX
  8
0
 62
7
 10
4.12701886
 20
11.98480464
  0
VERTEX
  8
0
 62
7
 10
4.11002912
 20
11.93650357
  0
VERTEX
  8
0
 62
7
 10
4.12056539
 20
11.93018195
  0
VERTEX
  8
0
 62
7
 10
4.16086663
 20
12.02803525
  0
VERTEX
  8
0
 62
7
 10
4.19642655
 20
12.12825916
  0
VERTEX
  8
0
 62
7
 10
4.22210871
 20
12.23111707
  0
VERTEX
  8
0
 62
7
 10
4.24067889
 20
12.33476518
  0
VERTEX
  8
0
 62
7
 10
4.24437276
 20
12.36566947
  0
VERTEX
  8
0
 62
7
 10
4.24810367
 20
12.39669724
  0
VERTEX
  8
0
 62
7
 10
4.25151356
 20
12.42777438
  0
VERTEX
  8
0
 62
7
 10
4.25424435
 20
12.45882684
  0
VERTEX
  8
0
 62
7
 10
4.25593797
 20
12.48978052
  0
VERTEX
  8
0
 62
7
 10
4.25623636
 20
12.52056134
  0
VERTEX
  8
0
 62
7
 10
4.25478145
 20
12.55109522
  0
VERTEX
  8
0
 62
7
 10
4.25121517
 20
12.58130809
  0
VERTEX
  8
0
 62
7
 10
4.24265445
 20
12.63090970
  0
VERTEX
  8
0
 62
7
 10
4.22935240
 20
12.67942479
  0
VERTEX
  8
0
 62
7
 10
4.21091392
 20
12.72576682
  0
VERTEX
  8
0
 62
7
 10
4.18694391
 20
12.76884927
  0
VERTEX
  8
0
 62
7
 10
4.15889108
 20
12.80649909
  0
VERTEX
  8
0
 62
7
 10
4.12767737
 20
12.84088932
  0
VERTEX
  8
0
 62
7
 10
4.09211745
 20
12.87034080
  0
VERTEX
  8
0
 62
7
 10
4.05102599
 20
12.89317433
  0
VERTEX
  8
0
 62
7
 10
4.01103754
 20
12.90808939
  0
VERTEX
  8
0
 62
7
 10
3.96897477
 20
12.91767058
  0
VERTEX
  8
0
 62
7
 10
3.92552911
 20
12.92132526
  0
VERTEX
  8
0
 62
7
 10
3.88139201
 20
12.91846078
  0
VERTEX
  8
0
 62
7
 10
3.84436689
 20
12.91123373
  0
VERTEX
  8
0
 62
7
 10
3.80803321
 20
12.90015444
  0
VERTEX
  8
0
 62
7
 10
3.77308242
 20
12.88453150
  0
VERTEX
  8
0
 62
7
 10
3.74020595
 20
12.86367347
  0
VERTEX
  8
0
 62
7
 10
3.71100072
 20
12.83939123
  0
VERTEX
  8
0
 62
7
 10
3.68594415
 20
12.81165186
  0
VERTEX
  8
0
 62
7
 10
3.66404846
 20
12.78173944
  0
VERTEX
  8
0
 62
7
 10
3.64432588
 20
12.75093804
  0
VERTEX
  8
0
 62
7
 10
3.61418226
 20
12.69829085
  0
VERTEX
  8
0
 62
7
 10
3.59045918
 20
12.64347062
  0
VERTEX
  8
0
 62
7
 10
3.57365054
 20
12.58706998
  0
VERTEX
  8
0
 62
7
 10
3.56425021
 20
12.52968158
  0
VERTEX
  8
0
 62
7
 10
3.52230267
 20
12.56497726
  0
VERTEX
  8
0
 62
7
 10
3.48470135
 20
12.60422394
  0
VERTEX
  8
0
 62
7
 10
3.45105113
 20
12.64702652
  0
VERTEX
  8
0
 62
7
 10
3.42095690
 20
12.69298992
  0
VERTEX
  8
0
 62
7
 10
3.39558753
 20
12.74222936
  0
VERTEX
  8
0
 62
7
 10
3.37446560
 20
12.79453083
  0
VERTEX
  8
0
 62
7
 10
3.35709721
 20
12.84900535
  0
VERTEX
  8
0
 62
7
 10
3.34298848
 20
12.90476395
  0
VERTEX
  8
0
 62
7
 10
3.33283086
 20
12.96537900
  0
VERTEX
  8
0
 62
7
 10
3.32652556
 20
13.02698180
  0
VERTEX
  8
0
 62
7
 10
3.32476403
 20
13.08937481
  0
VERTEX
  8
0
 62
7
 10
3.32823770
 20
13.15236046
  0
VERTEX
  8
0
 62
7
 10
3.33419728
 20
13.19954208
  0
VERTEX
  8
0
 62
7
 10
3.34193486
 20
13.24613105
  0
VERTEX
  8
0
 62
7
 10
3.35283331
 20
13.29192982
  0
VERTEX
  8
0
 62
7
 10
3.36827554
 20
13.33674084
  0
VERTEX
  8
0
 62
7
 10
3.39486316
 20
13.38859782
  0
VERTEX
  8
0
 62
7
 10
3.42688355
 20
13.43788665
  0
VERTEX
  8
0
 62
7
 10
3.46384282
 20
13.48401467
  0
VERTEX
  8
0
 62
7
 10
3.50524708
 20
13.52638923
  0
VERTEX
  8
0
 62
7
 10
3.53797332
 20
13.55274575
  0
VERTEX
  8
0
 62
7
 10
3.57207010
 20
13.57643533
  0
VERTEX
  8
0
 62
7
 10
3.60742629
 20
13.59735921
  0
VERTEX
  8
0
 62
7
 10
3.64393077
 20
13.61541861
  0
VERTEX
  8
0
 62
7
 10
3.68147241
 20
13.63051476
  0
VERTEX
  8
0
 62
7
 10
3.71994009
 20
13.64254887
  0
VERTEX
  8
0
 62
7
 10
3.75922269
 20
13.65142217
  0
VERTEX
  8
0
 62
7
 10
3.79920908
 20
13.65703590
  0
VERTEX
  8
0
 62
7
 10
3.77181477
 20
13.86143472
  0
VERTEX
  8
0
 62
7
 10
3.81624821
 20
13.87765031
  0
VERTEX
  8
0
 62
7
 10
3.86097798
 20
13.89001368
  0
VERTEX
  8
0
 62
7
 10
3.90590530
 20
13.89862358
  0
VERTEX
  8
0
 62
7
 10
3.95093140
 20
13.90357881
  0
VERTEX
  8
0
 62
7
 10
3.99419597
 20
13.90385867
  0
VERTEX
  8
0
 62
7
 10
4.03706543
 20
13.90028630
  0
VERTEX
  8
0
 62
7
 10
4.07953978
 20
13.89335557
  0
VERTEX
  8
0
 62
7
 10
4.12161902
 20
13.88356036
  0
VERTEX
  8
0
 62
7
 10
4.17334553
 20
13.86698259
  0
VERTEX
  8
0
 62
7
 10
4.22250382
 20
13.84576239
  0
VERTEX
  8
0
 62
7
 10
4.26889635
 20
13.81999852
  0
VERTEX
  8
0
 62
7
 10
4.31232555
 20
13.78978977
  0
VERTEX
  8
0
 62
7
 10
4.34839582
 20
13.75869204
  0
VERTEX
  8
0
 62
7
 10
4.38120643
 20
13.72433474
  0
VERTEX
  8
0
 62
7
 10
4.41144882
 20
13.68740927
  0
VERTEX
  8
0
 62
7
 10
4.43981444
 20
13.64860708
  0
VERTEX
  8
0
 62
7
 10
4.46865749
 20
13.60629837
  0
VERTEX
  8
0
 62
7
 10
4.49433965
 20
13.56300191
  0
VERTEX
  8
0
 62
7
 10
4.51804627
 20
13.51852014
  0
VERTEX
  8
0
 62
7
 10
4.54096266
 20
13.47265552
  0
VERTEX
  8
0
 62
7
 10
4.56275957
 20
13.42101255
  0
VERTEX
  8
0
 62
7
 10
4.58258093
 20
13.36769040
  0
VERTEX
  8
0
 62
7
 10
4.60082186
 20
13.31338051
  0
VERTEX
  8
0
 62
7
 10
4.61787745
 20
13.25877428
  0
VERTEX
  8
0
 62
7
 10
4.63126181
 20
13.20291690
  0
VERTEX
  8
0
 62
7
 10
4.64276939
 20
13.14617055
  0
VERTEX
  8
0
 62
7
 10
4.65210387
 20
13.08883154
  0
VERTEX
  8
0
 62
7
 10
4.65896891
 20
13.03119621
  0
VERTEX
  8
0
 62
7
 10
4.66428643
 20
12.95339428
  0
VERTEX
  8
0
 62
7
 10
4.66594919
 20
12.87499969
  0
VERTEX
  8
0
 62
7
 10
4.66385840
 20
12.79621001
  0
VERTEX
  8
0
 62
7
 10
4.65791528
 20
12.71722277
  0
VERTEX
  8
0
 62
7
 10
4.65006247
 20
12.65244270
  0
VERTEX
  8
0
 62
7
 10
4.63934510
 20
12.58776140
  0
VERTEX
  8
0
 62
7
 10
4.62605952
 20
12.52327766
  0
VERTEX
  8
0
 62
7
 10
4.61050206
 20
12.45909024
  0
VERTEX
  8
0
 62
7
 10
4.57481043
 20
12.32910207
  0
VERTEX
  8
0
 62
7
 10
4.53358727
 20
12.19990411
  0
VERTEX
  8
0
 62
7
 10
4.48814959
 20
12.06846724
  0
VERTEX
  8
0
 62
7
 10
4.43876082
 20
11.93861077
  0
VERTEX
  8
0
 62
7
 10
4.40843611
 20
11.86778895
  0
VERTEX
  8
0
 62
7
 10
4.37633340
 20
11.80032549
  0
VERTEX
  8
0
 62
7
 10
4.34304537
 20
11.73325712
  0
VERTEX
  8
0
 62
7
 10
4.30916467
 20
11.66362060
  0
VERTEX
  8
0
 62
7
 10
4.24041549
 20
11.52217451
  0
VERTEX
  8
0
 62
7
 10
4.16692499
 20
11.38230883
  0
VERTEX
  8
0
 62
7
 10
4.09447165
 20
11.24672340
  0
VERTEX
  8
0
 62
7
 10
4.02349998
 20
11.10758206
  0
VERTEX
  8
0
 62
7
 10
3.95549163
 20
10.97041623
  0
VERTEX
  8
0
 62
7
 10
3.89192828
 20
10.84075731
  0
VERTEX
  8
0
 62
7
 10
3.83140233
 20
10.71816494
  0
VERTEX
  8
0
 62
7
 10
3.77043189
 20
10.59589359
  0
VERTEX
  8
0
 62
7
 10
3.70857244
 20
10.47120224
  0
VERTEX
  8
0
 62
7
 10
3.64537950
 20
10.34134989
  0
VERTEX
  8
0
 62
7
 10
3.58040857
 20
10.20359552
  0
VERTEX
  8
0
 62
7
 10
3.51321514
 20
10.05519813
  0
VERTEX
  8
0
 62
7
 10
3.44335471
 20
9.89341669
  0
VERTEX
  8
0
 62
7
 10
3.37038279
 20
9.71551020
  0
VERTEX
  8
0
 62
7
 10
3.32520853
 20
9.59930118
  0
VERTEX
  8
0
 62
7
 10
3.28003426
 20
9.47726441
  0
VERTEX
  8
0
 62
7
 10
3.23762576
 20
9.35503010
  0
VERTEX
  8
0
 62
7
 10
3.20074881
 20
9.23822842
  0
VERTEX
  8
0
 62
7
 10
3.16611081
 20
9.10843781
  0
VERTEX
  8
0
 62
7
 10
3.13700436
 20
8.97825209
  0
VERTEX
  8
0
 62
7
 10
3.11184901
 20
8.84767127
  0
VERTEX
  8
0
 62
7
 10
3.08906432
 20
8.71669535
  0
VERTEX
  8
0
 62
7
 10
3.05969446
 20
8.52164725
  0
VERTEX
  8
0
 62
7
 10
3.03743658
 20
8.32580895
  0
VERTEX
  8
0
 62
7
 10
3.02571498
 20
8.18186055
  0
VERTEX
  8
0
 62
7
 10
3.01873470
 20
8.03791216
  0
VERTEX
  8
0
 62
7
 10
3.01610063
 20
7.89435886
  0
VERTEX
  8
0
 62
7
 10
3.01741767
 20
7.75159577
  0
VERTEX
  8
0
 62
7
 10
3.02900757
 20
7.75581018
  0
VERTEX
  8
0
 62
7
 10
3.04046576
 20
7.89593927
  0
VERTEX
  8
0
 62
7
 10
3.05745550
 20
8.03606836
  0
VERTEX
  8
0
 62
7
 10
3.07406659
 20
8.13385581
  0
VERTEX
  8
0
 62
7
 10
3.09472757
 20
8.23124816
  0
VERTEX
  8
0
 62
7
 10
3.11835186
 20
8.32824541
  0
VERTEX
  8
0
 62
7
 10
3.14385294
 20
8.42484755
  0
VERTEX
  8
0
 62
7
 10
3.17723975
 20
8.54991342
  0
VERTEX
  8
0
 62
7
 10
3.21497278
 20
8.67389276
  0
VERTEX
  8
0
 62
7
 10
3.25823734
 20
8.79688436
  0
VERTEX
  8
0
 62
7
 10
3.30821879
 20
8.91898697
  0
VERTEX
  8
0
 62
7
 10
3.38197269
 20
9.08124170
  0
VERTEX
  8
0
 62
7
 10
3.40159650
 20
9.12167368
  0
VERTEX
  8
0
 62
7
 10
3.41884965
 20
9.16447627
  0
VERTEX
  8
0
 62
7
 10
3.42820059
 20
9.19965671
  0
VERTEX
  8
0
 62
7
 10
3.43201999
 20
9.23493592
  0
VERTEX
  8
0
 62
7
 10
3.42951762
 20
9.26922738
  0
VERTEX
  8
0
 62
7
 10
3.41990327
 20
9.30144455
  0
VERTEX
  8
0
 62
7
 10
3.41047002
 20
9.32021184
  0
VERTEX
  8
0
 62
7
 10
3.40054287
 20
9.33621343
  0
VERTEX
  8
0
 62
7
 10
3.38686218
 20
9.35063460
  0
VERTEX
  8
0
 62
7
 10
3.36616828
 20
9.36466068
  0
VERTEX
  8
0
 62
7
 10
3.34241228
 20
9.37313889
  0
VERTEX
  8
0
 62
7
 10
3.31440885
 20
9.37480160
  0
VERTEX
  8
0
 62
7
 10
3.28541763
 20
9.36955006
  0
VERTEX
  8
0
 62
7
 10
3.25869831
 20
9.35728547
  0
VERTEX
  8
0
 62
7
 10
3.25985071
 20
9.38087628
  0
VERTEX
  8
0
 62
7
 10
3.26633710
 20
9.40377566
  0
VERTEX
  8
0
 62
7
 10
3.27795993
 20
9.42529220
  0
VERTEX
  8
0
 62
7
 10
3.29452163
 20
9.44473445
  0
VERTEX
  8
0
 62
7
 10
3.31480396
 20
9.45961658
  0
VERTEX
  8
0
 62
7
 10
3.33666672
 20
9.46896730
  0
VERTEX
  8
0
 62
7
 10
3.36244766
 20
9.47334633
  0
VERTEX
  8
0
 62
7
 10
3.38645061
 20
9.47397191
  0
VERTEX
  8
0
 62
7
 10
3.40926822
 20
9.47104158
  0
VERTEX
  8
0
 62
7
 10
3.43149317
 20
9.46475289
  0
VERTEX
  8
0
 62
7
 10
3.45399799
 20
9.45477659
  0
VERTEX
  8
0
 62
7
 10
3.47403337
 20
9.44104684
  0
VERTEX
  8
0
 62
7
 10
3.49150054
 20
9.42415628
  0
VERTEX
  8
0
 62
7
 10
3.50630071
 20
9.40469757
  0
VERTEX
  8
0
 62
7
 10
3.52213804
 20
9.37272733
  0
VERTEX
  8
0
 62
7
 10
3.53027073
 20
9.33779383
  0
VERTEX
  8
0
 62
7
 10
3.53089632
 20
9.30127993
  0
VERTEX
  8
0
 62
7
 10
3.52421237
 20
9.26456848
  0
VERTEX
  8
0
 62
7
 10
3.55450415
 20
9.27194369
  0
VERTEX
  8
0
 62
7
 10
3.58637638
 20
9.27299730
  0
VERTEX
  8
0
 62
7
 10
3.60291133
 20
9.26987765
  0
VERTEX
  8
0
 62
7
 10
3.61849555
 20
9.26463433
  0
VERTEX
  8
0
 62
7
 10
3.63306729
 20
9.25751428
  0
VERTEX
  8
0
 62
7
 10
3.64656483
 20
9.24876445
  0
VERTEX
  8
0
 62
7
 10
3.65892643
 20
9.23863176
  0
VERTEX
  8
0
 62
7
 10
3.67009035
 20
9.22736315
  0
VERTEX
  8
0
 62
7
 10
3.67999486
 20
9.21520557
  0
VERTEX
  8
0
 62
7
 10
3.68857822
 20
9.20240595
  0
VERTEX
  8
0
 62
7
 10
3.69536506
 20
9.18837370
  0
VERTEX
  8
0
 62
7
 10
3.70059616
 20
9.17193380
  0
VERTEX
  8
0
 62
7
 10
3.70409864
 20
9.15364187
  0
VERTEX
  8
0
 62
7
 10
3.70569966
 20
9.13405351
  0
VERTEX
  8
0
 62
7
 10
3.70522635
 20
9.11372434
  0
VERTEX
  8
0
 62
7
 10
3.70250586
 20
9.09320996
  0
VERTEX
  8
0
 62
7
 10
3.69736531
 20
9.07306600
  0
VERTEX
  8
0
 62
7
 10
3.68963185
 20
9.05384805
  0
VERTEX
  8
0
 62
7
 10
3.67573714
 20
9.03119560
  0
VERTEX
  8
0
 62
7
 10
3.65828644
 20
9.01091376
  0
VERTEX
  8
0
 62
7
 10
3.63806996
 20
8.99339762
  0
VERTEX
  8
0
 62
7
 10
3.61587794
 20
8.97904229
  0
VERTEX
  8
0
 62
7
 10
3.62356613
 20
8.99991678
  0
VERTEX
  8
0
 62
7
 10
3.62759954
 20
9.02118638
  0
VERTEX
  8
0
 62
7
 10
3.62787941
 20
9.04245597
  0
VERTEX
  8
0
 62
7
 10
3.62430696
 20
9.06333046
  0
VERTEX
  8
0
 62
7
 10
3.61819921
 20
9.07845953
  0
VERTEX
  8
0
 62
7
 10
3.60942447
 20
9.09190942
  0
VERTEX
  8
0
 62
7
 10
3.59808152
 20
9.10318626
  0
VERTEX
  8
0
 62
7
 10
3.58426912
 20
9.11179616
  0
VERTEX
  8
0
 62
7
 10
3.56941956
 20
9.11727819
  0
VERTEX
  8
0
 62
7
 10
3.55476756
 20
9.11930308
  0
VERTEX
  8
0
 62
7
 10
3.54011556
 20
9.11757451
  0
VERTEX
  8
0
 62
7
 10
3.52526600
 20
9.11179616
  0
VERTEX
  8
0
 62
7
 10
3.51120666
 20
9.10290640
  0
VERTEX
  8
0
 62
7
 10
3.49892532
 20
9.09125092
  0
VERTEX
  8
0
 62
7
 10
3.48822441
 20
9.07801504
  0
VERTEX
  8
0
 62
7
 10
3.47890640
 20
9.06438407
  0
VERTEX
  8
0
 62
7
 10
3.45138039
 20
9.01249416
  0
VERTEX
  8
0
 62
7
 10
3.42938592
 20
8.96534546
  0
VERTEX
  8
0
 62
7
 10
3.37551923
 20
8.84615672
  0
VERTEX
  8
0
 62
7
 10
3.32718408
 20
8.72617777
  0
VERTEX
  8
0
 62
7
 10
3.29677705
 20
8.64243286
  0
VERTEX
  8
0
 62
7
 10
3.26962969
 20
8.55957693
  0
VERTEX
  8
0
 62
7
 10
3.24465543
 20
8.47652345
  0
VERTEX
  8
0
 62
7
 10
3.22076772
 20
8.39218589
  0
VERTEX
  8
0
 62
7
 10
3.19743976
 20
8.29617639
  0
VERTEX
  8
0
 62
7
 10
3.17638368
 20
8.19858649
  0
VERTEX
  8
0
 62
7
 10
3.15750070
 20
8.10060149
  0
VERTEX
  8
0
 62
7
 10
3.14069205
 20
8.00340669
  0
VERTEX
  8
0
 62
7
 10
3.13219718
 20
7.93930158
  0
VERTEX
  8
0
 62
7
 10
3.12567787
 20
7.87144302
  0
VERTEX
  8
0
 62
7
 10
3.12113410
 20
7.80397955
  0
VERTEX
  8
0
 62
7
 10
3.11856588
 20
7.74105975
  0
VERTEX
  8
0
 62
7
 10
3.11738055
 20
7.63556783
  0
VERTEX
  8
0
 62
7
 10
3.11856588
 20
7.53797793
  0
VERTEX
  8
0
 62
7
 10
3.12212187
 20
7.43999293
  0
VERTEX
  8
0
 62
7
 10
3.12804853
 20
7.33331571
  0
VERTEX
  8
0
 62
7
 10
3.15228195
 20
7.33647652
  0
VERTEX
  8
0
 62
7
 10
3.15373069
 20
7.46066987
  0
VERTEX
  8
0
 62
7
 10
3.15755009
 20
7.58407303
  0
VERTEX
  8
0
 62
7
 10
3.16405295
 20
7.68600904
  0
VERTEX
  8
0
 62
7
 10
3.17164235
 20
7.78794505
  0
VERTEX
  8
0
 62
7
 10
3.18140487
 20
7.88988105
  0
VERTEX
  8
0
 62
7
 10
3.19442704
 20
7.99181706
  0
VERTEX
  8
0
 62
7
 10
3.20878272
 20
8.08013856
  0
VERTEX
  8
0
 62
7
 10
3.22471883
 20
8.16816373
  0
VERTEX
  8
0
 62
7
 10
3.24421093
 20
8.25599134
  0
VERTEX
  8
0
 62
7
 10
3.26923458
 20
8.34372019
  0
VERTEX
  8
0
 62
7
 10
3.29098210
 20
8.41019590
  0
VERTEX
  8
0
 62
7
 10
3.31440885
 20
8.47647406
  0
VERTEX
  8
0
 62
7
 10
3.34079892
 20
8.54196202
  0
VERTEX
  8
0
 62
7
 10
3.37143642
 20
8.60606713
  0
VERTEX
  8
0
 62
7
 10
3.41117792
 20
8.67392569
  0
VERTEX
  8
0
 62
7
 10
3.45546319
 20
8.73882100
  0
VERTEX
  8
0
 62
7
 10
3.50330445
 20
8.80134570
  0
VERTEX
  8
0
 62
7
 10
3.55371393
 20
8.86209245
  0
VERTEX
  8
0
 62
7
 10
3.60158812
 20
8.91444331
  0
VERTEX
  8
0
 62
7
 10
3.65301830
 20
8.96481866
  0
VERTEX
  8
0
 62
7
 10
3.70721425
 20
9.01203321
  0
VERTEX
  8
0
 62
7
 10
3.76338575
 20
9.05490165
  0
VERTEX
  8
0
 62
7
 10
3.81942555
 20
9.09462574
  0
VERTEX
  8
0
 62
7
 10
3.87507024
 20
9.13010250
  0
VERTEX
  8
0
 62
7
 10
3.93229537
 20
9.16143070
  0
VERTEX
  8
0
 62
7
 10
3.99307649
 20
9.18870912
  0
VERTEX
  8
0
 62
7
 10
4.06786756
 20
9.21578999
  0
VERTEX
  8
0
 62
7
 10
4.13544787
 20
9.23467252
  0
VERTEX
  8
0
 62
7
 10
4.19769420
 20
9.24664078
  0
VERTEX
  8
0
 62
7
 10
4.25648330
 20
9.25297885
  0
VERTEX
  8
0
 62
7
 10
4.28739656
 20
9.25413946
  0
VERTEX
  8
0
 62
7
 10
4.31769246
 20
9.25297885
  0
VERTEX
  8
0
 62
7
 10
4.34734631
 20
9.24964519
  0
VERTEX
  8
0
 62
7
 10
4.37633340
 20
9.24428664
  0
VERTEX
  8
0
 62
7
 10
4.40462906
 20
9.23705135
  0
VERTEX
  8
0
 62
7
 10
4.43220857
 20
9.22808750
  0
VERTEX
  8
0
 62
7
 10
4.45904726
 20
9.21754325
  0
VERTEX
  8
0
 62
7
 10
4.48512041
 20
9.20556676
  0
VERTEX
  8
0
 62
7
 10
4.52189859
 20
9.18227227
  0
VERTEX
  8
0
 62
7
 10
4.55492322
 20
9.15433535
  0
VERTEX
  8
0
 62
7
 10
4.58439186
 20
9.12304007
  0
VERTEX
  8
0
 62
7
 10
4.61050206
 20
9.08967052
  0
VERTEX
  8
0
 62
7
 10
4.63855488
 20
9.04709841
  0
VERTEX
  8
0
 62
7
 10
4.66107616
 20
9.00353854
  0
VERTEX
  8
0
 62
7
 10
4.67806590
 20
8.95721297
  0
VERTEX
  8
0
 62
7
 10
4.68952410
 20
8.90634374
  0
VERTEX
  8
0
 62
7
 10
4.69571416
 20
8.85231371
  0
VERTEX
  8
0
 62
7
 10
4.69637268
 20
8.79492531
  0
VERTEX
  8
0
 62
7
 10
4.69308009
 20
8.73714182
  0
VERTEX
  8
0
 62
7
 10
4.68741684
 20
8.68192648
  0
VERTEX
  8
0
 62
7
 10
4.68211990
 20
8.64850342
  0
VERTEX
  8
0
 62
7
 10
4.67487210
 20
8.61683362
  0
VERTEX
  8
0
 62
7
 10
4.66559935
 20
8.58669484
  0
VERTEX
  8
0
 62
7
 10
4.65422759
 20
8.55786483
  0
VERTEX
  8
0
 62
7
 10
4.64068271
 20
8.53012134
  0
VERTEX
  8
0
 62
7
 10
4.62489065
 20
8.50324214
  0
VERTEX
  8
0
 62
7
 10
4.60677732
 20
8.47700498
  0
VERTEX
  8
0
 62
7
 10
4.58626863
 20
8.45118761
  0
VERTEX
  8
0
 62
7
 10
4.55330985
 20
8.41690232
  0
VERTEX
  8
0
 62
7
 10
4.51719019
 20
8.38690141
  0
VERTEX
  8
0
 62
7
 10
4.47840354
 20
8.36141947
  0
VERTEX
  8
0
 62
7
 10
4.43744378
 20
8.34069108
  0
VERTEX
  8
0
 62
7
 10
4.39480480
 20
8.32495084
  0
VERTEX
  8
0
 62
7
 10
4.35098050
 20
8.31443334
  0
VERTEX
  8
0
 62
7
 10
4.30646475
 20
8.30937317
  0
VERTEX
  8
0
 62
7
 10
4.26175144
 20
8.31000492
  0
VERTEX
  8
0
 62
7
 10
4.24998045
 20
8.33148852
  0
VERTEX
  8
0
 62
7
 10
4.23554246
 20
8.35149050
  0
VERTEX
  8
0
 62
7
 10
4.21893137
 20
8.36971453
  0
VERTEX
  8
0
 62
7
 10
4.20064106
 20
8.38586427
  0
VERTEX
  8
0
 62
7
 10
4.17464610
 20
8.40346272
  0
VERTEX
  8
0
 62
7
 10
4.14598415
 20
8.41602364
  0
VERTEX
  8
0
 62
7
 10
4.11514909
 20
8.42483109
  0
VERTEX
  8
0
 62
7
 10
4.08263481
 20
8.43116917
  0
VERTEX
  8
0
 62
7
 10
4.03645630
 20
8.43335868
  0
VERTEX
  8
0
 62
7
 10
3.98978391
 20
8.42814006
  0
VERTEX
  8
0
 62
7
 10
3.94291396
 20
8.41679737
  0
VERTEX
  8
0
 62
7
 10
3.89614279
 20
8.40061470
  0
VERTEX
  8
0
 62
7
 10
3.85538058
 20
8.38196265
  0
VERTEX
  8
0
 62
7
 10
3.81659393
 20
8.35965592
  0
VERTEX
  8
0
 62
7
 10
3.77938772
 20
8.33438593
  0
VERTEX
  8
0
 62
7
 10
3.74336684
 20
8.30684411
  0
VERTEX
  8
0
 62
7
 10
3.70461311
 20
8.27164721
  0
VERTEX
  8
0
 62
7
 10
3.66882271
 20
8.23309196
  0
VERTEX
  8
0
 62
7
 10
3.63579808
 20
8.19216610
  0
VERTEX
  8
0
 62
7
 10
3.60534167
 20
8.14985739
  0
VERTEX
  8
0
 62
7
 10
3.56657148
 20
8.09050995
  0
VERTEX
  8
0
 62
7
 10
3.53224628
 20
8.02829804
  0
VERTEX
  8
0
 62
7
 10
3.50206974
 20
7.96391307
  0
VERTEX
  8
0
 62
7
 10
3.47574552
 20
7.89804647
  0
VERTEX
  8
0
 62
7
 10
3.45350410
 20
7.82920016
  0
VERTEX
  8
0
 62
7
 10
3.43531257
 20
7.75897099
  0
VERTEX
  8
0
 62
7
 10
3.42047948
 20
7.68795162
  0
VERTEX
  8
0
 62
7
 10
3.40831337
 20
7.61673469
  0
VERTEX
  8
0
 62
7
 10
3.39329919
 20
7.48806353
  0
VERTEX
  8
0
 62
7
 10
3.38302632
 20
7.35860216
  0
VERTEX
  8
0
 62
7
 10
3.38014531
 20
7.28786266
  0
VERTEX
  8
0
 62
7
 10
3.37894351
 20
7.21781457
  0
VERTEX
  8
0
 62
7
 10
3.38110016
 20
7.14835914
  0
VERTEX
  8
0
 62
7
 10
3.38829446
 20
7.07939759
  0
VERTEX
  8
0
 62
7
 10
3.40255135
 20
6.98814577
  0
VERTEX
  8
0
 62
7
 10
3.42095690
 20
6.89699272
  0
VERTEX
  8
0
 62
7
 10
3.44489399
 20
6.80722252
  0
VERTEX
  8
0
 62
7
 10
3.47574552
 20
6.72011925
  0
VERTEX
  8
0
 62
7
 10
3.48838904
 20
6.72644087
  0
VERTEX
  8
0
 62
7
 10
3.46547265
 20
6.82653307
  0
VERTEX
  8
0
 62
7
 10
3.44729758
 20
6.92978608
  0
VERTEX
  8
0
 62
7
 10
3.44008682
 20
6.99795744
  0
VERTEX
  8
0
 62
7
 10
3.43465405
 20
7.06662266
  0
VERTEX
  8
0
 62
7
 10
3.43159195
 20
7.13588054
  0
VERTEX
  8
0
 62
7
 10
3.43149317
 20
7.20582985
  0
VERTEX
  8
0
 62
7
 10
3.43445650
 20
7.27554868
  0
VERTEX
  8
0
 62
7
 10
3.44018560
 20
7.34556384
  0
VERTEX
  8
0
 62
7
 10
3.44868047
 20
7.41577654
  0
VERTEX
  8
0
 62
7
 10
3.45994111
 20
7.48608803
  0
VERTEX
  8
0
 62
7
 10
3.46927970
 20
7.53041340
  0
VERTEX
  8
0
 62
7
 10
3.47933444
 20
7.57478816
  0
VERTEX
  8
0
 62
7
 10
3.49042633
 20
7.61906414
  0
VERTEX
  8
0
 62
7
 10
3.50287642
 20
7.66309319
  0
VERTEX
  8
0
 62
7
 10
3.51700572
 20
7.70672713
  0
VERTEX
  8
0
 62
7
 10
3.53313528
 20
7.74981782
  0
VERTEX
  8
0
 62
7
 10
3.55158610
 20
7.79221707
  0
VERTEX
  8
0
 62
7
 10
3.57267922
 20
7.83377674
  0
VERTEX
  8
0
 62
7
 10
3.60741600
 20
7.89700933
  0
VERTEX
  8
0
 62
7
 10
3.64511610
 20
7.95797009
  0
VERTEX
  8
0
 62
7
 10
3.68795263
 20
8.01557250
  0
VERTEX
  8
0
 62
7
 10
3.73809870
 20
8.06873002
  0
VERTEX
  8
0
 62
7
 10
3.77383971
 20
8.10233005
  0
VERTEX
  8
0
 62
7
 10
3.81145750
 20
8.13365826
  0
VERTEX
  8
0
 62
7
 10
3.85085328
 20
8.16281340
  0
VERTEX
  8
0
 62
7
 10
3.89192828
 20
8.18989427
  0
VERTEX
  8
0
 62
7
 10
3.94027989
 20
8.21626725
  0
VERTEX
  8
0
 62
7
 10
3.99110094
 20
8.23967697
  0
VERTEX
  8
0
 62
7
 10
4.04290977
 20
8.25953079
  0
VERTEX
  8
0
 62
7
 10
4.09422471
 20
8.27523605
  0
VERTEX
  8
0
 62
7
 10
4.13592530
 20
8.28330269
  0
VERTEX
  8
0
 62
7
 10
4.17732956
 20
8.28761587
  0
VERTEX
  8
0
 62
7
 10
4.21853626
 20
8.28916335
  0
VERTEX
  8
0
 62
7
 10
4.25964418
 20
8.28893287
  0
VERTEX
  8
0
 62
7
 10
4.29052452
 20
8.28696354
  0
VERTEX
  8
0
 62
7
 10
4.32138016
 20
8.28404350
  0
VERTEX
  8
0
 62
7
 10
4.35198885
 20
8.27991346
  0
VERTEX
  8
0
 62
7
 10
4.38212835
 20
8.27431414
  0
VERTEX
  8
0
 62
7
 10
4.41157641
 20
8.26698626
  0
VERTEX
  8
0
 62
7
 10
4.44011078
 20
8.25767052
  0
VERTEX
  8
0
 62
7
 10
4.46750920
 20
8.24610765
  0
VERTEX
  8
0
 62
7
 10
4.49354943
 20
8.23203836
  0
VERTEX
  8
0
 62
7
 10
4.53301107
 20
8.20602755
  0
VERTEX
  8
0
 62
7
 10
4.56901548
 20
8.17567064
  0
VERTEX
  8
0
 62
7
 10
4.60126635
 20
8.14136272
  0
VERTEX
  8
0
 62
7
 10
4.62946735
 20
8.10349889
  0
VERTEX
  8
0
 62
7
 10
4.65556108
 20
8.05328817
  0
VERTEX
  8
0
 62
7
 10
4.67464161
 20
7.99971908
  0
VERTEX
  8
0
 62
7
 10
4.68799305
 20
7.94377939
  0
VERTEX
  8
0
 62
7
 10
4.69689949
 20
7.88645685
  0
VERTEX
  8
0
 62
7
 10
4.69984635
 20
7.81703434
  0
VERTEX
  8
0
 62
7
 10
4.69597757
 20
7.74672286
  0
VERTEX
  8
0
 62
7
 10
4.68519435
 20
7.67621383
  0
VERTEX
  8
0
 62
7
 10
4.66739793
 20
7.60619867
  0
VERTEX
  8
0
 62
7
 10
4.64560101
 20
7.53973942
  0
VERTEX
  8
0
 62
7
 10
4.61787745
 20
7.47515690
  0
VERTEX
  8
0
 62
7
 10
4.58383212
 20
7.41314254
  0
VERTEX
  8
0
 62
7
 10
4.54306991
 20
7.35438776
  0
VERTEX
  8
0
 62
7
 10
4.49163973
 20
7.29561651
  0
VERTEX
  8
0
 62
7
 10
4.43428290
 20
7.24296933
  0
VERTEX
  8
0
 62
7
 10
4.37178963
 20
7.19703886
  0
VERTEX
  8
0
 62
7
 10
4.30495016
 20
7.15841775
  0
VERTEX
  8
0
 62
7
 10
4.29704795
 20
7.18526815
  0
VERTEX
  8
0
 62
7
 10
4.28598487
 20
7.21043936
  0
VERTEX
  8
0
 62
7
 10
4.27176090
 20
7.23383262
  0
VERTEX
  8
0
 62
7
 10
4.25437605
 20
7.25534915
  0
VERTEX
  8
0
 62
7
 10
4.23330350
 20
7.27571331
  0
VERTEX
  8
0
 62
7
 10
4.20986030
 20
7.29262033
  0
VERTEX
  8
0
 62
7
 10
4.18444154
 20
7.30616899
  0
VERTEX
  8
0
 62
7
 10
4.15744234
 20
7.31645808
  0
VERTEX
  8
0
 62
7
 10
4.11686123
 20
7.32491982
  0
VERTEX
  8
0
 62
7
 10
4.07460090
 20
7.32567710
  0
VERTEX
  8
0
 62
7
 10
4.03135279
 20
7.31971766
  0
VERTEX
  8
0
 62
7
 10
3.98780836
 20
7.30802926
  0
VERTEX
  8
0
 62
7
 10
3.95461910
 20
7.29347638
  0
VERTEX
  8
0
 62
7
 10
3.92301028
 20
7.27536759
  0
VERTEX
  8
0
 62
7
 10
3.89298190
 20
7.25409800
  0
VERTEX
  8
0
 62
7
 10
3.86453397
 20
7.23006270
  0
VERTEX
  8
0
 62
7
 10
3.83574031
 20
7.20105572
  0
VERTEX
  8
0
 62
7
 10
3.80961365
 20
7.16948058
  0
VERTEX
  8
0
 62
7
 10
3.78645031
 20
7.13553483
  0
VERTEX
  8
0
 62
7
 10
3.76654664
 20
7.09941603
  0
VERTEX
  8
0
 62
7
 10
3.74977091
 20
7.06158513
  0
VERTEX
  8
0
 62
7
 10
3.73744018
 20
7.02276647
  0
VERTEX
  8
0
 62
7
 10
3.72728256
 20
6.98355272
  0
VERTEX
  8
0
 62
7
 10
3.71702616
 20
6.94453651
  0
VERTEX
  8
0
 62
7
 10
3.70820203
 20
6.89712442
  0
VERTEX
  8
0
 62
7
 10
3.70095834
 20
6.84971232
  0
VERTEX
  8
0
 62
7
 10
3.69569020
 20
6.80230022
  0
VERTEX
  8
0
 62
7
 10
3.69279273
 20
6.75488812
  0
VERTEX
  8
0
 62
7
 10
3.69437317
 20
6.69758204
  0
VERTEX
  8
0
 62
7
 10
3.69990471
 20
6.64096739
  0
VERTEX
  8
0
 62
7
 10
3.70820203
 20
6.58494539
  0
VERTEX
  8
0
 62
7
 10
3.71807978
 20
6.52941726
  0
VERTEX
  8
0
 62
7
 10
3.73004833
 20
6.47071187
  0
VERTEX
  8
0
 62
7
 10
3.74507898
 20
6.41299422
  0
VERTEX
  8
0
 62
7
 10
3.76267785
 20
6.35606678
  0
VERTEX
  8
0
 62
7
 10
3.78235104
 20
6.29973199
  0
VERTEX
  8
0
 62
7
 10
3.81949140
 20
6.21623402
  0
VERTEX
  8
0
 62
7
 10
3.86137309
 20
6.13431645
  0
VERTEX
  8
0
 62
7
 10
3.89311361
 20
6.07327337
  0
VERTEX
  8
0
 62
7
 10
3.92564435
 20
6.01341560
  0
VERTEX
  8
0
 62
7
 10
3.95975553
 20
5.95474313
  0
VERTEX
  8
0
 62
7
 10
3.99623737
 20
5.89725596
  0
VERTEX
  8
0
 62
7
 10
4.03723006
 20
5.83685493
  0
VERTEX
  8
0
 62
7
 10
4.08079096
 20
5.77833062
  0
VERTEX
  8
0
 62
7
 10
4.12632741
 20
5.72079406
  0
VERTEX
  8
0
 62
7
 10
4.17324675
 20
5.66335628
  0
VERTEX
  8
0
 62
7
 10
4.23462054
 20
5.58827067
  0
VERTEX
  8
0
 62
7
 10
4.29836499
 20
5.51466668
  0
VERTEX
  8
0
 62
7
 10
4.36408499
 20
5.44244554
  0
VERTEX
  8
0
 62
7
 10
4.43138543
 20
5.37150848
  0
VERTEX
  8
0
 62
7
 10
4.59785853
 20
5.19871773
  0
VERTEX
  8
0
 62
7
 10
4.74352250
 20
5.06491025
  0
VERTEX
  8
0
 62
7
 10
4.89708867
 20
4.93742439
  0
VERTEX
  8
0
 62
7
 10
4.91710758
 20
4.95955004
  0
VERTEX
  8
0
 62
7
 10
4.76011712
 20
5.10073273
  0
VERTEX
  8
0
 62
7
 10
4.52937276
 20
5.32620359
  0
VERTEX
  8
0
 62
7
 10
4.42743432
 20
5.43090530
  0
VERTEX
  8
0
 62
7
 10
4.33023721
 20
5.53797762
  0
VERTEX
  8
0
 62
7
 10
4.22961581
 20
5.65874677
  0
VERTEX
  8
0
 62
7
 10
4.13531617
 20
5.78346693
  0
VERTEX
  8
0
 62
7
 10
4.08604263
 20
5.84870795
  0
VERTEX
  8
0
 62
7
 10
4.03746054
 20
5.91424530
  0
VERTEX
  8
0
 62
7
 10
3.99144666
 20
5.98156060
  0
VERTEX
  8
0
 62
7
 10
3.94987778
 20
6.05213548
  0
VERTEX
  8
0
 62
7
 10
3.92161093
 20
6.10642892
  0
VERTEX
  8
0
 62
7
 10
3.89522086
 20
6.16408071
  0
VERTEX
  8
0
 62
7
 10
3.87060879
 20
6.22133740
  0
VERTEX
  8
0
 62
7
 10
3.84767593
 20
6.27444554
  0
VERTEX
  8
0
 62
7
 10
3.83167397
 20
6.31820295
  0
VERTEX
  8
0
 62
7
 10
3.81843778
 20
6.36610893
  0
VERTEX
  8
0
 62
7
 10
3.80796736
 20
6.41638550
  0
VERTEX
  8
0
 62
7
 10
3.80026271
 20
6.46725473
  0
VERTEX
  8
0
 62
7
 10
3.79540614
 20
6.52400109
  0
VERTEX
  8
0
 62
7
 10
3.79301902
 20
6.58064867
  0
VERTEX
  8
0
 62
7
 10
3.79478055
 20
6.63749380
  0
VERTEX
  8
0
 62
7
 10
3.80236996
 20
6.69483280
  0
VERTEX
  8
0
 62
7
 10
3.81476655
 20
6.75060787
  0
VERTEX
  8
0
 62
7
 10
3.83200323
 20
6.80440743
  0
VERTEX
  8
0
 62
7
 10
3.85496901
 20
6.85662658
  0
VERTEX
  8
0
 62
7
 10
3.88455289
 20
6.90766044
  0
VERTEX
  8
0
 62
7
 10
3.92100180
 20
6.95408478
  0
VERTEX
  8
0
 62
7
 10
3.96199449
 20
6.99537282
  0
VERTEX
  8
0
 62
7
 10
4.00693828
 20
7.03152454
  0
VERTEX
  8
0
 62
7
 10
4.05524050
 20
7.06253996
  0
VERTEX
  8
0
 62
7
 10
4.09448811
 20
7.08101092
  0
VERTEX
  8
0
 62
7
 10
4.13452595
 20
7.09572842
  0
VERTEX
  8
0
 62
7
 10
4.17495890
 20
7.10728512
  0
VERTEX
  8
0
 62
7
 10
4.21539184
 20
7.11627367
  0
VERTEX
  8
0
 62
7
 10
4.25728999
 20
7.12275990
  0
VERTEX
  8
0
 62
7
 10
4.29770647
 20
7.12470248
  0
VERTEX
  8
0
 62
7
 10
4.33911073
 20
7.12190385
  0
VERTEX
  8
0
 62
7
 10
4.38397220
 20
7.11416646
  0
VERTEX
  8
0
 62
7
 10
4.44434175
 20
7.09684788
  0
VERTEX
  8
0
 62
7
 10
4.49315432
 20
7.07518318
  0
VERTEX
  8
0
 62
7
 10
4.53347203
 20
7.04956748
  0
VERTEX
  8
0
 62
7
 10
4.56835697
 20
7.02039587
  0
VERTEX
  8
0
 62
7
 10
4.60062430
 20
6.98603856
  0
VERTEX
  8
0
 62
7
 10
4.63131119
 20
6.94624862
  0
VERTEX
  8
0
 62
7
 10
4.65844210
 20
6.90112481
  0
VERTEX
  8
0
 62
7
 10
4.68004145
 20
6.85076592
  0
VERTEX
  8
0
 62
7
 10
4.69867749
 20
6.78519565
  0
VERTEX
  8
0
 62
7
 10
4.70822598
 20
6.72288496
  0
VERTEX
  8
0
 62
7
 10
4.71026739
 20
6.66156202
  0
VERTEX
  8
0
 62
7
 10
4.70638214
 20
6.59895500
  0
VERTEX
  8
0
 62
7
 10
4.69978256
 20
6.55053663
  0
VERTEX
  8
0
 62
7
 10
4.68954056
 20
6.50259979
  0
VERTEX
  8
0
 62
7
 10
4.67576727
 20
6.45532969
  0
VERTEX
  8
0
 62
7
 10
4.65857380
 20
6.40891151
  0
VERTEX
  8
0
 62
7
 10
4.63807128
 20
6.36353048
  0
VERTEX
  8
0
 62
7
 10
4.61437084
 20
6.31937179
  0
VERTEX
  8
0
 62
7
 10
4.58758361
 20
6.27662065
  0
VERTEX
  8
0
 62
7
 10
4.55782069
 20
6.23546226
  0
VERTEX
  8
0
 62
7
 10
4.52831913
 20
6.27747464
  0
VERTEX
  8
0
 62
7
 10
4.49249581
 20
6.31553602
  0
VERTEX
  8
0
 62
7
 10
4.47626336
 20
6.32692810
  0
VERTEX
  8
0
 62
7
 10
4.45904314
 20
6.33713487
  0
VERTEX
  8
0
 62
7
 10
4.44063759
 20
6.34576123
  0
VERTEX
  8
0
 62
7
 10
4.42084915
 20
6.35241210
  0
VERTEX
  8
0
 62
7
 10
4.39732363
 20
6.35585277
  0
VERTEX
  8
0
 62
7
 10
4.37409444
 20
6.35465100
  0
VERTEX
  8
0
 62
7
 10
4.35106281
 20
6.34811538
  0
VERTEX
  8
0
 62
7
 10
4.32812996
 20
6.33555446
  0
VERTEX
  8
0
 62
7
 10
4.30415994
 20
6.31105821
  0
VERTEX
  8
0
 62
7
 10
4.28809212
 20
6.28182075
  0
VERTEX
  8
0
 62
7
 10
4.27719366
 20
6.24291979
  0
VERTEX
  8
0
 62
7
 10
4.27123408
 20
6.20372249
  0
VERTEX
  8
0
 62
7
 10
4.27001583
 20
6.16432765
  0
VERTEX
  8
0
 62
7
 10
4.27334134
 20
6.12483403
  0
VERTEX
  8
0
 62
7
 10
4.28093075
 20
6.08757932
  0
VERTEX
  8
0
 62
7
 10
4.29296515
 20
6.05279398
  0
VERTEX
  8
0
 62
7
 10
4.30756776
 20
6.01978660
  0
VERTEX
  8
0
 62
7
 10
4.32286182
 20
5.98786575
  0
VERTEX
  8
0
 62
7
 10
4.35484928
 20
5.92563737
  0
VERTEX
  8
0
 62
7
 10
4.38910863
 20
5.86617470
  0
VERTEX
  8
0
 62
7
 10
4.42554109
 20
5.80829243
  0
VERTEX
  8
0
 62
7
 10
4.46404787
 20
5.75080526
  0
VERTEX
  8
0
 62
7
 10
4.53846029
 20
5.64241594
  0
VERTEX
  8
0
 62
7
 10
4.61998470
 20
5.53797762
  0
VERTEX
  8
0
 62
7
 10
4.69900674
 20
5.44223153
  0
VERTEX
  8
0
 62
7
 10
4.78435055
 20
5.35043644
  0
VERTEX
  8
0
 62
7
 10
4.87364546
 20
5.26206556
  0
VERTEX
  8
0
 62
7
 10
4.96768169
 20
5.17764568
  0
VERTEX
  8
0
 62
7
 10
5.08701938
 20
5.07929439
  0
VERTEX
  8
0
 62
7
 10
5.20940683
 20
4.98486941
  0
VERTEX
  8
0
 62
7
 10
5.33463413
 20
4.89424728
  0
VERTEX
  8
0
 62
7
 10
5.46249138
 20
4.80730452
  0
VERTEX
  8
0
 62
7
 10
5.59276869
 20
4.72391767
  0
VERTEX
  8
0
 62
7
 10
5.72525614
 20
4.64396326
  0
VERTEX
  8
0
 62
7
 10
5.85974384
 20
4.56731782
  0
VERTEX
  8
0
 62
7
 10
5.99602188
 20
4.49385788
  0
VERTEX
  8
0
 62
7
 10
6.24783879
 20
4.37164003
  0
VERTEX
  8
0
 62
7
 10
6.61766195
 20
4.20201008
  0
VERTEX
  8
0
 62
7
 10
6.94112551
 20
4.05766658
  0
VERTEX
  8
0
 62
7
 10
7.13522341
 20
3.97565024
  0
VERTEX
  8
0
 62
7
 10
7.33149441
 20
3.89699225
  0
VERTEX
  8
0
 62
7
 10
7.52934585
 20
3.82149507
  0
VERTEX
  8
0
 62
7
 10
7.72818506
 20
3.74896115
  0
VERTEX
  8
0
 62
7
 10
7.99896726
 20
3.65980007
  0
VERTEX
  8
0
 62
7
 10
8.26974947
 20
3.57300959
  0
VERTEX
  8
0
 62
7
 10
8.68382497
 20
3.44763093
  0
VERTEX
  8
0
 62
7
 10
9.06945254
 20
3.34437792
  0
VERTEX
  8
0
 62
7
 10
9.44559747
 20
3.24744652
  0
VERTEX
  8
0
 62
7
 10
9.71020607
 20
3.18148526
  0
VERTEX
  8
0
 62
7
 10
9.97609878
 20
3.12177154
  0
VERTEX
  8
0
 62
7
 10
10.24317683
 20
3.06813249
  0
VERTEX
  8
0
 62
7
 10
10.51134142
 20
3.02039525
  0
VERTEX
  8
0
 62
7
 10
10.78049379
 20
2.97838698
  0
VERTEX
  8
0
 62
7
 10
11.05053516
 20
2.94193482
  0
VERTEX
  8
0
 62
7
 10
11.32136675
 20
2.91086590
  0
VERTEX
  8
0
 62
7
 10
11.59288978
 20
2.88500738
  0
VERTEX
  8
0
 62
7
 10
11.83482894
 20
2.86828144
  0
VERTEX
  8
0
 62
7
 10
12.07755832
 20
2.85550652
  0
VERTEX
  8
0
 62
7
 10
12.21602798
 20
2.84948123
  0
VERTEX
  8
0
 62
7
 10
12.35479398
 20
2.84444369
  0
VERTEX
  8
0
 62
7
 10
12.49375754
 20
2.84098656
  0
VERTEX
  8
0
 62
7
 10
12.63281987
 20
2.83970248
  0
VERTEX
  8
0
 62
7
 10
12.79326755
 20
2.83917568
  0
VERTEX
  8
0
 62
7
 10
12.95391277
 20
2.84101949
  0
VERTEX
  8
0
 62
7
 10
13.11495311
 20
2.84562900
  0
VERTEX
  8
0
 62
7
 10
13.27658612
 20
2.85339931
  0
VERTEX
  8
0
 62
7
 10
13.44455735
 20
2.86360608
  0
VERTEX
  8
0
 62
7
 10
13.61203469
 20
2.87657856
  0
VERTEX
  8
0
 62
7
 10
13.77931448
 20
2.89192164
  0
VERTEX
  8
0
 62
7
 10
13.94669304
 20
2.90924023
  0
VERTEX
  8
0
 62
7
 10
14.16494205
 20
2.93426328
  0
VERTEX
  8
0
 62
7
 10
14.38328983
 20
2.96165693
  0
VERTEX
  8
0
 62
7
 10
14.60144006
 20
2.99339670
  0
VERTEX
  8
0
 62
7
 10
14.81909640
 20
3.03145808
  0
VERTEX
  8
0
 62
7
 10
15.07707044
 20
3.08417111
  0
VERTEX
  8
0
 62
7
 10
15.33405671
 20
3.14419351
  0
VERTEX
  8
0
 62
7
 10
15.58985765
 20
3.21132772
  0
VERTEX
  8
0
 62
7
 10
15.84427570
 20
3.28537620
  0
VERTEX
  8
0
 62
7
 10
15.97197862
 20
3.32480397
  0
VERTEX
  8
0
 62
7
 10
16.10017542
 20
3.36610846
  0
VERTEX
  8
0
 62
7
 10
16.22817467
 20
3.40998112
  0
VERTEX
  8
0
 62
7
 10
16.35528492
 20
3.45711335
  0
VERTEX
  8
0
 62
7
 10
16.51787277
 20
3.52130077
  0
VERTEX
  8
0
 62
7
 10
16.67848507
 20
3.59052573
  0
VERTEX
  8
0
 62
7
 10
16.83712182
 20
3.66468944
  0
VERTEX
  8
0
 62
7
 10
16.99378302
 20
3.74369314
  0
VERTEX
  8
0
 62
7
 10
17.07904452
 20
3.78904742
  0
VERTEX
  8
0
 62
7
 10
17.16381212
 20
3.83548823
  0
VERTEX
  8
0
 62
7
 10
17.24759195
 20
3.88370699
  0
VERTEX
  8
0
 62
7
 10
17.32989011
 20
3.93439513
  0
VERTEX
  8
0
 62
7
 10
17.40932373
 20
3.98676245
  0
VERTEX
  8
0
 62
7
 10
17.48648546
 20
4.04120405
  0
VERTEX
  8
0
 62
7
 10
17.56147409
 20
4.09781870
  0
VERTEX
  8
0
 62
7
 10
17.63438839
 20
4.15670519
  0
VERTEX
  8
0
 62
7
 10
17.70516250
 20
4.21715561
  0
VERTEX
  8
0
 62
7
 10
17.77386229
 20
4.27997664
  0
VERTEX
  8
0
 62
7
 10
17.84078409
 20
4.34516828
  0
VERTEX
  8
0
 62
7
 10
17.90622421
 20
4.41273051
  0
VERTEX
  8
0
 62
7
 10
17.99112352
 20
4.51170327
  0
VERTEX
  8
0
 62
7
 10
18.07177539
 20
4.61423193
  0
VERTEX
  8
0
 62
7
 10
18.14788350
 20
4.72031650
  0
VERTEX
  8
0
 62
7
 10
18.21915151
 20
4.82995697
  0
VERTEX
  8
0
 62
7
 10
18.26371664
 20
4.90721564
  0
VERTEX
  8
0
 62
7
 10
18.30462702
 20
4.98575839
  0
VERTEX
  8
0
 62
7
 10
18.34257406
 20
5.06568399
  0
VERTEX
  8
0
 62
7
 10
18.37824922
 20
5.14709122
  0
VERTEX
  8
0
 62
7
 10
18.41512617
 20
5.24091120
  0
VERTEX
  8
0
 62
7
 10
18.44805202
 20
5.33581771
  0
VERTEX
  8
0
 62
7
 10
18.47663166
 20
5.43171197
  0
VERTEX
  8
0
 62
7
 10
18.50046998
 20
5.52849521
  0
VERTEX
  8
0
 62
7
 10
18.52615214
 20
5.67599951
  0
VERTEX
  8
0
 62
7
 10
18.54472232
 20
5.82350381
  0
VERTEX
  8
0
 62
7
 10
18.55048435
 20
5.87595344
  0
VERTEX
  8
0
 62
7
 10
18.55446837
 20
5.92543982
  0
VERTEX
  8
0
 62
7
 10
18.55568663
 20
5.97611150
  0
VERTEX
  8
0
 62
7
 10
18.55315134
 20
6.03211704
  0
VERTEX
  8
0
 62
7
 10
18.54756629
 20
6.07469738
  0
VERTEX
  8
0
 62
7
 10
18.53731401
 20
6.11535161
  0
VERTEX
  8
0
 62
7
 10
18.52266612
 20
6.15383278
  0
VERTEX
  8
0
 62
7
 10
18.50389427
 20
6.18989396
  0
VERTEX
  8
0
 62
7
 10
18.48127009
 20
6.22328821
  0
VERTEX
  8
0
 62
7
 10
18.45506523
 20
6.25376859
  0
VERTEX
  8
0
 62
7
 10
18.42555132
 20
6.28108817
  0
VERTEX
  8
0
 62
7
 10
18.39300000
 20
6.30500000
  0
SEQEND
  0
POLYLINE
  8
0
 62
7
 66
1
 70
1
  0
VERTEX
  8
0
 62
7
 10
3.03100000
 20
6.65500000
  0
VERTEX
  8
0
 62
7
 10
3.02913969
 20
6.62357302
  0
VERTEX
  8
0
 62
7
 10
3.02876104
 20
6.59244237
  0
VERTEX
  8
0
 62
7
 10
3.03055550
 20
6.56150927
  0
VERTEX
  8
0
 62
7
 10
3.03521451
 20
6.53067494
  0
VERTEX
  8
0
 62
7
 10
3.05194084
 20
6.47615103
  0
VERTEX
  8
0
 62
7
 10
3.07419872
 20
6.42320752
  0
VERTEX
  8
0
 62
7
 10
3.10686116
 20
6.36157180
  0
VERTEX
  8
0
 62
7
 10
3.14584537
 20
6.30309688
  0
VERTEX
  8
0
 62
7
 10
3.21130196
 20
6.22052081
  0
VERTEX
  8
0
 62
7
 10
3.28070966
 20
6.14189575
  0
VERTEX
  8
0
 62
7
 10
3.39450140
 20
6.01651709
  0
VERTEX
  8
0
 62
7
 10
3.42513890
 20
5.97987149
  0
VERTEX
  8
0
 62
7
 10
3.45706052
 20
5.94144793
  0
VERTEX
  8
0
 62
7
 10
3.48799435
 20
5.90183908
  0
VERTEX
  8
0
 62
7
 10
3.51566853
 20
5.86163757
  0
VERTEX
  8
0
 62
7
 10
3.54228908
 20
5.81949348
  0
VERTEX
  8
0
 62
7
 10
3.56663775
 20
5.77734940
  0
VERTEX
  8
0
 62
7
 10
3.58841820
 20
5.73362491
  0
VERTEX
  8
0
 62
7
 10
3.60733410
 20
5.68673961
  0
VERTEX
  8
0
 62
7
 10
3.61874291
 20
5.64746001
  0
VERTEX
  8
0
 62
7
 10
3.62748472
 20
5.60719265
  0
VERTEX
  8
0
 62
7
 10
3.63326321
 20
5.56613509
  0
VERTEX
  8
0
 62
7
 10
3.63578204
 20
5.52448488
  0
VERTEX
  8
0
 62
7
 10
3.63428391
 20
5.47947631
  0
VERTEX
  8
0
 62
7
 10
3.62932857
 20
5.43466529
  0
VERTEX
  8
0
 62
7
 10
3.62022457
 20
5.39024938
  0
VERTEX
  8
0
 62
7
 10
3.60628047
 20
5.34642611
  0
VERTEX
  8
0
 62
7
 10
3.58958707
 20
5.30457835
  0
VERTEX
  8
0
 62
7
 10
3.56834989
 20
5.26450854
  0
VERTEX
  8
0
 62
7
 10
3.54316162
 20
5.22641424
  0
VERTEX
  8
0
 62
7
 10
3.51461490
 20
5.19049299
  0
VERTEX
  8
0
 62
7
 10
3.47976289
 20
5.15796303
  0
VERTEX
  8
0
 62
7
 10
3.44204633
 20
5.12938407
  0
VERTEX
  8
0
 62
7
 10
3.40215666
 20
5.10396591
  0
VERTEX
  8
0
 62
7
 10
3.36078533
 20
5.08091837
  0
VERTEX
  8
0
 62
7
 10
3.31757015
 20
5.05928660
  0
VERTEX
  8
0
 62
7
 10
3.27346597
 20
5.04140829
  0
VERTEX
  8
0
 62
7
 10
3.22876913
 20
5.02669078
  0
VERTEX
  8
0
 62
7
 10
3.18377595
 20
5.01454143
  0
VERTEX
  8
0
 62
7
 10
3.13698832
 20
5.00530595
  0
VERTEX
  8
0
 62
7
 10
3.09000313
 20
4.99913250
  0
VERTEX
  8
0
 62
7
 10
3.04301794
 20
4.99513210
  0
VERTEX
  8
0
 62
7
 10
2.99623030
 20
4.99241579
  0
VERTEX
  8
0
 62
7
 10
2.93223891
 20
4.99187252
  0
VERTEX
  8
0
 62
7
 10
2.86834629
 20
4.99518149
  0
VERTEX
  8
0
 62
7
 10
2.80465124
 20
5.00026841
  0
VERTEX
  8
0
 62
7
 10
2.74125251
 20
5.00505901
  0
VERTEX
  8
0
 62
7
 10
2.68926259
 20
5.00991546
  0
VERTEX
  8
0
 62
7
 10
2.63747023
 20
5.01625353
  0
VERTEX
  8
0
 62
7
 10
2.58567786
 20
5.02120876
  0
VERTEX
  8
0
 62
7
 10
2.53368794
 20
5.02191665
  0
VERTEX
  8
0
 62
7
 10
2.49893471
 20
5.01984237
  0
VERTEX
  8
0
 62
7
 10
2.46428025
 20
5.01717544
  0
VERTEX
  8
0
 62
7
 10
2.42982334
 20
5.01213790
  0
VERTEX
  8
0
 62
7
 10
2.39566277
 20
5.00295181
  0
VERTEX
  8
0
 62
7
 10
2.35934556
 20
4.98895865
  0
VERTEX
  8
0
 62
7
 10
2.32401612
 20
4.97160714
  0
VERTEX
  8
0
 62
7
 10
2.29105734
 20
4.94990952
  0
VERTEX
  8
0
 62
7
 10
2.26185211
 20
4.92287804
  0
VERTEX
  8
0
 62
7
 10
2.24594893
 20
4.90478572
  0
VERTEX
  8
0
 62
7
 10
2.23261396
 20
4.88560687
  0
VERTEX
  8
0
 62
7
 10
2.22125454
 20
4.86583536
  0
VERTEX
  8
0
 62
7
 10
2.21127801
 20
4.84596508
  0
VERTEX
  8
0
 62
7
 10
2.18085452
 20
4.85067337
  0
VERTEX
  8
0
 62
7
 10
2.15122125
 20
4.85834491
  0
VERTEX
  8
0
 62
7
 10
2.12237821
 20
4.86878216
  0
VERTEX
  8
0
 62
7
 10
2.09432538
 20
4.88178756
  0
VERTEX
  8
0
 62
7
 10
2.05402414
 20
4.90664598
  0
VERTEX
  8
0
 62
7
 10
2.01767400
 20
4.93683827
  0
VERTEX
  8
0
 62
7
 10
1.98646029
 20
4.97216687
  0
VERTEX
  8
0
 62
7
 10
1.96156835
 20
5.01243423
  0
VERTEX
  8
0
 62
7
 10
1.95115555
 20
5.03586864
  0
VERTEX
  8
0
 62
7
 10
1.94286647
 20
5.06024142
  0
VERTEX
  8
0
 62
7
 10
1.93675049
 20
5.08540441
  0
VERTEX
  8
0
 62
7
 10
1.93285701
 20
5.11120943
  0
VERTEX
  8
0
 62
7
 10
1.93123541
 20
5.13750833
  0
VERTEX
  8
0
 62
7
 10
1.93193508
 20
5.16415294
  0
VERTEX
  8
0
 62
7
 10
1.93500542
 20
5.19099510
  0
VERTEX
  8
0
 62
7
 10
1.94049581
 20
5.21788665
  0
VERTEX
  8
0
 62
7
 10
1.95771603
 20
5.27125818
  0
VERTEX
  8
0
 62
7
 10
1.98264089
 20
5.32166646
  0
VERTEX
  8
0
 62
7
 10
2.01546797
 20
5.36812373
  0
VERTEX
  8
0
 62
7
 10
2.05639480
 20
5.40964224
  0
VERTEX
  8
0
 62
7
 10
2.04380066
 20
5.42366832
  0
VERTEX
  8
0
 62
7
 10
2.03308330
 20
5.43887970
  0
VERTEX
  8
0
 62
7
 10
2.02453904
 20
5.45527639
  0
VERTEX
  8
0
 62
7
 10
2.01846422
 20
5.47285837
  0
VERTEX
  8
0
 62
7
 10
2.01260342
 20
5.49534619
  0
VERTEX
  8
0
 62
7
 10
2.00950839
 20
5.51842667
  0
VERTEX
  8
0
 62
7
 10
2.00957424
 20
5.54190224
  0
VERTEX
  8
0
 62
7
 10
2.01319608
 20
5.56557536
  0
VERTEX
  8
0
 62
7
 10
2.02187205
 20
5.58868876
  0
VERTEX
  8
0
 62
7
 10
2.03361011
 20
5.61061686
  0
VERTEX
  8
0
 62
7
 10
2.04831151
 20
5.63135965
  0
VERTEX
  8
0
 62
7
 10
2.06587745
 20
5.65091714
  0
VERTEX
  8
0
 62
7
 10
2.08548479
 20
5.66869667
  0
VERTEX
  8
0
 62
7
 10
2.10736402
 20
5.68331540
  0
VERTEX
  8
0
 62
7
 10
2.13062613
 20
5.69595863
  0
VERTEX
  8
0
 62
7
 10
2.15438214
 20
5.70781165
  0
VERTEX
  8
0
 62
7
 10
2.20153195
 20
5.72651309
  0
VERTEX
  8
0
 62
7
 10
2.25026221
 20
5.74047332
  0
VERTEX
  8
0
 62
7
 10
2.29089271
 20
5.74858935
  0
VERTEX
  8
0
 62
7
 10
2.33191833
 20
5.75403845
  0
VERTEX
  8
0
 62
7
 10
2.37294394
 20
5.75691939
  0
VERTEX
  8
0
 62
7
 10
2.41357444
 20
5.75733096
  0
VERTEX
  8
0
 62
7
 10
2.45193305
 20
5.75509205
  0
VERTEX
  8
0
 62
7
 10
2.48969900
 20
5.75048254
  0
VERTEX
  8
0
 62
7
 10
2.52706985
 20
5.74429263
  0
VERTEX
  8
0
 62
7
 10
2.56424313
 20
5.73731252
  0
VERTEX
  8
0
 62
7
 10
2.60293101
 20
5.72830751
  0
VERTEX
  8
0
 62
7
 10
2.64142133
 20
5.71821598
  0
VERTEX
  8
0
 62
7
 10
2.67951654
 20
5.70634649
  0
VERTEX
  8
0
 62
7
 10
2.71701908
 20
5.69200762
  0
VERTEX
  8
0
 62
7
 10
2.75387957
 20
5.67534754
  0
VERTEX
  8
0
 62
7
 10
2.78985107
 20
5.65671195
  0
VERTEX
  8
0
 62
7
 10
2.82443967
 20
5.63570576
  0
VERTEX
  8
0
 62
7
 10
2.85715151
 20
5.61193386
  0
VERTEX
  8
0
 62
7
 10
2.88443057
 20
5.58719067
  0
VERTEX
  8
0
 62
7
 10
2.90943776
 20
5.55938545
  0
VERTEX
  8
0
 62
7
 10
2.93464250
 20
5.53177778
  0
VERTEX
  8
0
 62
7
 10
2.96251423
 20
5.50762724
  0
VERTEX
  8
0
 62
7
 10
3.01269323
 20
5.47667768
  0
VERTEX
  8
0
 62
7
 10
3.06366244
 20
5.45283993
  0
VERTEX
  8
0
 62
7
 10
3.09074396
 20
5.44431234
  0
VERTEX
  8
0
 62
7
 10
3.11910958
 20
5.43598230
  0
VERTEX
  8
0
 62
7
 10
3.14767275
 20
5.43002286
  0
VERTEX
  8
0
 62
7
 10
3.17534693
 20
5.42860708
  0
VERTEX
  8
0
 62
7
 10
3.18581118
 20
5.42906186
  0
VERTEX
  8
0
 62
7
 10
3.19643594
 20
5.42987470
  0
VERTEX
  8
0
 62
7
 10
3.20688784
 20
5.43140365
  0
VERTEX
  8
0
 62
7
 10
3.21683350
 20
5.43400679
  0
VERTEX
  8
0
 62
7
 10
3.22593956
 20
5.43804217
  0
VERTEX
  8
0
 62
7
 10
3.23387263
 20
5.44386785
  0
VERTEX
  8
0
 62
7
 10
3.24029935
 20
5.45184189
  0
VERTEX
  8
0
 62
7
 10
3.24488633
 20
5.46232235
  0
VERTEX
  8
0
 62
7
 10
3.24640092
 20
5.47239742
  0
VERTEX
  8
0
 62
7
 10
3.24514974
 20
5.48207739
  0
VERTEX
  8
0
 62
7
 10
3.24192300
 20
5.49136226
  0
VERTEX
  8
0
 62
7
 10
3.23751094
 20
5.50025203
  0
VERTEX
  8
0
 62
7
 10
3.22511436
 20
5.51674749
  0
VERTEX
  8
0
 62
7
 10
3.20708745
 20
5.52790909
  0
VERTEX
  8
0
 62
7
 10
3.18609722
 20
5.53551478
  0
VERTEX
  8
0
 62
7
 10
3.16481066
 20
5.54134251
  0
VERTEX
  8
0
 62
7
 10
3.12371920
 20
5.55174683
  0
VERTEX
  8
0
 62
7
 10
3.08262773
 20
5.56452176
  0
VERTEX
  8
0
 62
7
 10
3.01585411
 20
5.59349582
  0
VERTEX
  8
0
 62
7
 10
2.94987070
 20
5.62563069
  0
VERTEX
  8
0
 62
7
 10
2.90199651
 20
5.65073605
  0
VERTEX
  8
0
 62
7
 10
2.85372722
 20
5.67633529
  0
VERTEX
  8
0
 62
7
 10
2.80585303
 20
5.70371248
  0
VERTEX
  8
0
 62
7
 10
2.75916417
 20
5.73415171
  0
VERTEX
  8
0
 62
7
 10
2.71212959
 20
5.76743895
  0
VERTEX
  8
0
 62
7
 10
2.66815712
 20
5.79973844
  0
VERTEX
  8
0
 62
7
 10
2.62596264
 20
5.83401344
  0
VERTEX
  8
0
 62
7
 10
2.58426205
 20
5.87322719
  0
VERTEX
  8
0
 62
7
 10
2.53540009
 20
5.92590730
  0
VERTEX
  8
0
 62
7
 10
2.49048923
 20
5.98174822
  0
VERTEX
  8
0
 62
7
 10
2.47593188
 20
6.00428131
  0
VERTEX
  8
0
 62
7
 10
2.46253518
 20
6.02649338
  0
VERTEX
  8
0
 62
7
 10
2.45066952
 20
6.04905117
  0
VERTEX
  8
0
 62
7
 10
2.44070534
 20
6.07262140
  0
VERTEX
  8
0
 62
7
 10
2.43301304
 20
6.09787082
  0
VERTEX
  8
0
 62
7
 10
2.42796303
 20
6.12546614
  0
VERTEX
  8
0
 62
7
 10
2.42592575
 20
6.15607410
  0
VERTEX
  8
0
 62
7
 10
2.42727159
 20
6.19036145
  0
VERTEX
  8
0
 62
7
 10
2.43385676
 20
6.21512110
  0
VERTEX
  8
0
 62
7
 10
2.44834414
 20
6.23671994
  0
VERTEX
  8
0
 62
7
 10
2.46210714
 20
6.25089418
  0
VERTEX
  8
0
 62
7
 10
2.47784570
 20
6.26161129
  0
VERTEX
  8
0
 62
7
 10
2.49516470
 20
6.26857494
  0
VERTEX
  8
0
 62
7
 10
2.51366902
 20
6.27148881
  0
VERTEX
  8
0
 62
7
 10
2.50795639
 20
6.30978067
  0
VERTEX
  8
0
 62
7
 10
2.50510830
 20
6.34866517
  0
VERTEX
  8
0
 62
7
 10
2.50522354
 20
6.38794478
  0
VERTEX
  8
0
 62
7
 10
2.50840089
 20
6.42742193
  0
VERTEX
  8
0
 62
7
 10
2.51450863
 20
6.47272683
  0
VERTEX
  8
0
 62
7
 10
2.52328337
 20
6.51803172
  0
VERTEX
  8
0
 62
7
 10
2.53699699
 20
6.56254641
  0
VERTEX
  8
0
 62
7
 10
2.55792137
 20
6.60548070
  0
VERTEX
  8
0
 62
7
 10
2.57933963
 20
6.63932767
  0
VERTEX
  8
0
 62
7
 10
2.60441267
 20
6.67080403
  0
VERTEX
  8
0
 62
7
 10
2.63363436
 20
6.69911959
  0
VERTEX
  8
0
 62
7
 10
2.66749860
 20
6.72348414
  0
VERTEX
  8
0
 62
7
 10
2.69166618
 20
6.73647720
  0
VERTEX
  8
0
 62
7
 10
2.71662397
 20
6.74702556
  0
VERTEX
  8
0
 62
7
 10
2.74217443
 20
6.75515394
  0
VERTEX
  8
0
 62
7
 10
2.76812000
 20
6.76088702
  0
VERTEX
  8
0
 62
7
 10
2.79426313
 20
6.76424949
  0
VERTEX
  8
0
 62
7
 10
2.82040626
 20
6.76526605
  0
VERTEX
  8
0
 62
7
 10
2.84635183
 20
6.76396140
  0
VERTEX
  8
0
 62
7
 10
2.87190229
 20
6.76036022
  0
VERTEX
  8
0
 62
7
 10
2.89593816
 20
6.75440695
  0
VERTEX
  8
0
 62
7
 10
2.91898625
 20
6.74612012
  0
VERTEX
  8
0
 62
7
 10
2.94094780
 20
6.73563555
  0
VERTEX
  8
0
 62
7
 10
2.96172401
 20
6.72308904
  0
VERTEX
  8
0
 62
7
 10
2.98121611
 20
6.70861641
  0
VERTEX
  8
0
 62
7
 10
2.99932533
 20
6.69235349
  0
VERTEX
  8
0
 62
7
 10
3.01595289
 20
6.67443608
  0
VERTEX
  8
0
 62
7
 10
3.03100000
 20
6.65500000
  0
SEQEND
  0
POLYLINE
  8
0
 62
7
 66
1
 70
1
  0
VERTEX
  8
0
 62
7
 10
4.49800000
 20
9.22800000
  0
VERTEX
  8
0
 62
7
 10
4.45085018
 20
9.25473515
  0
VERTEX
  8
0
 62
7
 10
4.39895904
 20
9.27435850
  0
VERTEX
  8
0
 62
7
 10
4.36366253
 20
9.28127276
  0
VERTEX
  8
0
 62
7
 10
4.32757579
 20
9.28384091
  0
VERTEX
  8
0
 62
7
 10
4.29109395
 20
9.28324826
  0
VERTEX
  8
0
 62
7
 10
4.25461211
 20
9.28068011
  0
VERTEX
  8
0
 62
7
 10
4.19929668
 20
9.27462190
  0
VERTEX
  8
0
 62
7
 10
4.14082037
 20
9.26382247
  0
VERTEX
  8
0
 62
7
 10
4.03651127
 20
9.23748242
  0
VERTEX
  8
0
 62
7
 10
3.97737644
 20
9.22431239
  0
VERTEX
  8
0
 62
7
 10
3.91745139
 20
9.21430317
  0
VERTEX
  8
0
 62
7
 10
3.89241334
 20
9.21118146
  0
VERTEX
  8
0
 62
7
 10
3.86649864
 20
9.20908455
  0
VERTEX
  8
0
 62
7
 10
3.84001596
 20
9.20824702
  0
VERTEX
  8
0
 62
7
 10
3.81327400
 20
9.20890346
  0
VERTEX
  8
0
 62
7
 10
3.78658142
 20
9.21128847
  0
VERTEX
  8
0
 62
7
 10
3.76024691
 20
9.21563664
  0
VERTEX
  8
0
 62
7
 10
3.73457915
 20
9.22218255
  0
VERTEX
  8
0
 62
7
 10
3.70988682
 20
9.23116081
  0
VERTEX
  8
0
 62
7
 10
3.68084622
 20
9.24581246
  0
VERTEX
  8
0
 62
7
 10
3.65378117
 20
9.26382247
  0
VERTEX
  8
0
 62
7
 10
3.62869167
 20
9.28420309
  0
VERTEX
  8
0
 62
7
 10
3.60557773
 20
9.30596656
  0
VERTEX
  8
0
 62
7
 10
3.58022482
 20
9.33268525
  0
VERTEX
  8
0
 62
7
 10
3.55684747
 20
9.36088557
  0
VERTEX
  8
0
 62
7
 10
3.53623588
 20
9.39086385
  0
VERTEX
  8
0
 62
7
 10
3.51918029
 20
9.42291640
  0
VERTEX
  8
0
 62
7
 10
3.50599349
 20
9.45114965
  0
VERTEX
  8
0
 62
7
 10
3.49507857
 20
9.48046942
  0
VERTEX
  8
0
 62
7
 10
3.48673187
 20
9.51077694
  0
VERTEX
  8
0
 62
7
 10
3.48124971
 20
9.54197344
  0
VERTEX
  8
0
 62
7
 10
3.47695083
 20
9.57147019
  0
VERTEX
  8
0
 62
7
 10
3.47491149
 20
9.60074469
  0
VERTEX
  8
0
 62
7
 10
3.47482300
 20
9.62987103
  0
VERTEX
  8
0
 62
7
 10
3.47637669
 20
9.65892328
  0
VERTEX
  8
0
 62
7
 10
3.47926387
 20
9.68797554
  0
VERTEX
  8
0
 62
7
 10
3.48317587
 20
9.71710188
  0
VERTEX
  8
0
 62
7
 10
3.48780401
 20
9.74637638
  0
VERTEX
  8
0
 62
7
 10
3.49283961
 20
9.77587313
  0
VERTEX
  8
0
 62
7
 10
3.50987874
 20
9.84758392
  0
VERTEX
  8
0
 62
7
 10
3.53274574
 20
9.91968982
  0
VERTEX
  8
0
 62
7
 10
3.55936629
 20
9.99100552
  0
VERTEX
  8
0
 62
7
 10
3.58766606
 20
10.06034571
  0
VERTEX
  8
0
 62
7
 10
3.61364456
 20
10.12046688
  0
VERTEX
  8
0
 62
7
 10
3.64219127
 20
10.17940275
  0
VERTEX
  8
0
 62
7
 10
3.67271354
 20
10.23754842
  0
VERTEX
  8
0
 62
7
 10
3.70461869
 20
10.29529899
  0
VERTEX
  8
0
 62
7
 10
3.76994358
 20
10.39921051
  0
VERTEX
  8
0
 62
7
 10
3.83842935
 20
10.50075141
  0
VERTEX
  8
0
 62
7
 10
3.95748923
 20
10.65984534
  0
VERTEX
  8
0
 62
7
 10
3.98797856
 20
10.70146263
  0
VERTEX
  8
0
 62
7
 10
4.01965323
 20
10.74307991
  0
VERTEX
  8
0
 62
7
 10
4.05053768
 20
10.78548740
  0
VERTEX
  8
0
 62
7
 10
4.07865636
 20
10.82947529
  0
VERTEX
  8
0
 62
7
 10
4.11092369
 20
10.88874041
  0
VERTEX
  8
0
 62
7
 10
4.13765948
 20
10.94958594
  0
VERTEX
  8
0
 62
7
 10
4.15193284
 20
10.98595167
  0
VERTEX
  8
0
 62
7
 10
4.16334165
 20
11.02241619
  0
VERTEX
  8
0
 62
7
 10
4.17218224
 20
11.05907825
  0
VERTEX
  8
0
 62
7
 10
4.17875095
 20
11.09603664
  0
VERTEX
  8
0
 62
7
 10
4.18299838
 20
11.12384186
  0
VERTEX
  8
0
 62
7
 10
4.18586293
 20
11.15174585
  0
VERTEX
  8
0
 62
7
 10
4.18675193
 20
11.17945230
  0
VERTEX
  8
0
 62
7
 10
4.18507271
 20
11.20666486
  0
VERTEX
  8
0
 62
7
 10
4.18276790
 20
11.23567185
  0
VERTEX
  8
0
 62
7
 10
4.17769732
 20
11.26408618
  0
VERTEX
  8
0
 62
7
 10
4.17025608
 20
11.29171031
  0
VERTEX
  8
0
 62
7
 10
4.16083928
 20
11.31834669
  0
VERTEX
  8
0
 62
7
 10
4.17659430
 20
11.34621159
  0
VERTEX
  8
0
 62
7
 10
4.19521387
 20
11.37196517
  0
VERTEX
  8
0
 62
7
 10
4.21640166
 20
11.39537283
  0
VERTEX
  8
0
 62
7
 10
4.23986133
 20
11.41619999
  0
VERTEX
  8
0
 62
7
 10
4.26529655
 20
11.43421206
  0
VERTEX
  8
0
 62
7
 10
4.29241098
 20
11.44917445
  0
VERTEX
  8
0
 62
7
 10
4.32090831
 20
11.46085256
  0
VERTEX
  8
0
 62
7
 10
4.35049219
 20
11.46901180
  0
VERTEX
  8
0
 62
7
 10
4.39082635
 20
11.47404934
  0
VERTEX
  8
0
 62
7
 10
4.43056786
 20
11.47217261
  0
VERTEX
  8
0
 62
7
 10
4.46872892
 20
11.46397427
  0
VERTEX
  8
0
 62
7
 10
4.50432176
 20
11.45004696
  0
VERTEX
  8
0
 62
7
 10
4.53127157
 20
11.43440756
  0
VERTEX
  8
0
 62
7
 10
4.55555439
 20
11.41501469
  0
VERTEX
  8
0
 62
7
 10
4.57766410
 20
11.39285612
  0
VERTEX
  8
0
 62
7
 10
4.59809459
 20
11.36891960
  0
VERTEX
  8
0
 62
7
 10
4.61872263
 20
11.33961629
  0
VERTEX
  8
0
 62
7
 10
4.63668369
 20
11.30991788
  0
VERTEX
  8
0
 62
7
 10
4.65247163
 20
11.27468805
  0
VERTEX
  8
0
 62
7
 10
4.66658036
 20
11.22879051
  0
VERTEX
  8
0
 62
7
 10
4.67782454
 20
11.17502387
  0
VERTEX
  8
0
 62
7
 10
4.68383350
 20
11.12105969
  0
VERTEX
  8
0
 62
7
 10
4.68569382
 20
11.06670040
  0
VERTEX
  8
0
 62
7
 10
4.68449202
 20
11.01174846
  0
VERTEX
  8
0
 62
7
 10
4.68138053
 20
10.96654235
  0
VERTEX
  8
0
 62
7
 10
4.67540449
 20
10.92113868
  0
VERTEX
  8
0
 62
7
 10
4.66686023
 20
10.87573501
  0
VERTEX
  8
0
 62
7
 10
4.65604409
 20
10.83052889
  0
VERTEX
  8
0
 62
7
 10
4.62864978
 20
10.74887472
  0
VERTEX
  8
0
 62
7
 10
4.59493371
 20
10.67038136
  0
VERTEX
  8
0
 62
7
 10
4.70345731
 20
10.61137964
  0
VERTEX
  8
0
 62
7
 10
4.69695034
 20
10.57204242
  0
VERTEX
  8
0
 62
7
 10
4.68775168
 20
10.53314968
  0
VERTEX
  8
0
 62
7
 10
4.67593542
 20
10.49484960
  0
VERTEX
  8
0
 62
7
 10
4.66157563
 20
10.45729032
  0
VERTEX
  8
0
 62
7
 10
4.64474640
 20
10.42062003
  0
VERTEX
  8
0
 62
7
 10
4.62552182
 20
10.38498688
  0
VERTEX
  8
0
 62
7
 10
4.60397597
 20
10.35053902
  0
VERTEX
  8
0
 62
7
 10
4.58018292
 20
10.31742464
  0
VERTEX
  8
0
 62
7
 10
4.54738878
 20
10.28051564
  0
VERTEX
  8
0
 62
7
 10
4.51143375
 20
10.24656989
  0
VERTEX
  8
0
 62
7
 10
4.47350317
 20
10.21459965
  0
VERTEX
  8
0
 62
7
 10
4.43478237
 20
10.18361716
  0
VERTEX
  8
0
 62
7
 10
4.35918461
 20
10.12869815
  0
VERTEX
  8
0
 62
7
 10
4.27884553
 20
10.07931055
  0
VERTEX
  8
0
 62
7
 10
4.23289751
 20
10.05539049
  0
VERTEX
  8
0
 62
7
 10
4.18625804
 20
10.03413736
  0
VERTEX
  8
0
 62
7
 10
4.13823569
 20
10.01308177
  0
VERTEX
  8
0
 62
7
 10
4.08813900
 20
9.98975436
  0
VERTEX
  8
0
 62
7
 10
4.05113035
 20
9.97059198
  0
VERTEX
  8
0
 62
7
 10
4.01570213
 20
9.94945408
  0
VERTEX
  8
0
 62
7
 10
3.98145924
 20
9.92634068
  0
VERTEX
  8
0
 62
7
 10
3.94800658
 20
9.90125178
  0
VERTEX
  8
0
 62
7
 10
3.90823215
 20
9.87135582
  0
VERTEX
  8
0
 62
7
 10
3.87003816
 20
9.83276764
  0
VERTEX
  8
0
 62
7
 10
3.85925495
 20
9.81940006
  0
VERTEX
  8
0
 62
7
 10
3.84936073
 20
9.80563739
  0
VERTEX
  8
0
 62
7
 10
3.84322006
 20
9.79068941
  0
VERTEX
  8
0
 62
7
 10
3.84369748
 20
9.77376592
  0
VERTEX
  8
0
 62
7
 10
3.84842234
 20
9.76072759
  0
VERTEX
  8
0
 62
7
 10
3.85620931
 20
9.75243048
  0
VERTEX
  8
0
 62
7
 10
3.86695960
 20
9.74768927
  0
VERTEX
  8
0
 62
7
 10
3.88057444
 20
9.74531866
  0
VERTEX
  8
0
 62
7
 10
3.89603312
 20
9.74525281
  0
VERTEX
  8
0
 62
7
 10
3.91178814
 20
9.74795267
  0
VERTEX
  8
0
 62
7
 10
3.92695050
 20
9.75302313
  0
VERTEX
  8
0
 62
7
 10
3.94063119
 20
9.76006909
  0
VERTEX
  8
0
 62
7
 10
3.97349119
 20
9.78188195
  0
VERTEX
  8
0
 62
7
 10
4.00358542
 20
9.80892989
  0
VERTEX
  8
0
 62
7
 10
4.03249431
 20
9.83815089
  0
VERTEX
  8
0
 62
7
 10
4.06179832
 20
9.86648291
  0
VERTEX
  8
0
 62
7
 10
4.18085820
 20
9.96552151
  0
VERTEX
  8
0
 62
7
 10
4.29991808
 20
10.06034571
  0
VERTEX
  8
0
 62
7
 10
4.32815200
 20
10.07919531
  0
VERTEX
  8
0
 62
7
 10
4.35747247
 20
10.09577308
  0
VERTEX
  8
0
 62
7
 10
4.38778071
 20
10.10938760
  0
VERTEX
  8
0
 62
7
 10
4.41897796
 20
10.11934743
  0
VERTEX
  8
0
 62
7
 10
4.45239770
 20
10.12532333
  0
VERTEX
  8
0
 62
7
 10
4.48561988
 20
10.12764455
  0
VERTEX
  8
0
 62
7
 10
4.51765673
 20
10.12660741
  0
VERTEX
  8
0
 62
7
 10
4.54752048
 20
10.12250824
  0
VERTEX
  8
0
 62
7
 10
4.57629767
 20
10.11342092
  0
VERTEX
  8
0
 62
7
 10
4.60230910
 20
10.10038259
  0
VERTEX
  8
0
 62
7
 10
4.62515964
 20
10.08339326
  0
VERTEX
  8
0
 62
7
 10
4.64445419
 20
10.06245291
  0
VERTEX
  8
0
 62
7
 10
4.65625810
 20
10.04222046
  0
VERTEX
  8
0
 62
7
 10
4.66460481
 20
10.01991373
  0
VERTEX
  8
0
 62
7
 10
4.66919796
 20
9.99622414
  0
VERTEX
  8
0
 62
7
 10
4.66974124
 20
9.97184313
  0
VERTEX
  8
0
 62
7
 10
4.56648577
 20
9.87596533
  0
VERTEX
  8
0
 62
7
 10
4.59694218
 20
9.83961606
  0
VERTEX
  8
0
 62
7
 10
4.62522549
 20
9.80010597
  0
VERTEX
  8
0
 62
7
 10
4.64916258
 20
9.75743509
  0
VERTEX
  8
0
 62
7
 10
4.66658036
 20
9.71160339
  0
VERTEX
  8
0
 62
7
 10
4.67708371
 20
9.65752397
  0
VERTEX
  8
0
 62
7
 10
4.68264817
 20
9.59978986
  0
VERTEX
  8
0
 62
7
 10
4.68228599
 20
9.54106801
  0
VERTEX
  8
0
 62
7
 10
4.67500938
 20
9.48402533
  0
VERTEX
  8
0
 62
7
 10
4.66290913
 20
9.43880275
  0
VERTEX
  8
0
 62
7
 10
4.64458589
 20
9.39486424
  0
VERTEX
  8
0
 62
7
 10
4.62092867
 20
9.35230859
  0
VERTEX
  8
0
 62
7
 10
4.59282645
 20
9.31123457
  0
VERTEX
  8
0
 62
7
 10
4.57104600
 20
9.28711696
  0
VERTEX
  8
0
 62
7
 10
4.54817900
 20
9.26527118
  0
VERTEX
  8
0
 62
7
 10
4.52392911
 20
9.24559845
  0
VERTEX
  8
0
 62
7
 10
4.49800000
 20
9.22800000
  0
SEQEND
  0
ENDSEC
  0
EOF
