  0
SECTION
  2
ENTITIES
  0
POLYLINE
  8
0
 62
7
 66
1
 70
1
  0
VERTEX
  8
0
 62
7
 10
20.00015973
 20
24.50000000
  0
VERTEX
  8
0
 62
7
 10
19.67618605
 20
24.50288379
  0
VERTEX
  8
0
 62
7
 10
19.35433547
 20
24.51153906
  0
VERTEX
  8
0
 62
7
 10
19.03452115
 20
24.52597168
  0
VERTEX
  8
0
 62
7
 10
18.71665623
 20
24.54618750
  0
VERTEX
  8
0
 62
7
 10
18.40065387
 20
24.57219238
  0
VERTEX
  8
0
 62
7
 10
18.08642721
 20
24.60399219
  0
VERTEX
  8
0
 62
7
 10
17.77388942
 20
24.64159277
  0
VERTEX
  8
0
 62
7
 10
17.46295363
 20
24.68500000
  0
VERTEX
  8
0
 62
7
 10
17.15353299
 20
24.73421973
  0
VERTEX
  8
0
 62
7
 10
16.84554067
 20
24.78925781
  0
VERTEX
  8
0
 62
7
 10
16.53888981
 20
24.85012012
  0
VERTEX
  8
0
 62
7
 10
16.23349355
 20
24.91681250
  0
VERTEX
  8
0
 62
7
 10
15.92926506
 20
24.98934082
  0
VERTEX
  8
0
 62
7
 10
15.62611747
 20
25.06771094
  0
VERTEX
  8
0
 62
7
 10
15.32396395
 20
25.15192871
  0
VERTEX
  8
0
 62
7
 10
15.02271764
 20
25.24200000
  0
VERTEX
  8
0
 62
7
 10
14.72090174
 20
25.33225098
  0
VERTEX
  8
0
 62
7
 10
14.41713854
 20
25.41697656
  0
VERTEX
  8
0
 62
7
 10
14.11148976
 20
25.49613574
  0
VERTEX
  8
0
 62
7
 10
13.80401714
 20
25.56968750
  0
VERTEX
  8
0
 62
7
 10
13.49478241
 20
25.63759082
  0
VERTEX
  8
0
 62
7
 10
13.18384732
 20
25.69980469
  0
VERTEX
  8
0
 62
7
 10
12.87127359
 20
25.75628809
  0
VERTEX
  8
0
 62
7
 10
12.55712298
 20
25.80700000
  0
VERTEX
  8
0
 62
7
 10
12.24145720
 20
25.85189941
  0
VERTEX
  8
0
 62
7
 10
11.92433800
 20
25.89094531
  0
VERTEX
  8
0
 62
7
 10
11.60582712
 20
25.92409668
  0
VERTEX
  8
0
 62
7
 10
11.28598629
 20
25.95131250
  0
VERTEX
  8
0
 62
7
 10
10.96487724
 20
25.97255176
  0
VERTEX
  8
0
 62
7
 10
10.64256172
 20
25.98777344
  0
VERTEX
  8
0
 62
7
 10
10.31910146
 20
25.99693652
  0
VERTEX
  8
0
 62
7
 10
9.99455820
 20
26.00000000
  0
VERTEX
  8
0
 62
7
 10
9.67241237
 20
25.99690454
  0
VERTEX
  8
0
 62
7
 10
9.35083368
 20
25.98765820
  0
VERTEX
  8
0
 62
7
 10
9.02995396
 20
25.97232104
  0
VERTEX
  8
0
 62
7
 10
8.70990508
 20
25.95095313
  0
VERTEX
  8
0
 62
7
 10
8.39081886
 20
25.92361450
  0
VERTEX
  8
0
 62
7
 10
8.07282716
 20
25.89036523
  0
VERTEX
  8
0
 62
7
 10
7.75606181
 20
25.85126538
  0
VERTEX
  8
0
 62
7
 10
7.44065466
 20
25.80637500
  0
VERTEX
  8
0
 62
7
 10
7.12673756
 20
25.75575415
  0
VERTEX
  8
0
 62
7
 10
6.81444235
 20
25.69946289
  0
VERTEX
  8
0
 62
7
 10
6.50390087
 20
25.63756128
  0
VERTEX
  8
0
 62
7
 10
6.19524497
 20
25.57010938
  0
VERTEX
  8
0
 62
7
 10
5.88860649
 20
25.49716724
  0
VERTEX
  8
0
 62
7
 10
5.58411727
 20
25.41879492
  0
VERTEX
  8
0
 62
7
 10
5.28190916
 20
25.33505249
  0
VERTEX
  8
0
 62
7
 10
4.98211400
 20
25.24600000
  0
VERTEX
  8
0
 62
7
 10
4.68265578
 20
25.15703735
  0
VERTEX
  8
0
 62
7
 10
4.38139987
 20
25.07354883
  0
VERTEX
  8
0
 62
7
 10
4.07839023
 20
24.99557104
  0
VERTEX
  8
0
 62
7
 10
3.77367081
 20
24.92314063
  0
VERTEX
  8
0
 62
7
 10
3.46728555
 20
24.85629419
  0
VERTEX
  8
0
 62
7
 10
3.15927841
 20
24.79506836
  0
VERTEX
  8
0
 62
7
 10
2.84969332
 20
24.73949976
  0
VERTEX
  8
0
 62
7
 10
2.53857424
 20
24.68962500
  0
VERTEX
  8
0
 62
7
 10
2.22596511
 20
24.64548071
  0
VERTEX
  8
0
 62
7
 10
1.91190989
 20
24.60710352
  0
VERTEX
  8
0
 62
7
 10
1.59645252
 20
24.57453003
  0
VERTEX
  8
0
 62
7
 10
1.27963694
 20
24.54779688
  0
VERTEX
  8
0
 62
7
 10
.96150712
 20
24.52694067
  0
VERTEX
  8
0
 62
7
 10
.64210699
 20
24.51199805
  0
VERTEX
  8
0
 62
7
 10
.32148050
 20
24.50300562
  0
VERTEX
  8
0
 62
7
 10
-.00032840
 20
24.50000000
  0
VERTEX
  8
0
 62
7
 10
-.00032840
 20
.00000000
  0
VERTEX
  8
0
 62
7
 10
20.00015973
 20
.00000000
  0
VERTEX
  8
0
 62
7
 10
20.00015973
 20
24.50000000
  0
SEQEND
  0
POLYLINE
  8
0
 62
7
 66
1
 70
1
  0
VERTEX
  8
0
 62
7
 10
1.99700000
 20
18.31500000
  0
VERTEX
  8
0
 62
7
 10
2.07500000
 20
18.24200000
  0
VERTEX
  8
0
 62
7
 10
2.09088477
 20
18.23083203
  0
VERTEX
  8
0
 62
7
 10
2.10814063
 20
18.22353125
  0
VERTEX
  8
0
 62
7
 10
2.12616992
 20
18.22002734
  0
VERTEX
  8
0
 62
7
 10
2.14437500
 20
18.22025000
  0
VERTEX
  8
0
 62
7
 10
2.16215820
 20
18.22412891
  0
VERTEX
  8
0
 62
7
 10
2.17892188
 20
18.23159375
  0
VERTEX
  8
0
 62
7
 10
2.19406836
 20
18.24257422
  0
VERTEX
  8
0
 62
7
 10
2.20700000
 20
18.25700000
  0
VERTEX
  8
0
 62
7
 10
2.22500000
 20
18.28200000
  0
VERTEX
  8
0
 62
7
 10
2.29387500
 20
18.23875000
  0
VERTEX
  8
0
 62
7
 10
2.36500000
 20
18.20000000
  0
VERTEX
  8
0
 62
7
 10
2.44487500
 20
18.16443750
  0
VERTEX
  8
0
 62
7
 10
2.52700000
 20
18.13450000
  0
VERTEX
  8
0
 62
7
 10
2.61137500
 20
18.11056250
  0
VERTEX
  8
0
 62
7
 10
2.69800000
 20
18.09300000
  0
VERTEX
  8
0
 62
7
 10
2.73033789
 20
18.08893555
  0
VERTEX
  8
0
 62
7
 10
2.76282813
 20
18.08692188
  0
VERTEX
  8
0
 62
7
 10
2.79543555
 20
18.08647852
  0
VERTEX
  8
0
 62
7
 10
2.82812500
 20
18.08712500
  0
VERTEX
  8
0
 62
7
 10
2.86086133
 20
18.08838086
  0
VERTEX
  8
0
 62
7
 10
2.89360938
 20
18.08976563
  0
VERTEX
  8
0
 62
7
 10
2.92633398
 20
18.09079883
  0
VERTEX
  8
0
 62
7
 10
2.95900000
 20
18.09100000
  0
VERTEX
  8
0
 62
7
 10
2.99745313
 20
18.09246875
  0
VERTEX
  8
0
 62
7
 10
3.03712500
 20
18.09750000
  0
VERTEX
  8
0
 62
7
 10
3.07698438
 20
18.10703125
  0
VERTEX
  8
0
 62
7
 10
3.11600000
 20
18.12200000
  0
VERTEX
  8
0
 62
7
 10
3.14079688
 20
18.13487500
  0
VERTEX
  8
0
 62
7
 10
3.16287500
 20
18.14925000
  0
VERTEX
  8
0
 62
7
 10
3.18251563
 20
18.16475000
  0
VERTEX
  8
0
 62
7
 10
3.20000000
 20
18.18100000
  0
VERTEX
  8
0
 62
7
 10
3.20000000
 20
18.18100000
  0
VERTEX
  8
0
 62
7
 10
3.28481250
 20
18.15532813
  0
VERTEX
  8
0
 62
7
 10
3.37150000
 20
18.13537500
  0
VERTEX
  8
0
 62
7
 10
3.46043750
 20
18.12123438
  0
VERTEX
  8
0
 62
7
 10
3.55200000
 20
18.11300000
  0
VERTEX
  8
0
 62
7
 10
3.62300000
 20
18.11100000
  0
VERTEX
  8
0
 62
7
 10
3.69059375
 20
18.11265625
  0
VERTEX
  8
0
 62
7
 10
3.75875000
 20
18.11750000
  0
VERTEX
  8
0
 62
7
 10
3.82578125
 20
18.12534375
  0
VERTEX
  8
0
 62
7
 10
3.89000000
 20
18.13600000
  0
VERTEX
  8
0
 62
7
 10
3.95782813
 20
18.15084375
  0
VERTEX
  8
0
 62
7
 10
4.02462500
 20
18.17000000
  0
VERTEX
  8
0
 62
7
 10
4.09010938
 20
18.19365625
  0
VERTEX
  8
0
 62
7
 10
4.15400000
 20
18.22200000
  0
VERTEX
  8
0
 62
7
 10
4.20490625
 20
18.24815625
  0
VERTEX
  8
0
 62
7
 10
4.25525000
 20
18.27750000
  0
VERTEX
  8
0
 62
7
 10
4.30446875
 20
18.31059375
  0
VERTEX
  8
0
 62
7
 10
4.35200000
 20
18.34800000
  0
VERTEX
  8
0
 62
7
 10
4.40937500
 20
18.40062500
  0
VERTEX
  8
0
 62
7
 10
4.46600000
 20
18.46300000
  0
VERTEX
  8
0
 62
7
 10
4.46600000
 20
18.46300000
  0
VERTEX
  8
0
 62
7
 10
4.48800000
 20
18.46000000
  0
VERTEX
  8
0
 62
7
 10
10.00000000
 20
18.46000000
  0
VERTEX
  8
0
 62
7
 10
15.51200000
 20
18.46000000
  0
VERTEX
  8
0
 62
7
 10
15.53400000
 20
18.46300000
  0
VERTEX
  8
0
 62
7
 10
15.53400000
 20
18.46300000
  0
VERTEX
  8
0
 62
7
 10
15.59062500
 20
18.40062500
  0
VERTEX
  8
0
 62
7
 10
15.64800000
 20
18.34800000
  0
VERTEX
  8
0
 62
7
 10
15.69553125
 20
18.31059375
  0
VERTEX
  8
0
 62
7
 10
15.74475000
 20
18.27750000
  0
VERTEX
  8
0
 62
7
 10
15.79509375
 20
18.24815625
  0
VERTEX
  8
0
 62
7
 10
15.84600000
 20
18.22200000
  0
VERTEX
  8
0
 62
7
 10
15.90989063
 20
18.19365625
  0
VERTEX
  8
0
 62
7
 10
15.97537500
 20
18.17000000
  0
VERTEX
  8
0
 62
7
 10
16.04217188
 20
18.15084375
  0
VERTEX
  8
0
 62
7
 10
16.11000000
 20
18.13600000
  0
VERTEX
  8
0
 62
7
 10
16.17421875
 20
18.12534375
  0
VERTEX
  8
0
 62
7
 10
16.24125000
 20
18.11750000
  0
VERTEX
  8
0
 62
7
 10
16.30940625
 20
18.11265625
  0
VERTEX
  8
0
 62
7
 10
16.37700000
 20
18.11100000
  0
VERTEX
  8
0
 62
7
 10
16.44800000
 20
18.11300000
  0
VERTEX
  8
0
 62
7
 10
16.53956250
 20
18.12123438
  0
VERTEX
  8
0
 62
7
 10
16.62850000
 20
18.13537500
  0
VERTEX
  8
0
 62
7
 10
16.71518750
 20
18.15532813
  0
VERTEX
  8
0
 62
7
 10
16.80000000
 20
18.18100000
  0
VERTEX
  8
0
 62
7
 10
16.80000000
 20
18.18100000
  0
VERTEX
  8
0
 62
7
 10
16.81748438
 20
18.16475000
  0
VERTEX
  8
0
 62
7
 10
16.83712500
 20
18.14925000
  0
VERTEX
  8
0
 62
7
 10
16.85920313
 20
18.13487500
  0
VERTEX
  8
0
 62
7
 10
16.88400000
 20
18.12200000
  0
VERTEX
  8
0
 62
7
 10
16.92301563
 20
18.10703125
  0
VERTEX
  8
0
 62
7
 10
16.96287500
 20
18.09750000
  0
VERTEX
  8
0
 62
7
 10
17.00254688
 20
18.09246875
  0
VERTEX
  8
0
 62
7
 10
17.04100000
 20
18.09100000
  0
VERTEX
  8
0
 62
7
 10
17.07366602
 20
18.09079883
  0
VERTEX
  8
0
 62
7
 10
17.10639063
 20
18.08976563
  0
VERTEX
  8
0
 62
7
 10
17.13913867
 20
18.08838086
  0
VERTEX
  8
0
 62
7
 10
17.17187500
 20
18.08712500
  0
VERTEX
  8
0
 62
7
 10
17.20456445
 20
18.08647852
  0
VERTEX
  8
0
 62
7
 10
17.23717188
 20
18.08692188
  0
VERTEX
  8
0
 62
7
 10
17.26966211
 20
18.08893555
  0
VERTEX
  8
0
 62
7
 10
17.30200000
 20
18.09300000
  0
VERTEX
  8
0
 62
7
 10
17.38862500
 20
18.11056250
  0
VERTEX
  8
0
 62
7
 10
17.47300000
 20
18.13450000
  0
VERTEX
  8
0
 62
7
 10
17.55512500
 20
18.16443750
  0
VERTEX
  8
0
 62
7
 10
17.63500000
 20
18.20000000
  0
VERTEX
  8
0
 62
7
 10
17.70612500
 20
18.23875000
  0
VERTEX
  8
0
 62
7
 10
17.77500000
 20
18.28200000
  0
VERTEX
  8
0
 62
7
 10
17.79300000
 20
18.25700000
  0
VERTEX
  8
0
 62
7
 10
17.80593164
 20
18.24257422
  0
VERTEX
  8
0
 62
7
 10
17.82107813
 20
18.23159375
  0
VERTEX
  8
0
 62
7
 10
17.83784180
 20
18.22412891
  0
VERTEX
  8
0
 62
7
 10
17.85562500
 20
18.22025000
  0
VERTEX
  8
0
 62
7
 10
17.87383008
 20
18.22002734
  0
VERTEX
  8
0
 62
7
 10
17.89185938
 20
18.22353125
  0
VERTEX
  8
0
 62
7
 10
17.90911523
 20
18.23083203
  0
VERTEX
  8
0
 62
7
 10
17.92500000
 20
18.24200000
  0
VERTEX
  8
0
 62
7
 10
18.00300000
 20
18.31500000
  0
VERTEX
  8
0
 62
7
 10
18.04400000
 20
18.28500000
  0
VERTEX
  8
0
 62
7
 10
18.07181836
 20
18.26829688
  0
VERTEX
  8
0
 62
7
 10
18.10042188
 20
18.25412500
  0
VERTEX
  8
0
 62
7
 10
18.12965820
 20
18.24239063
  0
VERTEX
  8
0
 62
7
 10
18.15937500
 20
18.23300000
  0
VERTEX
  8
0
 62
7
 10
18.18941992
 20
18.22585938
  0
VERTEX
  8
0
 62
7
 10
18.21964063
 20
18.22087500
  0
VERTEX
  8
0
 62
7
 10
18.24988477
 20
18.21795313
  0
VERTEX
  8
0
 62
7
 10
18.28000000
 20
18.21700000
  0
VERTEX
  8
0
 62
7
 10
18.30987500
 20
18.21787500
  0
VERTEX
  8
0
 62
7
 10
18.33900000
 20
18.22100000
  0
VERTEX
  8
0
 62
7
 10
18.37527344
 20
18.22635547
  0
VERTEX
  8
0
 62
7
 10
18.41243750
 20
18.23440625
  0
VERTEX
  8
0
 62
7
 10
18.44988281
 20
18.24550391
  0
VERTEX
  8
0
 62
7
 10
18.48700000
 20
18.26000000
  0
VERTEX
  8
0
 62
7
 10
18.52317969
 20
18.27824609
  0
VERTEX
  8
0
 62
7
 10
18.55781250
 20
18.30059375
  0
VERTEX
  8
0
 62
7
 10
18.59028906
 20
18.32739453
  0
VERTEX
  8
0
 62
7
 10
18.62000000
 20
18.35900000
  0
VERTEX
  8
0
 62
7
 10
18.63954688
 20
18.38537500
  0
VERTEX
  8
0
 62
7
 10
18.65637500
 20
18.41325000
  0
VERTEX
  8
0
 62
7
 10
18.67076563
 20
18.44225000
  0
VERTEX
  8
0
 62
7
 10
18.68300000
 20
18.47200000
  0
VERTEX
  8
0
 62
7
 10
18.68700000
 20
18.46800000
  0
VERTEX
  8
0
 62
7
 10
18.71250000
 20
18.44425000
  0
VERTEX
  8
0
 62
7
 10
18.72600000
 20
18.42500000
  0
VERTEX
  8
0
 62
7
 10
18.72900000
 20
18.40700000
  0
VERTEX
  8
0
 62
7
 10
18.72600000
 20
18.38200000
  0
VERTEX
  8
0
 62
7
 10
18.72416602
 20
18.36738672
  0
VERTEX
  8
0
 62
7
 10
18.72454688
 20
18.35326563
  0
VERTEX
  8
0
 62
7
 10
18.72696680
 20
18.33977734
  0
VERTEX
  8
0
 62
7
 10
18.73125000
 20
18.32706250
  0
VERTEX
  8
0
 62
7
 10
18.73722070
 20
18.31526172
  0
VERTEX
  8
0
 62
7
 10
18.74470313
 20
18.30451563
  0
VERTEX
  8
0
 62
7
 10
18.75352148
 20
18.29496484
  0
VERTEX
  8
0
 62
7
 10
18.76350000
 20
18.28675000
  0
VERTEX
  8
0
 62
7
 10
18.77446289
 20
18.28001172
  0
VERTEX
  8
0
 62
7
 10
18.78623438
 20
18.27489063
  0
VERTEX
  8
0
 62
7
 10
18.79863867
 20
18.27152734
  0
VERTEX
  8
0
 62
7
 10
18.81150000
 20
18.27006250
  0
VERTEX
  8
0
 62
7
 10
18.82464258
 20
18.27063672
  0
VERTEX
  8
0
 62
7
 10
18.83789063
 20
18.27339063
  0
VERTEX
  8
0
 62
7
 10
18.85106836
 20
18.27846484
  0
VERTEX
  8
0
 62
7
 10
18.86400000
 20
18.28600000
  0
VERTEX
  8
0
 62
7
 10
18.89871484
 20
18.31096680
  0
VERTEX
  8
0
 62
7
 10
18.93228125
 20
18.33723438
  0
VERTEX
  8
0
 62
7
 10
18.96458203
 20
18.36497852
  0
VERTEX
  8
0
 62
7
 10
18.99550000
 20
18.39437500
  0
VERTEX
  8
0
 62
7
 10
19.02491797
 20
18.42559961
  0
VERTEX
  8
0
 62
7
 10
19.05271875
 20
18.45882813
  0
VERTEX
  8
0
 62
7
 10
19.07878516
 20
18.49423633
  0
VERTEX
  8
0
 62
7
 10
19.10300000
 20
18.53200000
  0
VERTEX
  8
0
 62
7
 10
19.12850000
 20
18.57746875
  0
VERTEX
  8
0
 62
7
 10
19.15100000
 20
18.62500000
  0
VERTEX
  8
0
 62
7
 10
19.17050000
 20
18.67403125
  0
VERTEX
  8
0
 62
7
 10
19.18700000
 20
18.72400000
  0
VERTEX
  8
0
 62
7
 10
19.24500000
 20
18.71300000
  0
VERTEX
  8
0
 62
7
 10
19.27400000
 20
18.77900000
  0
VERTEX
  8
0
 62
7
 10
19.28856445
 20
18.81527344
  0
VERTEX
  8
0
 62
7
 10
19.30145313
 20
18.85206250
  0
VERTEX
  8
0
 62
7
 10
19.31258398
 20
18.88932031
  0
VERTEX
  8
0
 62
7
 10
19.32187500
 20
18.92700000
  0
VERTEX
  8
0
 62
7
 10
19.32924414
 20
18.96505469
  0
VERTEX
  8
0
 62
7
 10
19.33460938
 20
19.00343750
  0
VERTEX
  8
0
 62
7
 10
19.33788867
 20
19.04210156
  0
VERTEX
  8
0
 62
7
 10
19.33900000
 20
19.08100000
  0
VERTEX
  8
0
 62
7
 10
19.33785938
 20
19.12000000
  0
VERTEX
  8
0
 62
7
 10
19.33437500
 20
19.15900000
  0
VERTEX
  8
0
 62
7
 10
19.32845313
 20
19.19800000
  0
VERTEX
  8
0
 62
7
 10
19.32000000
 20
19.23700000
  0
VERTEX
  8
0
 62
7
 10
19.30862500
 20
19.27934375
  0
VERTEX
  8
0
 62
7
 10
19.29425000
 20
19.32075000
  0
VERTEX
  8
0
 62
7
 10
19.27725000
 20
19.36103125
  0
VERTEX
  8
0
 62
7
 10
19.25800000
 20
19.40000000
  0
VERTEX
  8
0
 62
7
 10
19.28200000
 20
19.40400000
  0
VERTEX
  8
0
 62
7
 10
19.29400000
 20
19.46900000
  0
VERTEX
  8
0
 62
7
 10
19.29850000
 20
19.50400000
  0
VERTEX
  8
0
 62
7
 10
19.30000000
 20
19.53900000
  0
VERTEX
  8
0
 62
7
 10
19.29744727
 20
19.58482617
  0
VERTEX
  8
0
 62
7
 10
19.28989063
 20
19.62979688
  0
VERTEX
  8
0
 62
7
 10
19.27748242
 20
19.67352539
  0
VERTEX
  8
0
 62
7
 10
19.26037500
 20
19.71562500
  0
VERTEX
  8
0
 62
7
 10
19.23872070
 20
19.75570898
  0
VERTEX
  8
0
 62
7
 10
19.21267188
 20
19.79339063
  0
VERTEX
  8
0
 62
7
 10
19.18238086
 20
19.82828320
  0
VERTEX
  8
0
 62
7
 10
19.14800000
 20
19.86000000
  0
VERTEX
  8
0
 62
7
 10
19.10162500
 20
19.89387500
  0
VERTEX
  8
0
 62
7
 10
19.05000000
 20
19.92100000
  0
VERTEX
  8
0
 62
7
 10
19.06907031
 20
19.94140039
  0
VERTEX
  8
0
 62
7
 10
19.08575000
 20
19.96345313
  0
VERTEX
  8
0
 62
7
 10
19.09999219
 20
19.98693555
  0
VERTEX
  8
0
 62
7
 10
19.11175000
 20
20.01162500
  0
VERTEX
  8
0
 62
7
 10
19.12097656
 20
20.03729883
  0
VERTEX
  8
0
 62
7
 10
19.12762500
 20
20.06373438
  0
VERTEX
  8
0
 62
7
 10
19.13164844
 20
20.09070898
  0
VERTEX
  8
0
 62
7
 10
19.13300000
 20
20.11800000
  0
VERTEX
  8
0
 62
7
 10
19.13000000
 20
20.16100000
  0
VERTEX
  8
0
 62
7
 10
19.12400000
 20
20.19600000
  0
VERTEX
  8
0
 62
7
 10
19.09600000
 20
20.21800000
  0
VERTEX
  8
0
 62
7
 10
19.00000000
 20
20.29300000
  0
VERTEX
  8
0
 62
7
 10
19.00000000
 20
20.30100000
  0
VERTEX
  8
0
 62
7
 10
19.00200000
 20
20.34200000
  0
VERTEX
  8
0
 62
7
 10
19.01037500
 20
20.38475000
  0
VERTEX
  8
0
 62
7
 10
19.02400000
 20
20.42600000
  0
VERTEX
  8
0
 62
7
 10
19.02961719
 20
20.44584375
  0
VERTEX
  8
0
 62
7
 10
19.03087500
 20
20.46587500
  0
VERTEX
  8
0
 62
7
 10
19.02800781
 20
20.48534375
  0
VERTEX
  8
0
 62
7
 10
19.02125000
 20
20.50350000
  0
VERTEX
  8
0
 62
7
 10
19.01083594
 20
20.51959375
  0
VERTEX
  8
0
 62
7
 10
18.99700000
 20
20.53287500
  0
VERTEX
  8
0
 62
7
 10
18.97997656
 20
20.54259375
  0
VERTEX
  8
0
 62
7
 10
18.96000000
 20
20.54800000
  0
VERTEX
  8
0
 62
7
 10
18.94000000
 20
20.55200000
  0
VERTEX
  8
0
 62
7
 10
18.96300000
 20
20.65300000
  0
VERTEX
  8
0
 62
7
 10
18.97334375
 20
20.70626563
  0
VERTEX
  8
0
 62
7
 10
18.98050000
 20
20.75962500
  0
VERTEX
  8
0
 62
7
 10
18.98465625
 20
20.81317188
  0
VERTEX
  8
0
 62
7
 10
18.98600000
 20
20.86700000
  0
VERTEX
  8
0
 62
7
 10
18.98300000
 20
20.95300000
  0
VERTEX
  8
0
 62
7
 10
18.97379688
 20
21.02476563
  0
VERTEX
  8
0
 62
7
 10
18.95962500
 20
21.09587500
  0
VERTEX
  8
0
 62
7
 10
18.94039063
 20
21.16604688
  0
VERTEX
  8
0
 62
7
 10
18.91600000
 20
21.23500000
  0
VERTEX
  8
0
 62
7
 10
18.98400000
 20
21.31100000
  0
VERTEX
  8
0
 62
7
 10
18.99843750
 20
21.33304688
  0
VERTEX
  8
0
 62
7
 10
19.00575000
 20
21.35762500
  0
VERTEX
  8
0
 62
7
 10
19.00593750
 20
21.38314063
  0
VERTEX
  8
0
 62
7
 10
18.99900000
 20
21.40800000
  0
VERTEX
  8
0
 62
7
 10
18.96921875
 20
21.46926563
  0
VERTEX
  8
0
 62
7
 10
18.93550000
 20
21.52837500
  0
VERTEX
  8
0
 62
7
 10
18.89803125
 20
21.58504688
  0
VERTEX
  8
0
 62
7
 10
18.85700000
 20
21.63900000
  0
VERTEX
  8
0
 62
7
 10
18.81560938
 20
21.68792188
  0
VERTEX
  8
0
 62
7
 10
18.77112500
 20
21.73412500
  0
VERTEX
  8
0
 62
7
 10
18.72382813
 20
21.77751563
  0
VERTEX
  8
0
 62
7
 10
18.67400000
 20
21.81800000
  0
VERTEX
  8
0
 62
7
 10
18.69400000
 20
21.85400000
  0
VERTEX
  8
0
 62
7
 10
18.70020117
 20
21.86782813
  0
VERTEX
  8
0
 62
7
 10
18.70385938
 20
21.88212500
  0
VERTEX
  8
0
 62
7
 10
18.70505664
 20
21.89660938
  0
VERTEX
  8
0
 62
7
 10
18.70387500
 20
21.91100000
  0
VERTEX
  8
0
 62
7
 10
18.70039648
 20
21.92501563
  0
VERTEX
  8
0
 62
7
 10
18.69470313
 20
21.93837500
  0
VERTEX
  8
0
 62
7
 10
18.68687695
 20
21.95079688
  0
VERTEX
  8
0
 62
7
 10
18.67700000
 20
21.96200000
  0
VERTEX
  8
0
 62
7
 10
18.63823438
 20
21.99650000
  0
VERTEX
  8
0
 62
7
 10
18.59712500
 20
22.02800000
  0
VERTEX
  8
0
 62
7
 10
18.55395313
 20
22.05650000
  0
VERTEX
  8
0
 62
7
 10
18.50900000
 20
22.08200000
  0
VERTEX
  8
0
 62
7
 10
18.46100000
 20
22.10500000
  0
VERTEX
  8
0
 62
7
 10
18.45300000
 20
22.13400000
  0
VERTEX
  8
0
 62
7
 10
18.43200000
 20
22.20900000
  0
VERTEX
  8
0
 62
7
 10
18.47300000
 20
22.24487500
  0
VERTEX
  8
0
 62
7
 10
18.51700000
 20
22.27700000
  0
VERTEX
  8
0
 62
7
 10
18.55650000
 20
22.30098438
  0
VERTEX
  8
0
 62
7
 10
18.59825000
 20
22.32187500
  0
VERTEX
  8
0
 62
7
 10
18.64187500
 20
22.33957813
  0
VERTEX
  8
0
 62
7
 10
18.68700000
 20
22.35400000
  0
VERTEX
  8
0
 62
7
 10
18.73850000
 20
22.36662500
  0
VERTEX
  8
0
 62
7
 10
18.79000000
 20
22.37400000
  0
VERTEX
  8
0
 62
7
 10
18.81037305
 20
22.37816211
  0
VERTEX
  8
0
 62
7
 10
18.82848438
 20
22.38648438
  0
VERTEX
  8
0
 62
7
 10
18.84394727
 20
22.39834570
  0
VERTEX
  8
0
 62
7
 10
18.85637500
 20
22.41312500
  0
VERTEX
  8
0
 62
7
 10
18.86538086
 20
22.43020117
  0
VERTEX
  8
0
 62
7
 10
18.87057813
 20
22.44895313
  0
VERTEX
  8
0
 62
7
 10
18.87158008
 20
22.46875977
  0
VERTEX
  8
0
 62
7
 10
18.86800000
 20
22.48900000
  0
VERTEX
  8
0
 62
7
 10
18.84915625
 20
22.54526563
  0
VERTEX
  8
0
 62
7
 10
18.82525000
 20
22.60087500
  0
VERTEX
  8
0
 62
7
 10
18.79571875
 20
22.65479688
  0
VERTEX
  8
0
 62
7
 10
18.76000000
 20
22.70600000
  0
VERTEX
  8
0
 62
7
 10
18.73021875
 20
22.74053125
  0
VERTEX
  8
0
 62
7
 10
18.69800000
 20
22.77225000
  0
VERTEX
  8
0
 62
7
 10
18.66353125
 20
22.80134375
  0
VERTEX
  8
0
 62
7
 10
18.62700000
 20
22.82800000
  0
VERTEX
  8
0
 62
7
 10
18.66800000
 20
22.86900000
  0
VERTEX
  8
0
 62
7
 10
18.62300000
 20
22.93100000
  0
VERTEX
  8
0
 62
7
 10
18.59021875
 20
22.97107813
  0
VERTEX
  8
0
 62
7
 10
18.55350000
 20
23.00712500
  0
VERTEX
  8
0
 62
7
 10
18.51303125
 20
23.03885938
  0
VERTEX
  8
0
 62
7
 10
18.46900000
 20
23.06600000
  0
VERTEX
  8
0
 62
7
 10
18.41662500
 20
23.09078125
  0
VERTEX
  8
0
 62
7
 10
18.36200000
 20
23.10825000
  0
VERTEX
  8
0
 62
7
 10
18.30587500
 20
23.11859375
  0
VERTEX
  8
0
 62
7
 10
18.24900000
 20
23.12200000
  0
VERTEX
  8
0
 62
7
 10
18.19212500
 20
23.11887500
  0
VERTEX
  8
0
 62
7
 10
18.13600000
 20
23.10900000
  0
VERTEX
  8
0
 62
7
 10
18.11600000
 20
23.13300000
  0
VERTEX
  8
0
 62
7
 10
18.10260938
 20
23.14601563
  0
VERTEX
  8
0
 62
7
 10
18.08687500
 20
23.15612500
  0
VERTEX
  8
0
 62
7
 10
18.06945313
 20
23.16267188
  0
VERTEX
  8
0
 62
7
 10
18.05100000
 20
23.16500000
  0
VERTEX
  8
0
 62
7
 10
18.01600000
 20
23.16600000
  0
VERTEX
  8
0
 62
7
 10
17.95457813
 20
23.16339063
  0
VERTEX
  8
0
 62
7
 10
17.89362500
 20
23.15562500
  0
VERTEX
  8
0
 62
7
 10
17.83360938
 20
23.14279688
  0
VERTEX
  8
0
 62
7
 10
17.77500000
 20
23.12500000
  0
VERTEX
  8
0
 62
7
 10
17.73154688
 20
23.10728125
  0
VERTEX
  8
0
 62
7
 10
17.69137500
 20
23.08675000
  0
VERTEX
  8
0
 62
7
 10
17.65476563
 20
23.06509375
  0
VERTEX
  8
0
 62
7
 10
17.62200000
 20
23.04400000
  0
VERTEX
  8
0
 62
7
 10
17.61200000
 20
23.03800000
  0
VERTEX
  8
0
 62
7
 10
17.61650000
 20
23.06275000
  0
VERTEX
  8
0
 62
7
 10
17.61800000
 20
23.08900000
  0
VERTEX
  8
0
 62
7
 10
17.61500000
 20
23.12500000
  0
VERTEX
  8
0
 62
7
 10
17.60883008
 20
23.15251367
  0
VERTEX
  8
0
 62
7
 10
17.59976563
 20
23.17804688
  0
VERTEX
  8
0
 62
7
 10
17.58847461
 20
23.20158789
  0
VERTEX
  8
0
 62
7
 10
17.57562500
 20
23.22312500
  0
VERTEX
  8
0
 62
7
 10
17.56188477
 20
23.24264648
  0
VERTEX
  8
0
 62
7
 10
17.54792188
 20
23.26014063
  0
VERTEX
  8
0
 62
7
 10
17.53440430
 20
23.27559570
  0
VERTEX
  8
0
 62
7
 10
17.52200000
 20
23.28900000
  0
VERTEX
  8
0
 62
7
 10
17.48112500
 20
23.32478125
  0
VERTEX
  8
0
 62
7
 10
17.43725000
 20
23.35325000
  0
VERTEX
  8
0
 62
7
 10
17.39150000
 20
23.37534375
  0
VERTEX
  8
0
 62
7
 10
17.34500000
 20
23.39200000
  0
VERTEX
  8
0
 62
7
 10
17.32081250
 20
23.39615625
  0
VERTEX
  8
0
 62
7
 10
17.29700000
 20
23.39375000
  0
VERTEX
  8
0
 62
7
 10
17.27468750
 20
23.38496875
  0
VERTEX
  8
0
 62
7
 10
17.25500000
 20
23.37000000
  0
VERTEX
  8
0
 62
7
 10
17.13100000
 20
23.24600000
  0
VERTEX
  8
0
 62
7
 10
17.11000000
 20
23.22500000
  0
VERTEX
  8
0
 62
7
 10
17.06400000
 20
23.25300000
  0
VERTEX
  8
0
 62
7
 10
17.04412500
 20
23.26179688
  0
VERTEX
  8
0
 62
7
 10
17.02275000
 20
23.26562500
  0
VERTEX
  8
0
 62
7
 10
17.00100000
 20
23.26439063
  0
VERTEX
  8
0
 62
7
 10
16.98000000
 20
23.25800000
  0
VERTEX
  8
0
 62
7
 10
16.94612500
 20
23.23925000
  0
VERTEX
  8
0
 62
7
 10
16.91600000
 20
23.21600000
  0
VERTEX
  8
0
 62
7
 10
16.90500000
 20
23.21900000
  0
VERTEX
  8
0
 62
7
 10
16.40900000
 20
23.32600000
  0
VERTEX
  8
0
 62
7
 10
16.17674609
 20
23.37523438
  0
VERTEX
  8
0
 62
7
 10
15.94503125
 20
23.42512500
  0
VERTEX
  8
0
 62
7
 10
15.71392578
 20
23.47632813
  0
VERTEX
  8
0
 62
7
 10
15.48350000
 20
23.52950000
  0
VERTEX
  8
0
 62
7
 10
15.25382422
 20
23.58529688
  0
VERTEX
  8
0
 62
7
 10
15.02496875
 20
23.64437500
  0
VERTEX
  8
0
 62
7
 10
14.79700391
 20
23.70739063
  0
VERTEX
  8
0
 62
7
 10
14.57000000
 20
23.77500000
  0
VERTEX
  8
0
 62
7
 10
14.29611768
 20
23.85707153
  0
VERTEX
  8
0
 62
7
 10
14.02050391
 20
23.93413477
  0
VERTEX
  8
0
 62
7
 10
13.74320850
 20
24.00615015
  0
VERTEX
  8
0
 62
7
 10
13.46428125
 20
24.07307813
  0
VERTEX
  8
0
 62
7
 10
13.18377197
 20
24.13487915
  0
VERTEX
  8
0
 62
7
 10
12.90173047
 20
24.19151367
  0
VERTEX
  8
0
 62
7
 10
12.61820654
 20
24.24294214
  0
VERTEX
  8
0
 62
7
 10
12.33325000
 20
24.28912500
  0
VERTEX
  8
0
 62
7
 10
12.04691064
 20
24.33002271
  0
VERTEX
  8
0
 62
7
 10
11.75923828
 20
24.36559570
  0
VERTEX
  8
0
 62
7
 10
11.47028271
 20
24.39580444
  0
VERTEX
  8
0
 62
7
 10
11.18009375
 20
24.42060938
  0
VERTEX
  8
0
 62
7
 10
10.88872119
 20
24.43997095
  0
VERTEX
  8
0
 62
7
 10
10.59621484
 20
24.45384961
  0
VERTEX
  8
0
 62
7
 10
10.30262451
 20
24.46220581
  0
VERTEX
  8
0
 62
7
 10
10.00800000
 20
24.46500000
  0
VERTEX
  8
0
 62
7
 10
9.71319580
 20
24.46220581
  0
VERTEX
  8
0
 62
7
 10
9.41909766
 20
24.45384961
  0
VERTEX
  8
0
 62
7
 10
9.12580225
 20
24.43997095
  0
VERTEX
  8
0
 62
7
 10
8.83340625
 20
24.42060938
  0
VERTEX
  8
0
 62
7
 10
8.54200635
 20
24.39580444
  0
VERTEX
  8
0
 62
7
 10
8.25169922
 20
24.36559570
  0
VERTEX
  8
0
 62
7
 10
7.96258154
 20
24.33002271
  0
VERTEX
  8
0
 62
7
 10
7.67475000
 20
24.28912500
  0
VERTEX
  8
0
 62
7
 10
7.38830127
 20
24.24294214
  0
VERTEX
  8
0
 62
7
 10
7.10333203
 20
24.19151367
  0
VERTEX
  8
0
 62
7
 10
6.81993896
 20
24.13487915
  0
VERTEX
  8
0
 62
7
 10
6.53821875
 20
24.07307813
  0
VERTEX
  8
0
 62
7
 10
6.25826807
 20
24.00615015
  0
VERTEX
  8
0
 62
7
 10
5.98018359
 20
23.93413477
  0
VERTEX
  8
0
 62
7
 10
5.70406201
 20
23.85707153
  0
VERTEX
  8
0
 62
7
 10
5.43000000
 20
23.77500000
  0
VERTEX
  8
0
 62
7
 10
5.20299609
 20
23.70739063
  0
VERTEX
  8
0
 62
7
 10
4.97503125
 20
23.64437500
  0
VERTEX
  8
0
 62
7
 10
4.74617578
 20
23.58529688
  0
VERTEX
  8
0
 62
7
 10
4.51650000
 20
23.52950000
  0
VERTEX
  8
0
 62
7
 10
4.28607422
 20
23.47632813
  0
VERTEX
  8
0
 62
7
 10
4.05496875
 20
23.42512500
  0
VERTEX
  8
0
 62
7
 10
3.82325391
 20
23.37523438
  0
VERTEX
  8
0
 62
7
 10
3.59100000
 20
23.32600000
  0
VERTEX
  8
0
 62
7
 10
3.09500000
 20
23.21900000
  0
VERTEX
  8
0
 62
7
 10
3.08400000
 20
23.21600000
  0
VERTEX
  8
0
 62
7
 10
3.05387500
 20
23.23925000
  0
VERTEX
  8
0
 62
7
 10
3.02000000
 20
23.25800000
  0
VERTEX
  8
0
 62
7
 10
2.99900000
 20
23.26439063
  0
VERTEX
  8
0
 62
7
 10
2.97725000
 20
23.26562500
  0
VERTEX
  8
0
 62
7
 10
2.95587500
 20
23.26179688
  0
VERTEX
  8
0
 62
7
 10
2.93600000
 20
23.25300000
  0
VERTEX
  8
0
 62
7
 10
2.89000000
 20
23.22500000
  0
VERTEX
  8
0
 62
7
 10
2.86900000
 20
23.24600000
  0
VERTEX
  8
0
 62
7
 10
2.74500000
 20
23.37000000
  0
VERTEX
  8
0
 62
7
 10
2.72531250
 20
23.38496875
  0
VERTEX
  8
0
 62
7
 10
2.70300000
 20
23.39375000
  0
VERTEX
  8
0
 62
7
 10
2.67918750
 20
23.39615625
  0
VERTEX
  8
0
 62
7
 10
2.65500000
 20
23.39200000
  0
VERTEX
  8
0
 62
7
 10
2.60850000
 20
23.37534375
  0
VERTEX
  8
0
 62
7
 10
2.56275000
 20
23.35325000
  0
VERTEX
  8
0
 62
7
 10
2.51887500
 20
23.32478125
  0
VERTEX
  8
0
 62
7
 10
2.47800000
 20
23.28900000
  0
VERTEX
  8
0
 62
7
 10
2.46559570
 20
23.27559570
  0
VERTEX
  8
0
 62
7
 10
2.45207813
 20
23.26014063
  0
VERTEX
  8
0
 62
7
 10
2.43811523
 20
23.24264648
  0
VERTEX
  8
0
 62
7
 10
2.42437500
 20
23.22312500
  0
VERTEX
  8
0
 62
7
 10
2.41152539
 20
23.20158789
  0
VERTEX
  8
0
 62
7
 10
2.40023438
 20
23.17804688
  0
VERTEX
  8
0
 62
7
 10
2.39116992
 20
23.15251367
  0
VERTEX
  8
0
 62
7
 10
2.38500000
 20
23.12500000
  0
VERTEX
  8
0
 62
7
 10
2.38200000
 20
23.08900000
  0
VERTEX
  8
0
 62
7
 10
2.38350000
 20
23.06275000
  0
VERTEX
  8
0
 62
7
 10
2.38800000
 20
23.03800000
  0
VERTEX
  8
0
 62
7
 10
2.37800000
 20
23.04400000
  0
VERTEX
  8
0
 62
7
 10
2.34523438
 20
23.06509375
  0
VERTEX
  8
0
 62
7
 10
2.30862500
 20
23.08675000
  0
VERTEX
  8
0
 62
7
 10
2.26845313
 20
23.10728125
  0
VERTEX
  8
0
 62
7
 10
2.22500000
 20
23.12500000
  0
VERTEX
  8
0
 62
7
 10
2.16639063
 20
23.14279688
  0
VERTEX
  8
0
 62
7
 10
2.10637500
 20
23.15562500
  0
VERTEX
  8
0
 62
7
 10
2.04542188
 20
23.16339063
  0
VERTEX
  8
0
 62
7
 10
1.98400000
 20
23.16600000
  0
VERTEX
  8
0
 62
7
 10
1.94900000
 20
23.16500000
  0
VERTEX
  8
0
 62
7
 10
1.90900000
 20
23.16300000
  0
VERTEX
  8
0
 62
7
 10
1.88400000
 20
23.13300000
  0
VERTEX
  8
0
 62
7
 10
1.86400000
 20
23.10900000
  0
VERTEX
  8
0
 62
7
 10
1.80787500
 20
23.11887500
  0
VERTEX
  8
0
 62
7
 10
1.75100000
 20
23.12200000
  0
VERTEX
  8
0
 62
7
 10
1.69412500
 20
23.11859375
  0
VERTEX
  8
0
 62
7
 10
1.63800000
 20
23.10825000
  0
VERTEX
  8
0
 62
7
 10
1.58337500
 20
23.09078125
  0
VERTEX
  8
0
 62
7
 10
1.53100000
 20
23.06600000
  0
VERTEX
  8
0
 62
7
 10
1.48696875
 20
23.03885938
  0
VERTEX
  8
0
 62
7
 10
1.44650000
 20
23.00712500
  0
VERTEX
  8
0
 62
7
 10
1.40978125
 20
22.97107813
  0
VERTEX
  8
0
 62
7
 10
1.37700000
 20
22.93100000
  0
VERTEX
  8
0
 62
7
 10
1.33200000
 20
22.86900000
  0
VERTEX
  8
0
 62
7
 10
1.37300000
 20
22.82800000
  0
VERTEX
  8
0
 62
7
 10
1.33646875
 20
22.80134375
  0
VERTEX
  8
0
 62
7
 10
1.30200000
 20
22.77225000
  0
VERTEX
  8
0
 62
7
 10
1.26978125
 20
22.74053125
  0
VERTEX
  8
0
 62
7
 10
1.24000000
 20
22.70600000
  0
VERTEX
  8
0
 62
7
 10
1.20428125
 20
22.65479688
  0
VERTEX
  8
0
 62
7
 10
1.17475000
 20
22.60087500
  0
VERTEX
  8
0
 62
7
 10
1.15084375
 20
22.54526563
  0
VERTEX
  8
0
 62
7
 10
1.13200000
 20
22.48900000
  0
VERTEX
  8
0
 62
7
 10
1.12841992
 20
22.46875977
  0
VERTEX
  8
0
 62
7
 10
1.12942188
 20
22.44895313
  0
VERTEX
  8
0
 62
7
 10
1.13461914
 20
22.43020117
  0
VERTEX
  8
0
 62
7
 10
1.14362500
 20
22.41312500
  0
VERTEX
  8
0
 62
7
 10
1.15605273
 20
22.39834570
  0
VERTEX
  8
0
 62
7
 10
1.17151563
 20
22.38648438
  0
VERTEX
  8
0
 62
7
 10
1.18962695
 20
22.37816211
  0
VERTEX
  8
0
 62
7
 10
1.21000000
 20
22.37400000
  0
VERTEX
  8
0
 62
7
 10
1.26150000
 20
22.36662500
  0
VERTEX
  8
0
 62
7
 10
1.31300000
 20
22.35400000
  0
VERTEX
  8
0
 62
7
 10
1.35812500
 20
22.33957813
  0
VERTEX
  8
0
 62
7
 10
1.40175000
 20
22.32187500
  0
VERTEX
  8
0
 62
7
 10
1.44350000
 20
22.30098438
  0
VERTEX
  8
0
 62
7
 10
1.48300000
 20
22.27700000
  0
VERTEX
  8
0
 62
7
 10
1.52700000
 20
22.24487500
  0
VERTEX
  8
0
 62
7
 10
1.56800000
 20
22.20900000
  0
VERTEX
  8
0
 62
7
 10
1.54700000
 20
22.13400000
  0
VERTEX
  8
0
 62
7
 10
1.53900000
 20
22.10500000
  0
VERTEX
  8
0
 62
7
 10
1.49100000
 20
22.08200000
  0
VERTEX
  8
0
 62
7
 10
1.44604688
 20
22.05650000
  0
VERTEX
  8
0
 62
7
 10
1.40287500
 20
22.02800000
  0
VERTEX
  8
0
 62
7
 10
1.36176563
 20
21.99650000
  0
VERTEX
  8
0
 62
7
 10
1.32300000
 20
21.96200000
  0
VERTEX
  8
0
 62
7
 10
1.31312305
 20
21.95079688
  0
VERTEX
  8
0
 62
7
 10
1.30529688
 20
21.93837500
  0
VERTEX
  8
0
 62
7
 10
1.29960352
 20
21.92501563
  0
VERTEX
  8
0
 62
7
 10
1.29612500
 20
21.91100000
  0
VERTEX
  8
0
 62
7
 10
1.29494336
 20
21.89660938
  0
VERTEX
  8
0
 62
7
 10
1.29614063
 20
21.88212500
  0
VERTEX
  8
0
 62
7
 10
1.29979883
 20
21.86782813
  0
VERTEX
  8
0
 62
7
 10
1.30600000
 20
21.85400000
  0
VERTEX
  8
0
 62
7
 10
1.32600000
 20
21.81800000
  0
VERTEX
  8
0
 62
7
 10
1.27617188
 20
21.77751563
  0
VERTEX
  8
0
 62
7
 10
1.22887500
 20
21.73412500
  0
VERTEX
  8
0
 62
7
 10
1.18439063
 20
21.68792188
  0
VERTEX
  8
0
 62
7
 10
1.14300000
 20
21.63900000
  0
VERTEX
  8
0
 62
7
 10
1.10196875
 20
21.58504688
  0
VERTEX
  8
0
 62
7
 10
1.06450000
 20
21.52837500
  0
VERTEX
  8
0
 62
7
 10
1.03078125
 20
21.46926563
  0
VERTEX
  8
0
 62
7
 10
1.00100000
 20
21.40800000
  0
VERTEX
  8
0
 62
7
 10
.99406250
 20
21.38314063
  0
VERTEX
  8
0
 62
7
 10
.99425000
 20
21.35762500
  0
VERTEX
  8
0
 62
7
 10
1.00156250
 20
21.33304688
  0
VERTEX
  8
0
 62
7
 10
1.01600000
 20
21.31100000
  0
VERTEX
  8
0
 62
7
 10
1.08400000
 20
21.23500000
  0
VERTEX
  8
0
 62
7
 10
1.05960938
 20
21.16604688
  0
VERTEX
  8
0
 62
7
 10
1.04037500
 20
21.09587500
  0
VERTEX
  8
0
 62
7
 10
1.02620313
 20
21.02476563
  0
VERTEX
  8
0
 62
7
 10
1.01700000
 20
20.95300000
  0
VERTEX
  8
0
 62
7
 10
1.01400000
 20
20.86700000
  0
VERTEX
  8
0
 62
7
 10
1.01534375
 20
20.81317188
  0
VERTEX
  8
0
 62
7
 10
1.01950000
 20
20.75962500
  0
VERTEX
  8
0
 62
7
 10
1.02665625
 20
20.70626563
  0
VERTEX
  8
0
 62
7
 10
1.03700000
 20
20.65300000
  0
VERTEX
  8
0
 62
7
 10
1.06000000
 20
20.55200000
  0
VERTEX
  8
0
 62
7
 10
1.04000000
 20
20.54800000
  0
VERTEX
  8
0
 62
7
 10
1.02002344
 20
20.54259375
  0
VERTEX
  8
0
 62
7
 10
1.00300000
 20
20.53287500
  0
VERTEX
  8
0
 62
7
 10
.98916406
 20
20.51959375
  0
VERTEX
  8
0
 62
7
 10
.97875000
 20
20.50350000
  0
VERTEX
  8
0
 62
7
 10
.97199219
 20
20.48534375
  0
VERTEX
  8
0
 62
7
 10
.96912500
 20
20.46587500
  0
VERTEX
  8
0
 62
7
 10
.97038281
 20
20.44584375
  0
VERTEX
  8
0
 62
7
 10
.97600000
 20
20.42600000
  0
VERTEX
  8
0
 62
7
 10
.98962500
 20
20.38475000
  0
VERTEX
  8
0
 62
7
 10
.99800000
 20
20.34200000
  0
VERTEX
  8
0
 62
7
 10
1.00000000
 20
20.30100000
  0
VERTEX
  8
0
 62
7
 10
1.00000000
 20
20.29300000
  0
VERTEX
  8
0
 62
7
 10
.90400000
 20
20.21800000
  0
VERTEX
  8
0
 62
7
 10
.87600000
 20
20.19600000
  0
VERTEX
  8
0
 62
7
 10
.87000000
 20
20.16100000
  0
VERTEX
  8
0
 62
7
 10
.86700000
 20
20.11800000
  0
VERTEX
  8
0
 62
7
 10
.86835156
 20
20.09070898
  0
VERTEX
  8
0
 62
7
 10
.87237500
 20
20.06373438
  0
VERTEX
  8
0
 62
7
 10
.87902344
 20
20.03729883
  0
VERTEX
  8
0
 62
7
 10
.88825000
 20
20.01162500
  0
VERTEX
  8
0
 62
7
 10
.90000781
 20
19.98693555
  0
VERTEX
  8
0
 62
7
 10
.91425000
 20
19.96345313
  0
VERTEX
  8
0
 62
7
 10
.93092969
 20
19.94140039
  0
VERTEX
  8
0
 62
7
 10
.95000000
 20
19.92100000
  0
VERTEX
  8
0
 62
7
 10
.89837500
 20
19.89387500
  0
VERTEX
  8
0
 62
7
 10
.85200000
 20
19.86000000
  0
VERTEX
  8
0
 62
7
 10
.81761914
 20
19.82828320
  0
VERTEX
  8
0
 62
7
 10
.78732813
 20
19.79339063
  0
VERTEX
  8
0
 62
7
 10
.76127930
 20
19.75570898
  0
VERTEX
  8
0
 62
7
 10
.73962500
 20
19.71562500
  0
VERTEX
  8
0
 62
7
 10
.72251758
 20
19.67352539
  0
VERTEX
  8
0
 62
7
 10
.71010938
 20
19.62979688
  0
VERTEX
  8
0
 62
7
 10
.70255273
 20
19.58482617
  0
VERTEX
  8
0
 62
7
 10
.70000000
 20
19.53900000
  0
VERTEX
  8
0
 62
7
 10
.70150000
 20
19.50400000
  0
VERTEX
  8
0
 62
7
 10
.70600000
 20
19.46900000
  0
VERTEX
  8
0
 62
7
 10
.71800000
 20
19.40400000
  0
VERTEX
  8
0
 62
7
 10
.74200000
 20
19.40000000
  0
VERTEX
  8
0
 62
7
 10
.72275000
 20
19.36103125
  0
VERTEX
  8
0
 62
7
 10
.70575000
 20
19.32075000
  0
VERTEX
  8
0
 62
7
 10
.69137500
 20
19.27934375
  0
VERTEX
  8
0
 62
7
 10
.68000000
 20
19.23700000
  0
VERTEX
  8
0
 62
7
 10
.67154688
 20
19.19800000
  0
VERTEX
  8
0
 62
7
 10
.66562500
 20
19.15900000
  0
VERTEX
  8
0
 62
7
 10
.66214063
 20
19.12000000
  0
VERTEX
  8
0
 62
7
 10
.66100000
 20
19.08100000
  0
VERTEX
  8
0
 62
7
 10
.66211133
 20
19.04210156
  0
VERTEX
  8
0
 62
7
 10
.66539063
 20
19.00343750
  0
VERTEX
  8
0
 62
7
 10
.67075586
 20
18.96505469
  0
VERTEX
  8
0
 62
7
 10
.67812500
 20
18.92700000
  0
VERTEX
  8
0
 62
7
 10
.68741602
 20
18.88932031
  0
VERTEX
  8
0
 62
7
 10
.69854688
 20
18.85206250
  0
VERTEX
  8
0
 62
7
 10
.71143555
 20
18.81527344
  0
VERTEX
  8
0
 62
7
 10
.72600000
 20
18.77900000
  0
VERTEX
  8
0
 62
7
 10
.75500000
 20
18.71300000
  0
VERTEX
  8
0
 62
7
 10
.81300000
 20
18.72400000
  0
VERTEX
  8
0
 62
7
 10
.82950000
 20
18.67403125
  0
VERTEX
  8
0
 62
7
 10
.84900000
 20
18.62500000
  0
VERTEX
  8
0
 62
7
 10
.87150000
 20
18.57746875
  0
VERTEX
  8
0
 62
7
 10
.89700000
 20
18.53200000
  0
VERTEX
  8
0
 62
7
 10
.92121484
 20
18.49423633
  0
VERTEX
  8
0
 62
7
 10
.94728125
 20
18.45882813
  0
VERTEX
  8
0
 62
7
 10
.97508203
 20
18.42559961
  0
VERTEX
  8
0
 62
7
 10
1.00450000
 20
18.39437500
  0
VERTEX
  8
0
 62
7
 10
1.03541797
 20
18.36497852
  0
VERTEX
  8
0
 62
7
 10
1.06771875
 20
18.33723438
  0
VERTEX
  8
0
 62
7
 10
1.10128516
 20
18.31096680
  0
VERTEX
  8
0
 62
7
 10
1.13600000
 20
18.28600000
  0
VERTEX
  8
0
 62
7
 10
1.14893164
 20
18.27846484
  0
VERTEX
  8
0
 62
7
 10
1.16210938
 20
18.27339063
  0
VERTEX
  8
0
 62
7
 10
1.17535742
 20
18.27063672
  0
VERTEX
  8
0
 62
7
 10
1.18850000
 20
18.27006250
  0
VERTEX
  8
0
 62
7
 10
1.20136133
 20
18.27152734
  0
VERTEX
  8
0
 62
7
 10
1.21376563
 20
18.27489063
  0
VERTEX
  8
0
 62
7
 10
1.22553711
 20
18.28001172
  0
VERTEX
  8
0
 62
7
 10
1.23650000
 20
18.28675000
  0
VERTEX
  8
0
 62
7
 10
1.24647852
 20
18.29496484
  0
VERTEX
  8
0
 62
7
 10
1.25529688
 20
18.30451563
  0
VERTEX
  8
0
 62
7
 10
1.26277930
 20
18.31526172
  0
VERTEX
  8
0
 62
7
 10
1.26875000
 20
18.32706250
  0
VERTEX
  8
0
 62
7
 10
1.27303320
 20
18.33977734
  0
VERTEX
  8
0
 62
7
 10
1.27545313
 20
18.35326563
  0
VERTEX
  8
0
 62
7
 10
1.27583398
 20
18.36738672
  0
VERTEX
  8
0
 62
7
 10
1.27400000
 20
18.38200000
  0
VERTEX
  8
0
 62
7
 10
1.27100000
 20
18.40700000
  0
VERTEX
  8
0
 62
7
 10
1.27400000
 20
18.42500000
  0
VERTEX
  8
0
 62
7
 10
1.28750000
 20
18.44425000
  0
VERTEX
  8
0
 62
7
 10
1.31300000
 20
18.46800000
  0
VERTEX
  8
0
 62
7
 10
1.31700000
 20
18.47200000
  0
VERTEX
  8
0
 62
7
 10
1.32923438
 20
18.44225000
  0
VERTEX
  8
0
 62
7
 10
1.34362500
 20
18.41325000
  0
VERTEX
  8
0
 62
7
 10
1.36045313
 20
18.38537500
  0
VERTEX
  8
0
 62
7
 10
1.38000000
 20
18.35900000
  0
VERTEX
  8
0
 62
7
 10
1.40971094
 20
18.32739453
  0
VERTEX
  8
0
 62
7
 10
1.44218750
 20
18.30059375
  0
VERTEX
  8
0
 62
7
 10
1.47682031
 20
18.27824609
  0
VERTEX
  8
0
 62
7
 10
1.51300000
 20
18.26000000
  0
VERTEX
  8
0
 62
7
 10
1.55011719
 20
18.24550391
  0
VERTEX
  8
0
 62
7
 10
1.58756250
 20
18.23440625
  0
VERTEX
  8
0
 62
7
 10
1.62472656
 20
18.22635547
  0
VERTEX
  8
0
 62
7
 10
1.66100000
 20
18.22100000
  0
VERTEX
  8
0
 62
7
 10
1.69012500
 20
18.21787500
  0
VERTEX
  8
0
 62
7
 10
1.72000000
 20
18.21700000
  0
VERTEX
  8
0
 62
7
 10
1.75011523
 20
18.21795313
  0
VERTEX
  8
0
 62
7
 10
1.78035938
 20
18.22087500
  0
VERTEX
  8
0
 62
7
 10
1.81058008
 20
18.22585938
  0
VERTEX
  8
0
 62
7
 10
1.84062500
 20
18.23300000
  0
VERTEX
  8
0
 62
7
 10
1.87034180
 20
18.24239063
  0
VERTEX
  8
0
 62
7
 10
1.89957813
 20
18.25412500
  0
VERTEX
  8
0
 62
7
 10
1.92818164
 20
18.26829688
  0
VERTEX
  8
0
 62
7
 10
1.95600000
 20
18.28500000
  0
VERTEX
  8
0
 62
7
 10
1.99700000
 20
18.31500000
  0
SEQEND
  0
POLYLINE
  8
0
 62
7
 66
1
 70
1
  0
VERTEX
  8
0
 62
7
 10
10.00000000
 20
18.55000000
  0
VERTEX
  8
0
 62
7
 10
15.51200000
 20
18.55000000
  0
VERTEX
  8
0
 62
7
 10
15.50300000
 20
18.56800000
  0
VERTEX
  8
0
 62
7
 10
15.48043750
 20
18.62560938
  0
VERTEX
  8
0
 62
7
 10
15.46575000
 20
18.68387500
  0
VERTEX
  8
0
 62
7
 10
15.45743750
 20
18.74195313
  0
VERTEX
  8
0
 62
7
 10
15.45400000
 20
18.79900000
  0
VERTEX
  8
0
 62
7
 10
15.45400000
 20
18.80000000
  0
VERTEX
  8
0
 62
7
 10
10.00000000
 20
18.80000000
  0
VERTEX
  8
0
 62
7
 10
4.54600000
 20
18.80000000
  0
VERTEX
  8
0
 62
7
 10
4.54600000
 20
18.79900000
  0
VERTEX
  8
0
 62
7
 10
4.54256250
 20
18.74195313
  0
VERTEX
  8
0
 62
7
 10
4.53425000
 20
18.68387500
  0
VERTEX
  8
0
 62
7
 10
4.51956250
 20
18.62560938
  0
VERTEX
  8
0
 62
7
 10
4.49700000
 20
18.56800000
  0
VERTEX
  8
0
 62
7
 10
4.48800000
 20
18.55000000
  0
VERTEX
  8
0
 62
7
 10
10.00000000
 20
18.55000000
  0
SEQEND
  0
POLYLINE
  8
0
 62
7
 66
1
 70
1
  0
VERTEX
  8
0
 62
7
 10
16.77200000
 20
18.26600000
  0
VERTEX
  8
0
 62
7
 10
16.76542188
 20
18.28776563
  0
VERTEX
  8
0
 62
7
 10
16.76662500
 20
18.30962500
  0
VERTEX
  8
0
 62
7
 10
16.77551563
 20
18.32942188
  0
VERTEX
  8
0
 62
7
 10
16.79200000
 20
18.34500000
  0
VERTEX
  8
0
 62
7
 10
16.84287500
 20
18.38225000
  0
VERTEX
  8
0
 62
7
 10
16.89000000
 20
18.42400000
  0
VERTEX
  8
0
 62
7
 10
16.90300000
 20
18.43700000
  0
VERTEX
  8
0
 62
7
 10
16.85400000
 20
18.40900000
  0
VERTEX
  8
0
 62
7
 10
16.79549609
 20
18.38205078
  0
VERTEX
  8
0
 62
7
 10
16.73528125
 20
18.36009375
  0
VERTEX
  8
0
 62
7
 10
16.67417578
 20
18.34258984
  0
VERTEX
  8
0
 62
7
 10
16.61300000
 20
18.32900000
  0
VERTEX
  8
0
 62
7
 10
16.55257422
 20
18.31878516
  0
VERTEX
  8
0
 62
7
 10
16.49371875
 20
18.31140625
  0
VERTEX
  8
0
 62
7
 10
16.43725391
 20
18.30632422
  0
VERTEX
  8
0
 62
7
 10
16.38400000
 20
18.30300000
  0
VERTEX
  8
0
 62
7
 10
16.32750000
 20
18.30153125
  0
VERTEX
  8
0
 62
7
 10
16.27400000
 20
18.30325000
  0
VERTEX
  8
0
 62
7
 10
16.22200000
 20
18.30834375
  0
VERTEX
  8
0
 62
7
 10
16.17000000
 20
18.31700000
  0
VERTEX
  8
0
 62
7
 10
16.11490625
 20
18.32935938
  0
VERTEX
  8
0
 62
7
 10
16.06075000
 20
18.34537500
  0
VERTEX
  8
0
 62
7
 10
16.00771875
 20
18.36495313
  0
VERTEX
  8
0
 62
7
 10
15.95600000
 20
18.38800000
  0
VERTEX
  8
0
 62
7
 10
15.91445313
 20
18.40925000
  0
VERTEX
  8
0
 62
7
 10
15.87412500
 20
18.43275000
  0
VERTEX
  8
0
 62
7
 10
15.83548438
 20
18.45887500
  0
VERTEX
  8
0
 62
7
 10
15.79900000
 20
18.48800000
  0
VERTEX
  8
0
 62
7
 10
15.76684375
 20
18.51643750
  0
VERTEX
  8
0
 62
7
 10
15.73600000
 20
18.54675000
  0
VERTEX
  8
0
 62
7
 10
15.70815625
 20
18.57968750
  0
VERTEX
  8
0
 62
7
 10
15.68500000
 20
18.61600000
  0
VERTEX
  8
0
 62
7
 10
15.67281836
 20
18.64077930
  0
VERTEX
  8
0
 62
7
 10
15.66254688
 20
18.66629688
  0
VERTEX
  8
0
 62
7
 10
15.65422070
 20
18.69244727
  0
VERTEX
  8
0
 62
7
 10
15.64787500
 20
18.71912500
  0
VERTEX
  8
0
 62
7
 10
15.64354492
 20
18.74622461
  0
VERTEX
  8
0
 62
7
 10
15.64126563
 20
18.77364063
  0
VERTEX
  8
0
 62
7
 10
15.64107227
 20
18.80126758
  0
VERTEX
  8
0
 62
7
 10
15.64300000
 20
18.82900000
  0
VERTEX
  8
0
 62
7
 10
15.64937500
 20
18.87082813
  0
VERTEX
  8
0
 62
7
 10
15.66025000
 20
18.91162500
  0
VERTEX
  8
0
 62
7
 10
15.67675000
 20
18.95035938
  0
VERTEX
  8
0
 62
7
 10
15.70000000
 20
18.98600000
  0
VERTEX
  8
0
 62
7
 10
15.71275977
 20
19.00117773
  0
VERTEX
  8
0
 62
7
 10
15.72632813
 20
19.01573438
  0
VERTEX
  8
0
 62
7
 10
15.74076367
 20
19.02933008
  0
VERTEX
  8
0
 62
7
 10
15.75612500
 20
19.04162500
  0
VERTEX
  8
0
 62
7
 10
15.77247070
 20
19.05227930
  0
VERTEX
  8
0
 62
7
 10
15.78985938
 20
19.06095313
  0
VERTEX
  8
0
 62
7
 10
15.80834961
 20
19.06730664
  0
VERTEX
  8
0
 62
7
 10
15.82800000
 20
19.07100000
  0
VERTEX
  8
0
 62
7
 10
15.85832813
 20
19.07253125
  0
VERTEX
  8
0
 62
7
 10
15.88837500
 20
19.06900000
  0
VERTEX
  8
0
 62
7
 10
15.91673438
 20
19.05946875
  0
VERTEX
  8
0
 62
7
 10
15.94200000
 20
19.04300000
  0
VERTEX
  8
0
 62
7
 10
15.95488086
 20
19.03052734
  0
VERTEX
  8
0
 62
7
 10
15.96573438
 20
19.01653125
  0
VERTEX
  8
0
 62
7
 10
15.97450195
 20
19.00126953
  0
VERTEX
  8
0
 62
7
 10
15.98112500
 20
18.98500000
  0
VERTEX
  8
0
 62
7
 10
15.98554492
 20
18.96798047
  0
VERTEX
  8
0
 62
7
 10
15.98770313
 20
18.95046875
  0
VERTEX
  8
0
 62
7
 10
15.98754102
 20
18.93272266
  0
VERTEX
  8
0
 62
7
 10
15.98500000
 20
18.91500000
  0
VERTEX
  8
0
 62
7
 10
16.00571875
 20
18.93137500
  0
VERTEX
  8
0
 62
7
 10
16.02250000
 20
18.95150000
  0
VERTEX
  8
0
 62
7
 10
16.03478125
 20
18.97462500
  0
VERTEX
  8
0
 62
7
 10
16.04200000
 20
19.00000000
  0
VERTEX
  8
0
 62
7
 10
16.04377539
 20
19.01560352
  0
VERTEX
  8
0
 62
7
 10
16.04326563
 20
19.03089063
  0
VERTEX
  8
0
 62
7
 10
16.04071680
 20
19.04582617
  0
VERTEX
  8
0
 62
7
 10
16.03637500
 20
19.06037500
  0
VERTEX
  8
0
 62
7
 10
16.03048633
 20
19.07450195
  0
VERTEX
  8
0
 62
7
 10
16.02329688
 20
19.08817188
  0
VERTEX
  8
0
 62
7
 10
16.01505273
 20
19.10134961
  0
VERTEX
  8
0
 62
7
 10
16.00600000
 20
19.11400000
  0
VERTEX
  8
0
 62
7
 10
15.99054492
 20
19.13148828
  0
VERTEX
  8
0
 62
7
 10
15.97292188
 20
19.14590625
  0
VERTEX
  8
0
 62
7
 10
15.95349414
 20
19.15755859
  0
VERTEX
  8
0
 62
7
 10
15.93262500
 20
19.16675000
  0
VERTEX
  8
0
 62
7
 10
15.91067773
 20
19.17378516
  0
VERTEX
  8
0
 62
7
 10
15.88801563
 20
19.17896875
  0
VERTEX
  8
0
 62
7
 10
15.86500195
 20
19.18260547
  0
VERTEX
  8
0
 62
7
 10
15.84200000
 20
19.18500000
  0
VERTEX
  8
0
 62
7
 10
15.80332495
 20
19.18560938
  0
VERTEX
  8
0
 62
7
 10
15.76683398
 20
19.18129688
  0
VERTEX
  8
0
 62
7
 10
15.73257837
 20
19.17241406
  0
VERTEX
  8
0
 62
7
 10
15.70060938
 20
19.15931250
  0
VERTEX
  8
0
 62
7
 10
15.67097827
 20
19.14234375
  0
VERTEX
  8
0
 62
7
 10
15.64373633
 20
19.12185938
  0
VERTEX
  8
0
 62
7
 10
15.61893481
 20
19.09821094
  0
VERTEX
  8
0
 62
7
 10
15.59662500
 20
19.07175000
  0
VERTEX
  8
0
 62
7
 10
15.57685815
 20
19.04282813
  0
VERTEX
  8
0
 62
7
 10
15.55968555
 20
19.01179688
  0
VERTEX
  8
0
 62
7
 10
15.54515845
 20
18.97900781
  0
VERTEX
  8
0
 62
7
 10
15.53332813
 20
18.94481250
  0
VERTEX
  8
0
 62
7
 10
15.52424585
 20
18.90956250
  0
VERTEX
  8
0
 62
7
 10
15.51796289
 20
18.87360938
  0
VERTEX
  8
0
 62
7
 10
15.51453052
 20
18.83730469
  0
VERTEX
  8
0
 62
7
 10
15.51400000
 20
18.80100000
  0
VERTEX
  8
0
 62
7
 10
15.51734375
 20
18.74784375
  0
VERTEX
  8
0
 62
7
 10
15.52500000
 20
18.69525000
  0
VERTEX
  8
0
 62
7
 10
15.53790625
 20
18.64378125
  0
VERTEX
  8
0
 62
7
 10
15.55700000
 20
18.59400000
  0
VERTEX
  8
0
 62
7
 10
15.58648438
 20
18.54340625
  0
VERTEX
  8
0
 62
7
 10
15.62262500
 20
18.49750000
  0
VERTEX
  8
0
 62
7
 10
15.66345313
 20
18.45534375
  0
VERTEX
  8
0
 62
7
 10
15.70700000
 20
18.41600000
  0
VERTEX
  8
0
 62
7
 10
15.74873438
 20
18.38329688
  0
VERTEX
  8
0
 62
7
 10
15.79262500
 20
18.35387500
  0
VERTEX
  8
0
 62
7
 10
15.83820313
 20
18.32726563
  0
VERTEX
  8
0
 62
7
 10
15.88500000
 20
18.30300000
  0
VERTEX
  8
0
 62
7
 10
15.94348438
 20
18.27729688
  0
VERTEX
  8
0
 62
7
 10
16.00337500
 20
18.25562500
  0
VERTEX
  8
0
 62
7
 10
16.06457813
 20
18.23789063
  0
VERTEX
  8
0
 62
7
 10
16.12700000
 20
18.22400000
  0
VERTEX
  8
0
 62
7
 10
16.20365625
 20
18.21185938
  0
VERTEX
  8
0
 62
7
 10
16.28425000
 20
18.20412500
  0
VERTEX
  8
0
 62
7
 10
16.36521875
 20
18.20107813
  0
VERTEX
  8
0
 62
7
 10
16.44300000
 20
18.20300000
  0
VERTEX
  8
0
 62
7
 10
16.52857813
 20
18.21045313
  0
VERTEX
  8
0
 62
7
 10
16.61162500
 20
18.22362500
  0
VERTEX
  8
0
 62
7
 10
16.69260938
 20
18.24223438
  0
VERTEX
  8
0
 62
7
 10
16.77200000
 20
18.26600000
  0
SEQEND
  0
POLYLINE
  8
0
 62
7
 66
1
 70
1
  0
VERTEX
  8
0
 62
7
 10
18.67000000
 20
20.67200000
  0
VERTEX
  8
0
 62
7
 10
18.64700000
 20
20.66900000
  0
VERTEX
  8
0
 62
7
 10
18.57400000
 20
20.66300000
  0
VERTEX
  8
0
 62
7
 10
18.57000000
 20
20.66300000
  0
VERTEX
  8
0
 62
7
 10
18.56537500
 20
20.60750000
  0
VERTEX
  8
0
 62
7
 10
18.55700000
 20
20.55200000
  0
VERTEX
  8
0
 62
7
 10
18.54668750
 20
20.50439063
  0
VERTEX
  8
0
 62
7
 10
18.53375000
 20
20.45762500
  0
VERTEX
  8
0
 62
7
 10
18.51818750
 20
20.41179688
  0
VERTEX
  8
0
 62
7
 10
18.50000000
 20
20.36700000
  0
VERTEX
  8
0
 62
7
 10
18.49440625
 20
20.40050000
  0
VERTEX
  8
0
 62
7
 10
18.48525000
 20
20.43325000
  0
VERTEX
  8
0
 62
7
 10
18.47271875
 20
20.46487500
  0
VERTEX
  8
0
 62
7
 10
18.45700000
 20
20.49500000
  0
VERTEX
  8
0
 62
7
 10
18.43920313
 20
20.52162500
  0
VERTEX
  8
0
 62
7
 10
18.41887500
 20
20.54600000
  0
VERTEX
  8
0
 62
7
 10
18.39610938
 20
20.56812500
  0
VERTEX
  8
0
 62
7
 10
18.37100000
 20
20.58800000
  0
VERTEX
  8
0
 62
7
 10
18.22200000
 20
20.53100000
  0
VERTEX
  8
0
 62
7
 10
18.18850000
 20
20.55762500
  0
VERTEX
  8
0
 62
7
 10
18.15800000
 20
20.58800000
  0
VERTEX
  8
0
 62
7
 10
18.12650000
 20
20.62862500
  0
VERTEX
  8
0
 62
7
 10
18.10100000
 20
20.67300000
  0
VERTEX
  8
0
 62
7
 10
18.06432617
 20
20.65926758
  0
VERTEX
  8
0
 62
7
 10
18.03110938
 20
20.64020313
  0
VERTEX
  8
0
 62
7
 10
18.00180664
 20
20.61638086
  0
VERTEX
  8
0
 62
7
 10
17.97687500
 20
20.58837500
  0
VERTEX
  8
0
 62
7
 10
17.95677148
 20
20.55675977
  0
VERTEX
  8
0
 62
7
 10
17.94195313
 20
20.52210938
  0
VERTEX
  8
0
 62
7
 10
17.93287695
 20
20.48499805
  0
VERTEX
  8
0
 62
7
 10
17.93000000
 20
20.44600000
  0
VERTEX
  8
0
 62
7
 10
17.93209375
 20
20.41385938
  0
VERTEX
  8
0
 62
7
 10
17.93850000
 20
20.38237500
  0
VERTEX
  8
0
 62
7
 10
17.94940625
 20
20.35220313
  0
VERTEX
  8
0
 62
7
 10
17.96500000
 20
20.32400000
  0
VERTEX
  8
0
 62
7
 10
17.98254688
 20
20.30348438
  0
VERTEX
  8
0
 62
7
 10
18.00337500
 20
20.28587500
  0
VERTEX
  8
0
 62
7
 10
18.02476563
 20
20.26957813
  0
VERTEX
  8
0
 62
7
 10
18.04400000
 20
20.25300000
  0
VERTEX
  8
0
 62
7
 10
18.05199805
 20
20.24551953
  0
VERTEX
  8
0
 62
7
 10
18.06110938
 20
20.23796875
  0
VERTEX
  8
0
 62
7
 10
18.07038477
 20
20.23018359
  0
VERTEX
  8
0
 62
7
 10
18.07887500
 20
20.22200000
  0
VERTEX
  8
0
 62
7
 10
18.08563086
 20
20.21325391
  0
VERTEX
  8
0
 62
7
 10
18.08970313
 20
20.20378125
  0
VERTEX
  8
0
 62
7
 10
18.09014258
 20
20.19341797
  0
VERTEX
  8
0
 62
7
 10
18.08600000
 20
20.18200000
  0
VERTEX
  8
0
 62
7
 10
18.07554688
 20
20.16901563
  0
VERTEX
  8
0
 62
7
 10
18.06162500
 20
20.16062500
  0
VERTEX
  8
0
 62
7
 10
18.04564063
 20
20.15767188
  0
VERTEX
  8
0
 62
7
 10
18.02900000
 20
20.16100000
  0
VERTEX
  8
0
 62
7
 10
18.01682813
 20
20.17073438
  0
VERTEX
  8
0
 62
7
 10
18.00587500
 20
20.18637500
  0
VERTEX
  8
0
 62
7
 10
17.99623438
 20
20.20332813
  0
VERTEX
  8
0
 62
7
 10
17.98800000
 20
20.21700000
  0
VERTEX
  8
0
 62
7
 10
17.97136328
 20
20.24058032
  0
VERTEX
  8
0
 62
7
 10
17.95475000
 20
20.26398633
  0
VERTEX
  8
0
 62
7
 10
17.93804297
 20
20.28709058
  0
VERTEX
  8
0
 62
7
 10
17.92112500
 20
20.30976563
  0
VERTEX
  8
0
 62
7
 10
17.90387891
 20
20.33188403
  0
VERTEX
  8
0
 62
7
 10
17.88618750
 20
20.35331836
  0
VERTEX
  8
0
 62
7
 10
17.86793359
 20
20.37394116
  0
VERTEX
  8
0
 62
7
 10
17.84900000
 20
20.39362500
  0
VERTEX
  8
0
 62
7
 10
17.82926953
 20
20.41224243
  0
VERTEX
  8
0
 62
7
 10
17.80862500
 20
20.42966602
  0
VERTEX
  8
0
 62
7
 10
17.78694922
 20
20.44576831
  0
VERTEX
  8
0
 62
7
 10
17.76412500
 20
20.46042188
  0
VERTEX
  8
0
 62
7
 10
17.74003516
 20
20.47349927
  0
VERTEX
  8
0
 62
7
 10
17.71456250
 20
20.48487305
  0
VERTEX
  8
0
 62
7
 10
17.68758984
 20
20.49441577
  0
VERTEX
  8
0
 62
7
 10
17.65900000
 20
20.50200000
  0
VERTEX
  8
0
 62
7
 10
17.62695703
 20
20.50800195
  0
VERTEX
  8
0
 62
7
 10
17.59465625
 20
20.51176563
  0
VERTEX
  8
0
 62
7
 10
17.56221484
 20
20.51330273
  0
VERTEX
  8
0
 62
7
 10
17.52975000
 20
20.51262500
  0
VERTEX
  8
0
 62
7
 10
17.49737891
 20
20.50974414
  0
VERTEX
  8
0
 62
7
 10
17.46521875
 20
20.50467188
  0
VERTEX
  8
0
 62
7
 10
17.43338672
 20
20.49741992
  0
VERTEX
  8
0
 62
7
 10
17.40200000
 20
20.48800000
  0
VERTEX
  8
0
 62
7
 10
17.41700000
 20
20.38900000
  0
VERTEX
  8
0
 62
7
 10
17.36771875
 20
20.38675000
  0
VERTEX
  8
0
 62
7
 10
17.31900000
 20
20.38000000
  0
VERTEX
  8
0
 62
7
 10
17.27103125
 20
20.36875000
  0
VERTEX
  8
0
 62
7
 10
17.22400000
 20
20.35300000
  0
VERTEX
  8
0
 62
7
 10
17.16857813
 20
20.32810938
  0
VERTEX
  8
0
 62
7
 10
17.11662500
 20
20.29712500
  0
VERTEX
  8
0
 62
7
 10
17.06860938
 20
20.26032813
  0
VERTEX
  8
0
 62
7
 10
17.02500000
 20
20.21800000
  0
VERTEX
  8
0
 62
7
 10
17.06800000
 20
20.16100000
  0
VERTEX
  8
0
 62
7
 10
17.03783203
 20
20.14892188
  0
VERTEX
  8
0
 62
7
 10
17.00890625
 20
20.13450000
  0
VERTEX
  8
0
 62
7
 10
16.98133984
 20
20.11782813
  0
VERTEX
  8
0
 62
7
 10
16.95525000
 20
20.09900000
  0
VERTEX
  8
0
 62
7
 10
16.93075391
 20
20.07810938
  0
VERTEX
  8
0
 62
7
 10
16.90796875
 20
20.05525000
  0
VERTEX
  8
0
 62
7
 10
16.88701172
 20
20.03051563
  0
VERTEX
  8
0
 62
7
 10
16.86800000
 20
20.00400000
  0
VERTEX
  8
0
 62
7
 10
16.84196875
 20
19.95800000
  0
VERTEX
  8
0
 62
7
 10
16.82250000
 20
19.90900000
  0
VERTEX
  8
0
 62
7
 10
16.80978125
 20
19.85775000
  0
VERTEX
  8
0
 62
7
 10
16.80400000
 20
19.80500000
  0
VERTEX
  8
0
 62
7
 10
16.85448438
 20
19.81998438
  0
VERTEX
  8
0
 62
7
 10
16.90637500
 20
19.82737500
  0
VERTEX
  8
0
 62
7
 10
16.95882813
 20
19.82707813
  0
VERTEX
  8
0
 62
7
 10
17.01100000
 20
19.81900000
  0
VERTEX
  8
0
 62
7
 10
17.04492188
 20
19.80967188
  0
VERTEX
  8
0
 62
7
 10
17.07762500
 20
19.79687500
  0
VERTEX
  8
0
 62
7
 10
17.10901563
 20
19.78089063
  0
VERTEX
  8
0
 62
7
 10
17.13900000
 20
19.76200000
  0
VERTEX
  8
0
 62
7
 10
17.06000000
 20
19.68400000
  0
VERTEX
  8
0
 62
7
 10
17.07527930
 20
19.65403906
  0
VERTEX
  8
0
 62
7
 10
17.09392188
 20
19.62656250
  0
VERTEX
  8
0
 62
7
 10
17.11563477
 20
19.60180469
  0
VERTEX
  8
0
 62
7
 10
17.14012500
 20
19.58000000
  0
VERTEX
  8
0
 62
7
 10
17.16709961
 20
19.56138281
  0
VERTEX
  8
0
 62
7
 10
17.19626563
 20
19.54618750
  0
VERTEX
  8
0
 62
7
 10
17.22733008
 20
19.53464844
  0
VERTEX
  8
0
 62
7
 10
17.26000000
 20
19.52700000
  0
VERTEX
  8
0
 62
7
 10
17.29029688
 20
19.52345313
  0
VERTEX
  8
0
 62
7
 10
17.32087500
 20
19.52337500
  0
VERTEX
  8
0
 62
7
 10
17.35126563
 20
19.52685938
  0
VERTEX
  8
0
 62
7
 10
17.38100000
 20
19.53400000
  0
VERTEX
  8
0
 62
7
 10
17.38800000
 20
19.47700000
  0
VERTEX
  8
0
 62
7
 10
17.41678125
 20
19.47190625
  0
VERTEX
  8
0
 62
7
 10
17.44575000
 20
19.47150000
  0
VERTEX
  8
0
 62
7
 10
17.47434375
 20
19.47559375
  0
VERTEX
  8
0
 62
7
 10
17.50200000
 20
19.48400000
  0
VERTEX
  8
0
 62
7
 10
17.53550000
 20
19.50325000
  0
VERTEX
  8
0
 62
7
 10
17.56600000
 20
19.52700000
  0
VERTEX
  8
0
 62
7
 10
17.58801563
 20
19.54803125
  0
VERTEX
  8
0
 62
7
 10
17.60787500
 20
19.57150000
  0
VERTEX
  8
0
 62
7
 10
17.62829688
 20
19.59421875
  0
VERTEX
  8
0
 62
7
 10
17.65200000
 20
19.61300000
  0
VERTEX
  8
0
 62
7
 10
17.67550000
 20
19.62704688
  0
VERTEX
  8
0
 62
7
 10
17.69975000
 20
19.63912500
  0
VERTEX
  8
0
 62
7
 10
17.72512500
 20
19.64689063
  0
VERTEX
  8
0
 62
7
 10
17.75200000
 20
19.64800000
  0
VERTEX
  8
0
 62
7
 10
17.76429712
 20
19.64556274
  0
VERTEX
  8
0
 62
7
 10
17.77495508
 20
19.64139258
  0
VERTEX
  8
0
 62
7
 10
17.78399878
 20
19.63570190
  0
VERTEX
  8
0
 62
7
 10
17.79145313
 20
19.62870313
  0
VERTEX
  8
0
 62
7
 10
17.79734302
 20
19.62060864
  0
VERTEX
  8
0
 62
7
 10
17.80169336
 20
19.61163086
  0
VERTEX
  8
0
 62
7
 10
17.80452905
 20
19.60198218
  0
VERTEX
  8
0
 62
7
 10
17.80587500
 20
19.59187500
  0
VERTEX
  8
0
 62
7
 10
17.80575610
 20
19.58152173
  0
VERTEX
  8
0
 62
7
 10
17.80419727
 20
19.57113477
  0
VERTEX
  8
0
 62
7
 10
17.80122339
 20
19.56092651
  0
VERTEX
  8
0
 62
7
 10
17.79685938
 20
19.55110938
  0
VERTEX
  8
0
 62
7
 10
17.79113013
 20
19.54189575
  0
VERTEX
  8
0
 62
7
 10
17.78406055
 20
19.53349805
  0
VERTEX
  8
0
 62
7
 10
17.77567554
 20
19.52612866
  0
VERTEX
  8
0
 62
7
 10
17.76600000
 20
19.52000000
  0
VERTEX
  8
0
 62
7
 10
17.74076758
 20
19.50854102
  0
VERTEX
  8
0
 62
7
 10
17.71470313
 20
19.49995313
  0
VERTEX
  8
0
 62
7
 10
17.68800586
 20
19.49354492
  0
VERTEX
  8
0
 62
7
 10
17.66087500
 20
19.48862500
  0
VERTEX
  8
0
 62
7
 10
17.63350977
 20
19.48450195
  0
VERTEX
  8
0
 62
7
 10
17.60610938
 20
19.48048438
  0
VERTEX
  8
0
 62
7
 10
17.57887305
 20
19.47588086
  0
VERTEX
  8
0
 62
7
 10
17.55200000
 20
19.47000000
  0
VERTEX
  8
0
 62
7
 10
17.51767383
 20
19.46184961
  0
VERTEX
  8
0
 62
7
 10
17.48307813
 20
19.45429688
  0
VERTEX
  8
0
 62
7
 10
17.44841211
 20
19.44681445
  0
VERTEX
  8
0
 62
7
 10
17.41387500
 20
19.43887500
  0
VERTEX
  8
0
 62
7
 10
17.37966602
 20
19.42995117
  0
VERTEX
  8
0
 62
7
 10
17.34598438
 20
19.41951563
  0
VERTEX
  8
0
 62
7
 10
17.31302930
 20
19.40704102
  0
VERTEX
  8
0
 62
7
 10
17.28100000
 20
19.39200000
  0
VERTEX
  8
0
 62
7
 10
17.24421484
 20
19.37138867
  0
VERTEX
  8
0
 62
7
 10
17.20890625
 20
19.34860938
  0
VERTEX
  8
0
 62
7
 10
17.17514453
 20
19.32374414
  0
VERTEX
  8
0
 62
7
 10
17.14300000
 20
19.29687500
  0
VERTEX
  8
0
 62
7
 10
17.11254297
 20
19.26808398
  0
VERTEX
  8
0
 62
7
 10
17.08384375
 20
19.23745313
  0
VERTEX
  8
0
 62
7
 10
17.05697266
 20
19.20506445
  0
VERTEX
  8
0
 62
7
 10
17.03200000
 20
19.17100000
  0
VERTEX
  8
0
 62
7
 10
17.12500000
 20
19.05700000
  0
VERTEX
  8
0
 62
7
 10
17.08960938
 20
19.01917188
  0
VERTEX
  8
0
 62
7
 10
17.05862500
 20
18.97787500
  0
VERTEX
  8
0
 62
7
 10
17.03232813
 20
18.93339063
  0
VERTEX
  8
0
 62
7
 10
17.01100000
 20
18.88600000
  0
VERTEX
  8
0
 62
7
 10
16.99282813
 20
18.82889063
  0
VERTEX
  8
0
 62
7
 10
16.98187500
 20
18.77037500
  0
VERTEX
  8
0
 62
7
 10
16.97823438
 20
18.71092188
  0
VERTEX
  8
0
 62
7
 10
16.98200000
 20
18.65100000
  0
VERTEX
  8
0
 62
7
 10
17.08200000
 20
18.58000000
  0
VERTEX
  8
0
 62
7
 10
17.04837500
 20
18.52537500
  0
VERTEX
  8
0
 62
7
 10
17.01100000
 20
18.47300000
  0
VERTEX
  8
0
 62
7
 10
16.97337500
 20
18.42550000
  0
VERTEX
  8
0
 62
7
 10
16.93200000
 20
18.38100000
  0
VERTEX
  8
0
 62
7
 10
16.88037500
 20
18.33537500
  0
VERTEX
  8
0
 62
7
 10
16.82500000
 20
18.29500000
  0
VERTEX
  8
0
 62
7
 10
16.84478125
 20
18.26671875
  0
VERTEX
  8
0
 62
7
 10
16.86625000
 20
18.24200000
  0
VERTEX
  8
0
 62
7
 10
16.89109375
 20
18.22103125
  0
VERTEX
  8
0
 62
7
 10
16.92100000
 20
18.20400000
  0
VERTEX
  8
0
 62
7
 10
16.94443945
 20
18.19478125
  0
VERTEX
  8
0
 62
7
 10
16.96882813
 20
18.18800000
  0
VERTEX
  8
0
 62
7
 10
16.99389648
 20
18.18346875
  0
VERTEX
  8
0
 62
7
 10
17.01937500
 20
18.18100000
  0
VERTEX
  8
0
 62
7
 10
17.04499414
 20
18.18040625
  0
VERTEX
  8
0
 62
7
 10
17.07048438
 20
18.18150000
  0
VERTEX
  8
0
 62
7
 10
17.09557617
 20
18.18409375
  0
VERTEX
  8
0
 62
7
 10
17.12000000
 20
18.18800000
  0
VERTEX
  8
0
 62
7
 10
17.16368750
 20
18.19896875
  0
VERTEX
  8
0
 62
7
 10
17.20700000
 20
18.21575000
  0
VERTEX
  8
0
 62
7
 10
17.24881250
 20
18.23665625
  0
VERTEX
  8
0
 62
7
 10
17.28800000
 20
18.26000000
  0
VERTEX
  8
0
 62
7
 10
17.28800000
 20
18.18200000
  0
VERTEX
  8
0
 62
7
 10
17.36746875
 20
18.19789063
  0
VERTEX
  8
0
 62
7
 10
17.44525000
 20
18.21987500
  0
VERTEX
  8
0
 62
7
 10
17.52115625
 20
18.24767188
  0
VERTEX
  8
0
 62
7
 10
17.59500000
 20
18.28100000
  0
VERTEX
  8
0
 62
7
 10
17.64746875
 20
18.30873438
  0
VERTEX
  8
0
 62
7
 10
17.69825000
 20
18.33937500
  0
VERTEX
  8
0
 62
7
 10
17.74715625
 20
18.37282813
  0
VERTEX
  8
0
 62
7
 10
17.79400000
 20
18.40900000
  0
VERTEX
  8
0
 62
7
 10
17.86600000
 20
18.31000000
  0
VERTEX
  8
0
 62
7
 10
17.92099805
 20
18.36064258
  0
VERTEX
  8
0
 62
7
 10
17.97242188
 20
18.41382813
  0
VERTEX
  8
0
 62
7
 10
18.01979102
 20
18.46994336
  0
VERTEX
  8
0
 62
7
 10
18.06262500
 20
18.52937500
  0
VERTEX
  8
0
 62
7
 10
18.10044336
 20
18.59250977
  0
VERTEX
  8
0
 62
7
 10
18.13276563
 20
18.65973438
  0
VERTEX
  8
0
 62
7
 10
18.15911133
 20
18.73143555
  0
VERTEX
  8
0
 62
7
 10
18.17900000
 20
18.80800000
  0
VERTEX
  8
0
 62
7
 10
18.19081250
 20
18.86757813
  0
VERTEX
  8
0
 62
7
 10
18.20150000
 20
18.92987500
  0
VERTEX
  8
0
 62
7
 10
18.20993750
 20
18.99348438
  0
VERTEX
  8
0
 62
7
 10
18.21500000
 20
19.05700000
  0
VERTEX
  8
0
 62
7
 10
18.21537500
 20
19.12500000
  0
VERTEX
  8
0
 62
7
 10
18.21800000
 20
19.19300000
  0
VERTEX
  8
0
 62
7
 10
18.21982813
 20
19.21401563
  0
VERTEX
  8
0
 62
7
 10
18.22212500
 20
19.23587500
  0
VERTEX
  8
0
 62
7
 10
18.22685938
 20
19.25754688
  0
VERTEX
  8
0
 62
7
 10
18.23600000
 20
19.27800000
  0
VERTEX
  8
0
 62
7
 10
18.24224146
 20
19.28634058
  0
VERTEX
  8
0
 62
7
 10
18.24955664
 20
19.29302148
  0
VERTEX
  8
0
 62
7
 10
18.25770679
 20
19.29809399
  0
VERTEX
  8
0
 62
7
 10
18.26645313
 20
19.30160938
  0
VERTEX
  8
0
 62
7
 10
18.27555688
 20
19.30361890
  0
VERTEX
  8
0
 62
7
 10
18.28477930
 20
19.30417383
  0
VERTEX
  8
0
 62
7
 10
18.29388159
 20
19.30332544
  0
VERTEX
  8
0
 62
7
 10
18.30262500
 20
19.30112500
  0
VERTEX
  8
0
 62
7
 10
18.31077075
 20
19.29762378
  0
VERTEX
  8
0
 62
7
 10
18.31808008
 20
19.29287305
  0
VERTEX
  8
0
 62
7
 10
18.32431421
 20
19.28692407
  0
VERTEX
  8
0
 62
7
 10
18.32923438
 20
19.27982813
  0
VERTEX
  8
0
 62
7
 10
18.33260181
 20
19.27163647
  0
VERTEX
  8
0
 62
7
 10
18.33417773
 20
19.26240039
  0
VERTEX
  8
0
 62
7
 10
18.33372339
 20
19.25217114
  0
VERTEX
  8
0
 62
7
 10
18.33100000
 20
19.24100000
  0
VERTEX
  8
0
 62
7
 10
18.32110938
 20
19.21138086
  0
VERTEX
  8
0
 62
7
 10
18.31187500
 20
19.18235938
  0
VERTEX
  8
0
 62
7
 10
18.30357813
 20
19.15368945
  0
VERTEX
  8
0
 62
7
 10
18.29650000
 20
19.12512500
  0
VERTEX
  8
0
 62
7
 10
18.29092188
 20
19.09641992
  0
VERTEX
  8
0
 62
7
 10
18.28712500
 20
19.06732813
  0
VERTEX
  8
0
 62
7
 10
18.28539063
 20
19.03760352
  0
VERTEX
  8
0
 62
7
 10
18.28600000
 20
19.00700000
  0
VERTEX
  8
0
 62
7
 10
18.28940820
 20
18.96734180
  0
VERTEX
  8
0
 62
7
 10
18.29526563
 20
18.92804688
  0
VERTEX
  8
0
 62
7
 10
18.30377148
 20
18.88938477
  0
VERTEX
  8
0
 62
7
 10
18.31512500
 20
18.85162500
  0
VERTEX
  8
0
 62
7
 10
18.32952539
 20
18.81503711
  0
VERTEX
  8
0
 62
7
 10
18.34717188
 20
18.77989063
  0
VERTEX
  8
0
 62
7
 10
18.36826367
 20
18.74645508
  0
VERTEX
  8
0
 62
7
 10
18.39300000
 20
18.71500000
  0
VERTEX
  8
0
 62
7
 10
18.42404688
 20
18.68296875
  0
VERTEX
  8
0
 62
7
 10
18.45837500
 20
18.65450000
  0
VERTEX
  8
0
 62
7
 10
18.49551563
 20
18.62978125
  0
VERTEX
  8
0
 62
7
 10
18.53500000
 20
18.60900000
  0
VERTEX
  8
0
 62
7
 10
18.59900000
 20
18.66600000
  0
VERTEX
  8
0
 62
7
 10
18.66187500
 20
18.61437500
  0
VERTEX
  8
0
 62
7
 10
18.72100000
 20
18.55900000
  0
VERTEX
  8
0
 62
7
 10
18.74384375
 20
18.53785938
  0
VERTEX
  8
0
 62
7
 10
18.76650000
 20
18.51737500
  0
VERTEX
  8
0
 62
7
 10
18.78765625
 20
18.49445313
  0
VERTEX
  8
0
 62
7
 10
18.80600000
 20
18.46600000
  0
VERTEX
  8
0
 62
7
 10
18.81553125
 20
18.44001563
  0
VERTEX
  8
0
 62
7
 10
18.81925000
 20
18.41337500
  0
VERTEX
  8
0
 62
7
 10
18.81809375
 20
18.38654688
  0
VERTEX
  8
0
 62
7
 10
18.81300000
 20
18.36000000
  0
VERTEX
  8
0
 62
7
 10
18.84491602
 20
18.38290234
  0
VERTEX
  8
0
 62
7
 10
18.87539063
 20
18.40671875
  0
VERTEX
  8
0
 62
7
 10
18.90438867
 20
18.43161328
  0
VERTEX
  8
0
 62
7
 10
18.93187500
 20
18.45775000
  0
VERTEX
  8
0
 62
7
 10
18.95781445
 20
18.48529297
  0
VERTEX
  8
0
 62
7
 10
18.98217188
 20
18.51440625
  0
VERTEX
  8
0
 62
7
 10
19.00491211
 20
18.54525391
  0
VERTEX
  8
0
 62
7
 10
19.02600000
 20
18.57800000
  0
VERTEX
  8
0
 62
7
 10
19.05742188
 20
18.63676563
  0
VERTEX
  8
0
 62
7
 10
19.08387500
 20
18.69937500
  0
VERTEX
  8
0
 62
7
 10
19.10489063
 20
18.76404688
  0
VERTEX
  8
0
 62
7
 10
19.12000000
 20
18.82900000
  0
VERTEX
  8
0
 62
7
 10
19.19100000
 20
18.81500000
  0
VERTEX
  8
0
 62
7
 10
19.20994922
 20
18.86340234
  0
VERTEX
  8
0
 62
7
 10
19.22540625
 20
18.91253125
  0
VERTEX
  8
0
 62
7
 10
19.23716016
 20
18.96226953
  0
VERTEX
  8
0
 62
7
 10
19.24500000
 20
19.01250000
  0
VERTEX
  8
0
 62
7
 10
19.24871484
 20
19.06310547
  0
VERTEX
  8
0
 62
7
 10
19.24809375
 20
19.11396875
  0
VERTEX
  8
0
 62
7
 10
19.24292578
 20
19.16497266
  0
VERTEX
  8
0
 62
7
 10
19.23300000
 20
19.21600000
  0
VERTEX
  8
0
 62
7
 10
19.22356250
 20
19.25004688
  0
VERTEX
  8
0
 62
7
 10
19.21187500
 20
19.28381250
  0
VERTEX
  8
0
 62
7
 10
19.19812500
 20
19.31710938
  0
VERTEX
  8
0
 62
7
 10
19.18250000
 20
19.34975000
  0
VERTEX
  8
0
 62
7
 10
19.16518750
 20
19.38154688
  0
VERTEX
  8
0
 62
7
 10
19.14637500
 20
19.41231250
  0
VERTEX
  8
0
 62
7
 10
19.12625000
 20
19.44185938
  0
VERTEX
  8
0
 62
7
 10
19.10500000
 20
19.47000000
  0
VERTEX
  8
0
 62
7
 10
19.20500000
 20
19.48400000
  0
VERTEX
  8
0
 62
7
 10
19.20953516
 20
19.52713281
  0
VERTEX
  8
0
 62
7
 10
19.20828125
 20
19.56993750
  0
VERTEX
  8
0
 62
7
 10
19.20144922
 20
19.61189844
  0
VERTEX
  8
0
 62
7
 10
19.18925000
 20
19.65250000
  0
VERTEX
  8
0
 62
7
 10
19.17189453
 20
19.69122656
  0
VERTEX
  8
0
 62
7
 10
19.14959375
 20
19.72756250
  0
VERTEX
  8
0
 62
7
 10
19.12255859
 20
19.76099219
  0
VERTEX
  8
0
 62
7
 10
19.09100000
 20
19.79100000
  0
VERTEX
  8
0
 62
7
 10
19.05550000
 20
19.81643750
  0
VERTEX
  8
0
 62
7
 10
19.01700000
 20
19.83700000
  0
VERTEX
  8
0
 62
7
 10
18.97625000
 20
19.85231250
  0
VERTEX
  8
0
 62
7
 10
18.93400000
 20
19.86200000
  0
VERTEX
  8
0
 62
7
 10
18.90070313
 20
19.86531250
  0
VERTEX
  8
0
 62
7
 10
18.86487500
 20
19.86750000
  0
VERTEX
  8
0
 62
7
 10
18.82810938
 20
19.87043750
  0
VERTEX
  8
0
 62
7
 10
18.79200000
 20
19.87600000
  0
VERTEX
  8
0
 62
7
 10
18.74475000
 20
19.88812500
  0
VERTEX
  8
0
 62
7
 10
18.69900000
 20
19.90400000
  0
VERTEX
  8
0
 62
7
 10
18.68953125
 20
19.90740625
  0
VERTEX
  8
0
 62
7
 10
18.68250000
 20
19.91400000
  0
VERTEX
  8
0
 62
7
 10
18.67846875
 20
19.92284375
  0
VERTEX
  8
0
 62
7
 10
18.67800000
 20
19.93300000
  0
VERTEX
  8
0
 62
7
 10
18.68139063
 20
19.94204688
  0
VERTEX
  8
0
 62
7
 10
18.68787500
 20
19.94912500
  0
VERTEX
  8
0
 62
7
 10
18.69642188
 20
19.95339063
  0
VERTEX
  8
0
 62
7
 10
18.70600000
 20
19.95400000
  0
VERTEX
  8
0
 62
7
 10
18.74375000
 20
19.94059375
  0
VERTEX
  8
0
 62
7
 10
18.78300000
 20
19.93300000
  0
VERTEX
  8
0
 62
7
 10
18.82300000
 20
19.93065625
  0
VERTEX
  8
0
 62
7
 10
18.86300000
 20
19.93300000
  0
VERTEX
  8
0
 62
7
 10
18.89276563
 20
19.93760938
  0
VERTEX
  8
0
 62
7
 10
18.92262500
 20
19.94587500
  0
VERTEX
  8
0
 62
7
 10
18.95117188
 20
19.95845313
  0
VERTEX
  8
0
 62
7
 10
18.97700000
 20
19.97600000
  0
VERTEX
  8
0
 62
7
 10
18.99451563
 20
19.99278125
  0
VERTEX
  8
0
 62
7
 10
19.00950000
 20
20.01143750
  0
VERTEX
  8
0
 62
7
 10
19.02185938
 20
20.03168750
  0
VERTEX
  8
0
 62
7
 10
19.03150000
 20
20.05325000
  0
VERTEX
  8
0
 62
7
 10
19.03832813
 20
20.07584375
  0
VERTEX
  8
0
 62
7
 10
19.04225000
 20
20.09918750
  0
VERTEX
  8
0
 62
7
 10
19.04317188
 20
20.12300000
  0
VERTEX
  8
0
 62
7
 10
19.04100000
 20
20.14700000
  0
VERTEX
  8
0
 62
7
 10
18.91300000
 20
20.24600000
  0
VERTEX
  8
0
 62
7
 10
18.91000000
 20
20.29950000
  0
VERTEX
  8
0
 62
7
 10
18.91300000
 20
20.35300000
  0
VERTEX
  8
0
 62
7
 10
18.92362500
 20
20.40762500
  0
VERTEX
  8
0
 62
7
 10
18.94100000
 20
20.46000000
  0
VERTEX
  8
0
 62
7
 10
18.91084570
 20
20.46497461
  0
VERTEX
  8
0
 62
7
 10
18.88051563
 20
20.46717188
  0
VERTEX
  8
0
 62
7
 10
18.85020898
 20
20.46662695
  0
VERTEX
  8
0
 62
7
 10
18.82012500
 20
20.46337500
  0
VERTEX
  8
0
 62
7
 10
18.79046289
 20
20.45745117
  0
VERTEX
  8
0
 62
7
 10
18.76142188
 20
20.44889063
  0
VERTEX
  8
0
 62
7
 10
18.73320117
 20
20.43772852
  0
VERTEX
  8
0
 62
7
 10
18.70600000
 20
20.42400000
  0
VERTEX
  8
0
 62
7
 10
18.67829688
 20
20.40635938
  0
VERTEX
  8
0
 62
7
 10
18.65237500
 20
20.38637500
  0
VERTEX
  8
0
 62
7
 10
18.62851563
 20
20.36395313
  0
VERTEX
  8
0
 62
7
 10
18.60700000
 20
20.33900000
  0
VERTEX
  8
0
 62
7
 10
18.59900000
 20
20.33900000
  0
VERTEX
  8
0
 62
7
 10
18.58831250
 20
20.34559375
  0
VERTEX
  8
0
 62
7
 10
18.58475000
 20
20.35650000
  0
VERTEX
  8
0
 62
7
 10
18.58831250
 20
20.36740625
  0
VERTEX
  8
0
 62
7
 10
18.59900000
 20
20.37400000
  0
VERTEX
  8
0
 62
7
 10
18.62700000
 20
20.45875000
  0
VERTEX
  8
0
 62
7
 10
18.64900000
 20
20.54500000
  0
VERTEX
  8
0
 62
7
 10
18.66100000
 20
20.60812500
  0
VERTEX
  8
0
 62
7
 10
18.67000000
 20
20.67200000
  0
SEQEND
  0
POLYLINE
  8
0
 62
7
 66
1
 70
1
  0
VERTEX
  8
0
 62
7
 10
18.24600000
 20
18.83700000
  0
VERTEX
  8
0
 62
7
 10
18.23800000
 20
18.79600000
  0
VERTEX
  8
0
 62
7
 10
18.22387500
 20
18.73846484
  0
VERTEX
  8
0
 62
7
 10
18.20637500
 20
18.68353125
  0
VERTEX
  8
0
 62
7
 10
18.18568750
 20
18.63108203
  0
VERTEX
  8
0
 62
7
 10
18.16200000
 20
18.58100000
  0
VERTEX
  8
0
 62
7
 10
18.13550000
 20
18.53316797
  0
VERTEX
  8
0
 62
7
 10
18.10637500
 20
18.48746875
  0
VERTEX
  8
0
 62
7
 10
18.07481250
 20
18.44378516
  0
VERTEX
  8
0
 62
7
 10
18.04100000
 20
18.40200000
  0
VERTEX
  8
0
 62
7
 10
18.06712500
 20
18.37950000
  0
VERTEX
  8
0
 62
7
 10
18.09400000
 20
18.36000000
  0
VERTEX
  8
0
 62
7
 10
18.12054492
 20
18.34427539
  0
VERTEX
  8
0
 62
7
 10
18.14829688
 20
18.33151563
  0
VERTEX
  8
0
 62
7
 10
18.17705664
 20
18.32159180
  0
VERTEX
  8
0
 62
7
 10
18.20662500
 20
18.31437500
  0
VERTEX
  8
0
 62
7
 10
18.23680273
 20
18.30973633
  0
VERTEX
  8
0
 62
7
 10
18.26739063
 20
18.30754688
  0
VERTEX
  8
0
 62
7
 10
18.29818945
 20
18.30767773
  0
VERTEX
  8
0
 62
7
 10
18.32900000
 20
18.31000000
  0
VERTEX
  8
0
 62
7
 10
18.36011133
 20
18.31471875
  0
VERTEX
  8
0
 62
7
 10
18.39095313
 20
18.32150000
  0
VERTEX
  8
0
 62
7
 10
18.42116211
 20
18.33053125
  0
VERTEX
  8
0
 62
7
 10
18.45037500
 20
18.34200000
  0
VERTEX
  8
0
 62
7
 10
18.47822852
 20
18.35609375
  0
VERTEX
  8
0
 62
7
 10
18.50435938
 20
18.37300000
  0
VERTEX
  8
0
 62
7
 10
18.52840430
 20
18.39290625
  0
VERTEX
  8
0
 62
7
 10
18.55000000
 20
18.41600000
  0
VERTEX
  8
0
 62
7
 10
18.56875000
 20
18.44196875
  0
VERTEX
  8
0
 62
7
 10
18.58450000
 20
18.47000000
  0
VERTEX
  8
0
 62
7
 10
18.59725000
 20
18.49953125
  0
VERTEX
  8
0
 62
7
 10
18.60700000
 20
18.53000000
  0
VERTEX
  8
0
 62
7
 10
18.61600000
 20
18.57500000
  0
VERTEX
  8
0
 62
7
 10
18.60100000
 20
18.58700000
  0
VERTEX
  8
0
 62
7
 10
18.57500000
 20
18.56400000
  0
VERTEX
  8
0
 62
7
 10
18.56034375
 20
18.55443750
  0
VERTEX
  8
0
 62
7
 10
18.54400000
 20
18.54975000
  0
VERTEX
  8
0
 62
7
 10
18.52690625
 20
18.54993750
  0
VERTEX
  8
0
 62
7
 10
18.51000000
 20
18.55500000
  0
VERTEX
  8
0
 62
7
 10
18.46485938
 20
18.57840625
  0
VERTEX
  8
0
 62
7
 10
18.42262500
 20
18.60650000
  0
VERTEX
  8
0
 62
7
 10
18.38357813
 20
18.63909375
  0
VERTEX
  8
0
 62
7
 10
18.34800000
 20
18.67600000
  0
VERTEX
  8
0
 62
7
 10
18.31831250
 20
18.71339063
  0
VERTEX
  8
0
 62
7
 10
18.29350000
 20
18.75312500
  0
VERTEX
  8
0
 62
7
 10
18.27318750
 20
18.79454688
  0
VERTEX
  8
0
 62
7
 10
18.25700000
 20
18.83700000
  0
VERTEX
  8
0
 62
7
 10
18.25000000
 20
18.83700000
  0
VERTEX
  8
0
 62
7
 10
18.24600000
 20
18.83700000
  0
SEQEND
  0
POLYLINE
  8
0
 62
7
 66
1
 70
1
  0
VERTEX
  8
0
 62
7
 10
16.86300000
 20
19.38400000
  0
VERTEX
  8
0
 62
7
 10
16.88475586
 20
19.36378516
  0
VERTEX
  8
0
 62
7
 10
16.91010938
 20
19.34659375
  0
VERTEX
  8
0
 62
7
 10
16.93768945
 20
19.33235547
  0
VERTEX
  8
0
 62
7
 10
16.96612500
 20
19.32100000
  0
VERTEX
  8
0
 62
7
 10
16.99404492
 20
19.31245703
  0
VERTEX
  8
0
 62
7
 10
17.02007813
 20
19.30665625
  0
VERTEX
  8
0
 62
7
 10
17.04285352
 20
19.30352734
  0
VERTEX
  8
0
 62
7
 10
17.06100000
 20
19.30300000
  0
VERTEX
  8
0
 62
7
 10
17.09746875
 20
19.33179688
  0
VERTEX
  8
0
 62
7
 10
17.14350000
 20
19.36987500
  0
VERTEX
  8
0
 62
7
 10
17.19628125
 20
19.41001563
  0
VERTEX
  8
0
 62
7
 10
17.25300000
 20
19.44500000
  0
VERTEX
  8
0
 62
7
 10
17.29200000
 20
19.46300000
  0
VERTEX
  8
0
 62
7
 10
17.25000000
 20
19.46800000
  0
VERTEX
  8
0
 62
7
 10
17.20998242
 20
19.47727539
  0
VERTEX
  8
0
 62
7
 10
17.17192188
 20
19.49139063
  0
VERTEX
  8
0
 62
7
 10
17.13618164
 20
19.51002930
  0
VERTEX
  8
0
 62
7
 10
17.10312500
 20
19.53287500
  0
VERTEX
  8
0
 62
7
 10
17.07311523
 20
19.55961133
  0
VERTEX
  8
0
 62
7
 10
17.04651563
 20
19.58992188
  0
VERTEX
  8
0
 62
7
 10
17.02368945
 20
19.62349023
  0
VERTEX
  8
0
 62
7
 10
17.00500000
 20
19.66000000
  0
VERTEX
  8
0
 62
7
 10
17.00028125
 20
19.67764063
  0
VERTEX
  8
0
 62
7
 10
17.00100000
 20
19.69537500
  0
VERTEX
  8
0
 62
7
 10
17.00696875
 20
19.71217188
  0
VERTEX
  8
0
 62
7
 10
17.01800000
 20
19.72700000
  0
VERTEX
  8
0
 62
7
 10
17.03900000
 20
19.74800000
  0
VERTEX
  8
0
 62
7
 10
16.99800000
 20
19.76000000
  0
VERTEX
  8
0
 62
7
 10
16.96400000
 20
19.76625000
  0
VERTEX
  8
0
 62
7
 10
16.93000000
 20
19.76800000
  0
VERTEX
  8
0
 62
7
 10
16.89050000
 20
19.76550000
  0
VERTEX
  8
0
 62
7
 10
16.85100000
 20
19.75700000
  0
VERTEX
  8
0
 62
7
 10
16.83064648
 20
19.73366406
  0
VERTEX
  8
0
 62
7
 10
16.81323438
 20
19.70756250
  0
VERTEX
  8
0
 62
7
 10
16.79898633
 20
19.67930469
  0
VERTEX
  8
0
 62
7
 10
16.78812500
 20
19.64950000
  0
VERTEX
  8
0
 62
7
 10
16.78087305
 20
19.61875781
  0
VERTEX
  8
0
 62
7
 10
16.77745313
 20
19.58768750
  0
VERTEX
  8
0
 62
7
 10
16.77808789
 20
19.55689844
  0
VERTEX
  8
0
 62
7
 10
16.78300000
 20
19.52700000
  0
VERTEX
  8
0
 62
7
 10
16.79507813
 20
19.48932813
  0
VERTEX
  8
0
 62
7
 10
16.81287500
 20
19.45287500
  0
VERTEX
  8
0
 62
7
 10
16.83573438
 20
19.41773438
  0
VERTEX
  8
0
 62
7
 10
16.86300000
 20
19.38400000
  0
SEQEND
  0
POLYLINE
  8
0
 62
7
 66
1
 70
1
  0
VERTEX
  8
0
 62
7
 10
16.60600000
 20
18.99200000
  0
VERTEX
  8
0
 62
7
 10
16.60400000
 20
19.02900000
  0
VERTEX
  8
0
 62
7
 10
16.60607813
 20
19.06898438
  0
VERTEX
  8
0
 62
7
 10
16.61237500
 20
19.10887500
  0
VERTEX
  8
0
 62
7
 10
16.62298438
 20
19.14782813
  0
VERTEX
  8
0
 62
7
 10
16.63800000
 20
19.18500000
  0
VERTEX
  8
0
 62
7
 10
16.65009570
 20
19.20645313
  0
VERTEX
  8
0
 62
7
 10
16.66520313
 20
19.22837500
  0
VERTEX
  8
0
 62
7
 10
16.68305273
 20
19.25010938
  0
VERTEX
  8
0
 62
7
 10
16.70337500
 20
19.27100000
  0
VERTEX
  8
0
 62
7
 10
16.72590039
 20
19.29039063
  0
VERTEX
  8
0
 62
7
 10
16.75035938
 20
19.30762500
  0
VERTEX
  8
0
 62
7
 10
16.77648242
 20
19.32204688
  0
VERTEX
  8
0
 62
7
 10
16.80400000
 20
19.33300000
  0
VERTEX
  8
0
 62
7
 10
16.82300000
 20
19.33900000
  0
VERTEX
  8
0
 62
7
 10
16.81800000
 20
19.34400000
  0
VERTEX
  8
0
 62
7
 10
16.78743750
 20
19.38221875
  0
VERTEX
  8
0
 62
7
 10
16.76100000
 20
19.42325000
  0
VERTEX
  8
0
 62
7
 10
16.73981250
 20
19.46690625
  0
VERTEX
  8
0
 62
7
 10
16.72500000
 20
19.51300000
  0
VERTEX
  8
0
 62
7
 10
16.71900000
 20
19.54300000
  0
VERTEX
  8
0
 62
7
 10
16.68650000
 20
19.54000000
  0
VERTEX
  8
0
 62
7
 10
16.65400000
 20
19.53400000
  0
VERTEX
  8
0
 62
7
 10
16.62370605
 20
19.52493213
  0
VERTEX
  8
0
 62
7
 10
16.59516406
 20
19.51287891
  0
VERTEX
  8
0
 62
7
 10
16.56850879
 20
19.49806592
  0
VERTEX
  8
0
 62
7
 10
16.54387500
 20
19.48071875
  0
VERTEX
  8
0
 62
7
 10
16.52139746
 20
19.46106299
  0
VERTEX
  8
0
 62
7
 10
16.50121094
 20
19.43932422
  0
VERTEX
  8
0
 62
7
 10
16.48345020
 20
19.41572803
  0
VERTEX
  8
0
 62
7
 10
16.46825000
 20
19.39050000
  0
VERTEX
  8
0
 62
7
 10
16.45574512
 20
19.36386572
  0
VERTEX
  8
0
 62
7
 10
16.44607031
 20
19.33605078
  0
VERTEX
  8
0
 62
7
 10
16.43936035
 20
19.30728076
  0
VERTEX
  8
0
 62
7
 10
16.43575000
 20
19.27778125
  0
VERTEX
  8
0
 62
7
 10
16.43537402
 20
19.24777783
  0
VERTEX
  8
0
 62
7
 10
16.43836719
 20
19.21749609
  0
VERTEX
  8
0
 62
7
 10
16.44486426
 20
19.18716162
  0
VERTEX
  8
0
 62
7
 10
16.45500000
 20
19.15700000
  0
VERTEX
  8
0
 62
7
 10
16.46702539
 20
19.13034570
  0
VERTEX
  8
0
 62
7
 10
16.48126563
 20
19.10520313
  0
VERTEX
  8
0
 62
7
 10
16.49759180
 20
19.08167773
  0
VERTEX
  8
0
 62
7
 10
16.51587500
 20
19.05987500
  0
VERTEX
  8
0
 62
7
 10
16.53598633
 20
19.03990039
  0
VERTEX
  8
0
 62
7
 10
16.55779688
 20
19.02185938
  0
VERTEX
  8
0
 62
7
 10
16.58117773
 20
19.00585742
  0
VERTEX
  8
0
 62
7
 10
16.60600000
 20
18.99200000
  0
SEQEND
  0
POLYLINE
  8
0
 62
7
 66
1
 70
1
  0
VERTEX
  8
0
 62
7
 10
16.90200000
 20
18.69200000
  0
VERTEX
  8
0
 62
7
 10
16.85657813
 20
18.69968750
  0
VERTEX
  8
0
 62
7
 10
16.81237500
 20
18.71375000
  0
VERTEX
  8
0
 62
7
 10
16.77023438
 20
18.73418750
  0
VERTEX
  8
0
 62
7
 10
16.73100000
 20
18.76100000
  0
VERTEX
  8
0
 62
7
 10
16.70195313
 20
18.78664063
  0
VERTEX
  8
0
 62
7
 10
16.67637500
 20
18.81537500
  0
VERTEX
  8
0
 62
7
 10
16.65435938
 20
18.84692188
  0
VERTEX
  8
0
 62
7
 10
16.63600000
 20
18.88100000
  0
VERTEX
  8
0
 62
7
 10
16.59000000
 20
18.87200000
  0
VERTEX
  8
0
 62
7
 10
16.55382813
 20
18.86009375
  0
VERTEX
  8
0
 62
7
 10
16.51962500
 20
18.84350000
  0
VERTEX
  8
0
 62
7
 10
16.48860938
 20
18.82165625
  0
VERTEX
  8
0
 62
7
 10
16.46200000
 20
18.79400000
  0
VERTEX
  8
0
 62
7
 10
16.44529688
 20
18.76803125
  0
VERTEX
  8
0
 62
7
 10
16.43262500
 20
18.74000000
  0
VERTEX
  8
0
 62
7
 10
16.42389063
 20
18.71046875
  0
VERTEX
  8
0
 62
7
 10
16.41900000
 20
18.68000000
  0
VERTEX
  8
0
 62
7
 10
16.41789453
 20
18.65461914
  0
VERTEX
  8
0
 62
7
 10
16.41971875
 20
18.62957813
  0
VERTEX
  8
0
 62
7
 10
16.42430859
 20
18.60502930
  0
VERTEX
  8
0
 62
7
 10
16.43150000
 20
18.58112500
  0
VERTEX
  8
0
 62
7
 10
16.44112891
 20
18.55801758
  0
VERTEX
  8
0
 62
7
 10
16.45303125
 20
18.53585938
  0
VERTEX
  8
0
 62
7
 10
16.46704297
 20
18.51480273
  0
VERTEX
  8
0
 62
7
 10
16.48300000
 20
18.49500000
  0
VERTEX
  8
0
 62
7
 10
16.49948047
 20
18.47781055
  0
VERTEX
  8
0
 62
7
 10
16.51734375
 20
18.46229688
  0
VERTEX
  8
0
 62
7
 10
16.53647266
 20
18.44854102
  0
VERTEX
  8
0
 62
7
 10
16.55675000
 20
18.43662500
  0
VERTEX
  8
0
 62
7
 10
16.57805859
 20
18.42663086
  0
VERTEX
  8
0
 62
7
 10
16.60028125
 20
18.41864063
  0
VERTEX
  8
0
 62
7
 10
16.62330078
 20
18.41273633
  0
VERTEX
  8
0
 62
7
 10
16.64700000
 20
18.40900000
  0
VERTEX
  8
0
 62
7
 10
16.66964648
 20
18.40719727
  0
VERTEX
  8
0
 62
7
 10
16.69242188
 20
18.40714063
  0
VERTEX
  8
0
 62
7
 10
16.71508008
 20
18.40898242
  0
VERTEX
  8
0
 62
7
 10
16.73737500
 20
18.41287500
  0
VERTEX
  8
0
 62
7
 10
16.75906055
 20
18.41897070
  0
VERTEX
  8
0
 62
7
 10
16.77989063
 20
18.42742188
  0
VERTEX
  8
0
 62
7
 10
16.79961914
 20
18.43838086
  0
VERTEX
  8
0
 62
7
 10
16.81800000
 20
18.45200000
  0
VERTEX
  8
0
 62
7
 10
16.84357813
 20
18.47889063
  0
VERTEX
  8
0
 62
7
 10
16.86287500
 20
18.51037500
  0
VERTEX
  8
0
 62
7
 10
16.87748438
 20
18.54467188
  0
VERTEX
  8
0
 62
7
 10
16.88900000
 20
18.58000000
  0
VERTEX
  8
0
 62
7
 10
16.89595313
 20
18.60790625
  0
VERTEX
  8
0
 62
7
 10
16.90037500
 20
18.63600000
  0
VERTEX
  8
0
 62
7
 10
16.90235938
 20
18.66409375
  0
VERTEX
  8
0
 62
7
 10
16.90200000
 20
18.69200000
  0
SEQEND
  0
POLYLINE
  8
0
 62
7
 66
1
 70
1
  0
VERTEX
  8
0
 62
7
 10
16.82200000
 20
19.27600000
  0
VERTEX
  8
0
 62
7
 10
16.80123828
 20
19.26765039
  0
VERTEX
  8
0
 62
7
 10
16.78115625
 20
19.25645313
  0
VERTEX
  8
0
 62
7
 10
16.76205859
 20
19.24293555
  0
VERTEX
  8
0
 62
7
 10
16.74425000
 20
19.22762500
  0
VERTEX
  8
0
 62
7
 10
16.72803516
 20
19.21104883
  0
VERTEX
  8
0
 62
7
 10
16.71371875
 20
19.19373438
  0
VERTEX
  8
0
 62
7
 10
16.70160547
 20
19.17620898
  0
VERTEX
  8
0
 62
7
 10
16.69200000
 20
19.15900000
  0
VERTEX
  8
0
 62
7
 10
16.68280859
 20
19.13767578
  0
VERTEX
  8
0
 62
7
 10
16.67546875
 20
19.11515625
  0
VERTEX
  8
0
 62
7
 10
16.66995703
 20
19.09174609
  0
VERTEX
  8
0
 62
7
 10
16.66625000
 20
19.06775000
  0
VERTEX
  8
0
 62
7
 10
16.66432422
 20
19.04347266
  0
VERTEX
  8
0
 62
7
 10
16.66415625
 20
19.01921875
  0
VERTEX
  8
0
 62
7
 10
16.66572266
 20
18.99529297
  0
VERTEX
  8
0
 62
7
 10
16.66900000
 20
18.97200000
  0
VERTEX
  8
0
 62
7
 10
16.67456641
 20
18.94797266
  0
VERTEX
  8
0
 62
7
 10
16.68221875
 20
18.92471875
  0
VERTEX
  8
0
 62
7
 10
16.69188672
 20
18.90235547
  0
VERTEX
  8
0
 62
7
 10
16.70350000
 20
18.88100000
  0
VERTEX
  8
0
 62
7
 10
16.71698828
 20
18.86076953
  0
VERTEX
  8
0
 62
7
 10
16.73228125
 20
18.84178125
  0
VERTEX
  8
0
 62
7
 10
16.74930859
 20
18.82415234
  0
VERTEX
  8
0
 62
7
 10
16.76800000
 20
18.80800000
  0
VERTEX
  8
0
 62
7
 10
16.80257813
 20
18.78475000
  0
VERTEX
  8
0
 62
7
 10
16.83987500
 20
18.76750000
  0
VERTEX
  8
0
 62
7
 10
16.87923438
 20
18.75625000
  0
VERTEX
  8
0
 62
7
 10
16.92000000
 20
18.75100000
  0
VERTEX
  8
0
 62
7
 10
16.92448438
 20
18.79128125
  0
VERTEX
  8
0
 62
7
 10
16.93187500
 20
18.83100000
  0
VERTEX
  8
0
 62
7
 10
16.94207813
 20
18.86996875
  0
VERTEX
  8
0
 62
7
 10
16.95500000
 20
18.90800000
  0
VERTEX
  8
0
 62
7
 10
16.97300000
 20
18.94862500
  0
VERTEX
  8
0
 62
7
 10
16.99400000
 20
18.98775000
  0
VERTEX
  8
0
 62
7
 10
17.01800000
 20
19.02500000
  0
VERTEX
  8
0
 62
7
 10
17.04500000
 20
19.06000000
  0
VERTEX
  8
0
 62
7
 10
16.98600000
 20
19.13300000
  0
VERTEX
  8
0
 62
7
 10
16.97625000
 20
19.15001563
  0
VERTEX
  8
0
 62
7
 10
16.97250000
 20
19.16862500
  0
VERTEX
  8
0
 62
7
 10
16.97475000
 20
19.18742188
  0
VERTEX
  8
0
 62
7
 10
16.98300000
 20
19.20500000
  0
VERTEX
  8
0
 62
7
 10
17.03300000
 20
19.27000000
  0
VERTEX
  8
0
 62
7
 10
17.00264648
 20
19.28186523
  0
VERTEX
  8
0
 62
7
 10
16.97317188
 20
19.28935938
  0
VERTEX
  8
0
 62
7
 10
16.94470508
 20
19.29308008
  0
VERTEX
  8
0
 62
7
 10
16.91737500
 20
19.29362500
  0
VERTEX
  8
0
 62
7
 10
16.89131055
 20
19.29159180
  0
VERTEX
  8
0
 62
7
 10
16.86664063
 20
19.28757813
  0
VERTEX
  8
0
 62
7
 10
16.84349414
 20
19.28218164
  0
VERTEX
  8
0
 62
7
 10
16.82200000
 20
19.27600000
  0
SEQEND
  0
POLYLINE
  8
0
 62
7
 66
1
 70
1
  0
VERTEX
  8
0
 62
7
 10
16.30100000
 20
18.81600000
  0
VERTEX
  8
0
 62
7
 10
16.27601563
 20
18.83520313
  0
VERTEX
  8
0
 62
7
 10
16.24812500
 20
18.84962500
  0
VERTEX
  8
0
 62
7
 10
16.21817188
 20
18.85973438
  0
VERTEX
  8
0
 62
7
 10
16.18700000
 20
18.86600000
  0
VERTEX
  8
0
 62
7
 10
16.16327148
 20
18.86866406
  0
VERTEX
  8
0
 62
7
 10
16.13948438
 20
18.86912500
  0
VERTEX
  8
0
 62
7
 10
16.11586133
 20
18.86733594
  0
VERTEX
  8
0
 62
7
 10
16.09262500
 20
18.86325000
  0
VERTEX
  8
0
 62
7
 10
16.06999805
 20
18.85682031
  0
VERTEX
  8
0
 62
7
 10
16.04820313
 20
18.84800000
  0
VERTEX
  8
0
 62
7
 10
16.02746289
 20
18.83674219
  0
VERTEX
  8
0
 62
7
 10
16.00800000
 20
18.82300000
  0
VERTEX
  8
0
 62
7
 10
15.98157813
 20
18.79681250
  0
VERTEX
  8
0
 62
7
 10
15.96162500
 20
18.76725000
  0
VERTEX
  8
0
 62
7
 10
15.94710938
 20
18.73581250
  0
VERTEX
  8
0
 62
7
 10
15.93700000
 20
18.70400000
  0
VERTEX
  8
0
 62
7
 10
15.93092578
 20
18.67630664
  0
VERTEX
  8
0
 62
7
 10
15.92703125
 20
18.64820313
  0
VERTEX
  8
0
 62
7
 10
15.92543359
 20
18.62002930
  0
VERTEX
  8
0
 62
7
 10
15.92625000
 20
18.59212500
  0
VERTEX
  8
0
 62
7
 10
15.92959766
 20
18.56483008
  0
VERTEX
  8
0
 62
7
 10
15.93559375
 20
18.53848438
  0
VERTEX
  8
0
 62
7
 10
15.94435547
 20
18.51342773
  0
VERTEX
  8
0
 62
7
 10
15.95600000
 20
18.49000000
  0
VERTEX
  8
0
 62
7
 10
15.97892188
 20
18.45804688
  0
VERTEX
  8
0
 62
7
 10
16.00662500
 20
18.43087500
  0
VERTEX
  8
0
 62
7
 10
16.03826563
 20
18.40801563
  0
VERTEX
  8
0
 62
7
 10
16.07300000
 20
18.38900000
  0
VERTEX
  8
0
 62
7
 10
16.10700000
 20
18.37531250
  0
VERTEX
  8
0
 62
7
 10
16.14250000
 20
18.36650000
  0
VERTEX
  8
0
 62
7
 10
16.17875000
 20
18.36368750
  0
VERTEX
  8
0
 62
7
 10
16.21500000
 20
18.36800000
  0
VERTEX
  8
0
 62
7
 10
16.23448633
 20
18.37355273
  0
VERTEX
  8
0
 62
7
 10
16.25314063
 20
18.38110938
  0
VERTEX
  8
0
 62
7
 10
16.27088086
 20
18.39051758
  0
VERTEX
  8
0
 62
7
 10
16.28762500
 20
18.40162500
  0
VERTEX
  8
0
 62
7
 10
16.30329102
 20
18.41427930
  0
VERTEX
  8
0
 62
7
 10
16.31779688
 20
18.42832813
  0
VERTEX
  8
0
 62
7
 10
16.33106055
 20
18.44361914
  0
VERTEX
  8
0
 62
7
 10
16.34300000
 20
18.46000000
  0
VERTEX
  8
0
 62
7
 10
16.35597559
 20
18.48159814
  0
VERTEX
  8
0
 62
7
 10
16.36678906
 20
18.50392578
  0
VERTEX
  8
0
 62
7
 10
16.37545801
 20
18.52684521
  0
VERTEX
  8
0
 62
7
 10
16.38200000
 20
18.55021875
  0
VERTEX
  8
0
 62
7
 10
16.38643262
 20
18.57390869
  0
VERTEX
  8
0
 62
7
 10
16.38877344
 20
18.59777734
  0
VERTEX
  8
0
 62
7
 10
16.38904004
 20
18.62168701
  0
VERTEX
  8
0
 62
7
 10
16.38725000
 20
18.64550000
  0
VERTEX
  8
0
 62
7
 10
16.38342090
 20
18.66907861
  0
VERTEX
  8
0
 62
7
 10
16.37757031
 20
18.69228516
  0
VERTEX
  8
0
 62
7
 10
16.36971582
 20
18.71498193
  0
VERTEX
  8
0
 62
7
 10
16.35987500
 20
18.73703125
  0
VERTEX
  8
0
 62
7
 10
16.34806543
 20
18.75829541
  0
VERTEX
  8
0
 62
7
 10
16.33430469
 20
18.77863672
  0
VERTEX
  8
0
 62
7
 10
16.31861035
 20
18.79791748
  0
VERTEX
  8
0
 62
7
 10
16.30100000
 20
18.81600000
  0
SEQEND
  0
POLYLINE
  8
0
 62
7
 66
1
 70
1
  0
VERTEX
  8
0
 62
7
 10
18.49500000
 20
20.08000000
  0
VERTEX
  8
0
 62
7
 10
18.47717188
 20
20.03501758
  0
VERTEX
  8
0
 62
7
 10
18.46543750
 20
19.98882813
  0
VERTEX
  8
0
 62
7
 10
18.45942188
 20
19.94181836
  0
VERTEX
  8
0
 62
7
 10
18.45875000
 20
19.89437500
  0
VERTEX
  8
0
 62
7
 10
18.46304688
 20
19.84688477
  0
VERTEX
  8
0
 62
7
 10
18.47193750
 20
19.79973438
  0
VERTEX
  8
0
 62
7
 10
18.48504688
 20
19.75331055
  0
VERTEX
  8
0
 62
7
 10
18.50200000
 20
19.70800000
  0
VERTEX
  8
0
 62
7
 10
18.51690625
 20
19.67637500
  0
VERTEX
  8
0
 62
7
 10
18.53425000
 20
19.64550000
  0
VERTEX
  8
0
 62
7
 10
18.55346875
 20
19.61462500
  0
VERTEX
  8
0
 62
7
 10
18.57400000
 20
19.58300000
  0
VERTEX
  8
0
 62
7
 10
18.62100000
 20
19.50600000
  0
VERTEX
  8
0
 62
7
 10
18.65100000
 20
19.45400000
  0
VERTEX
  8
0
 62
7
 10
18.67887500
 20
19.40266406
  0
VERTEX
  8
0
 62
7
 10
18.70393750
 20
19.34987500
  0
VERTEX
  8
0
 62
7
 10
18.72609375
 20
19.29558594
  0
VERTEX
  8
0
 62
7
 10
18.74525000
 20
19.23975000
  0
VERTEX
  8
0
 62
7
 10
18.76131250
 20
19.18232031
  0
VERTEX
  8
0
 62
7
 10
18.77418750
 20
19.12325000
  0
VERTEX
  8
0
 62
7
 10
18.78378125
 20
19.06249219
  0
VERTEX
  8
0
 62
7
 10
18.79000000
 20
19.00000000
  0
VERTEX
  8
0
 62
7
 10
18.77100000
 20
18.99500000
  0
VERTEX
  8
0
 62
7
 10
18.75530859
 20
19.05033789
  0
VERTEX
  8
0
 62
7
 10
18.73753125
 20
19.10470313
  0
VERTEX
  8
0
 62
7
 10
18.71773828
 20
19.15824805
  0
VERTEX
  8
0
 62
7
 10
18.69600000
 20
19.21112500
  0
VERTEX
  8
0
 62
7
 10
18.67238672
 20
19.26348633
  0
VERTEX
  8
0
 62
7
 10
18.64696875
 20
19.31548438
  0
VERTEX
  8
0
 62
7
 10
18.61981641
 20
19.36727148
  0
VERTEX
  8
0
 62
7
 10
18.59100000
 20
19.41900000
  0
VERTEX
  8
0
 62
7
 10
18.56100000
 20
19.47200000
  0
VERTEX
  8
0
 62
7
 10
18.51500000
 20
19.54500000
  0
VERTEX
  8
0
 62
7
 10
18.49453125
 20
19.57709375
  0
VERTEX
  8
0
 62
7
 10
18.47425000
 20
19.61050000
  0
VERTEX
  8
0
 62
7
 10
18.45509375
 20
19.64540625
  0
VERTEX
  8
0
 62
7
 10
18.43800000
 20
19.68200000
  0
VERTEX
  8
0
 62
7
 10
18.42112500
 20
19.72510938
  0
VERTEX
  8
0
 62
7
 10
18.40650000
 20
19.76887500
  0
VERTEX
  8
0
 62
7
 10
18.39412500
 20
19.81320313
  0
VERTEX
  8
0
 62
7
 10
18.38400000
 20
19.85800000
  0
VERTEX
  8
0
 62
7
 10
18.33620313
 20
19.77417188
  0
VERTEX
  8
0
 62
7
 10
18.28587500
 20
19.69212500
  0
VERTEX
  8
0
 62
7
 10
18.23310938
 20
19.61176563
  0
VERTEX
  8
0
 62
7
 10
18.17800000
 20
19.53300000
  0
VERTEX
  8
0
 62
7
 10
18.10237500
 20
19.43362500
  0
VERTEX
  8
0
 62
7
 10
18.02300000
 20
19.33800000
  0
VERTEX
  8
0
 62
7
 10
17.93400000
 20
19.23200000
  0
VERTEX
  8
0
 62
7
 10
17.53900000
 20
18.73500000
  0
VERTEX
  8
0
 62
7
 10
17.52200000
 20
18.74800000
  0
VERTEX
  8
0
 62
7
 10
17.59945313
 20
18.88056250
  0
VERTEX
  8
0
 62
7
 10
17.68712500
 20
19.01575000
  0
VERTEX
  8
0
 62
7
 10
17.78173438
 20
19.14906250
  0
VERTEX
  8
0
 62
7
 10
17.88000000
 20
19.27600000
  0
VERTEX
  8
0
 62
7
 10
17.96900000
 20
19.38400000
  0
VERTEX
  8
0
 62
7
 10
18.04812500
 20
19.47775000
  0
VERTEX
  8
0
 62
7
 10
18.12200000
 20
19.57300000
  0
VERTEX
  8
0
 62
7
 10
18.18198438
 20
19.65957813
  0
VERTEX
  8
0
 62
7
 10
18.23887500
 20
19.74812500
  0
VERTEX
  8
0
 62
7
 10
18.29257813
 20
19.83835938
  0
VERTEX
  8
0
 62
7
 10
18.34300000
 20
19.93000000
  0
VERTEX
  8
0
 62
7
 10
18.30723438
 20
19.91820313
  0
VERTEX
  8
0
 62
7
 10
18.27062500
 20
19.90837500
  0
VERTEX
  8
0
 62
7
 10
18.23345313
 20
19.90060938
  0
VERTEX
  8
0
 62
7
 10
18.19600000
 20
19.89500000
  0
VERTEX
  8
0
 62
7
 10
18.14700000
 20
19.89200000
  0
VERTEX
  8
0
 62
7
 10
18.08775000
 20
19.89512500
  0
VERTEX
  8
0
 62
7
 10
18.03000000
 20
19.90200000
  0
VERTEX
  8
0
 62
7
 10
17.96800000
 20
19.90900000
  0
VERTEX
  8
0
 62
7
 10
17.83500000
 20
19.92600000
  0
VERTEX
  8
0
 62
7
 10
17.72829688
 20
19.94292188
  0
VERTEX
  8
0
 62
7
 10
17.62337500
 20
19.95937500
  0
VERTEX
  8
0
 62
7
 10
17.52126563
 20
19.97339063
  0
VERTEX
  8
0
 62
7
 10
17.42300000
 20
19.98300000
  0
VERTEX
  8
0
 62
7
 10
17.42000000
 20
20.00800000
  0
VERTEX
  8
0
 62
7
 10
17.52676563
 20
20.01482813
  0
VERTEX
  8
0
 62
7
 10
17.63437500
 20
20.01462500
  0
VERTEX
  8
0
 62
7
 10
17.74104688
 20
20.00785938
  0
VERTEX
  8
0
 62
7
 10
17.84500000
 20
19.99500000
  0
VERTEX
  8
0
 62
7
 10
17.90987500
 20
19.98587500
  0
VERTEX
  8
0
 62
7
 10
17.97400000
 20
19.97900000
  0
VERTEX
  8
0
 62
7
 10
18.03900000
 20
19.97200000
  0
VERTEX
  8
0
 62
7
 10
18.09412500
 20
19.96512500
  0
VERTEX
  8
0
 62
7
 10
18.14700000
 20
19.96200000
  0
VERTEX
  8
0
 62
7
 10
18.18963672
 20
19.96380273
  0
VERTEX
  8
0
 62
7
 10
18.23215625
 20
19.96948438
  0
VERTEX
  8
0
 62
7
 10
18.27359766
 20
19.97945508
  0
VERTEX
  8
0
 62
7
 10
18.31300000
 20
19.99412500
  0
VERTEX
  8
0
 62
7
 10
18.34940234
 20
20.01390430
  0
VERTEX
  8
0
 62
7
 10
18.38184375
 20
20.03920313
  0
VERTEX
  8
0
 62
7
 10
18.40936328
 20
20.07043164
  0
VERTEX
  8
0
 62
7
 10
18.43100000
 20
20.10800000
  0
VERTEX
  8
0
 62
7
 10
18.43917188
 20
20.11953125
  0
VERTEX
  8
0
 62
7
 10
18.45062500
 20
20.12675000
  0
VERTEX
  8
0
 62
7
 10
18.46376563
 20
20.12909375
  0
VERTEX
  8
0
 62
7
 10
18.47700000
 20
20.12600000
  0
VERTEX
  8
0
 62
7
 10
18.48853125
 20
20.11782813
  0
VERTEX
  8
0
 62
7
 10
18.49575000
 20
20.10637500
  0
VERTEX
  8
0
 62
7
 10
18.49809375
 20
20.09323438
  0
VERTEX
  8
0
 62
7
 10
18.49500000
 20
20.08000000
  0
SEQEND
  0
POLYLINE
  8
0
 62
7
 66
1
 70
1
  0
VERTEX
  8
0
 62
7
 10
17.12700000
 20
21.06000000
  0
VERTEX
  8
0
 62
7
 10
17.12700000
 20
21.04500000
  0
VERTEX
  8
0
 62
7
 10
17.13014063
 20
21.00225000
  0
VERTEX
  8
0
 62
7
 10
17.13862500
 20
20.96025000
  0
VERTEX
  8
0
 62
7
 10
17.15329688
 20
20.92012500
  0
VERTEX
  8
0
 62
7
 10
17.17500000
 20
20.88300000
  0
VERTEX
  8
0
 62
7
 10
17.19721875
 20
20.85620313
  0
VERTEX
  8
0
 62
7
 10
17.22300000
 20
20.83287500
  0
VERTEX
  8
0
 62
7
 10
17.25178125
 20
20.81310938
  0
VERTEX
  8
0
 62
7
 10
17.28300000
 20
20.79700000
  0
VERTEX
  8
0
 62
7
 10
17.30926172
 20
20.78711523
  0
VERTEX
  8
0
 62
7
 10
17.33615625
 20
20.77998438
  0
VERTEX
  8
0
 62
7
 10
17.36347266
 20
20.77564258
  0
VERTEX
  8
0
 62
7
 10
17.39100000
 20
20.77412500
  0
VERTEX
  8
0
 62
7
 10
17.41852734
 20
20.77546680
  0
VERTEX
  8
0
 62
7
 10
17.44584375
 20
20.77970313
  0
VERTEX
  8
0
 62
7
 10
17.47273828
 20
20.78686914
  0
VERTEX
  8
0
 62
7
 10
17.49900000
 20
20.79700000
  0
VERTEX
  8
0
 62
7
 10
17.52104102
 20
20.80863477
  0
VERTEX
  8
0
 62
7
 10
17.54145313
 20
20.82239063
  0
VERTEX
  8
0
 62
7
 10
17.56029492
 20
20.83804492
  0
VERTEX
  8
0
 62
7
 10
17.57762500
 20
20.85537500
  0
VERTEX
  8
0
 62
7
 10
17.59350195
 20
20.87415820
  0
VERTEX
  8
0
 62
7
 10
17.60798438
 20
20.89417188
  0
VERTEX
  8
0
 62
7
 10
17.62113086
 20
20.91519336
  0
VERTEX
  8
0
 62
7
 10
17.63300000
 20
20.93700000
  0
VERTEX
  8
0
 62
7
 10
17.64562500
 20
20.96612500
  0
VERTEX
  8
0
 62
7
 10
17.65600000
 20
20.99600000
  0
VERTEX
  8
0
 62
7
 10
17.61757813
 20
21.04435938
  0
VERTEX
  8
0
 62
7
 10
17.58187500
 20
21.09487500
  0
VERTEX
  8
0
 62
7
 10
17.54898438
 20
21.14745313
  0
VERTEX
  8
0
 62
7
 10
17.51900000
 20
21.20200000
  0
VERTEX
  8
0
 62
7
 10
17.50600000
 20
21.23000000
  0
VERTEX
  8
0
 62
7
 10
17.50300000
 20
21.22300000
  0
VERTEX
  8
0
 62
7
 10
17.49059570
 20
21.19579102
  0
VERTEX
  8
0
 62
7
 10
17.47595313
 20
21.16976563
  0
VERTEX
  8
0
 62
7
 10
17.45917773
 20
21.14507617
  0
VERTEX
  8
0
 62
7
 10
17.44037500
 20
21.12187500
  0
VERTEX
  8
0
 62
7
 10
17.41965039
 20
21.10031445
  0
VERTEX
  8
0
 62
7
 10
17.39710938
 20
21.08054688
  0
VERTEX
  8
0
 62
7
 10
17.37285742
 20
21.06272461
  0
VERTEX
  8
0
 62
7
 10
17.34700000
 20
21.04700000
  0
VERTEX
  8
0
 62
7
 10
17.32960938
 20
21.04064063
  0
VERTEX
  8
0
 62
7
 10
17.31137500
 20
21.03962500
  0
VERTEX
  8
0
 62
7
 10
17.29370313
 20
21.04404688
  0
VERTEX
  8
0
 62
7
 10
17.27800000
 20
21.05400000
  0
VERTEX
  8
0
 62
7
 10
17.20900000
 20
21.11500000
  0
VERTEX
  8
0
 62
7
 10
17.16687500
 20
21.08900000
  0
VERTEX
  8
0
 62
7
 10
17.12700000
 20
21.06000000
  0
SEQEND
  0
POLYLINE
  8
0
 62
7
 66
1
 70
1
  0
VERTEX
  8
0
 62
7
 10
17.20400000
 20
20.52200000
  0
VERTEX
  8
0
 62
7
 10
17.19062500
 20
20.55962500
  0
VERTEX
  8
0
 62
7
 10
17.18400000
 20
20.60100000
  0
VERTEX
  8
0
 62
7
 10
17.18400000
 20
20.61500000
  0
VERTEX
  8
0
 62
7
 10
17.18729688
 20
20.65425000
  0
VERTEX
  8
0
 62
7
 10
17.19687500
 20
20.69200000
  0
VERTEX
  8
0
 62
7
 10
17.21226563
 20
20.72750000
  0
VERTEX
  8
0
 62
7
 10
17.23300000
 20
20.76000000
  0
VERTEX
  8
0
 62
7
 10
17.23100000
 20
20.76200000
  0
VERTEX
  8
0
 62
7
 10
17.20423438
 20
20.78265625
  0
VERTEX
  8
0
 62
7
 10
17.17962500
 20
20.80575000
  0
VERTEX
  8
0
 62
7
 10
17.15745313
 20
20.83146875
  0
VERTEX
  8
0
 62
7
 10
17.13800000
 20
20.86000000
  0
VERTEX
  8
0
 62
7
 10
17.13300000
 20
20.81800000
  0
VERTEX
  8
0
 62
7
 10
17.12525000
 20
20.76165625
  0
VERTEX
  8
0
 62
7
 10
17.11600000
 20
20.70550000
  0
VERTEX
  8
0
 62
7
 10
17.10375000
 20
20.65009375
  0
VERTEX
  8
0
 62
7
 10
17.08700000
 20
20.59600000
  0
VERTEX
  8
0
 62
7
 10
17.06942188
 20
20.54804688
  0
VERTEX
  8
0
 62
7
 10
17.04987500
 20
20.50112500
  0
VERTEX
  8
0
 62
7
 10
17.02639063
 20
20.45664063
  0
VERTEX
  8
0
 62
7
 10
16.99700000
 20
20.41600000
  0
VERTEX
  8
0
 62
7
 10
16.97531250
 20
20.39059375
  0
VERTEX
  8
0
 62
7
 10
16.95175000
 20
20.36650000
  0
VERTEX
  8
0
 62
7
 10
16.92556250
 20
20.34540625
  0
VERTEX
  8
0
 62
7
 10
16.89600000
 20
20.32900000
  0
VERTEX
  8
0
 62
7
 10
16.86306445
 20
20.31864648
  0
VERTEX
  8
0
 62
7
 10
16.82939063
 20
20.31385938
  0
VERTEX
  8
0
 62
7
 10
16.79592773
 20
20.31467383
  0
VERTEX
  8
0
 62
7
 10
16.76362500
 20
20.32112500
  0
VERTEX
  8
0
 62
7
 10
16.73343164
 20
20.33324805
  0
VERTEX
  8
0
 62
7
 10
16.70629688
 20
20.35107813
  0
VERTEX
  8
0
 62
7
 10
16.68316992
 20
20.37465039
  0
VERTEX
  8
0
 62
7
 10
16.66500000
 20
20.40400000
  0
VERTEX
  8
0
 62
7
 10
16.65617773
 20
20.42587695
  0
VERTEX
  8
0
 62
7
 10
16.65067188
 20
20.44851563
  0
VERTEX
  8
0
 62
7
 10
16.64842383
 20
20.47155273
  0
VERTEX
  8
0
 62
7
 10
16.64937500
 20
20.49462500
  0
VERTEX
  8
0
 62
7
 10
16.65346680
 20
20.51736914
  0
VERTEX
  8
0
 62
7
 10
16.66064063
 20
20.53942188
  0
VERTEX
  8
0
 62
7
 10
16.67083789
 20
20.56041992
  0
VERTEX
  8
0
 62
7
 10
16.68400000
 20
20.58000000
  0
VERTEX
  8
0
 62
7
 10
16.65610938
 20
20.57687500
  0
VERTEX
  8
0
 62
7
 10
16.62962500
 20
20.56925000
  0
VERTEX
  8
0
 62
7
 10
16.60482813
 20
20.55750000
  0
VERTEX
  8
0
 62
7
 10
16.58200000
 20
20.54200000
  0
VERTEX
  8
0
 62
7
 10
16.56675000
 20
20.52751563
  0
VERTEX
  8
0
 62
7
 10
16.55393750
 20
20.51125000
  0
VERTEX
  8
0
 62
7
 10
16.54346875
 20
20.49348438
  0
VERTEX
  8
0
 62
7
 10
16.53525000
 20
20.47450000
  0
VERTEX
  8
0
 62
7
 10
16.52918750
 20
20.45457813
  0
VERTEX
  8
0
 62
7
 10
16.52518750
 20
20.43400000
  0
VERTEX
  8
0
 62
7
 10
16.52315625
 20
20.41304688
  0
VERTEX
  8
0
 62
7
 10
16.52300000
 20
20.39200000
  0
VERTEX
  8
0
 62
7
 10
16.52510547
 20
20.36777148
  0
VERTEX
  8
0
 62
7
 10
16.53046875
 20
20.34460938
  0
VERTEX
  8
0
 62
7
 10
16.53878516
 20
20.32254883
  0
VERTEX
  8
0
 62
7
 10
16.54975000
 20
20.30162500
  0
VERTEX
  8
0
 62
7
 10
16.56305859
 20
20.28187305
  0
VERTEX
  8
0
 62
7
 10
16.57840625
 20
20.26332813
  0
VERTEX
  8
0
 62
7
 10
16.59548828
 20
20.24602539
  0
VERTEX
  8
0
 62
7
 10
16.61400000
 20
20.23000000
  0
VERTEX
  8
0
 62
7
 10
16.64906250
 20
20.20678125
  0
VERTEX
  8
0
 62
7
 10
16.68750000
 20
20.19050000
  0
VERTEX
  8
0
 62
7
 10
16.72818750
 20
20.18021875
  0
VERTEX
  8
0
 62
7
 10
16.77000000
 20
20.17500000
  0
VERTEX
  8
0
 62
7
 10
16.81132813
 20
20.17535938
  0
VERTEX
  8
0
 62
7
 10
16.85237500
 20
20.18162500
  0
VERTEX
  8
0
 62
7
 10
16.89248438
 20
20.19257813
  0
VERTEX
  8
0
 62
7
 10
16.93100000
 20
20.20700000
  0
VERTEX
  8
0
 62
7
 10
16.97582813
 20
20.22935938
  0
VERTEX
  8
0
 62
7
 10
17.01737500
 20
20.25687500
  0
VERTEX
  8
0
 62
7
 10
17.05573438
 20
20.28870313
  0
VERTEX
  8
0
 62
7
 10
17.09100000
 20
20.32400000
  0
VERTEX
  8
0
 62
7
 10
17.12243750
 20
20.36428125
  0
VERTEX
  8
0
 62
7
 10
17.14975000
 20
20.40700000
  0
VERTEX
  8
0
 62
7
 10
17.17368750
 20
20.45196875
  0
VERTEX
  8
0
 62
7
 10
17.19500000
 20
20.49900000
  0
VERTEX
  8
0
 62
7
 10
17.20400000
 20
20.52200000
  0
SEQEND
  0
POLYLINE
  8
0
 62
7
 66
1
 70
1
  0
VERTEX
  8
0
 62
7
 10
17.32200000
 20
20.44100000
  0
VERTEX
  8
0
 62
7
 10
17.34800000
 20
20.44500000
  0
VERTEX
  8
0
 62
7
 10
17.34300000
 20
20.47900000
  0
VERTEX
  8
0
 62
7
 10
17.33500000
 20
20.52900000
  0
VERTEX
  8
0
 62
7
 10
17.38300000
 20
20.54500000
  0
VERTEX
  8
0
 62
7
 10
17.42535938
 20
20.55739063
  0
VERTEX
  8
0
 62
7
 10
17.46837500
 20
20.56612500
  0
VERTEX
  8
0
 62
7
 10
17.51195313
 20
20.57129688
  0
VERTEX
  8
0
 62
7
 10
17.55600000
 20
20.57300000
  0
VERTEX
  8
0
 62
7
 10
17.61100000
 20
20.57000000
  0
VERTEX
  8
0
 62
7
 10
17.61437109
 20
20.59497461
  0
VERTEX
  8
0
 62
7
 10
17.61471875
 20
20.62017188
  0
VERTEX
  8
0
 62
7
 10
17.61201953
 20
20.64525195
  0
VERTEX
  8
0
 62
7
 10
17.60625000
 20
20.66987500
  0
VERTEX
  8
0
 62
7
 10
17.59738672
 20
20.69370117
  0
VERTEX
  8
0
 62
7
 10
17.58540625
 20
20.71639063
  0
VERTEX
  8
0
 62
7
 10
17.57028516
 20
20.73760352
  0
VERTEX
  8
0
 62
7
 10
17.55200000
 20
20.75700000
  0
VERTEX
  8
0
 62
7
 10
17.52400000
 20
20.74200000
  0
VERTEX
  8
0
 62
7
 10
17.49198438
 20
20.72960938
  0
VERTEX
  8
0
 62
7
 10
17.45912500
 20
20.72087500
  0
VERTEX
  8
0
 62
7
 10
17.42570313
 20
20.71570313
  0
VERTEX
  8
0
 62
7
 10
17.39200000
 20
20.71400000
  0
VERTEX
  8
0
 62
7
 10
17.35995313
 20
20.71565625
  0
VERTEX
  8
0
 62
7
 10
17.32837500
 20
20.72050000
  0
VERTEX
  8
0
 62
7
 10
17.29735938
 20
20.72834375
  0
VERTEX
  8
0
 62
7
 10
17.26700000
 20
20.73900000
  0
VERTEX
  8
0
 62
7
 10
17.24720313
 20
20.70875000
  0
VERTEX
  8
0
 62
7
 10
17.23312500
 20
20.67550000
  0
VERTEX
  8
0
 62
7
 10
17.22523438
 20
20.64000000
  0
VERTEX
  8
0
 62
7
 10
17.22400000
 20
20.60300000
  0
VERTEX
  8
0
 62
7
 10
17.22704883
 20
20.57952148
  0
VERTEX
  8
0
 62
7
 10
17.23301563
 20
20.55710938
  0
VERTEX
  8
0
 62
7
 10
17.24163086
 20
20.53579883
  0
VERTEX
  8
0
 62
7
 10
17.25262500
 20
20.51562500
  0
VERTEX
  8
0
 62
7
 10
17.26572852
 20
20.49662305
  0
VERTEX
  8
0
 62
7
 10
17.28067188
 20
20.47882813
  0
VERTEX
  8
0
 62
7
 10
17.29718555
 20
20.46227539
  0
VERTEX
  8
0
 62
7
 10
17.31500000
 20
20.44700000
  0
VERTEX
  8
0
 62
7
 10
17.32200000
 20
20.44100000
  0
SEQEND
  0
POLYLINE
  8
0
 62
7
 66
1
 70
1
  0
VERTEX
  8
0
 62
7
 10
17.84400000
 20
20.47800000
  0
VERTEX
  8
0
 62
7
 10
17.87100000
 20
20.47500000
  0
VERTEX
  8
0
 62
7
 10
17.87700586
 20
20.51150781
  0
VERTEX
  8
0
 62
7
 10
17.88735938
 20
20.54656250
  0
VERTEX
  8
0
 62
7
 10
17.90181445
 20
20.57983594
  0
VERTEX
  8
0
 62
7
 10
17.92012500
 20
20.61100000
  0
VERTEX
  8
0
 62
7
 10
17.94204492
 20
20.63972656
  0
VERTEX
  8
0
 62
7
 10
17.96732813
 20
20.66568750
  0
VERTEX
  8
0
 62
7
 10
17.99572852
 20
20.68855469
  0
VERTEX
  8
0
 62
7
 10
18.02700000
 20
20.70800000
  0
VERTEX
  8
0
 62
7
 10
17.90100000
 20
20.78200000
  0
VERTEX
  8
0
 62
7
 10
17.82825000
 20
20.83250000
  0
VERTEX
  8
0
 62
7
 10
17.76000000
 20
20.88900000
  0
VERTEX
  8
0
 62
7
 10
17.73000000
 20
20.87300000
  0
VERTEX
  8
0
 62
7
 10
17.70300000
 20
20.85176563
  0
VERTEX
  8
0
 62
7
 10
17.68050000
 20
20.82612500
  0
VERTEX
  8
0
 62
7
 10
17.66250000
 20
20.79692188
  0
VERTEX
  8
0
 62
7
 10
17.64900000
 20
20.76500000
  0
VERTEX
  8
0
 62
7
 10
17.64132813
 20
20.73585938
  0
VERTEX
  8
0
 62
7
 10
17.63787500
 20
20.70587500
  0
VERTEX
  8
0
 62
7
 10
17.63873438
 20
20.67570313
  0
VERTEX
  8
0
 62
7
 10
17.64400000
 20
20.64600000
  0
VERTEX
  8
0
 62
7
 10
17.65256250
 20
20.62009375
  0
VERTEX
  8
0
 62
7
 10
17.66450000
 20
20.59625000
  0
VERTEX
  8
0
 62
7
 10
17.67943750
 20
20.57428125
  0
VERTEX
  8
0
 62
7
 10
17.69700000
 20
20.55400000
  0
VERTEX
  8
0
 62
7
 10
17.73810938
 20
20.53959375
  0
VERTEX
  8
0
 62
7
 10
17.77612500
 20
20.52200000
  0
VERTEX
  8
0
 62
7
 10
17.81132813
 20
20.50140625
  0
VERTEX
  8
0
 62
7
 10
17.84400000
 20
20.47800000
  0
SEQEND
  0
POLYLINE
  8
0
 62
7
 66
1
 70
1
  0
VERTEX
  8
0
 62
7
 10
17.10100000
 20
22.72700000
  0
VERTEX
  8
0
 62
7
 10
17.12962305
 20
22.68770898
  0
VERTEX
  8
0
 62
7
 10
17.16385938
 20
22.65567188
  0
VERTEX
  8
0
 62
7
 10
17.20275977
 20
22.63026758
  0
VERTEX
  8
0
 62
7
 10
17.24537500
 20
22.61087500
  0
VERTEX
  8
0
 62
7
 10
17.29075586
 20
22.59687305
  0
VERTEX
  8
0
 62
7
 10
17.33795313
 20
22.58764063
  0
VERTEX
  8
0
 62
7
 10
17.38601758
 20
22.58255664
  0
VERTEX
  8
0
 62
7
 10
17.43400000
 20
22.58100000
  0
VERTEX
  8
0
 62
7
 10
17.53062500
 20
22.58250000
  0
VERTEX
  8
0
 62
7
 10
17.62800000
 20
22.58700000
  0
VERTEX
  8
0
 62
7
 10
17.77957813
 20
22.59637500
  0
VERTEX
  8
0
 62
7
 10
17.93837500
 20
22.60725000
  0
VERTEX
  8
0
 62
7
 10
18.09023438
 20
22.61625000
  0
VERTEX
  8
0
 62
7
 10
18.22100000
 20
22.62000000
  0
VERTEX
  8
0
 62
7
 10
18.22800000
 20
22.58800000
  0
VERTEX
  8
0
 62
7
 10
18.07145313
 20
22.56017188
  0
VERTEX
  8
0
 62
7
 10
17.92137500
 20
22.54012500
  0
VERTEX
  8
0
 62
7
 10
17.77560938
 20
22.52626563
  0
VERTEX
  8
0
 62
7
 10
17.63200000
 20
22.51700000
  0
VERTEX
  8
0
 62
7
 10
17.53337500
 20
22.51287500
  0
VERTEX
  8
0
 62
7
 10
17.43400000
 20
22.51100000
  0
VERTEX
  8
0
 62
7
 10
17.33075000
 20
22.51300000
  0
VERTEX
  8
0
 62
7
 10
17.22300000
 20
22.52100000
  0
VERTEX
  8
0
 62
7
 10
17.27828125
 20
22.43701563
  0
VERTEX
  8
0
 62
7
 10
17.33600000
 20
22.35462500
  0
VERTEX
  8
0
 62
7
 10
17.39596875
 20
22.27392188
  0
VERTEX
  8
0
 62
7
 10
17.45800000
 20
22.19500000
  0
VERTEX
  8
0
 62
7
 10
17.52482813
 20
22.11507813
  0
VERTEX
  8
0
 62
7
 10
17.59437500
 20
22.03712500
  0
VERTEX
  8
0
 62
7
 10
17.66598438
 20
21.96085938
  0
VERTEX
  8
0
 62
7
 10
17.73900000
 20
21.88600000
  0
VERTEX
  8
0
 62
7
 10
17.84150000
 20
21.78637500
  0
VERTEX
  8
0
 62
7
 10
17.94700000
 20
21.68900000
  0
VERTEX
  8
0
 62
7
 10
18.08939063
 20
21.55484375
  0
VERTEX
  8
0
 62
7
 10
18.22737500
 20
21.41750000
  0
VERTEX
  8
0
 62
7
 10
18.36142188
 20
21.27640625
  0
VERTEX
  8
0
 62
7
 10
18.49200000
 20
21.13100000
  0
VERTEX
  8
0
 62
7
 10
18.47100000
 20
21.10400000
  0
VERTEX
  8
0
 62
7
 10
18.32946875
 20
21.23804688
  0
VERTEX
  8
0
 62
7
 10
18.18775000
 20
21.37237500
  0
VERTEX
  8
0
 62
7
 10
18.04490625
 20
21.50576563
  0
VERTEX
  8
0
 62
7
 10
17.90000000
 20
21.63700000
  0
VERTEX
  8
0
 62
7
 10
17.79337500
 20
21.73500000
  0
VERTEX
  8
0
 62
7
 10
17.68900000
 20
21.83600000
  0
VERTEX
  8
0
 62
7
 10
17.61521875
 20
21.91235938
  0
VERTEX
  8
0
 62
7
 10
17.54275000
 20
21.99012500
  0
VERTEX
  8
0
 62
7
 10
17.47215625
 20
22.06957813
  0
VERTEX
  8
0
 62
7
 10
17.40400000
 20
22.15100000
  0
VERTEX
  8
0
 62
7
 10
17.31675000
 20
22.26350000
  0
VERTEX
  8
0
 62
7
 10
17.23400000
 20
22.37900000
  0
VERTEX
  8
0
 62
7
 10
17.23400000
 20
22.36000000
  0
VERTEX
  8
0
 62
7
 10
17.23200000
 20
22.31600000
  0
VERTEX
  8
0
 62
7
 10
17.22518750
 20
22.26743750
  0
VERTEX
  8
0
 62
7
 10
17.21350000
 20
22.22075000
  0
VERTEX
  8
0
 62
7
 10
17.19881250
 20
22.17593750
  0
VERTEX
  8
0
 62
7
 10
17.18300000
 20
22.13300000
  0
VERTEX
  8
0
 62
7
 10
17.16100000
 20
22.07400000
  0
VERTEX
  8
0
 62
7
 10
17.13750000
 20
22.01037500
  0
VERTEX
  8
0
 62
7
 10
17.11100000
 20
21.94900000
  0
VERTEX
  8
0
 62
7
 10
17.07168750
 20
21.84937500
  0
VERTEX
  8
0
 62
7
 10
17.03800000
 20
21.74825000
  0
VERTEX
  8
0
 62
7
 10
17.00581250
 20
21.64750000
  0
VERTEX
  8
0
 62
7
 10
16.97100000
 20
21.54900000
  0
VERTEX
  8
0
 62
7
 10
16.93700000
 20
21.56300000
  0
VERTEX
  8
0
 62
7
 10
16.94373633
 20
21.61696484
  0
VERTEX
  8
0
 62
7
 10
16.95264063
 20
21.67071875
  0
VERTEX
  8
0
 62
7
 10
16.96363086
 20
21.72405078
  0
VERTEX
  8
0
 62
7
 10
16.97662500
 20
21.77675000
  0
VERTEX
  8
0
 62
7
 10
16.99154102
 20
21.82860547
  0
VERTEX
  8
0
 62
7
 10
17.00829688
 20
21.87940625
  0
VERTEX
  8
0
 62
7
 10
17.02681055
 20
21.92894141
  0
VERTEX
  8
0
 62
7
 10
17.04700000
 20
21.97700000
  0
VERTEX
  8
0
 62
7
 10
17.07250000
 20
22.03687500
  0
VERTEX
  8
0
 62
7
 10
17.09500000
 20
22.09600000
  0
VERTEX
  8
0
 62
7
 10
17.11700000
 20
22.15800000
  0
VERTEX
  8
0
 62
7
 10
17.13275000
 20
22.19993750
  0
VERTEX
  8
0
 62
7
 10
17.14625000
 20
22.24075000
  0
VERTEX
  8
0
 62
7
 10
17.15637500
 20
22.28118750
  0
VERTEX
  8
0
 62
7
 10
17.16200000
 20
22.32200000
  0
VERTEX
  8
0
 62
7
 10
17.16208789
 20
22.37194336
  0
VERTEX
  8
0
 62
7
 10
17.15557813
 20
22.42060938
  0
VERTEX
  8
0
 62
7
 10
17.14356055
 20
22.46812695
  0
VERTEX
  8
0
 62
7
 10
17.12712500
 20
22.51462500
  0
VERTEX
  8
0
 62
7
 10
17.10736133
 20
22.56023242
  0
VERTEX
  8
0
 62
7
 10
17.08535938
 20
22.60507813
  0
VERTEX
  8
0
 62
7
 10
17.06220898
 20
22.64929102
  0
VERTEX
  8
0
 62
7
 10
17.03900000
 20
22.69300000
  0
VERTEX
  8
0
 62
7
 10
17.03500000
 20
22.70626563
  0
VERTEX
  8
0
 62
7
 10
17.03625000
 20
22.71962500
  0
VERTEX
  8
0
 62
7
 10
17.04237500
 20
22.73167188
  0
VERTEX
  8
0
 62
7
 10
17.05300000
 20
22.74100000
  0
VERTEX
  8
0
 62
7
 10
17.06626563
 20
22.74500000
  0
VERTEX
  8
0
 62
7
 10
17.07962500
 20
22.74375000
  0
VERTEX
  8
0
 62
7
 10
17.09167188
 20
22.73762500
  0
VERTEX
  8
0
 62
7
 10
17.10100000
 20
22.72700000
  0
SEQEND
  0
POLYLINE
  8
0
 62
7
 66
1
 70
1
  0
VERTEX
  8
0
 62
7
 10
10.00800000
 20
24.37500000
  0
VERTEX
  8
0
 62
7
 10
9.71488330
 20
24.37205298
  0
VERTEX
  8
0
 62
7
 10
9.42247266
 20
24.36361133
  0
VERTEX
  8
0
 62
7
 10
9.13086475
 20
24.34971167
  0
VERTEX
  8
0
 62
7
 10
8.84015625
 20
24.33039063
  0
VERTEX
  8
0
 62
7
 10
8.55044385
 20
24.30568481
  0
VERTEX
  8
0
 62
7
 10
8.26182422
 20
24.27563086
  0
VERTEX
  8
0
 62
7
 10
7.97439404
 20
24.24026538
  0
VERTEX
  8
0
 62
7
 10
7.68825000
 20
24.19962500
  0
VERTEX
  8
0
 62
7
 10
7.40348877
 20
24.15374634
  0
VERTEX
  8
0
 62
7
 10
7.12020703
 20
24.10266602
  0
VERTEX
  8
0
 62
7
 10
6.83850146
 20
24.04642065
  0
VERTEX
  8
0
 62
7
 10
6.55846875
 20
23.98504688
  0
VERTEX
  8
0
 62
7
 10
6.28020557
 20
23.91858130
  0
VERTEX
  8
0
 62
7
 10
6.00380859
 20
23.84706055
  0
VERTEX
  8
0
 62
7
 10
5.72937451
 20
23.77052124
  0
VERTEX
  8
0
 62
7
 10
5.45700000
 20
23.68900000
  0
VERTEX
  8
0
 62
7
 10
5.16711914
 20
23.60185938
  0
VERTEX
  8
0
 62
7
 10
4.87645313
 20
23.51968750
  0
VERTEX
  8
0
 62
7
 10
4.58496680
 20
23.44248438
  0
VERTEX
  8
0
 62
7
 10
4.29262500
 20
23.37025000
  0
VERTEX
  8
0
 62
7
 10
3.99939258
 20
23.30298438
  0
VERTEX
  8
0
 62
7
 10
3.70523438
 20
23.24068750
  0
VERTEX
  8
0
 62
7
 10
3.41011523
 20
23.18335938
  0
VERTEX
  8
0
 62
7
 10
3.11400000
 20
23.13100000
  0
VERTEX
  8
0
 62
7
 10
3.12687500
 20
23.10175000
  0
VERTEX
  8
0
 62
7
 10
3.13600000
 20
23.07100000
  0
VERTEX
  8
0
 62
7
 10
3.14100000
 20
23.01100000
  0
VERTEX
  8
0
 62
7
 10
3.27800000
 20
23.06900000
  0
VERTEX
  8
0
 62
7
 10
3.37037500
 20
23.10600000
  0
VERTEX
  8
0
 62
7
 10
3.46800000
 20
23.14000000
  0
VERTEX
  8
0
 62
7
 10
3.47400000
 20
23.12700000
  0
VERTEX
  8
0
 62
7
 10
3.25500000
 20
23.02200000
  0
VERTEX
  8
0
 62
7
 10
3.16187500
 20
22.97387500
  0
VERTEX
  8
0
 62
7
 10
3.07100000
 20
22.92200000
  0
VERTEX
  8
0
 62
7
 10
3.06500000
 20
22.95100000
  0
VERTEX
  8
0
 62
7
 10
3.07475000
 20
22.97657813
  0
VERTEX
  8
0
 62
7
 10
3.08000000
 20
23.00337500
  0
VERTEX
  8
0
 62
7
 10
3.08075000
 20
23.03073438
  0
VERTEX
  8
0
 62
7
 10
3.07700000
 20
23.05800000
  0
VERTEX
  8
0
 62
7
 10
3.07177148
 20
23.07709766
  0
VERTEX
  8
0
 62
7
 10
3.06442188
 20
23.09528125
  0
VERTEX
  8
0
 62
7
 10
3.05508008
 20
23.11238672
  0
VERTEX
  8
0
 62
7
 10
3.04387500
 20
23.12825000
  0
VERTEX
  8
0
 62
7
 10
3.03093555
 20
23.14270703
  0
VERTEX
  8
0
 62
7
 10
3.01639063
 20
23.15559375
  0
VERTEX
  8
0
 62
7
 10
3.00036914
 20
23.16674609
  0
VERTEX
  8
0
 62
7
 10
2.98300000
 20
23.17600000
  0
VERTEX
  8
0
 62
7
 10
2.87600000
 20
23.11100000
  0
VERTEX
  8
0
 62
7
 10
2.80500000
 20
23.18200000
  0
VERTEX
  8
0
 62
7
 10
2.68100000
 20
23.30600000
  0
VERTEX
  8
0
 62
7
 10
2.64284375
 20
23.29223438
  0
VERTEX
  8
0
 62
7
 10
2.60675000
 20
23.27462500
  0
VERTEX
  8
0
 62
7
 10
2.57328125
 20
23.25270313
  0
VERTEX
  8
0
 62
7
 10
2.54300000
 20
23.22600000
  0
VERTEX
  8
0
 62
7
 10
2.53142188
 20
23.21375781
  0
VERTEX
  8
0
 62
7
 10
2.52012500
 20
23.20100000
  0
VERTEX
  8
0
 62
7
 10
2.50939063
 20
23.18767969
  0
VERTEX
  8
0
 62
7
 10
2.49950000
 20
23.17375000
  0
VERTEX
  8
0
 62
7
 10
2.49073438
 20
23.15916406
  0
VERTEX
  8
0
 62
7
 10
2.48337500
 20
23.14387500
  0
VERTEX
  8
0
 62
7
 10
2.47770313
 20
23.12783594
  0
VERTEX
  8
0
 62
7
 10
2.47400000
 20
23.11100000
  0
VERTEX
  8
0
 62
7
 10
2.47227539
 20
23.09268750
  0
VERTEX
  8
0
 62
7
 10
2.47295313
 20
23.07456250
  0
VERTEX
  8
0
 62
7
 10
2.47581055
 20
23.05671875
  0
VERTEX
  8
0
 62
7
 10
2.48062500
 20
23.03925000
  0
VERTEX
  8
0
 62
7
 10
2.48717383
 20
23.02225000
  0
VERTEX
  8
0
 62
7
 10
2.49523438
 20
23.00581250
  0
VERTEX
  8
0
 62
7
 10
2.50458398
 20
22.99003125
  0
VERTEX
  8
0
 62
7
 10
2.51500000
 20
22.97500000
  0
VERTEX
  8
0
 62
7
 10
2.53289063
 20
22.95514063
  0
VERTEX
  8
0
 62
7
 10
2.55312500
 20
22.93837500
  0
VERTEX
  8
0
 62
7
 10
2.57504688
 20
22.92367188
  0
VERTEX
  8
0
 62
7
 10
2.59800000
 20
22.91000000
  0
VERTEX
  8
0
 62
7
 10
2.61448438
 20
22.90250000
  0
VERTEX
  8
0
 62
7
 10
2.63162500
 20
22.89650000
  0
VERTEX
  8
0
 62
7
 10
2.64820313
 20
22.88975000
  0
VERTEX
  8
0
 62
7
 10
2.66300000
 20
22.88000000
  0
VERTEX
  8
0
 62
7
 10
2.67091016
 20
22.87082031
  0
VERTEX
  8
0
 62
7
 10
2.67528125
 20
22.86037500
  0
VERTEX
  8
0
 62
7
 10
2.67632422
 20
22.84955469
  0
VERTEX
  8
0
 62
7
 10
2.67425000
 20
22.83925000
  0
VERTEX
  8
0
 62
7
 10
2.66926953
 20
22.83035156
  0
VERTEX
  8
0
 62
7
 10
2.66159375
 20
22.82375000
  0
VERTEX
  8
0
 62
7
 10
2.65143359
 20
22.82033594
  0
VERTEX
  8
0
 62
7
 10
2.63900000
 20
22.82100000
  0
VERTEX
  8
0
 62
7
 10
2.57925000
 20
22.83725000
  0
VERTEX
  8
0
 62
7
 10
2.52100000
 20
22.85800000
  0
VERTEX
  8
0
 62
7
 10
2.48826563
 20
22.87356250
  0
VERTEX
  8
0
 62
7
 10
2.45787500
 20
22.89100000
  0
VERTEX
  8
0
 62
7
 10
2.42804688
 20
22.90918750
  0
VERTEX
  8
0
 62
7
 10
2.39700000
 20
22.92700000
  0
VERTEX
  8
0
 62
7
 10
2.34759375
 20
22.95717188
  0
VERTEX
  8
0
 62
7
 10
2.29875000
 20
22.98837500
  0
VERTEX
  8
0
 62
7
 10
2.24878125
 20
23.01714063
  0
VERTEX
  8
0
 62
7
 10
2.19600000
 20
23.04000000
  0
VERTEX
  8
0
 62
7
 10
2.13665625
 20
23.05742188
  0
VERTEX
  8
0
 62
7
 10
2.07600000
 20
23.06912500
  0
VERTEX
  8
0
 62
7
 10
2.01459375
 20
23.07501563
  0
VERTEX
  8
0
 62
7
 10
1.95300000
 20
23.07500000
  0
VERTEX
  8
0
 62
7
 10
1.89400000
 20
23.00400000
  0
VERTEX
  8
0
 62
7
 10
1.85445117
 20
23.01783008
  0
VERTEX
  8
0
 62
7
 10
1.81404688
 20
23.02707813
  0
VERTEX
  8
0
 62
7
 10
1.77315039
 20
23.03175586
  0
VERTEX
  8
0
 62
7
 10
1.73212500
 20
23.03187500
  0
VERTEX
  8
0
 62
7
 10
1.69133398
 20
23.02744727
  0
VERTEX
  8
0
 62
7
 10
1.65114063
 20
23.01848438
  0
VERTEX
  8
0
 62
7
 10
1.61190820
 20
23.00499805
  0
VERTEX
  8
0
 62
7
 10
1.57400000
 20
22.98700000
  0
VERTEX
  8
0
 62
7
 10
1.53859375
 20
22.96490625
  0
VERTEX
  8
0
 62
7
 10
1.50600000
 20
22.93925000
  0
VERTEX
  8
0
 62
7
 10
1.47640625
 20
22.91021875
  0
VERTEX
  8
0
 62
7
 10
1.45000000
 20
22.87800000
  0
VERTEX
  8
0
 62
7
 10
1.52100000
 20
22.80700000
  0
VERTEX
  8
0
 62
7
 10
1.46175000
 20
22.77740625
  0
VERTEX
  8
0
 62
7
 10
1.40625000
 20
22.74125000
  0
VERTEX
  8
0
 62
7
 10
1.35562500
 20
22.69871875
  0
VERTEX
  8
0
 62
7
 10
1.31100000
 20
22.65000000
  0
VERTEX
  8
0
 62
7
 10
1.28115625
 20
22.60715625
  0
VERTEX
  8
0
 62
7
 10
1.25600000
 20
22.56150000
  0
VERTEX
  8
0
 62
7
 10
1.23534375
 20
22.51359375
  0
VERTEX
  8
0
 62
7
 10
1.21900000
 20
22.46400000
  0
VERTEX
  8
0
 62
7
 10
1.27887500
 20
22.45512500
  0
VERTEX
  8
0
 62
7
 10
1.33800000
 20
22.44100000
  0
VERTEX
  8
0
 62
7
 10
1.38914063
 20
22.42428125
  0
VERTEX
  8
0
 62
7
 10
1.43887500
 20
22.40400000
  0
VERTEX
  8
0
 62
7
 10
1.48692188
 20
22.37996875
  0
VERTEX
  8
0
 62
7
 10
1.53300000
 20
22.35200000
  0
VERTEX
  8
0
 62
7
 10
1.56971875
 20
22.32596875
  0
VERTEX
  8
0
 62
7
 10
1.60475000
 20
22.29750000
  0
VERTEX
  8
0
 62
7
 10
1.63790625
 20
22.26678125
  0
VERTEX
  8
0
 62
7
 10
1.66900000
 20
22.23400000
  0
VERTEX
  8
0
 62
7
 10
1.63400000
 20
22.11000000
  0
VERTEX
  8
0
 62
7
 10
1.70728125
 20
22.11246875
  0
VERTEX
  8
0
 62
7
 10
1.78000000
 20
22.12000000
  0
VERTEX
  8
0
 62
7
 10
1.85196875
 20
22.13278125
  0
VERTEX
  8
0
 62
7
 10
1.92300000
 20
22.15100000
  0
VERTEX
  8
0
 62
7
 10
1.96865625
 20
22.16621875
  0
VERTEX
  8
0
 62
7
 10
2.01375000
 20
22.18425000
  0
VERTEX
  8
0
 62
7
 10
2.05771875
 20
22.20415625
  0
VERTEX
  8
0
 62
7
 10
2.10000000
 20
22.22500000
  0
VERTEX
  8
0
 62
7
 10
2.14162500
 20
22.24112500
  0
VERTEX
  8
0
 62
7
 10
2.18400000
 20
22.25200000
  0
VERTEX
  8
0
 62
7
 10
2.20354492
 20
22.25384570
  0
VERTEX
  8
0
 62
7
 10
2.22167188
 20
22.25157813
  0
VERTEX
  8
0
 62
7
 10
2.23724414
 20
22.24586523
  0
VERTEX
  8
0
 62
7
 10
2.24912500
 20
22.23737500
  0
VERTEX
  8
0
 62
7
 10
2.25617773
 20
22.22677539
  0
VERTEX
  8
0
 62
7
 10
2.25726563
 20
22.21473438
  0
VERTEX
  8
0
 62
7
 10
2.25125195
 20
22.20191992
  0
VERTEX
  8
0
 62
7
 10
2.23700000
 20
22.18900000
  0
VERTEX
  8
0
 62
7
 10
2.21162500
 20
22.17150000
  0
VERTEX
  8
0
 62
7
 10
2.18400000
 20
22.15700000
  0
VERTEX
  8
0
 62
7
 10
2.13346875
 20
22.13746875
  0
VERTEX
  8
0
 62
7
 10
2.08350000
 20
22.12375000
  0
VERTEX
  8
0
 62
7
 10
2.03353125
 20
22.11340625
  0
VERTEX
  8
0
 62
7
 10
1.98300000
 20
22.10400000
  0
VERTEX
  8
0
 62
7
 10
1.93559375
 20
22.09687500
  0
VERTEX
  8
0
 62
7
 10
1.88800000
 20
22.09200000
  0
VERTEX
  8
0
 62
7
 10
1.84040625
 20
22.08712500
  0
VERTEX
  8
0
 62
7
 10
1.79300000
 20
22.08000000
  0
VERTEX
  8
0
 62
7
 10
1.75959766
 20
22.07357422
  0
VERTEX
  8
0
 62
7
 10
1.72621875
 20
22.06684375
  0
VERTEX
  8
0
 62
7
 10
1.69298047
 20
22.05950391
  0
VERTEX
  8
0
 62
7
 10
1.66000000
 20
22.05125000
  0
VERTEX
  8
0
 62
7
 10
1.62739453
 20
22.04177734
  0
VERTEX
  8
0
 62
7
 10
1.59528125
 20
22.03078125
  0
VERTEX
  8
0
 62
7
 10
1.56377734
 20
22.01795703
  0
VERTEX
  8
0
 62
7
 10
1.53300000
 20
22.00300000
  0
VERTEX
  8
0
 62
7
 10
1.49328125
 20
21.98010938
  0
VERTEX
  8
0
 62
7
 10
1.45525000
 20
21.95487500
  0
VERTEX
  8
0
 62
7
 10
1.41909375
 20
21.92720313
  0
VERTEX
  8
0
 62
7
 10
1.38500000
 20
21.89700000
  0
VERTEX
  8
0
 62
7
 10
1.44400000
 20
21.79000000
  0
VERTEX
  8
0
 62
7
 10
1.37992188
 20
21.74542188
  0
VERTEX
  8
0
 62
7
 10
1.31987500
 20
21.69587500
  0
VERTEX
  8
0
 62
7
 10
1.26414063
 20
21.64164063
  0
VERTEX
  8
0
 62
7
 10
1.21300000
 20
21.58300000
  0
VERTEX
  8
0
 62
7
 10
1.17553125
 20
21.53314063
  0
VERTEX
  8
0
 62
7
 10
1.14125000
 20
21.48112500
  0
VERTEX
  8
0
 62
7
 10
1.11034375
 20
21.42704688
  0
VERTEX
  8
0
 62
7
 10
1.08300000
 20
21.37100000
  0
VERTEX
  8
0
 62
7
 10
1.19000000
 20
21.25200000
  0
VERTEX
  8
0
 62
7
 10
1.15889063
 20
21.17801563
  0
VERTEX
  8
0
 62
7
 10
1.13462500
 20
21.10187500
  0
VERTEX
  8
0
 62
7
 10
1.11729688
 20
21.02404688
  0
VERTEX
  8
0
 62
7
 10
1.10700000
 20
20.94500000
  0
VERTEX
  8
0
 62
7
 10
1.10362500
 20
20.87662500
  0
VERTEX
  8
0
 62
7
 10
1.10550000
 20
20.80825000
  0
VERTEX
  8
0
 62
7
 10
1.11262500
 20
20.74025000
  0
VERTEX
  8
0
 62
7
 10
1.12500000
 20
20.67300000
  0
VERTEX
  8
0
 62
7
 10
1.15923438
 20
20.69417188
  0
VERTEX
  8
0
 62
7
 10
1.19562500
 20
20.71112500
  0
VERTEX
  8
0
 62
7
 10
1.23370313
 20
20.72376563
  0
VERTEX
  8
0
 62
7
 10
1.27300000
 20
20.73200000
  0
VERTEX
  8
0
 62
7
 10
1.31068750
 20
20.73396875
  0
VERTEX
  8
0
 62
7
 10
1.34800000
 20
20.73050000
  0
VERTEX
  8
0
 62
7
 10
1.38606250
 20
20.72553125
  0
VERTEX
  8
0
 62
7
 10
1.42600000
 20
20.72300000
  0
VERTEX
  8
0
 62
7
 10
1.46295313
 20
20.72548438
  0
VERTEX
  8
0
 62
7
 10
1.49887500
 20
20.73237500
  0
VERTEX
  8
0
 62
7
 10
1.53385938
 20
20.74282813
  0
VERTEX
  8
0
 62
7
 10
1.56800000
 20
20.75600000
  0
VERTEX
  8
0
 62
7
 10
1.56800000
 20
20.68500000
  0
VERTEX
  8
0
 62
7
 10
1.61100000
 20
20.67093750
  0
VERTEX
  8
0
 62
7
 10
1.65550000
 20
20.66325000
  0
VERTEX
  8
0
 62
7
 10
1.70075000
 20
20.66193750
  0
VERTEX
  8
0
 62
7
 10
1.74600000
 20
20.66700000
  0
VERTEX
  8
0
 62
7
 10
1.77695313
 20
20.67476563
  0
VERTEX
  8
0
 62
7
 10
1.80687500
 20
20.68562500
  0
VERTEX
  8
0
 62
7
 10
1.83585938
 20
20.69892188
  0
VERTEX
  8
0
 62
7
 10
1.86400000
 20
20.71400000
  0
VERTEX
  8
0
 62
7
 10
1.91770313
 20
20.74912500
  0
VERTEX
  8
0
 62
7
 10
1.96587500
 20
20.79100000
  0
VERTEX
  8
0
 62
7
 10
2.00785938
 20
20.83887500
  0
VERTEX
  8
0
 62
7
 10
2.04300000
 20
20.89200000
  0
VERTEX
  8
0
 62
7
 10
2.06700000
 20
20.83300000
  0
VERTEX
  8
0
 62
7
 10
2.12332031
 20
20.87122070
  0
VERTEX
  8
0
 62
7
 10
2.17668750
 20
20.91301563
  0
VERTEX
  8
0
 62
7
 10
2.22696094
 20
20.95820898
  0
VERTEX
  8
0
 62
7
 10
2.27400000
 20
21.00662500
  0
VERTEX
  8
0
 62
7
 10
2.31766406
 20
21.05808789
  0
VERTEX
  8
0
 62
7
 10
2.35781250
 20
21.11242188
  0
VERTEX
  8
0
 62
7
 10
2.39430469
 20
21.16945117
  0
VERTEX
  8
0
 62
7
 10
2.42700000
 20
21.22900000
  0
VERTEX
  8
0
 62
7
 10
2.45468750
 20
21.29184375
  0
VERTEX
  8
0
 62
7
 10
2.47750000
 20
21.35675000
  0
VERTEX
  8
0
 62
7
 10
2.49731250
 20
21.42278125
  0
VERTEX
  8
0
 62
7
 10
2.51600000
 20
21.48900000
  0
VERTEX
  8
0
 62
7
 10
2.56000000
 20
21.65900000
  0
VERTEX
  8
0
 62
7
 10
2.56970313
 20
21.70032813
  0
VERTEX
  8
0
 62
7
 10
2.57912500
 20
21.74362500
  0
VERTEX
  8
0
 62
7
 10
2.59023438
 20
21.78485938
  0
VERTEX
  8
0
 62
7
 10
2.60500000
 20
21.82000000
  0
VERTEX
  8
0
 62
7
 10
2.60986133
 20
21.82814258
  0
VERTEX
  8
0
 62
7
 10
2.61482813
 20
21.83657813
  0
VERTEX
  8
0
 62
7
 10
2.62009961
 20
21.84494336
  0
VERTEX
  8
0
 62
7
 10
2.62587500
 20
21.85287500
  0
VERTEX
  8
0
 62
7
 10
2.63235352
 20
21.86000977
  0
VERTEX
  8
0
 62
7
 10
2.63973438
 20
21.86598438
  0
VERTEX
  8
0
 62
7
 10
2.64821680
 20
21.87043555
  0
VERTEX
  8
0
 62
7
 10
2.65800000
 20
21.87300000
  0
VERTEX
  8
0
 62
7
 10
2.67331250
 20
21.87412500
  0
VERTEX
  8
0
 62
7
 10
2.68825000
 20
21.87225000
  0
VERTEX
  8
0
 62
7
 10
2.70131250
 20
21.86625000
  0
VERTEX
  8
0
 62
7
 10
2.71100000
 20
21.85500000
  0
VERTEX
  8
0
 62
7
 10
2.71500000
 20
21.84315625
  0
VERTEX
  8
0
 62
7
 10
2.71525000
 20
21.83075000
  0
VERTEX
  8
0
 62
7
 10
2.71212500
 20
21.81871875
  0
VERTEX
  8
0
 62
7
 10
2.70600000
 20
21.80800000
  0
VERTEX
  8
0
 62
7
 10
2.67730469
 20
21.76736914
  0
VERTEX
  8
0
 62
7
 10
2.65118750
 20
21.72632813
  0
VERTEX
  8
0
 62
7
 10
2.62760156
 20
21.68465430
  0
VERTEX
  8
0
 62
7
 10
2.60650000
 20
21.64212500
  0
VERTEX
  8
0
 62
7
 10
2.58783594
 20
21.59851758
  0
VERTEX
  8
0
 62
7
 10
2.57156250
 20
21.55360938
  0
VERTEX
  8
0
 62
7
 10
2.55763281
 20
21.50717773
  0
VERTEX
  8
0
 62
7
 10
2.54600000
 20
21.45900000
  0
VERTEX
  8
0
 62
7
 10
2.54080273
 20
21.43225195
  0
VERTEX
  8
0
 62
7
 10
2.53667188
 20
21.40532813
  0
VERTEX
  8
0
 62
7
 10
2.53392383
 20
21.37833398
  0
VERTEX
  8
0
 62
7
 10
2.53287500
 20
21.35137500
  0
VERTEX
  8
0
 62
7
 10
2.53384180
 20
21.32455664
  0
VERTEX
  8
0
 62
7
 10
2.53714063
 20
21.29798438
  0
VERTEX
  8
0
 62
7
 10
2.54308789
 20
21.27176367
  0
VERTEX
  8
0
 62
7
 10
2.55200000
 20
21.24600000
  0
VERTEX
  8
0
 62
7
 10
2.57498438
 20
21.20151563
  0
VERTEX
  8
0
 62
7
 10
2.60462500
 20
21.16162500
  0
VERTEX
  8
0
 62
7
 10
2.64045313
 20
21.12717188
  0
VERTEX
  8
0
 62
7
 10
2.68200000
 20
21.09900000
  0
VERTEX
  8
0
 62
7
 10
2.78200000
 20
21.18700000
  0
VERTEX
  8
0
 62
7
 10
2.83390625
 20
21.15928125
  0
VERTEX
  8
0
 62
7
 10
2.88300000
 20
21.12725000
  0
VERTEX
  8
0
 62
7
 10
2.92909375
 20
21.09109375
  0
VERTEX
  8
0
 62
7
 10
2.97200000
 20
21.05100000
  0
VERTEX
  8
0
 62
7
 10
3.01059375
 20
21.00810938
  0
VERTEX
  8
0
 62
7
 10
3.04525000
 20
20.96212500
  0
VERTEX
  8
0
 62
7
 10
3.07578125
 20
20.91332813
  0
VERTEX
  8
0
 62
7
 10
3.10200000
 20
20.86200000
  0
VERTEX
  8
0
 62
7
 10
3.12392188
 20
20.88617188
  0
VERTEX
  8
0
 62
7
 10
3.14312500
 20
20.91212500
  0
VERTEX
  8
0
 62
7
 10
3.15951563
 20
20.93976563
  0
VERTEX
  8
0
 62
7
 10
3.17300000
 20
20.96900000
  0
VERTEX
  8
0
 62
7
 10
3.19000000
 20
21.02162500
  0
VERTEX
  8
0
 62
7
 10
3.20400000
 20
21.07800000
  0
VERTEX
  8
0
 62
7
 10
3.21189063
 20
21.10165625
  0
VERTEX
  8
0
 62
7
 10
3.22212500
 20
21.12550000
  0
VERTEX
  8
0
 62
7
 10
3.23479688
 20
21.14859375
  0
VERTEX
  8
0
 62
7
 10
3.25000000
 20
21.17000000
  0
VERTEX
  8
0
 62
7
 10
3.32700000
 20
21.15800000
  0
VERTEX
  8
0
 62
7
 10
3.34329688
 20
21.18928125
  0
VERTEX
  8
0
 62
7
 10
3.35762500
 20
21.22150000
  0
VERTEX
  8
0
 62
7
 10
3.36989063
 20
21.25446875
  0
VERTEX
  8
0
 62
7
 10
3.38000000
 20
21.28800000
  0
VERTEX
  8
0
 62
7
 10
3.39082813
 20
21.33651563
  0
VERTEX
  8
0
 62
7
 10
3.39762500
 20
21.38587500
  0
VERTEX
  8
0
 62
7
 10
3.40010938
 20
21.43579688
  0
VERTEX
  8
0
 62
7
 10
3.39800000
 20
21.48600000
  0
VERTEX
  8
0
 62
7
 10
3.48700000
 20
21.50300000
  0
VERTEX
  8
0
 62
7
 10
3.49001367
 20
21.55808398
  0
VERTEX
  8
0
 62
7
 10
3.48860938
 20
21.61292188
  0
VERTEX
  8
0
 62
7
 10
3.48286914
 20
21.66726758
  0
VERTEX
  8
0
 62
7
 10
3.47287500
 20
21.72087500
  0
VERTEX
  8
0
 62
7
 10
3.45870898
 20
21.77349805
  0
VERTEX
  8
0
 62
7
 10
3.44045313
 20
21.82489063
  0
VERTEX
  8
0
 62
7
 10
3.41818945
 20
21.87480664
  0
VERTEX
  8
0
 62
7
 10
3.39200000
 20
21.92300000
  0
VERTEX
  8
0
 62
7
 10
3.35734375
 20
21.97601563
  0
VERTEX
  8
0
 62
7
 10
3.31800000
 20
22.02537500
  0
VERTEX
  8
0
 62
7
 10
3.27415625
 20
22.07079688
  0
VERTEX
  8
0
 62
7
 10
3.22600000
 20
22.11200000
  0
VERTEX
  8
0
 62
7
 10
3.17187500
 20
22.15012500
  0
VERTEX
  8
0
 62
7
 10
3.11400000
 20
22.18300000
  0
VERTEX
  8
0
 62
7
 10
3.10607813
 20
22.18923438
  0
VERTEX
  8
0
 62
7
 10
3.10162500
 20
22.19743750
  0
VERTEX
  8
0
 62
7
 10
3.10035938
 20
22.20648438
  0
VERTEX
  8
0
 62
7
 10
3.10200000
 20
22.21525000
  0
VERTEX
  8
0
 62
7
 10
3.10626563
 20
22.22260938
  0
VERTEX
  8
0
 62
7
 10
3.11287500
 20
22.22743750
  0
VERTEX
  8
0
 62
7
 10
3.12154688
 20
22.22860938
  0
VERTEX
  8
0
 62
7
 10
3.13200000
 20
22.22500000
  0
VERTEX
  8
0
 62
7
 10
3.16121875
 20
22.20985938
  0
VERTEX
  8
0
 62
7
 10
3.19175000
 20
22.19762500
  0
VERTEX
  8
0
 62
7
 10
3.22340625
 20
22.18857813
  0
VERTEX
  8
0
 62
7
 10
3.25600000
 20
22.18300000
  0
VERTEX
  8
0
 62
7
 10
3.27898633
 20
22.18088477
  0
VERTEX
  8
0
 62
7
 10
3.30207813
 20
22.17995313
  0
VERTEX
  8
0
 62
7
 10
3.32509961
 20
22.18045117
  0
VERTEX
  8
0
 62
7
 10
3.34787500
 20
22.18262500
  0
VERTEX
  8
0
 62
7
 10
3.37022852
 20
22.18672070
  0
VERTEX
  8
0
 62
7
 10
3.39198438
 20
22.19298438
  0
VERTEX
  8
0
 62
7
 10
3.41296680
 20
22.20166211
  0
VERTEX
  8
0
 62
7
 10
3.43300000
 20
22.21300000
  0
VERTEX
  8
0
 62
7
 10
3.45842188
 20
22.23042188
  0
VERTEX
  8
0
 62
7
 10
3.48112500
 20
22.24887500
  0
VERTEX
  8
0
 62
7
 10
3.50176563
 20
22.26939063
  0
VERTEX
  8
0
 62
7
 10
3.52100000
 20
22.29300000
  0
VERTEX
  8
0
 62
7
 10
3.53815625
 20
22.31828125
  0
VERTEX
  8
0
 62
7
 10
3.55400000
 20
22.34600000
  0
VERTEX
  8
0
 62
7
 10
3.56684375
 20
22.37596875
  0
VERTEX
  8
0
 62
7
 10
3.57500000
 20
22.40800000
  0
VERTEX
  8
0
 62
7
 10
3.48100000
 20
22.53200000
  0
VERTEX
  8
0
 62
7
 10
3.49860938
 20
22.55931250
  0
VERTEX
  8
0
 62
7
 10
3.51237500
 20
22.58850000
  0
VERTEX
  8
0
 62
7
 10
3.52220313
 20
22.61918750
  0
VERTEX
  8
0
 62
7
 10
3.52800000
 20
22.65100000
  0
VERTEX
  8
0
 62
7
 10
3.52925000
 20
22.67534375
  0
VERTEX
  8
0
 62
7
 10
3.52825000
 20
22.70100000
  0
VERTEX
  8
0
 62
7
 10
3.52687500
 20
22.72665625
  0
VERTEX
  8
0
 62
7
 10
3.52700000
 20
22.75100000
  0
VERTEX
  8
0
 62
7
 10
3.52940625
 20
22.77610938
  0
VERTEX
  8
0
 62
7
 10
3.53275000
 20
22.79962500
  0
VERTEX
  8
0
 62
7
 10
3.53796875
 20
22.82257813
  0
VERTEX
  8
0
 62
7
 10
3.54600000
 20
22.84600000
  0
VERTEX
  8
0
 62
7
 10
3.49125000
 20
22.85256250
  0
VERTEX
  8
0
 62
7
 10
3.43650000
 20
22.85575000
  0
VERTEX
  8
0
 62
7
 10
3.38175000
 20
22.85556250
  0
VERTEX
  8
0
 62
7
 10
3.32700000
 20
22.85200000
  0
VERTEX
  8
0
 62
7
 10
3.28851563
 20
22.84825000
  0
VERTEX
  8
0
 62
7
 10
3.24712500
 20
22.84300000
  0
VERTEX
  8
0
 62
7
 10
3.20592188
 20
22.83625000
  0
VERTEX
  8
0
 62
7
 10
3.16800000
 20
22.82800000
  0
VERTEX
  8
0
 62
7
 10
3.16100000
 20
22.84600000
  0
VERTEX
  8
0
 62
7
 10
3.25284375
 20
22.90037500
  0
VERTEX
  8
0
 62
7
 10
3.34675000
 20
22.95100000
  0
VERTEX
  8
0
 62
7
 10
3.44253125
 20
22.99787500
  0
VERTEX
  8
0
 62
7
 10
3.54000000
 20
23.04100000
  0
VERTEX
  8
0
 62
7
 10
3.61603125
 20
23.07026563
  0
VERTEX
  8
0
 62
7
 10
3.69975000
 20
23.09812500
  0
VERTEX
  8
0
 62
7
 10
3.78609375
 20
23.12242188
  0
VERTEX
  8
0
 62
7
 10
3.87000000
 20
23.14100000
  0
VERTEX
  8
0
 62
7
 10
3.87100000
 20
23.12900000
  0
VERTEX
  8
0
 62
7
 10
3.77746875
 20
23.09342188
  0
VERTEX
  8
0
 62
7
 10
3.68600000
 20
23.05287500
  0
VERTEX
  8
0
 62
7
 10
3.59678125
 20
23.00764063
  0
VERTEX
  8
0
 62
7
 10
3.51000000
 20
22.95800000
  0
VERTEX
  8
0
 62
7
 10
3.44300000
 20
22.91500000
  0
VERTEX
  8
0
 62
7
 10
3.49862500
 20
22.91187500
  0
VERTEX
  8
0
 62
7
 10
3.55500000
 20
22.90500000
  0
VERTEX
  8
0
 62
7
 10
3.56887305
 20
22.90123047
  0
VERTEX
  8
0
 62
7
 10
3.58104688
 20
22.89471875
  0
VERTEX
  8
0
 62
7
 10
3.59122852
 20
22.88591016
  0
VERTEX
  8
0
 62
7
 10
3.59912500
 20
22.87525000
  0
VERTEX
  8
0
 62
7
 10
3.60444336
 20
22.86318359
  0
VERTEX
  8
0
 62
7
 10
3.60689063
 20
22.85015625
  0
VERTEX
  8
0
 62
7
 10
3.60617383
 20
22.83661328
  0
VERTEX
  8
0
 62
7
 10
3.60200000
 20
22.82300000
  0
VERTEX
  8
0
 62
7
 10
3.59200000
 20
22.79300000
  0
VERTEX
  8
0
 62
7
 10
3.66123438
 20
22.83265625
  0
VERTEX
  8
0
 62
7
 10
3.73112500
 20
22.87100000
  0
VERTEX
  8
0
 62
7
 10
3.79970313
 20
22.90634375
  0
VERTEX
  8
0
 62
7
 10
3.86500000
 20
22.93700000
  0
VERTEX
  8
0
 62
7
 10
4.00906250
 20
22.99667188
  0
VERTEX
  8
0
 62
7
 10
4.15050000
 20
23.04912500
  0
VERTEX
  8
0
 62
7
 10
4.29868750
 20
23.09801563
  0
VERTEX
  8
0
 62
7
 10
4.46300000
 20
23.14700000
  0
VERTEX
  8
0
 62
7
 10
4.73070313
 20
23.22176563
  0
VERTEX
  8
0
 62
7
 10
4.99737500
 20
23.29512500
  0
VERTEX
  8
0
 62
7
 10
5.26385938
 20
23.37017188
  0
VERTEX
  8
0
 62
7
 10
5.53100000
 20
23.45000000
  0
VERTEX
  8
0
 62
7
 10
5.79944458
 20
23.53041992
  0
VERTEX
  8
0
 62
7
 10
6.06961914
 20
23.60590625
  0
VERTEX
  8
0
 62
7
 10
6.34147241
 20
23.67642383
  0
VERTEX
  8
0
 62
7
 10
6.61495313
 20
23.74193750
  0
VERTEX
  8
0
 62
7
 10
6.89001001
 20
23.80241211
  0
VERTEX
  8
0
 62
7
 10
7.16659180
 20
23.85781250
  0
VERTEX
  8
0
 62
7
 10
7.44464722
 20
23.90810352
  0
VERTEX
  8
0
 62
7
 10
7.72412500
 20
23.95325000
  0
VERTEX
  8
0
 62
7
 10
8.00497388
 20
23.99321680
  0
VERTEX
  8
0
 62
7
 10
8.28714258
 20
24.02796875
  0
VERTEX
  8
0
 62
7
 10
8.57057983
 20
24.05747070
  0
VERTEX
  8
0
 62
7
 10
8.85523438
 20
24.08168750
  0
VERTEX
  8
0
 62
7
 10
9.14105493
 20
24.10058398
  0
VERTEX
  8
0
 62
7
 10
9.42799023
 20
24.11412500
  0
VERTEX
  8
0
 62
7
 10
9.71598901
 20
24.12227539
  0
VERTEX
  8
0
 62
7
 10
10.00500000
 20
24.12500000
  0
VERTEX
  8
0
 62
7
 10
10.29389868
 20
24.12227539
  0
VERTEX
  8
0
 62
7
 10
10.58158008
 20
24.11412500
  0
VERTEX
  8
0
 62
7
 10
10.86802222
 20
24.10058398
  0
VERTEX
  8
0
 62
7
 10
11.15320313
 20
24.08168750
  0
VERTEX
  8
0
 62
7
 10
11.43710083
 20
24.05747070
  0
VERTEX
  8
0
 62
7
 10
11.71969336
 20
24.02796875
  0
VERTEX
  8
0
 62
7
 10
12.00095874
 20
23.99321680
  0
VERTEX
  8
0
 62
7
 10
12.28087500
 20
23.95325000
  0
VERTEX
  8
0
 62
7
 10
12.55942017
 20
23.90810352
  0
VERTEX
  8
0
 62
7
 10
12.83657227
 20
23.85781250
  0
VERTEX
  8
0
 62
7
 10
13.11230933
 20
23.80241211
  0
VERTEX
  8
0
 62
7
 10
13.38660938
 20
23.74193750
  0
VERTEX
  8
0
 62
7
 10
13.65945044
 20
23.67642383
  0
VERTEX
  8
0
 62
7
 10
13.93081055
 20
23.60590625
  0
VERTEX
  8
0
 62
7
 10
14.20066772
 20
23.53041992
  0
VERTEX
  8
0
 62
7
 10
14.46900000
 20
23.45000000
  0
VERTEX
  8
0
 62
7
 10
14.73614063
 20
23.37017188
  0
VERTEX
  8
0
 62
7
 10
15.00262500
 20
23.29512500
  0
VERTEX
  8
0
 62
7
 10
15.26929688
 20
23.22176563
  0
VERTEX
  8
0
 62
7
 10
15.53700000
 20
23.14700000
  0
VERTEX
  8
0
 62
7
 10
15.70131250
 20
23.09801563
  0
VERTEX
  8
0
 62
7
 10
15.84950000
 20
23.04912500
  0
VERTEX
  8
0
 62
7
 10
15.99093750
 20
22.99667188
  0
VERTEX
  8
0
 62
7
 10
16.13500000
 20
22.93700000
  0
VERTEX
  8
0
 62
7
 10
16.20029688
 20
22.90634375
  0
VERTEX
  8
0
 62
7
 10
16.26887500
 20
22.87100000
  0
VERTEX
  8
0
 62
7
 10
16.33876563
 20
22.83265625
  0
VERTEX
  8
0
 62
7
 10
16.40800000
 20
22.79300000
  0
VERTEX
  8
0
 62
7
 10
16.39800000
 20
22.82300000
  0
VERTEX
  8
0
 62
7
 10
16.39382617
 20
22.83661328
  0
VERTEX
  8
0
 62
7
 10
16.39310938
 20
22.85015625
  0
VERTEX
  8
0
 62
7
 10
16.39555664
 20
22.86318359
  0
VERTEX
  8
0
 62
7
 10
16.40087500
 20
22.87525000
  0
VERTEX
  8
0
 62
7
 10
16.40877148
 20
22.88591016
  0
VERTEX
  8
0
 62
7
 10
16.41895313
 20
22.89471875
  0
VERTEX
  8
0
 62
7
 10
16.43112695
 20
22.90123047
  0
VERTEX
  8
0
 62
7
 10
16.44500000
 20
22.90500000
  0
VERTEX
  8
0
 62
7
 10
16.50137500
 20
22.91187500
  0
VERTEX
  8
0
 62
7
 10
16.55700000
 20
22.91500000
  0
VERTEX
  8
0
 62
7
 10
16.49000000
 20
22.95800000
  0
VERTEX
  8
0
 62
7
 10
16.40321875
 20
23.00764063
  0
VERTEX
  8
0
 62
7
 10
16.31400000
 20
23.05287500
  0
VERTEX
  8
0
 62
7
 10
16.22253125
 20
23.09342188
  0
VERTEX
  8
0
 62
7
 10
16.12900000
 20
23.12900000
  0
VERTEX
  8
0
 62
7
 10
16.13000000
 20
23.14100000
  0
VERTEX
  8
0
 62
7
 10
16.21390625
 20
23.12242188
  0
VERTEX
  8
0
 62
7
 10
16.30025000
 20
23.09812500
  0
VERTEX
  8
0
 62
7
 10
16.38396875
 20
23.07026563
  0
VERTEX
  8
0
 62
7
 10
16.46000000
 20
23.04100000
  0
VERTEX
  8
0
 62
7
 10
16.55746875
 20
22.99787500
  0
VERTEX
  8
0
 62
7
 10
16.65325000
 20
22.95100000
  0
VERTEX
  8
0
 62
7
 10
16.74715625
 20
22.90037500
  0
VERTEX
  8
0
 62
7
 10
16.83900000
 20
22.84600000
  0
VERTEX
  8
0
 62
7
 10
16.83200000
 20
22.82800000
  0
VERTEX
  8
0
 62
7
 10
16.79407813
 20
22.83625000
  0
VERTEX
  8
0
 62
7
 10
16.75287500
 20
22.84300000
  0
VERTEX
  8
0
 62
7
 10
16.71148438
 20
22.84825000
  0
VERTEX
  8
0
 62
7
 10
16.67300000
 20
22.85200000
  0
VERTEX
  8
0
 62
7
 10
16.61825000
 20
22.85556250
  0
VERTEX
  8
0
 62
7
 10
16.56350000
 20
22.85575000
  0
VERTEX
  8
0
 62
7
 10
16.50875000
 20
22.85256250
  0
VERTEX
  8
0
 62
7
 10
16.45400000
 20
22.84600000
  0
VERTEX
  8
0
 62
7
 10
16.46203125
 20
22.82257813
  0
VERTEX
  8
0
 62
7
 10
16.46725000
 20
22.79962500
  0
VERTEX
  8
0
 62
7
 10
16.47059375
 20
22.77610938
  0
VERTEX
  8
0
 62
7
 10
16.47300000
 20
22.75100000
  0
VERTEX
  8
0
 62
7
 10
16.47312500
 20
22.72665625
  0
VERTEX
  8
0
 62
7
 10
16.47175000
 20
22.70100000
  0
VERTEX
  8
0
 62
7
 10
16.47075000
 20
22.67534375
  0
VERTEX
  8
0
 62
7
 10
16.47200000
 20
22.65100000
  0
VERTEX
  8
0
 62
7
 10
16.47779688
 20
22.61918750
  0
VERTEX
  8
0
 62
7
 10
16.48762500
 20
22.58850000
  0
VERTEX
  8
0
 62
7
 10
16.50139063
 20
22.55931250
  0
VERTEX
  8
0
 62
7
 10
16.51900000
 20
22.53200000
  0
VERTEX
  8
0
 62
7
 10
16.42500000
 20
22.40800000
  0
VERTEX
  8
0
 62
7
 10
16.43315625
 20
22.37596875
  0
VERTEX
  8
0
 62
7
 10
16.44600000
 20
22.34600000
  0
VERTEX
  8
0
 62
7
 10
16.46184375
 20
22.31828125
  0
VERTEX
  8
0
 62
7
 10
16.47900000
 20
22.29300000
  0
VERTEX
  8
0
 62
7
 10
16.49823438
 20
22.26939063
  0
VERTEX
  8
0
 62
7
 10
16.51887500
 20
22.24887500
  0
VERTEX
  8
0
 62
7
 10
16.54157813
 20
22.23042188
  0
VERTEX
  8
0
 62
7
 10
16.56700000
 20
22.21300000
  0
VERTEX
  8
0
 62
7
 10
16.58703320
 20
22.20166211
  0
VERTEX
  8
0
 62
7
 10
16.60801563
 20
22.19298438
  0
VERTEX
  8
0
 62
7
 10
16.62977148
 20
22.18672070
  0
VERTEX
  8
0
 62
7
 10
16.65212500
 20
22.18262500
  0
VERTEX
  8
0
 62
7
 10
16.67490039
 20
22.18045117
  0
VERTEX
  8
0
 62
7
 10
16.69792188
 20
22.17995313
  0
VERTEX
  8
0
 62
7
 10
16.72101367
 20
22.18088477
  0
VERTEX
  8
0
 62
7
 10
16.74400000
 20
22.18300000
  0
VERTEX
  8
0
 62
7
 10
16.77659375
 20
22.18857813
  0
VERTEX
  8
0
 62
7
 10
16.80825000
 20
22.19762500
  0
VERTEX
  8
0
 62
7
 10
16.83878125
 20
22.20985938
  0
VERTEX
  8
0
 62
7
 10
16.86800000
 20
22.22500000
  0
VERTEX
  8
0
 62
7
 10
16.87845313
 20
22.22860938
  0
VERTEX
  8
0
 62
7
 10
16.88712500
 20
22.22743750
  0
VERTEX
  8
0
 62
7
 10
16.89373438
 20
22.22260938
  0
VERTEX
  8
0
 62
7
 10
16.89800000
 20
22.21525000
  0
VERTEX
  8
0
 62
7
 10
16.89964063
 20
22.20648438
  0
VERTEX
  8
0
 62
7
 10
16.89837500
 20
22.19743750
  0
VERTEX
  8
0
 62
7
 10
16.89392188
 20
22.18923438
  0
VERTEX
  8
0
 62
7
 10
16.88600000
 20
22.18300000
  0
VERTEX
  8
0
 62
7
 10
16.82812500
 20
22.15012500
  0
VERTEX
  8
0
 62
7
 10
16.77400000
 20
22.11200000
  0
VERTEX
  8
0
 62
7
 10
16.72584375
 20
22.07079688
  0
VERTEX
  8
0
 62
7
 10
16.68200000
 20
22.02537500
  0
VERTEX
  8
0
 62
7
 10
16.64265625
 20
21.97601563
  0
VERTEX
  8
0
 62
7
 10
16.60800000
 20
21.92300000
  0
VERTEX
  8
0
 62
7
 10
16.58181055
 20
21.87480664
  0
VERTEX
  8
0
 62
7
 10
16.55954688
 20
21.82489063
  0
VERTEX
  8
0
 62
7
 10
16.54129102
 20
21.77349805
  0
VERTEX
  8
0
 62
7
 10
16.52712500
 20
21.72087500
  0
VERTEX
  8
0
 62
7
 10
16.51713086
 20
21.66726758
  0
VERTEX
  8
0
 62
7
 10
16.51139063
 20
21.61292188
  0
VERTEX
  8
0
 62
7
 10
16.50998633
 20
21.55808398
  0
VERTEX
  8
0
 62
7
 10
16.51300000
 20
21.50300000
  0
VERTEX
  8
0
 62
7
 10
16.60200000
 20
21.48600000
  0
VERTEX
  8
0
 62
7
 10
16.59989063
 20
21.43579688
  0
VERTEX
  8
0
 62
7
 10
16.60237500
 20
21.38587500
  0
VERTEX
  8
0
 62
7
 10
16.60917188
 20
21.33651563
  0
VERTEX
  8
0
 62
7
 10
16.62000000
 20
21.28800000
  0
VERTEX
  8
0
 62
7
 10
16.63010938
 20
21.25446875
  0
VERTEX
  8
0
 62
7
 10
16.64237500
 20
21.22150000
  0
VERTEX
  8
0
 62
7
 10
16.65670313
 20
21.18928125
  0
VERTEX
  8
0
 62
7
 10
16.67300000
 20
21.15800000
  0
VERTEX
  8
0
 62
7
 10
16.75000000
 20
21.17000000
  0
VERTEX
  8
0
 62
7
 10
16.76520313
 20
21.14859375
  0
VERTEX
  8
0
 62
7
 10
16.77787500
 20
21.12550000
  0
VERTEX
  8
0
 62
7
 10
16.78810938
 20
21.10165625
  0
VERTEX
  8
0
 62
7
 10
16.79600000
 20
21.07800000
  0
VERTEX
  8
0
 62
7
 10
16.81000000
 20
21.02162500
  0
VERTEX
  8
0
 62
7
 10
16.82700000
 20
20.96900000
  0
VERTEX
  8
0
 62
7
 10
16.84048438
 20
20.93976563
  0
VERTEX
  8
0
 62
7
 10
16.85687500
 20
20.91212500
  0
VERTEX
  8
0
 62
7
 10
16.87607813
 20
20.88617188
  0
VERTEX
  8
0
 62
7
 10
16.89800000
 20
20.86200000
  0
VERTEX
  8
0
 62
7
 10
16.92421875
 20
20.91332813
  0
VERTEX
  8
0
 62
7
 10
16.95475000
 20
20.96212500
  0
VERTEX
  8
0
 62
7
 10
16.98940625
 20
21.00810938
  0
VERTEX
  8
0
 62
7
 10
17.02800000
 20
21.05100000
  0
VERTEX
  8
0
 62
7
 10
17.07090625
 20
21.09109375
  0
VERTEX
  8
0
 62
7
 10
17.11700000
 20
21.12725000
  0
VERTEX
  8
0
 62
7
 10
17.16609375
 20
21.15928125
  0
VERTEX
  8
0
 62
7
 10
17.21800000
 20
21.18700000
  0
VERTEX
  8
0
 62
7
 10
17.31800000
 20
21.09900000
  0
VERTEX
  8
0
 62
7
 10
17.35954688
 20
21.12717188
  0
VERTEX
  8
0
 62
7
 10
17.39537500
 20
21.16162500
  0
VERTEX
  8
0
 62
7
 10
17.42501563
 20
21.20151563
  0
VERTEX
  8
0
 62
7
 10
17.44800000
 20
21.24600000
  0
VERTEX
  8
0
 62
7
 10
17.45691211
 20
21.27176367
  0
VERTEX
  8
0
 62
7
 10
17.46285938
 20
21.29798438
  0
VERTEX
  8
0
 62
7
 10
17.46615820
 20
21.32455664
  0
VERTEX
  8
0
 62
7
 10
17.46712500
 20
21.35137500
  0
VERTEX
  8
0
 62
7
 10
17.46607617
 20
21.37833398
  0
VERTEX
  8
0
 62
7
 10
17.46332813
 20
21.40532813
  0
VERTEX
  8
0
 62
7
 10
17.45919727
 20
21.43225195
  0
VERTEX
  8
0
 62
7
 10
17.45400000
 20
21.45900000
  0
VERTEX
  8
0
 62
7
 10
17.44236719
 20
21.50717773
  0
VERTEX
  8
0
 62
7
 10
17.42843750
 20
21.55360938
  0
VERTEX
  8
0
 62
7
 10
17.41216406
 20
21.59851758
  0
VERTEX
  8
0
 62
7
 10
17.39350000
 20
21.64212500
  0
VERTEX
  8
0
 62
7
 10
17.37239844
 20
21.68465430
  0
VERTEX
  8
0
 62
7
 10
17.34881250
 20
21.72632813
  0
VERTEX
  8
0
 62
7
 10
17.32269531
 20
21.76736914
  0
VERTEX
  8
0
 62
7
 10
17.29400000
 20
21.80800000
  0
VERTEX
  8
0
 62
7
 10
17.28787500
 20
21.81871875
  0
VERTEX
  8
0
 62
7
 10
17.28475000
 20
21.83075000
  0
VERTEX
  8
0
 62
7
 10
17.28500000
 20
21.84315625
  0
VERTEX
  8
0
 62
7
 10
17.28900000
 20
21.85500000
  0
VERTEX
  8
0
 62
7
 10
17.29868750
 20
21.86625000
  0
VERTEX
  8
0
 62
7
 10
17.31175000
 20
21.87225000
  0
VERTEX
  8
0
 62
7
 10
17.32668750
 20
21.87412500
  0
VERTEX
  8
0
 62
7
 10
17.34200000
 20
21.87300000
  0
VERTEX
  8
0
 62
7
 10
17.35178320
 20
21.87043555
  0
VERTEX
  8
0
 62
7
 10
17.36026563
 20
21.86598438
  0
VERTEX
  8
0
 62
7
 10
17.36764648
 20
21.86000977
  0
VERTEX
  8
0
 62
7
 10
17.37412500
 20
21.85287500
  0
VERTEX
  8
0
 62
7
 10
17.37990039
 20
21.84494336
  0
VERTEX
  8
0
 62
7
 10
17.38517188
 20
21.83657813
  0
VERTEX
  8
0
 62
7
 10
17.39013867
 20
21.82814258
  0
VERTEX
  8
0
 62
7
 10
17.39500000
 20
21.82000000
  0
VERTEX
  8
0
 62
7
 10
17.40976563
 20
21.78485938
  0
VERTEX
  8
0
 62
7
 10
17.42087500
 20
21.74362500
  0
VERTEX
  8
0
 62
7
 10
17.43029688
 20
21.70032813
  0
VERTEX
  8
0
 62
7
 10
17.44000000
 20
21.65900000
  0
VERTEX
  8
0
 62
7
 10
17.48400000
 20
21.48900000
  0
VERTEX
  8
0
 62
7
 10
17.50268750
 20
21.42278125
  0
VERTEX
  8
0
 62
7
 10
17.52250000
 20
21.35675000
  0
VERTEX
  8
0
 62
7
 10
17.54531250
 20
21.29184375
  0
VERTEX
  8
0
 62
7
 10
17.57300000
 20
21.22900000
  0
VERTEX
  8
0
 62
7
 10
17.60569531
 20
21.16945117
  0
VERTEX
  8
0
 62
7
 10
17.64218750
 20
21.11242188
  0
VERTEX
  8
0
 62
7
 10
17.68233594
 20
21.05808789
  0
VERTEX
  8
0
 62
7
 10
17.72600000
 20
21.00662500
  0
VERTEX
  8
0
 62
7
 10
17.77303906
 20
20.95820898
  0
VERTEX
  8
0
 62
7
 10
17.82331250
 20
20.91301563
  0
VERTEX
  8
0
 62
7
 10
17.87667969
 20
20.87122070
  0
VERTEX
  8
0
 62
7
 10
17.93300000
 20
20.83300000
  0
VERTEX
  8
0
 62
7
 10
17.95700000
 20
20.89200000
  0
VERTEX
  8
0
 62
7
 10
17.99214063
 20
20.83887500
  0
VERTEX
  8
0
 62
7
 10
18.03412500
 20
20.79100000
  0
VERTEX
  8
0
 62
7
 10
18.08229688
 20
20.74912500
  0
VERTEX
  8
0
 62
7
 10
18.13600000
 20
20.71400000
  0
VERTEX
  8
0
 62
7
 10
18.16414063
 20
20.69892188
  0
VERTEX
  8
0
 62
7
 10
18.19312500
 20
20.68562500
  0
VERTEX
  8
0
 62
7
 10
18.22304688
 20
20.67476563
  0
VERTEX
  8
0
 62
7
 10
18.25400000
 20
20.66700000
  0
VERTEX
  8
0
 62
7
 10
18.29925000
 20
20.66193750
  0
VERTEX
  8
0
 62
7
 10
18.34450000
 20
20.66325000
  0
VERTEX
  8
0
 62
7
 10
18.38900000
 20
20.67093750
  0
VERTEX
  8
0
 62
7
 10
18.43200000
 20
20.68500000
  0
VERTEX
  8
0
 62
7
 10
18.43200000
 20
20.75600000
  0
VERTEX
  8
0
 62
7
 10
18.46614063
 20
20.74282813
  0
VERTEX
  8
0
 62
7
 10
18.50112500
 20
20.73237500
  0
VERTEX
  8
0
 62
7
 10
18.53704688
 20
20.72548438
  0
VERTEX
  8
0
 62
7
 10
18.57400000
 20
20.72300000
  0
VERTEX
  8
0
 62
7
 10
18.61393750
 20
20.72553125
  0
VERTEX
  8
0
 62
7
 10
18.65200000
 20
20.73050000
  0
VERTEX
  8
0
 62
7
 10
18.68931250
 20
20.73396875
  0
VERTEX
  8
0
 62
7
 10
18.72700000
 20
20.73200000
  0
VERTEX
  8
0
 62
7
 10
18.76629688
 20
20.72376563
  0
VERTEX
  8
0
 62
7
 10
18.80437500
 20
20.71112500
  0
VERTEX
  8
0
 62
7
 10
18.84076563
 20
20.69417188
  0
VERTEX
  8
0
 62
7
 10
18.87500000
 20
20.67300000
  0
VERTEX
  8
0
 62
7
 10
18.88737500
 20
20.74025000
  0
VERTEX
  8
0
 62
7
 10
18.89450000
 20
20.80825000
  0
VERTEX
  8
0
 62
7
 10
18.89637500
 20
20.87662500
  0
VERTEX
  8
0
 62
7
 10
18.89300000
 20
20.94500000
  0
VERTEX
  8
0
 62
7
 10
18.88270313
 20
21.02404688
  0
VERTEX
  8
0
 62
7
 10
18.86537500
 20
21.10187500
  0
VERTEX
  8
0
 62
7
 10
18.84110938
 20
21.17801563
  0
VERTEX
  8
0
 62
7
 10
18.81000000
 20
21.25200000
  0
VERTEX
  8
0
 62
7
 10
18.91700000
 20
21.37100000
  0
VERTEX
  8
0
 62
7
 10
18.88965625
 20
21.42704688
  0
VERTEX
  8
0
 62
7
 10
18.85875000
 20
21.48112500
  0
VERTEX
  8
0
 62
7
 10
18.82446875
 20
21.53314063
  0
VERTEX
  8
0
 62
7
 10
18.78700000
 20
21.58300000
  0
VERTEX
  8
0
 62
7
 10
18.73585938
 20
21.64164063
  0
VERTEX
  8
0
 62
7
 10
18.68012500
 20
21.69587500
  0
VERTEX
  8
0
 62
7
 10
18.62007813
 20
21.74542188
  0
VERTEX
  8
0
 62
7
 10
18.55600000
 20
21.79000000
  0
VERTEX
  8
0
 62
7
 10
18.61500000
 20
21.89700000
  0
VERTEX
  8
0
 62
7
 10
18.58090625
 20
21.92720313
  0
VERTEX
  8
0
 62
7
 10
18.54475000
 20
21.95487500
  0
VERTEX
  8
0
 62
7
 10
18.50671875
 20
21.98010938
  0
VERTEX
  8
0
 62
7
 10
18.46700000
 20
22.00300000
  0
VERTEX
  8
0
 62
7
 10
18.43622266
 20
22.01795703
  0
VERTEX
  8
0
 62
7
 10
18.40471875
 20
22.03078125
  0
VERTEX
  8
0
 62
7
 10
18.37260547
 20
22.04177734
  0
VERTEX
  8
0
 62
7
 10
18.34000000
 20
22.05125000
  0
VERTEX
  8
0
 62
7
 10
18.30701953
 20
22.05950391
  0
VERTEX
  8
0
 62
7
 10
18.27378125
 20
22.06684375
  0
VERTEX
  8
0
 62
7
 10
18.24040234
 20
22.07357422
  0
VERTEX
  8
0
 62
7
 10
18.20700000
 20
22.08000000
  0
VERTEX
  8
0
 62
7
 10
18.15959375
 20
22.08712500
  0
VERTEX
  8
0
 62
7
 10
18.11200000
 20
22.09200000
  0
VERTEX
  8
0
 62
7
 10
18.06440625
 20
22.09687500
  0
VERTEX
  8
0
 62
7
 10
18.01700000
 20
22.10400000
  0
VERTEX
  8
0
 62
7
 10
17.96646875
 20
22.11340625
  0
VERTEX
  8
0
 62
7
 10
17.91650000
 20
22.12375000
  0
VERTEX
  8
0
 62
7
 10
17.86653125
 20
22.13746875
  0
VERTEX
  8
0
 62
7
 10
17.81600000
 20
22.15700000
  0
VERTEX
  8
0
 62
7
 10
17.78837500
 20
22.17150000
  0
VERTEX
  8
0
 62
7
 10
17.76300000
 20
22.18900000
  0
VERTEX
  8
0
 62
7
 10
17.74874805
 20
22.20191992
  0
VERTEX
  8
0
 62
7
 10
17.74273438
 20
22.21473438
  0
VERTEX
  8
0
 62
7
 10
17.74382227
 20
22.22677539
  0
VERTEX
  8
0
 62
7
 10
17.75087500
 20
22.23737500
  0
VERTEX
  8
0
 62
7
 10
17.76275586
 20
22.24586523
  0
VERTEX
  8
0
 62
7
 10
17.77832813
 20
22.25157813
  0
VERTEX
  8
0
 62
7
 10
17.79645508
 20
22.25384570
  0
VERTEX
  8
0
 62
7
 10
17.81600000
 20
22.25200000
  0
VERTEX
  8
0
 62
7
 10
17.85837500
 20
22.24112500
  0
VERTEX
  8
0
 62
7
 10
17.90000000
 20
22.22500000
  0
VERTEX
  8
0
 62
7
 10
17.94228125
 20
22.20415625
  0
VERTEX
  8
0
 62
7
 10
17.98625000
 20
22.18425000
  0
VERTEX
  8
0
 62
7
 10
18.03134375
 20
22.16621875
  0
VERTEX
  8
0
 62
7
 10
18.07700000
 20
22.15100000
  0
VERTEX
  8
0
 62
7
 10
18.14803125
 20
22.13278125
  0
VERTEX
  8
0
 62
7
 10
18.22000000
 20
22.12000000
  0
VERTEX
  8
0
 62
7
 10
18.29271875
 20
22.11246875
  0
VERTEX
  8
0
 62
7
 10
18.36600000
 20
22.11000000
  0
VERTEX
  8
0
 62
7
 10
18.33100000
 20
22.23400000
  0
VERTEX
  8
0
 62
7
 10
18.36209375
 20
22.26678125
  0
VERTEX
  8
0
 62
7
 10
18.39525000
 20
22.29750000
  0
VERTEX
  8
0
 62
7
 10
18.43028125
 20
22.32596875
  0
VERTEX
  8
0
 62
7
 10
18.46700000
 20
22.35200000
  0
VERTEX
  8
0
 62
7
 10
18.51307813
 20
22.37996875
  0
VERTEX
  8
0
 62
7
 10
18.56112500
 20
22.40400000
  0
VERTEX
  8
0
 62
7
 10
18.61085938
 20
22.42428125
  0
VERTEX
  8
0
 62
7
 10
18.66200000
 20
22.44100000
  0
VERTEX
  8
0
 62
7
 10
18.72112500
 20
22.45512500
  0
VERTEX
  8
0
 62
7
 10
18.78100000
 20
22.46400000
  0
VERTEX
  8
0
 62
7
 10
18.76465625
 20
22.51359375
  0
VERTEX
  8
0
 62
7
 10
18.74400000
 20
22.56150000
  0
VERTEX
  8
0
 62
7
 10
18.71884375
 20
22.60715625
  0
VERTEX
  8
0
 62
7
 10
18.68900000
 20
22.65000000
  0
VERTEX
  8
0
 62
7
 10
18.64437500
 20
22.69871875
  0
VERTEX
  8
0
 62
7
 10
18.59375000
 20
22.74125000
  0
VERTEX
  8
0
 62
7
 10
18.53825000
 20
22.77740625
  0
VERTEX
  8
0
 62
7
 10
18.47900000
 20
22.80700000
  0
VERTEX
  8
0
 62
7
 10
18.55000000
 20
22.87800000
  0
VERTEX
  8
0
 62
7
 10
18.52359375
 20
22.91021875
  0
VERTEX
  8
0
 62
7
 10
18.49400000
 20
22.93925000
  0
VERTEX
  8
0
 62
7
 10
18.46140625
 20
22.96490625
  0
VERTEX
  8
0
 62
7
 10
18.42600000
 20
22.98700000
  0
VERTEX
  8
0
 62
7
 10
18.38809180
 20
23.00499805
  0
VERTEX
  8
0
 62
7
 10
18.34885938
 20
23.01848438
  0
VERTEX
  8
0
 62
7
 10
18.30866602
 20
23.02744727
  0
VERTEX
  8
0
 62
7
 10
18.26787500
 20
23.03187500
  0
VERTEX
  8
0
 62
7
 10
18.22684961
 20
23.03175586
  0
VERTEX
  8
0
 62
7
 10
18.18595313
 20
23.02707813
  0
VERTEX
  8
0
 62
7
 10
18.14554883
 20
23.01783008
  0
VERTEX
  8
0
 62
7
 10
18.10600000
 20
23.00400000
  0
VERTEX
  8
0
 62
7
 10
18.04700000
 20
23.07500000
  0
VERTEX
  8
0
 62
7
 10
17.98540625
 20
23.07501563
  0
VERTEX
  8
0
 62
7
 10
17.92400000
 20
23.06912500
  0
VERTEX
  8
0
 62
7
 10
17.86334375
 20
23.05742188
  0
VERTEX
  8
0
 62
7
 10
17.80400000
 20
23.04000000
  0
VERTEX
  8
0
 62
7
 10
17.75121875
 20
23.01714063
  0
VERTEX
  8
0
 62
7
 10
17.70125000
 20
22.98837500
  0
VERTEX
  8
0
 62
7
 10
17.65240625
 20
22.95717188
  0
VERTEX
  8
0
 62
7
 10
17.60300000
 20
22.92700000
  0
VERTEX
  8
0
 62
7
 10
17.57195313
 20
22.90918750
  0
VERTEX
  8
0
 62
7
 10
17.54212500
 20
22.89100000
  0
VERTEX
  8
0
 62
7
 10
17.51173438
 20
22.87356250
  0
VERTEX
  8
0
 62
7
 10
17.47900000
 20
22.85800000
  0
VERTEX
  8
0
 62
7
 10
17.42075000
 20
22.83725000
  0
VERTEX
  8
0
 62
7
 10
17.36100000
 20
22.82100000
  0
VERTEX
  8
0
 62
7
 10
17.34856641
 20
22.82033594
  0
VERTEX
  8
0
 62
7
 10
17.33840625
 20
22.82375000
  0
VERTEX
  8
0
 62
7
 10
17.33073047
 20
22.83035156
  0
VERTEX
  8
0
 62
7
 10
17.32575000
 20
22.83925000
  0
VERTEX
  8
0
 62
7
 10
17.32367578
 20
22.84955469
  0
VERTEX
  8
0
 62
7
 10
17.32471875
 20
22.86037500
  0
VERTEX
  8
0
 62
7
 10
17.32908984
 20
22.87082031
  0
VERTEX
  8
0
 62
7
 10
17.33700000
 20
22.88000000
  0
VERTEX
  8
0
 62
7
 10
17.35179688
 20
22.88975000
  0
VERTEX
  8
0
 62
7
 10
17.36837500
 20
22.89650000
  0
VERTEX
  8
0
 62
7
 10
17.38551563
 20
22.90250000
  0
VERTEX
  8
0
 62
7
 10
17.40200000
 20
22.91000000
  0
VERTEX
  8
0
 62
7
 10
17.42495313
 20
22.92367188
  0
VERTEX
  8
0
 62
7
 10
17.44687500
 20
22.93837500
  0
VERTEX
  8
0
 62
7
 10
17.46710938
 20
22.95514063
  0
VERTEX
  8
0
 62
7
 10
17.48500000
 20
22.97500000
  0
VERTEX
  8
0
 62
7
 10
17.49541602
 20
22.99003125
  0
VERTEX
  8
0
 62
7
 10
17.50476563
 20
23.00581250
  0
VERTEX
  8
0
 62
7
 10
17.51282617
 20
23.02225000
  0
VERTEX
  8
0
 62
7
 10
17.51937500
 20
23.03925000
  0
VERTEX
  8
0
 62
7
 10
17.52418945
 20
23.05671875
  0
VERTEX
  8
0
 62
7
 10
17.52704688
 20
23.07456250
  0
VERTEX
  8
0
 62
7
 10
17.52772461
 20
23.09268750
  0
VERTEX
  8
0
 62
7
 10
17.52600000
 20
23.11100000
  0
VERTEX
  8
0
 62
7
 10
17.52229688
 20
23.12783594
  0
VERTEX
  8
0
 62
7
 10
17.51662500
 20
23.14387500
  0
VERTEX
  8
0
 62
7
 10
17.50926563
 20
23.15916406
  0
VERTEX
  8
0
 62
7
 10
17.50050000
 20
23.17375000
  0
VERTEX
  8
0
 62
7
 10
17.49060938
 20
23.18767969
  0
VERTEX
  8
0
 62
7
 10
17.47987500
 20
23.20100000
  0
VERTEX
  8
0
 62
7
 10
17.46857813
 20
23.21375781
  0
VERTEX
  8
0
 62
7
 10
17.45700000
 20
23.22600000
  0
VERTEX
  8
0
 62
7
 10
17.42671875
 20
23.25270313
  0
VERTEX
  8
0
 62
7
 10
17.39325000
 20
23.27462500
  0
VERTEX
  8
0
 62
7
 10
17.35715625
 20
23.29223438
  0
VERTEX
  8
0
 62
7
 10
17.31900000
 20
23.30600000
  0
VERTEX
  8
0
 62
7
 10
17.19500000
 20
23.18200000
  0
VERTEX
  8
0
 62
7
 10
17.12400000
 20
23.11100000
  0
VERTEX
  8
0
 62
7
 10
17.01700000
 20
23.17600000
  0
VERTEX
  8
0
 62
7
 10
16.99963086
 20
23.16674609
  0
VERTEX
  8
0
 62
7
 10
16.98360938
 20
23.15559375
  0
VERTEX
  8
0
 62
7
 10
16.96906445
 20
23.14270703
  0
VERTEX
  8
0
 62
7
 10
16.95612500
 20
23.12825000
  0
VERTEX
  8
0
 62
7
 10
16.94491992
 20
23.11238672
  0
VERTEX
  8
0
 62
7
 10
16.93557813
 20
23.09528125
  0
VERTEX
  8
0
 62
7
 10
16.92822852
 20
23.07709766
  0
VERTEX
  8
0
 62
7
 10
16.92300000
 20
23.05800000
  0
VERTEX
  8
0
 62
7
 10
16.91925000
 20
23.03073438
  0
VERTEX
  8
0
 62
7
 10
16.92000000
 20
23.00337500
  0
VERTEX
  8
0
 62
7
 10
16.92525000
 20
22.97657813
  0
VERTEX
  8
0
 62
7
 10
16.93500000
 20
22.95100000
  0
VERTEX
  8
0
 62
7
 10
16.92900000
 20
22.92200000
  0
VERTEX
  8
0
 62
7
 10
16.83812500
 20
22.97387500
  0
VERTEX
  8
0
 62
7
 10
16.74500000
 20
23.02200000
  0
VERTEX
  8
0
 62
7
 10
16.52600000
 20
23.12700000
  0
VERTEX
  8
0
 62
7
 10
16.53200000
 20
23.14000000
  0
VERTEX
  8
0
 62
7
 10
16.62962500
 20
23.10600000
  0
VERTEX
  8
0
 62
7
 10
16.72200000
 20
23.06900000
  0
VERTEX
  8
0
 62
7
 10
16.85900000
 20
23.01100000
  0
VERTEX
  8
0
 62
7
 10
16.86400000
 20
23.07100000
  0
VERTEX
  8
0
 62
7
 10
16.87312500
 20
23.10175000
  0
VERTEX
  8
0
 62
7
 10
16.88600000
 20
23.13100000
  0
VERTEX
  8
0
 62
7
 10
16.58988477
 20
23.18335938
  0
VERTEX
  8
0
 62
7
 10
16.29476563
 20
23.24068750
  0
VERTEX
  8
0
 62
7
 10
16.00060742
 20
23.30298438
  0
VERTEX
  8
0
 62
7
 10
15.70737500
 20
23.37025000
  0
VERTEX
  8
0
 62
7
 10
15.41503320
 20
23.44248438
  0
VERTEX
  8
0
 62
7
 10
15.12354688
 20
23.51968750
  0
VERTEX
  8
0
 62
7
 10
14.83288086
 20
23.60185938
  0
VERTEX
  8
0
 62
7
 10
14.54300000
 20
23.68900000
  0
VERTEX
  8
0
 62
7
 10
14.27080518
 20
23.77052124
  0
VERTEX
  8
0
 62
7
 10
13.99687891
 20
23.84706055
  0
VERTEX
  8
0
 62
7
 10
13.72127100
 20
23.91858130
  0
VERTEX
  8
0
 62
7
 10
13.44403125
 20
23.98504688
  0
VERTEX
  8
0
 62
7
 10
13.16520947
 20
24.04642065
  0
VERTEX
  8
0
 62
7
 10
12.88485547
 20
24.10266602
  0
VERTEX
  8
0
 62
7
 10
12.60301904
 20
24.15374634
  0
VERTEX
  8
0
 62
7
 10
12.31975000
 20
24.19962500
  0
VERTEX
  8
0
 62
7
 10
12.03509814
 20
24.24026538
  0
VERTEX
  8
0
 62
7
 10
11.74911328
 20
24.27563086
  0
VERTEX
  8
0
 62
7
 10
11.46184521
 20
24.30568481
  0
VERTEX
  8
0
 62
7
 10
11.17334375
 20
24.33039063
  0
VERTEX
  8
0
 62
7
 10
10.88365869
 20
24.34971167
  0
VERTEX
  8
0
 62
7
 10
10.59283984
 20
24.36361133
  0
VERTEX
  8
0
 62
7
 10
10.30093701
 20
24.37205298
  0
VERTEX
  8
0
 62
7
 10
10.00800000
 20
24.37500000
  0
SEQEND
  0
POLYLINE
  8
0
 62
7
 66
1
 70
1
  0
VERTEX
  8
0
 62
7
 10
3.22800000
 20
18.26600000
  0
VERTEX
  8
0
 62
7
 10
3.30739063
 20
18.24223438
  0
VERTEX
  8
0
 62
7
 10
3.38837500
 20
18.22362500
  0
VERTEX
  8
0
 62
7
 10
3.47142188
 20
18.21045313
  0
VERTEX
  8
0
 62
7
 10
3.55700000
 20
18.20300000
  0
VERTEX
  8
0
 62
7
 10
3.63478125
 20
18.20107813
  0
VERTEX
  8
0
 62
7
 10
3.71575000
 20
18.20412500
  0
VERTEX
  8
0
 62
7
 10
3.79634375
 20
18.21185938
  0
VERTEX
  8
0
 62
7
 10
3.87300000
 20
18.22400000
  0
VERTEX
  8
0
 62
7
 10
3.93542188
 20
18.23789063
  0
VERTEX
  8
0
 62
7
 10
3.99662500
 20
18.25562500
  0
VERTEX
  8
0
 62
7
 10
4.05651563
 20
18.27729688
  0
VERTEX
  8
0
 62
7
 10
4.11500000
 20
18.30300000
  0
VERTEX
  8
0
 62
7
 10
4.16179688
 20
18.32726563
  0
VERTEX
  8
0
 62
7
 10
4.20737500
 20
18.35387500
  0
VERTEX
  8
0
 62
7
 10
4.25126563
 20
18.38329688
  0
VERTEX
  8
0
 62
7
 10
4.29300000
 20
18.41600000
  0
VERTEX
  8
0
 62
7
 10
4.33654688
 20
18.45534375
  0
VERTEX
  8
0
 62
7
 10
4.37737500
 20
18.49750000
  0
VERTEX
  8
0
 62
7
 10
4.41351563
 20
18.54340625
  0
VERTEX
  8
0
 62
7
 10
4.44300000
 20
18.59400000
  0
VERTEX
  8
0
 62
7
 10
4.46209375
 20
18.64378125
  0
VERTEX
  8
0
 62
7
 10
4.47500000
 20
18.69525000
  0
VERTEX
  8
0
 62
7
 10
4.48265625
 20
18.74784375
  0
VERTEX
  8
0
 62
7
 10
4.48600000
 20
18.80100000
  0
VERTEX
  8
0
 62
7
 10
4.48546948
 20
18.83730469
  0
VERTEX
  8
0
 62
7
 10
4.48203711
 20
18.87360938
  0
VERTEX
  8
0
 62
7
 10
4.47575415
 20
18.90956250
  0
VERTEX
  8
0
 62
7
 10
4.46667188
 20
18.94481250
  0
VERTEX
  8
0
 62
7
 10
4.45484155
 20
18.97900781
  0
VERTEX
  8
0
 62
7
 10
4.44031445
 20
19.01179688
  0
VERTEX
  8
0
 62
7
 10
4.42314185
 20
19.04282813
  0
VERTEX
  8
0
 62
7
 10
4.40337500
 20
19.07175000
  0
VERTEX
  8
0
 62
7
 10
4.38106519
 20
19.09821094
  0
VERTEX
  8
0
 62
7
 10
4.35626367
 20
19.12185938
  0
VERTEX
  8
0
 62
7
 10
4.32902173
 20
19.14234375
  0
VERTEX
  8
0
 62
7
 10
4.29939063
 20
19.15931250
  0
VERTEX
  8
0
 62
7
 10
4.26742163
 20
19.17241406
  0
VERTEX
  8
0
 62
7
 10
4.23316602
 20
19.18129688
  0
VERTEX
  8
0
 62
7
 10
4.19667505
 20
19.18560938
  0
VERTEX
  8
0
 62
7
 10
4.15800000
 20
19.18500000
  0
VERTEX
  8
0
 62
7
 10
4.13499805
 20
19.18260547
  0
VERTEX
  8
0
 62
7
 10
4.11198438
 20
19.17896875
  0
VERTEX
  8
0
 62
7
 10
4.08932227
 20
19.17378516
  0
VERTEX
  8
0
 62
7
 10
4.06737500
 20
19.16675000
  0
VERTEX
  8
0
 62
7
 10
4.04650586
 20
19.15755859
  0
VERTEX
  8
0
 62
7
 10
4.02707813
 20
19.14590625
  0
VERTEX
  8
0
 62
7
 10
4.00945508
 20
19.13148828
  0
VERTEX
  8
0
 62
7
 10
3.99400000
 20
19.11400000
  0
VERTEX
  8
0
 62
7
 10
3.98494727
 20
19.10134961
  0
VERTEX
  8
0
 62
7
 10
3.97670313
 20
19.08817188
  0
VERTEX
  8
0
 62
7
 10
3.96951367
 20
19.07450195
  0
VERTEX
  8
0
 62
7
 10
3.96362500
 20
19.06037500
  0
VERTEX
  8
0
 62
7
 10
3.95928320
 20
19.04582617
  0
VERTEX
  8
0
 62
7
 10
3.95673438
 20
19.03089063
  0
VERTEX
  8
0
 62
7
 10
3.95622461
 20
19.01560352
  0
VERTEX
  8
0
 62
7
 10
3.95800000
 20
19.00000000
  0
VERTEX
  8
0
 62
7
 10
3.96521875
 20
18.97462500
  0
VERTEX
  8
0
 62
7
 10
3.97750000
 20
18.95150000
  0
VERTEX
  8
0
 62
7
 10
3.99428125
 20
18.93137500
  0
VERTEX
  8
0
 62
7
 10
4.01500000
 20
18.91500000
  0
VERTEX
  8
0
 62
7
 10
4.01245898
 20
18.93272266
  0
VERTEX
  8
0
 62
7
 10
4.01229688
 20
18.95046875
  0
VERTEX
  8
0
 62
7
 10
4.01445508
 20
18.96798047
  0
VERTEX
  8
0
 62
7
 10
4.01887500
 20
18.98500000
  0
VERTEX
  8
0
 62
7
 10
4.02549805
 20
19.00126953
  0
VERTEX
  8
0
 62
7
 10
4.03426563
 20
19.01653125
  0
VERTEX
  8
0
 62
7
 10
4.04511914
 20
19.03052734
  0
VERTEX
  8
0
 62
7
 10
4.05800000
 20
19.04300000
  0
VERTEX
  8
0
 62
7
 10
4.08326563
 20
19.05946875
  0
VERTEX
  8
0
 62
7
 10
4.11162500
 20
19.06900000
  0
VERTEX
  8
0
 62
7
 10
4.14167188
 20
19.07253125
  0
VERTEX
  8
0
 62
7
 10
4.17200000
 20
19.07100000
  0
VERTEX
  8
0
 62
7
 10
4.19165039
 20
19.06730664
  0
VERTEX
  8
0
 62
7
 10
4.21014063
 20
19.06095313
  0
VERTEX
  8
0
 62
7
 10
4.22752930
 20
19.05227930
  0
VERTEX
  8
0
 62
7
 10
4.24387500
 20
19.04162500
  0
VERTEX
  8
0
 62
7
 10
4.25923633
 20
19.02933008
  0
VERTEX
  8
0
 62
7
 10
4.27367188
 20
19.01573438
  0
VERTEX
  8
0
 62
7
 10
4.28724023
 20
19.00117773
  0
VERTEX
  8
0
 62
7
 10
4.30000000
 20
18.98600000
  0
VERTEX
  8
0
 62
7
 10
4.32325000
 20
18.95035938
  0
VERTEX
  8
0
 62
7
 10
4.33975000
 20
18.91162500
  0
VERTEX
  8
0
 62
7
 10
4.35062500
 20
18.87082813
  0
VERTEX
  8
0
 62
7
 10
4.35700000
 20
18.82900000
  0
VERTEX
  8
0
 62
7
 10
4.35892773
 20
18.80126758
  0
VERTEX
  8
0
 62
7
 10
4.35873438
 20
18.77364063
  0
VERTEX
  8
0
 62
7
 10
4.35645508
 20
18.74622461
  0
VERTEX
  8
0
 62
7
 10
4.35212500
 20
18.71912500
  0
VERTEX
  8
0
 62
7
 10
4.34577930
 20
18.69244727
  0
VERTEX
  8
0
 62
7
 10
4.33745313
 20
18.66629688
  0
VERTEX
  8
0
 62
7
 10
4.32718164
 20
18.64077930
  0
VERTEX
  8
0
 62
7
 10
4.31500000
 20
18.61600000
  0
VERTEX
  8
0
 62
7
 10
4.29184375
 20
18.57968750
  0
VERTEX
  8
0
 62
7
 10
4.26400000
 20
18.54675000
  0
VERTEX
  8
0
 62
7
 10
4.23315625
 20
18.51643750
  0
VERTEX
  8
0
 62
7
 10
4.20100000
 20
18.48800000
  0
VERTEX
  8
0
 62
7
 10
4.16451563
 20
18.45887500
  0
VERTEX
  8
0
 62
7
 10
4.12587500
 20
18.43275000
  0
VERTEX
  8
0
 62
7
 10
4.08554688
 20
18.40925000
  0
VERTEX
  8
0
 62
7
 10
4.04400000
 20
18.38800000
  0
VERTEX
  8
0
 62
7
 10
3.99228125
 20
18.36495313
  0
VERTEX
  8
0
 62
7
 10
3.93925000
 20
18.34537500
  0
VERTEX
  8
0
 62
7
 10
3.88509375
 20
18.32935938
  0
VERTEX
  8
0
 62
7
 10
3.83000000
 20
18.31700000
  0
VERTEX
  8
0
 62
7
 10
3.77800000
 20
18.30834375
  0
VERTEX
  8
0
 62
7
 10
3.72600000
 20
18.30325000
  0
VERTEX
  8
0
 62
7
 10
3.67250000
 20
18.30153125
  0
VERTEX
  8
0
 62
7
 10
3.61600000
 20
18.30300000
  0
VERTEX
  8
0
 62
7
 10
3.56274609
 20
18.30632422
  0
VERTEX
  8
0
 62
7
 10
3.50628125
 20
18.31140625
  0
VERTEX
  8
0
 62
7
 10
3.44742578
 20
18.31878516
  0
VERTEX
  8
0
 62
7
 10
3.38700000
 20
18.32900000
  0
VERTEX
  8
0
 62
7
 10
3.32582422
 20
18.34258984
  0
VERTEX
  8
0
 62
7
 10
3.26471875
 20
18.36009375
  0
VERTEX
  8
0
 62
7
 10
3.20450391
 20
18.38205078
  0
VERTEX
  8
0
 62
7
 10
3.14600000
 20
18.40900000
  0
VERTEX
  8
0
 62
7
 10
3.09700000
 20
18.43700000
  0
VERTEX
  8
0
 62
7
 10
3.11000000
 20
18.42400000
  0
VERTEX
  8
0
 62
7
 10
3.15712500
 20
18.38225000
  0
VERTEX
  8
0
 62
7
 10
3.20800000
 20
18.34500000
  0
VERTEX
  8
0
 62
7
 10
3.22448438
 20
18.32942188
  0
VERTEX
  8
0
 62
7
 10
3.23337500
 20
18.30962500
  0
VERTEX
  8
0
 62
7
 10
3.23457813
 20
18.28776563
  0
VERTEX
  8
0
 62
7
 10
3.22800000
 20
18.26600000
  0
SEQEND
  0
POLYLINE
  8
0
 62
7
 66
1
 70
1
  0
VERTEX
  8
0
 62
7
 10
1.33000000
 20
20.67200000
  0
VERTEX
  8
0
 62
7
 10
1.33900000
 20
20.60812500
  0
VERTEX
  8
0
 62
7
 10
1.35100000
 20
20.54500000
  0
VERTEX
  8
0
 62
7
 10
1.37300000
 20
20.45875000
  0
VERTEX
  8
0
 62
7
 10
1.40100000
 20
20.37400000
  0
VERTEX
  8
0
 62
7
 10
1.41168750
 20
20.36740625
  0
VERTEX
  8
0
 62
7
 10
1.41525000
 20
20.35650000
  0
VERTEX
  8
0
 62
7
 10
1.41168750
 20
20.34559375
  0
VERTEX
  8
0
 62
7
 10
1.40100000
 20
20.33900000
  0
VERTEX
  8
0
 62
7
 10
1.39300000
 20
20.33900000
  0
VERTEX
  8
0
 62
7
 10
1.37148438
 20
20.36395313
  0
VERTEX
  8
0
 62
7
 10
1.34762500
 20
20.38637500
  0
VERTEX
  8
0
 62
7
 10
1.32170313
 20
20.40635938
  0
VERTEX
  8
0
 62
7
 10
1.29400000
 20
20.42400000
  0
VERTEX
  8
0
 62
7
 10
1.26679883
 20
20.43772852
  0
VERTEX
  8
0
 62
7
 10
1.23857813
 20
20.44889063
  0
VERTEX
  8
0
 62
7
 10
1.20953711
 20
20.45745117
  0
VERTEX
  8
0
 62
7
 10
1.17987500
 20
20.46337500
  0
VERTEX
  8
0
 62
7
 10
1.14979102
 20
20.46662695
  0
VERTEX
  8
0
 62
7
 10
1.11948438
 20
20.46717188
  0
VERTEX
  8
0
 62
7
 10
1.08915430
 20
20.46497461
  0
VERTEX
  8
0
 62
7
 10
1.05900000
 20
20.46000000
  0
VERTEX
  8
0
 62
7
 10
1.07637500
 20
20.40762500
  0
VERTEX
  8
0
 62
7
 10
1.08700000
 20
20.35300000
  0
VERTEX
  8
0
 62
7
 10
1.09000000
 20
20.29950000
  0
VERTEX
  8
0
 62
7
 10
1.08700000
 20
20.24600000
  0
VERTEX
  8
0
 62
7
 10
.95900000
 20
20.14700000
  0
VERTEX
  8
0
 62
7
 10
.95682813
 20
20.12300000
  0
VERTEX
  8
0
 62
7
 10
.95775000
 20
20.09918750
  0
VERTEX
  8
0
 62
7
 10
.96167188
 20
20.07584375
  0
VERTEX
  8
0
 62
7
 10
.96850000
 20
20.05325000
  0
VERTEX
  8
0
 62
7
 10
.97814063
 20
20.03168750
  0
VERTEX
  8
0
 62
7
 10
.99050000
 20
20.01143750
  0
VERTEX
  8
0
 62
7
 10
1.00548438
 20
19.99278125
  0
VERTEX
  8
0
 62
7
 10
1.02300000
 20
19.97600000
  0
VERTEX
  8
0
 62
7
 10
1.04882813
 20
19.95845313
  0
VERTEX
  8
0
 62
7
 10
1.07737500
 20
19.94587500
  0
VERTEX
  8
0
 62
7
 10
1.10723438
 20
19.93760938
  0
VERTEX
  8
0
 62
7
 10
1.13700000
 20
19.93300000
  0
VERTEX
  8
0
 62
7
 10
1.17700000
 20
19.93065625
  0
VERTEX
  8
0
 62
7
 10
1.21700000
 20
19.93300000
  0
VERTEX
  8
0
 62
7
 10
1.25625000
 20
19.94059375
  0
VERTEX
  8
0
 62
7
 10
1.29400000
 20
19.95400000
  0
VERTEX
  8
0
 62
7
 10
1.30357813
 20
19.95339063
  0
VERTEX
  8
0
 62
7
 10
1.31212500
 20
19.94912500
  0
VERTEX
  8
0
 62
7
 10
1.31860938
 20
19.94204688
  0
VERTEX
  8
0
 62
7
 10
1.32200000
 20
19.93300000
  0
VERTEX
  8
0
 62
7
 10
1.32153125
 20
19.92284375
  0
VERTEX
  8
0
 62
7
 10
1.31750000
 20
19.91400000
  0
VERTEX
  8
0
 62
7
 10
1.31046875
 20
19.90740625
  0
VERTEX
  8
0
 62
7
 10
1.30100000
 20
19.90400000
  0
VERTEX
  8
0
 62
7
 10
1.25525000
 20
19.88812500
  0
VERTEX
  8
0
 62
7
 10
1.20800000
 20
19.87600000
  0
VERTEX
  8
0
 62
7
 10
1.17189063
 20
19.87043750
  0
VERTEX
  8
0
 62
7
 10
1.13512500
 20
19.86750000
  0
VERTEX
  8
0
 62
7
 10
1.09929688
 20
19.86531250
  0
VERTEX
  8
0
 62
7
 10
1.06600000
 20
19.86200000
  0
VERTEX
  8
0
 62
7
 10
1.02375000
 20
19.85231250
  0
VERTEX
  8
0
 62
7
 10
.98300000
 20
19.83700000
  0
VERTEX
  8
0
 62
7
 10
.94450000
 20
19.81643750
  0
VERTEX
  8
0
 62
7
 10
.90900000
 20
19.79100000
  0
VERTEX
  8
0
 62
7
 10
.87744141
 20
19.76099219
  0
VERTEX
  8
0
 62
7
 10
.85040625
 20
19.72756250
  0
VERTEX
  8
0
 62
7
 10
.82810547
 20
19.69122656
  0
VERTEX
  8
0
 62
7
 10
.81075000
 20
19.65250000
  0
VERTEX
  8
0
 62
7
 10
.79855078
 20
19.61189844
  0
VERTEX
  8
0
 62
7
 10
.79171875
 20
19.56993750
  0
VERTEX
  8
0
 62
7
 10
.79046484
 20
19.52713281
  0
VERTEX
  8
0
 62
7
 10
.79500000
 20
19.48400000
  0
VERTEX
  8
0
 62
7
 10
.89500000
 20
19.47000000
  0
VERTEX
  8
0
 62
7
 10
.87375000
 20
19.44185938
  0
VERTEX
  8
0
 62
7
 10
.85362500
 20
19.41231250
  0
VERTEX
  8
0
 62
7
 10
.83481250
 20
19.38154688
  0
VERTEX
  8
0
 62
7
 10
.81750000
 20
19.34975000
  0
VERTEX
  8
0
 62
7
 10
.80187500
 20
19.31710938
  0
VERTEX
  8
0
 62
7
 10
.78812500
 20
19.28381250
  0
VERTEX
  8
0
 62
7
 10
.77643750
 20
19.25004688
  0
VERTEX
  8
0
 62
7
 10
.76700000
 20
19.21600000
  0
VERTEX
  8
0
 62
7
 10
.75707422
 20
19.16497266
  0
VERTEX
  8
0
 62
7
 10
.75190625
 20
19.11396875
  0
VERTEX
  8
0
 62
7
 10
.75128516
 20
19.06310547
  0
VERTEX
  8
0
 62
7
 10
.75500000
 20
19.01250000
  0
VERTEX
  8
0
 62
7
 10
.76283984
 20
18.96226953
  0
VERTEX
  8
0
 62
7
 10
.77459375
 20
18.91253125
  0
VERTEX
  8
0
 62
7
 10
.79005078
 20
18.86340234
  0
VERTEX
  8
0
 62
7
 10
.80900000
 20
18.81500000
  0
VERTEX
  8
0
 62
7
 10
.88000000
 20
18.82900000
  0
VERTEX
  8
0
 62
7
 10
.89510938
 20
18.76404688
  0
VERTEX
  8
0
 62
7
 10
.91612500
 20
18.69937500
  0
VERTEX
  8
0
 62
7
 10
.94257813
 20
18.63676563
  0
VERTEX
  8
0
 62
7
 10
.97400000
 20
18.57800000
  0
VERTEX
  8
0
 62
7
 10
.99508789
 20
18.54525391
  0
VERTEX
  8
0
 62
7
 10
1.01782813
 20
18.51440625
  0
VERTEX
  8
0
 62
7
 10
1.04218555
 20
18.48529297
  0
VERTEX
  8
0
 62
7
 10
1.06812500
 20
18.45775000
  0
VERTEX
  8
0
 62
7
 10
1.09561133
 20
18.43161328
  0
VERTEX
  8
0
 62
7
 10
1.12460938
 20
18.40671875
  0
VERTEX
  8
0
 62
7
 10
1.15508398
 20
18.38290234
  0
VERTEX
  8
0
 62
7
 10
1.18700000
 20
18.36000000
  0
VERTEX
  8
0
 62
7
 10
1.18190625
 20
18.38654688
  0
VERTEX
  8
0
 62
7
 10
1.18075000
 20
18.41337500
  0
VERTEX
  8
0
 62
7
 10
1.18446875
 20
18.44001563
  0
VERTEX
  8
0
 62
7
 10
1.19400000
 20
18.46600000
  0
VERTEX
  8
0
 62
7
 10
1.21234375
 20
18.49445313
  0
VERTEX
  8
0
 62
7
 10
1.23350000
 20
18.51737500
  0
VERTEX
  8
0
 62
7
 10
1.25615625
 20
18.53785938
  0
VERTEX
  8
0
 62
7
 10
1.27900000
 20
18.55900000
  0
VERTEX
  8
0
 62
7
 10
1.33812500
 20
18.61437500
  0
VERTEX
  8
0
 62
7
 10
1.40100000
 20
18.66600000
  0
VERTEX
  8
0
 62
7
 10
1.46500000
 20
18.60900000
  0
VERTEX
  8
0
 62
7
 10
1.50448438
 20
18.62978125
  0
VERTEX
  8
0
 62
7
 10
1.54162500
 20
18.65450000
  0
VERTEX
  8
0
 62
7
 10
1.57595313
 20
18.68296875
  0
VERTEX
  8
0
 62
7
 10
1.60700000
 20
18.71500000
  0
VERTEX
  8
0
 62
7
 10
1.63173633
 20
18.74645508
  0
VERTEX
  8
0
 62
7
 10
1.65282813
 20
18.77989063
  0
VERTEX
  8
0
 62
7
 10
1.67047461
 20
18.81503711
  0
VERTEX
  8
0
 62
7
 10
1.68487500
 20
18.85162500
  0
VERTEX
  8
0
 62
7
 10
1.69622852
 20
18.88938477
  0
VERTEX
  8
0
 62
7
 10
1.70473438
 20
18.92804688
  0
VERTEX
  8
0
 62
7
 10
1.71059180
 20
18.96734180
  0
VERTEX
  8
0
 62
7
 10
1.71400000
 20
19.00700000
  0
VERTEX
  8
0
 62
7
 10
1.71460938
 20
19.03760352
  0
VERTEX
  8
0
 62
7
 10
1.71287500
 20
19.06732813
  0
VERTEX
  8
0
 62
7
 10
1.70907813
 20
19.09641992
  0
VERTEX
  8
0
 62
7
 10
1.70350000
 20
19.12512500
  0
VERTEX
  8
0
 62
7
 10
1.69642188
 20
19.15368945
  0
VERTEX
  8
0
 62
7
 10
1.68812500
 20
19.18235938
  0
VERTEX
  8
0
 62
7
 10
1.67889063
 20
19.21138086
  0
VERTEX
  8
0
 62
7
 10
1.66900000
 20
19.24100000
  0
VERTEX
  8
0
 62
7
 10
1.66627661
 20
19.25217114
  0
VERTEX
  8
0
 62
7
 10
1.66582227
 20
19.26240039
  0
VERTEX
  8
0
 62
7
 10
1.66739819
 20
19.27163647
  0
VERTEX
  8
0
 62
7
 10
1.67076563
 20
19.27982813
  0
VERTEX
  8
0
 62
7
 10
1.67568579
 20
19.28692407
  0
VERTEX
  8
0
 62
7
 10
1.68191992
 20
19.29287305
  0
VERTEX
  8
0
 62
7
 10
1.68922925
 20
19.29762378
  0
VERTEX
  8
0
 62
7
 10
1.69737500
 20
19.30112500
  0
VERTEX
  8
0
 62
7
 10
1.70611841
 20
19.30332544
  0
VERTEX
  8
0
 62
7
 10
1.71522070
 20
19.30417383
  0
VERTEX
  8
0
 62
7
 10
1.72444312
 20
19.30361890
  0
VERTEX
  8
0
 62
7
 10
1.73354688
 20
19.30160938
  0
VERTEX
  8
0
 62
7
 10
1.74229321
 20
19.29809399
  0
VERTEX
  8
0
 62
7
 10
1.75044336
 20
19.29302148
  0
VERTEX
  8
0
 62
7
 10
1.75775854
 20
19.28634058
  0
VERTEX
  8
0
 62
7
 10
1.76400000
 20
19.27800000
  0
VERTEX
  8
0
 62
7
 10
1.77314063
 20
19.25754688
  0
VERTEX
  8
0
 62
7
 10
1.77787500
 20
19.23587500
  0
VERTEX
  8
0
 62
7
 10
1.78017188
 20
19.21401563
  0
VERTEX
  8
0
 62
7
 10
1.78200000
 20
19.19300000
  0
VERTEX
  8
0
 62
7
 10
1.78462500
 20
19.12500000
  0
VERTEX
  8
0
 62
7
 10
1.78500000
 20
19.05700000
  0
VERTEX
  8
0
 62
7
 10
1.79006250
 20
18.99348438
  0
VERTEX
  8
0
 62
7
 10
1.79850000
 20
18.92987500
  0
VERTEX
  8
0
 62
7
 10
1.80918750
 20
18.86757813
  0
VERTEX
  8
0
 62
7
 10
1.82100000
 20
18.80800000
  0
VERTEX
  8
0
 62
7
 10
1.84088867
 20
18.73143555
  0
VERTEX
  8
0
 62
7
 10
1.86723438
 20
18.65973438
  0
VERTEX
  8
0
 62
7
 10
1.89955664
 20
18.59250977
  0
VERTEX
  8
0
 62
7
 10
1.93737500
 20
18.52937500
  0
VERTEX
  8
0
 62
7
 10
1.98020898
 20
18.46994336
  0
VERTEX
  8
0
 62
7
 10
2.02757813
 20
18.41382813
  0
VERTEX
  8
0
 62
7
 10
2.07900195
 20
18.36064258
  0
VERTEX
  8
0
 62
7
 10
2.13400000
 20
18.31000000
  0
VERTEX
  8
0
 62
7
 10
2.20600000
 20
18.40900000
  0
VERTEX
  8
0
 62
7
 10
2.25284375
 20
18.37282813
  0
VERTEX
  8
0
 62
7
 10
2.30175000
 20
18.33937500
  0
VERTEX
  8
0
 62
7
 10
2.35253125
 20
18.30873438
  0
VERTEX
  8
0
 62
7
 10
2.40500000
 20
18.28100000
  0
VERTEX
  8
0
 62
7
 10
2.47884375
 20
18.24767188
  0
VERTEX
  8
0
 62
7
 10
2.55475000
 20
18.21987500
  0
VERTEX
  8
0
 62
7
 10
2.63253125
 20
18.19789063
  0
VERTEX
  8
0
 62
7
 10
2.71200000
 20
18.18200000
  0
VERTEX
  8
0
 62
7
 10
2.71200000
 20
18.26000000
  0
VERTEX
  8
0
 62
7
 10
2.75118750
 20
18.23665625
  0
VERTEX
  8
0
 62
7
 10
2.79300000
 20
18.21575000
  0
VERTEX
  8
0
 62
7
 10
2.83631250
 20
18.19896875
  0
VERTEX
  8
0
 62
7
 10
2.88000000
 20
18.18800000
  0
VERTEX
  8
0
 62
7
 10
2.90442383
 20
18.18409375
  0
VERTEX
  8
0
 62
7
 10
2.92951563
 20
18.18150000
  0
VERTEX
  8
0
 62
7
 10
2.95500586
 20
18.18040625
  0
VERTEX
  8
0
 62
7
 10
2.98062500
 20
18.18100000
  0
VERTEX
  8
0
 62
7
 10
3.00610352
 20
18.18346875
  0
VERTEX
  8
0
 62
7
 10
3.03117188
 20
18.18800000
  0
VERTEX
  8
0
 62
7
 10
3.05556055
 20
18.19478125
  0
VERTEX
  8
0
 62
7
 10
3.07900000
 20
18.20400000
  0
VERTEX
  8
0
 62
7
 10
3.10890625
 20
18.22103125
  0
VERTEX
  8
0
 62
7
 10
3.13375000
 20
18.24200000
  0
VERTEX
  8
0
 62
7
 10
3.15521875
 20
18.26671875
  0
VERTEX
  8
0
 62
7
 10
3.17500000
 20
18.29500000
  0
VERTEX
  8
0
 62
7
 10
3.11962500
 20
18.33537500
  0
VERTEX
  8
0
 62
7
 10
3.06800000
 20
18.38100000
  0
VERTEX
  8
0
 62
7
 10
3.02662500
 20
18.42550000
  0
VERTEX
  8
0
 62
7
 10
2.98900000
 20
18.47300000
  0
VERTEX
  8
0
 62
7
 10
2.95162500
 20
18.52537500
  0
VERTEX
  8
0
 62
7
 10
2.91800000
 20
18.58000000
  0
VERTEX
  8
0
 62
7
 10
3.01800000
 20
18.65100000
  0
VERTEX
  8
0
 62
7
 10
3.02176563
 20
18.71092188
  0
VERTEX
  8
0
 62
7
 10
3.01812500
 20
18.77037500
  0
VERTEX
  8
0
 62
7
 10
3.00717188
 20
18.82889063
  0
VERTEX
  8
0
 62
7
 10
2.98900000
 20
18.88600000
  0
VERTEX
  8
0
 62
7
 10
2.96767188
 20
18.93339063
  0
VERTEX
  8
0
 62
7
 10
2.94137500
 20
18.97787500
  0
VERTEX
  8
0
 62
7
 10
2.91039063
 20
19.01917188
  0
VERTEX
  8
0
 62
7
 10
2.87500000
 20
19.05700000
  0
VERTEX
  8
0
 62
7
 10
2.96800000
 20
19.17100000
  0
VERTEX
  8
0
 62
7
 10
2.94302734
 20
19.20506445
  0
VERTEX
  8
0
 62
7
 10
2.91615625
 20
19.23745313
  0
VERTEX
  8
0
 62
7
 10
2.88745703
 20
19.26808398
  0
VERTEX
  8
0
 62
7
 10
2.85700000
 20
19.29687500
  0
VERTEX
  8
0
 62
7
 10
2.82485547
 20
19.32374414
  0
VERTEX
  8
0
 62
7
 10
2.79109375
 20
19.34860938
  0
VERTEX
  8
0
 62
7
 10
2.75578516
 20
19.37138867
  0
VERTEX
  8
0
 62
7
 10
2.71900000
 20
19.39200000
  0
VERTEX
  8
0
 62
7
 10
2.68697070
 20
19.40704102
  0
VERTEX
  8
0
 62
7
 10
2.65401563
 20
19.41951563
  0
VERTEX
  8
0
 62
7
 10
2.62033398
 20
19.42995117
  0
VERTEX
  8
0
 62
7
 10
2.58612500
 20
19.43887500
  0
VERTEX
  8
0
 62
7
 10
2.55158789
 20
19.44681445
  0
VERTEX
  8
0
 62
7
 10
2.51692188
 20
19.45429688
  0
VERTEX
  8
0
 62
7
 10
2.48232617
 20
19.46184961
  0
VERTEX
  8
0
 62
7
 10
2.44800000
 20
19.47000000
  0
VERTEX
  8
0
 62
7
 10
2.42112695
 20
19.47588086
  0
VERTEX
  8
0
 62
7
 10
2.39389063
 20
19.48048438
  0
VERTEX
  8
0
 62
7
 10
2.36649023
 20
19.48450195
  0
VERTEX
  8
0
 62
7
 10
2.33912500
 20
19.48862500
  0
VERTEX
  8
0
 62
7
 10
2.31199414
 20
19.49354492
  0
VERTEX
  8
0
 62
7
 10
2.28529688
 20
19.49995313
  0
VERTEX
  8
0
 62
7
 10
2.25923242
 20
19.50854102
  0
VERTEX
  8
0
 62
7
 10
2.23400000
 20
19.52000000
  0
VERTEX
  8
0
 62
7
 10
2.22432446
 20
19.52612866
  0
VERTEX
  8
0
 62
7
 10
2.21593945
 20
19.53349805
  0
VERTEX
  8
0
 62
7
 10
2.20886987
 20
19.54189575
  0
VERTEX
  8
0
 62
7
 10
2.20314063
 20
19.55110938
  0
VERTEX
  8
0
 62
7
 10
2.19877661
 20
19.56092651
  0
VERTEX
  8
0
 62
7
 10
2.19580273
 20
19.57113477
  0
VERTEX
  8
0
 62
7
 10
2.19424390
 20
19.58152173
  0
VERTEX
  8
0
 62
7
 10
2.19412500
 20
19.59187500
  0
VERTEX
  8
0
 62
7
 10
2.19547095
 20
19.60198218
  0
VERTEX
  8
0
 62
7
 10
2.19830664
 20
19.61163086
  0
VERTEX
  8
0
 62
7
 10
2.20265698
 20
19.62060864
  0
VERTEX
  8
0
 62
7
 10
2.20854688
 20
19.62870313
  0
VERTEX
  8
0
 62
7
 10
2.21600122
 20
19.63570190
  0
VERTEX
  8
0
 62
7
 10
2.22504492
 20
19.64139258
  0
VERTEX
  8
0
 62
7
 10
2.23570288
 20
19.64556274
  0
VERTEX
  8
0
 62
7
 10
2.24800000
 20
19.64800000
  0
VERTEX
  8
0
 62
7
 10
2.27487500
 20
19.64689063
  0
VERTEX
  8
0
 62
7
 10
2.30025000
 20
19.63912500
  0
VERTEX
  8
0
 62
7
 10
2.32450000
 20
19.62704688
  0
VERTEX
  8
0
 62
7
 10
2.34800000
 20
19.61300000
  0
VERTEX
  8
0
 62
7
 10
2.37170313
 20
19.59421875
  0
VERTEX
  8
0
 62
7
 10
2.39212500
 20
19.57150000
  0
VERTEX
  8
0
 62
7
 10
2.41198438
 20
19.54803125
  0
VERTEX
  8
0
 62
7
 10
2.43400000
 20
19.52700000
  0
VERTEX
  8
0
 62
7
 10
2.46450000
 20
19.50325000
  0
VERTEX
  8
0
 62
7
 10
2.49800000
 20
19.48400000
  0
VERTEX
  8
0
 62
7
 10
2.52565625
 20
19.47559375
  0
VERTEX
  8
0
 62
7
 10
2.55425000
 20
19.47150000
  0
VERTEX
  8
0
 62
7
 10
2.58321875
 20
19.47190625
  0
VERTEX
  8
0
 62
7
 10
2.61200000
 20
19.47700000
  0
VERTEX
  8
0
 62
7
 10
2.61900000
 20
19.53400000
  0
VERTEX
  8
0
 62
7
 10
2.64873438
 20
19.52685938
  0
VERTEX
  8
0
 62
7
 10
2.67912500
 20
19.52337500
  0
VERTEX
  8
0
 62
7
 10
2.70970313
 20
19.52345313
  0
VERTEX
  8
0
 62
7
 10
2.74000000
 20
19.52700000
  0
VERTEX
  8
0
 62
7
 10
2.77266992
 20
19.53464844
  0
VERTEX
  8
0
 62
7
 10
2.80373438
 20
19.54618750
  0
VERTEX
  8
0
 62
7
 10
2.83290039
 20
19.56138281
  0
VERTEX
  8
0
 62
7
 10
2.85987500
 20
19.58000000
  0
VERTEX
  8
0
 62
7
 10
2.88436523
 20
19.60180469
  0
VERTEX
  8
0
 62
7
 10
2.90607813
 20
19.62656250
  0
VERTEX
  8
0
 62
7
 10
2.92472070
 20
19.65403906
  0
VERTEX
  8
0
 62
7
 10
2.94000000
 20
19.68400000
  0
VERTEX
  8
0
 62
7
 10
2.86100000
 20
19.76200000
  0
VERTEX
  8
0
 62
7
 10
2.89098438
 20
19.78089063
  0
VERTEX
  8
0
 62
7
 10
2.92237500
 20
19.79687500
  0
VERTEX
  8
0
 62
7
 10
2.95507813
 20
19.80967188
  0
VERTEX
  8
0
 62
7
 10
2.98900000
 20
19.81900000
  0
VERTEX
  8
0
 62
7
 10
3.04117188
 20
19.82707813
  0
VERTEX
  8
0
 62
7
 10
3.09362500
 20
19.82737500
  0
VERTEX
  8
0
 62
7
 10
3.14551563
 20
19.81998438
  0
VERTEX
  8
0
 62
7
 10
3.19600000
 20
19.80500000
  0
VERTEX
  8
0
 62
7
 10
3.19021875
 20
19.85775000
  0
VERTEX
  8
0
 62
7
 10
3.17750000
 20
19.90900000
  0
VERTEX
  8
0
 62
7
 10
3.15803125
 20
19.95800000
  0
VERTEX
  8
0
 62
7
 10
3.13200000
 20
20.00400000
  0
VERTEX
  8
0
 62
7
 10
3.11298828
 20
20.03051563
  0
VERTEX
  8
0
 62
7
 10
3.09203125
 20
20.05525000
  0
VERTEX
  8
0
 62
7
 10
3.06924609
 20
20.07810938
  0
VERTEX
  8
0
 62
7
 10
3.04475000
 20
20.09900000
  0
VERTEX
  8
0
 62
7
 10
3.01866016
 20
20.11782813
  0
VERTEX
  8
0
 62
7
 10
2.99109375
 20
20.13450000
  0
VERTEX
  8
0
 62
7
 10
2.96216797
 20
20.14892188
  0
VERTEX
  8
0
 62
7
 10
2.93200000
 20
20.16100000
  0
VERTEX
  8
0
 62
7
 10
2.97500000
 20
20.21800000
  0
VERTEX
  8
0
 62
7
 10
2.93139063
 20
20.26032813
  0
VERTEX
  8
0
 62
7
 10
2.88337500
 20
20.29712500
  0
VERTEX
  8
0
 62
7
 10
2.83142188
 20
20.32810938
  0
VERTEX
  8
0
 62
7
 10
2.77600000
 20
20.35300000
  0
VERTEX
  8
0
 62
7
 10
2.72896875
 20
20.36875000
  0
VERTEX
  8
0
 62
7
 10
2.68100000
 20
20.38000000
  0
VERTEX
  8
0
 62
7
 10
2.63228125
 20
20.38675000
  0
VERTEX
  8
0
 62
7
 10
2.58300000
 20
20.38900000
  0
VERTEX
  8
0
 62
7
 10
2.59800000
 20
20.48800000
  0
VERTEX
  8
0
 62
7
 10
2.56661328
 20
20.49741992
  0
VERTEX
  8
0
 62
7
 10
2.53478125
 20
20.50467188
  0
VERTEX
  8
0
 62
7
 10
2.50262109
 20
20.50974414
  0
VERTEX
  8
0
 62
7
 10
2.47025000
 20
20.51262500
  0
VERTEX
  8
0
 62
7
 10
2.43778516
 20
20.51330273
  0
VERTEX
  8
0
 62
7
 10
2.40534375
 20
20.51176563
  0
VERTEX
  8
0
 62
7
 10
2.37304297
 20
20.50800195
  0
VERTEX
  8
0
 62
7
 10
2.34100000
 20
20.50200000
  0
VERTEX
  8
0
 62
7
 10
2.31241016
 20
20.49441577
  0
VERTEX
  8
0
 62
7
 10
2.28543750
 20
20.48487305
  0
VERTEX
  8
0
 62
7
 10
2.25996484
 20
20.47349927
  0
VERTEX
  8
0
 62
7
 10
2.23587500
 20
20.46042188
  0
VERTEX
  8
0
 62
7
 10
2.21305078
 20
20.44576831
  0
VERTEX
  8
0
 62
7
 10
2.19137500
 20
20.42966602
  0
VERTEX
  8
0
 62
7
 10
2.17073047
 20
20.41224243
  0
VERTEX
  8
0
 62
7
 10
2.15100000
 20
20.39362500
  0
VERTEX
  8
0
 62
7
 10
2.13206641
 20
20.37394116
  0
VERTEX
  8
0
 62
7
 10
2.11381250
 20
20.35331836
  0
VERTEX
  8
0
 62
7
 10
2.09612109
 20
20.33188403
  0
VERTEX
  8
0
 62
7
 10
2.07887500
 20
20.30976563
  0
VERTEX
  8
0
 62
7
 10
2.06195703
 20
20.28709058
  0
VERTEX
  8
0
 62
7
 10
2.04525000
 20
20.26398633
  0
VERTEX
  8
0
 62
7
 10
2.02863672
 20
20.24058032
  0
VERTEX
  8
0
 62
7
 10
2.01200000
 20
20.21700000
  0
VERTEX
  8
0
 62
7
 10
2.00376563
 20
20.20332813
  0
VERTEX
  8
0
 62
7
 10
1.99412500
 20
20.18637500
  0
VERTEX
  8
0
 62
7
 10
1.98317188
 20
20.17073438
  0
VERTEX
  8
0
 62
7
 10
1.97100000
 20
20.16100000
  0
VERTEX
  8
0
 62
7
 10
1.95435938
 20
20.15767188
  0
VERTEX
  8
0
 62
7
 10
1.93837500
 20
20.16062500
  0
VERTEX
  8
0
 62
7
 10
1.92445313
 20
20.16901563
  0
VERTEX
  8
0
 62
7
 10
1.91400000
 20
20.18200000
  0
VERTEX
  8
0
 62
7
 10
1.90985742
 20
20.19341797
  0
VERTEX
  8
0
 62
7
 10
1.91029688
 20
20.20378125
  0
VERTEX
  8
0
 62
7
 10
1.91436914
 20
20.21325391
  0
VERTEX
  8
0
 62
7
 10
1.92112500
 20
20.22200000
  0
VERTEX
  8
0
 62
7
 10
1.92961523
 20
20.23018359
  0
VERTEX
  8
0
 62
7
 10
1.93889063
 20
20.23796875
  0
VERTEX
  8
0
 62
7
 10
1.94800195
 20
20.24551953
  0
VERTEX
  8
0
 62
7
 10
1.95600000
 20
20.25300000
  0
VERTEX
  8
0
 62
7
 10
1.97523438
 20
20.26957813
  0
VERTEX
  8
0
 62
7
 10
1.99662500
 20
20.28587500
  0
VERTEX
  8
0
 62
7
 10
2.01745313
 20
20.30348438
  0
VERTEX
  8
0
 62
7
 10
2.03500000
 20
20.32400000
  0
VERTEX
  8
0
 62
7
 10
2.05059375
 20
20.35220313
  0
VERTEX
  8
0
 62
7
 10
2.06150000
 20
20.38237500
  0
VERTEX
  8
0
 62
7
 10
2.06790625
 20
20.41385938
  0
VERTEX
  8
0
 62
7
 10
2.07000000
 20
20.44600000
  0
VERTEX
  8
0
 62
7
 10
2.06712305
 20
20.48499805
  0
VERTEX
  8
0
 62
7
 10
2.05804688
 20
20.52210938
  0
VERTEX
  8
0
 62
7
 10
2.04322852
 20
20.55675977
  0
VERTEX
  8
0
 62
7
 10
2.02312500
 20
20.58837500
  0
VERTEX
  8
0
 62
7
 10
1.99819336
 20
20.61638086
  0
VERTEX
  8
0
 62
7
 10
1.96889063
 20
20.64020313
  0
VERTEX
  8
0
 62
7
 10
1.93567383
 20
20.65926758
  0
VERTEX
  8
0
 62
7
 10
1.89900000
 20
20.67300000
  0
VERTEX
  8
0
 62
7
 10
1.87350000
 20
20.62862500
  0
VERTEX
  8
0
 62
7
 10
1.84200000
 20
20.58800000
  0
VERTEX
  8
0
 62
7
 10
1.81150000
 20
20.55762500
  0
VERTEX
  8
0
 62
7
 10
1.77800000
 20
20.53100000
  0
VERTEX
  8
0
 62
7
 10
1.62900000
 20
20.58800000
  0
VERTEX
  8
0
 62
7
 10
1.60389063
 20
20.56812500
  0
VERTEX
  8
0
 62
7
 10
1.58112500
 20
20.54600000
  0
VERTEX
  8
0
 62
7
 10
1.56079688
 20
20.52162500
  0
VERTEX
  8
0
 62
7
 10
1.54300000
 20
20.49500000
  0
VERTEX
  8
0
 62
7
 10
1.52728125
 20
20.46487500
  0
VERTEX
  8
0
 62
7
 10
1.51475000
 20
20.43325000
  0
VERTEX
  8
0
 62
7
 10
1.50559375
 20
20.40050000
  0
VERTEX
  8
0
 62
7
 10
1.50000000
 20
20.36700000
  0
VERTEX
  8
0
 62
7
 10
1.48181250
 20
20.41179688
  0
VERTEX
  8
0
 62
7
 10
1.46625000
 20
20.45762500
  0
VERTEX
  8
0
 62
7
 10
1.45331250
 20
20.50439063
  0
VERTEX
  8
0
 62
7
 10
1.44300000
 20
20.55200000
  0
VERTEX
  8
0
 62
7
 10
1.43462500
 20
20.60750000
  0
VERTEX
  8
0
 62
7
 10
1.43000000
 20
20.66300000
  0
VERTEX
  8
0
 62
7
 10
1.42600000
 20
20.66300000
  0
VERTEX
  8
0
 62
7
 10
1.35300000
 20
20.66900000
  0
VERTEX
  8
0
 62
7
 10
1.33000000
 20
20.67200000
  0
SEQEND
  0
POLYLINE
  8
0
 62
7
 66
1
 70
1
  0
VERTEX
  8
0
 62
7
 10
1.75400000
 20
18.83700000
  0
VERTEX
  8
0
 62
7
 10
1.75000000
 20
18.83700000
  0
VERTEX
  8
0
 62
7
 10
1.74300000
 20
18.83700000
  0
VERTEX
  8
0
 62
7
 10
1.72681250
 20
18.79454688
  0
VERTEX
  8
0
 62
7
 10
1.70650000
 20
18.75312500
  0
VERTEX
  8
0
 62
7
 10
1.68168750
 20
18.71339063
  0
VERTEX
  8
0
 62
7
 10
1.65200000
 20
18.67600000
  0
VERTEX
  8
0
 62
7
 10
1.61642188
 20
18.63909375
  0
VERTEX
  8
0
 62
7
 10
1.57737500
 20
18.60650000
  0
VERTEX
  8
0
 62
7
 10
1.53514063
 20
18.57840625
  0
VERTEX
  8
0
 62
7
 10
1.49000000
 20
18.55500000
  0
VERTEX
  8
0
 62
7
 10
1.47309375
 20
18.54993750
  0
VERTEX
  8
0
 62
7
 10
1.45600000
 20
18.54975000
  0
VERTEX
  8
0
 62
7
 10
1.43965625
 20
18.55443750
  0
VERTEX
  8
0
 62
7
 10
1.42500000
 20
18.56400000
  0
VERTEX
  8
0
 62
7
 10
1.39900000
 20
18.58700000
  0
VERTEX
  8
0
 62
7
 10
1.38400000
 20
18.57500000
  0
VERTEX
  8
0
 62
7
 10
1.39300000
 20
18.53000000
  0
VERTEX
  8
0
 62
7
 10
1.40275000
 20
18.49953125
  0
VERTEX
  8
0
 62
7
 10
1.41550000
 20
18.47000000
  0
VERTEX
  8
0
 62
7
 10
1.43125000
 20
18.44196875
  0
VERTEX
  8
0
 62
7
 10
1.45000000
 20
18.41600000
  0
VERTEX
  8
0
 62
7
 10
1.47159570
 20
18.39290625
  0
VERTEX
  8
0
 62
7
 10
1.49564063
 20
18.37300000
  0
VERTEX
  8
0
 62
7
 10
1.52177148
 20
18.35609375
  0
VERTEX
  8
0
 62
7
 10
1.54962500
 20
18.34200000
  0
VERTEX
  8
0
 62
7
 10
1.57883789
 20
18.33053125
  0
VERTEX
  8
0
 62
7
 10
1.60904688
 20
18.32150000
  0
VERTEX
  8
0
 62
7
 10
1.63988867
 20
18.31471875
  0
VERTEX
  8
0
 62
7
 10
1.67100000
 20
18.31000000
  0
VERTEX
  8
0
 62
7
 10
1.70181055
 20
18.30767773
  0
VERTEX
  8
0
 62
7
 10
1.73260938
 20
18.30754688
  0
VERTEX
  8
0
 62
7
 10
1.76319727
 20
18.30973633
  0
VERTEX
  8
0
 62
7
 10
1.79337500
 20
18.31437500
  0
VERTEX
  8
0
 62
7
 10
1.82294336
 20
18.32159180
  0
VERTEX
  8
0
 62
7
 10
1.85170313
 20
18.33151563
  0
VERTEX
  8
0
 62
7
 10
1.87945508
 20
18.34427539
  0
VERTEX
  8
0
 62
7
 10
1.90600000
 20
18.36000000
  0
VERTEX
  8
0
 62
7
 10
1.93287500
 20
18.37950000
  0
VERTEX
  8
0
 62
7
 10
1.95900000
 20
18.40200000
  0
VERTEX
  8
0
 62
7
 10
1.92518750
 20
18.44378516
  0
VERTEX
  8
0
 62
7
 10
1.89362500
 20
18.48746875
  0
VERTEX
  8
0
 62
7
 10
1.86450000
 20
18.53316797
  0
VERTEX
  8
0
 62
7
 10
1.83800000
 20
18.58100000
  0
VERTEX
  8
0
 62
7
 10
1.81431250
 20
18.63108203
  0
VERTEX
  8
0
 62
7
 10
1.79362500
 20
18.68353125
  0
VERTEX
  8
0
 62
7
 10
1.77612500
 20
18.73846484
  0
VERTEX
  8
0
 62
7
 10
1.76200000
 20
18.79600000
  0
VERTEX
  8
0
 62
7
 10
1.75400000
 20
18.83700000
  0
SEQEND
  0
POLYLINE
  8
0
 62
7
 66
1
 70
1
  0
VERTEX
  8
0
 62
7
 10
3.13700000
 20
19.38400000
  0
VERTEX
  8
0
 62
7
 10
3.16426563
 20
19.41773438
  0
VERTEX
  8
0
 62
7
 10
3.18712500
 20
19.45287500
  0
VERTEX
  8
0
 62
7
 10
3.20492188
 20
19.48932813
  0
VERTEX
  8
0
 62
7
 10
3.21700000
 20
19.52700000
  0
VERTEX
  8
0
 62
7
 10
3.22191211
 20
19.55689844
  0
VERTEX
  8
0
 62
7
 10
3.22254688
 20
19.58768750
  0
VERTEX
  8
0
 62
7
 10
3.21912695
 20
19.61875781
  0
VERTEX
  8
0
 62
7
 10
3.21187500
 20
19.64950000
  0
VERTEX
  8
0
 62
7
 10
3.20101367
 20
19.67930469
  0
VERTEX
  8
0
 62
7
 10
3.18676563
 20
19.70756250
  0
VERTEX
  8
0
 62
7
 10
3.16935352
 20
19.73366406
  0
VERTEX
  8
0
 62
7
 10
3.14900000
 20
19.75700000
  0
VERTEX
  8
0
 62
7
 10
3.10950000
 20
19.76550000
  0
VERTEX
  8
0
 62
7
 10
3.07000000
 20
19.76800000
  0
VERTEX
  8
0
 62
7
 10
3.03600000
 20
19.76625000
  0
VERTEX
  8
0
 62
7
 10
3.00200000
 20
19.76000000
  0
VERTEX
  8
0
 62
7
 10
2.96100000
 20
19.74800000
  0
VERTEX
  8
0
 62
7
 10
2.98200000
 20
19.72700000
  0
VERTEX
  8
0
 62
7
 10
2.99303125
 20
19.71217188
  0
VERTEX
  8
0
 62
7
 10
2.99900000
 20
19.69537500
  0
VERTEX
  8
0
 62
7
 10
2.99971875
 20
19.67764063
  0
VERTEX
  8
0
 62
7
 10
2.99500000
 20
19.66000000
  0
VERTEX
  8
0
 62
7
 10
2.97631055
 20
19.62349023
  0
VERTEX
  8
0
 62
7
 10
2.95348438
 20
19.58992188
  0
VERTEX
  8
0
 62
7
 10
2.92688477
 20
19.55961133
  0
VERTEX
  8
0
 62
7
 10
2.89687500
 20
19.53287500
  0
VERTEX
  8
0
 62
7
 10
2.86381836
 20
19.51002930
  0
VERTEX
  8
0
 62
7
 10
2.82807813
 20
19.49139063
  0
VERTEX
  8
0
 62
7
 10
2.79001758
 20
19.47727539
  0
VERTEX
  8
0
 62
7
 10
2.75000000
 20
19.46800000
  0
VERTEX
  8
0
 62
7
 10
2.70800000
 20
19.46300000
  0
VERTEX
  8
0
 62
7
 10
2.74700000
 20
19.44500000
  0
VERTEX
  8
0
 62
7
 10
2.80371875
 20
19.41001563
  0
VERTEX
  8
0
 62
7
 10
2.85650000
 20
19.36987500
  0
VERTEX
  8
0
 62
7
 10
2.90253125
 20
19.33179688
  0
VERTEX
  8
0
 62
7
 10
2.93900000
 20
19.30300000
  0
VERTEX
  8
0
 62
7
 10
2.95714648
 20
19.30352734
  0
VERTEX
  8
0
 62
7
 10
2.97992188
 20
19.30665625
  0
VERTEX
  8
0
 62
7
 10
3.00595508
 20
19.31245703
  0
VERTEX
  8
0
 62
7
 10
3.03387500
 20
19.32100000
  0
VERTEX
  8
0
 62
7
 10
3.06231055
 20
19.33235547
  0
VERTEX
  8
0
 62
7
 10
3.08989063
 20
19.34659375
  0
VERTEX
  8
0
 62
7
 10
3.11524414
 20
19.36378516
  0
VERTEX
  8
0
 62
7
 10
3.13700000
 20
19.38400000
  0
SEQEND
  0
POLYLINE
  8
0
 62
7
 66
1
 70
1
  0
VERTEX
  8
0
 62
7
 10
3.39400000
 20
18.99200000
  0
VERTEX
  8
0
 62
7
 10
3.41882227
 20
19.00585742
  0
VERTEX
  8
0
 62
7
 10
3.44220313
 20
19.02185938
  0
VERTEX
  8
0
 62
7
 10
3.46401367
 20
19.03990039
  0
VERTEX
  8
0
 62
7
 10
3.48412500
 20
19.05987500
  0
VERTEX
  8
0
 62
7
 10
3.50240820
 20
19.08167773
  0
VERTEX
  8
0
 62
7
 10
3.51873438
 20
19.10520313
  0
VERTEX
  8
0
 62
7
 10
3.53297461
 20
19.13034570
  0
VERTEX
  8
0
 62
7
 10
3.54500000
 20
19.15700000
  0
VERTEX
  8
0
 62
7
 10
3.55513574
 20
19.18716162
  0
VERTEX
  8
0
 62
7
 10
3.56163281
 20
19.21749609
  0
VERTEX
  8
0
 62
7
 10
3.56462598
 20
19.24777783
  0
VERTEX
  8
0
 62
7
 10
3.56425000
 20
19.27778125
  0
VERTEX
  8
0
 62
7
 10
3.56063965
 20
19.30728076
  0
VERTEX
  8
0
 62
7
 10
3.55392969
 20
19.33605078
  0
VERTEX
  8
0
 62
7
 10
3.54425488
 20
19.36386572
  0
VERTEX
  8
0
 62
7
 10
3.53175000
 20
19.39050000
  0
VERTEX
  8
0
 62
7
 10
3.51654980
 20
19.41572803
  0
VERTEX
  8
0
 62
7
 10
3.49878906
 20
19.43932422
  0
VERTEX
  8
0
 62
7
 10
3.47860254
 20
19.46106299
  0
VERTEX
  8
0
 62
7
 10
3.45612500
 20
19.48071875
  0
VERTEX
  8
0
 62
7
 10
3.43149121
 20
19.49806592
  0
VERTEX
  8
0
 62
7
 10
3.40483594
 20
19.51287891
  0
VERTEX
  8
0
 62
7
 10
3.37629395
 20
19.52493213
  0
VERTEX
  8
0
 62
7
 10
3.34600000
 20
19.53400000
  0
VERTEX
  8
0
 62
7
 10
3.31350000
 20
19.54000000
  0
VERTEX
  8
0
 62
7
 10
3.28100000
 20
19.54300000
  0
VERTEX
  8
0
 62
7
 10
3.27500000
 20
19.51300000
  0
VERTEX
  8
0
 62
7
 10
3.26018750
 20
19.46690625
  0
VERTEX
  8
0
 62
7
 10
3.23900000
 20
19.42325000
  0
VERTEX
  8
0
 62
7
 10
3.21256250
 20
19.38221875
  0
VERTEX
  8
0
 62
7
 10
3.18200000
 20
19.34400000
  0
VERTEX
  8
0
 62
7
 10
3.17700000
 20
19.33900000
  0
VERTEX
  8
0
 62
7
 10
3.19600000
 20
19.33300000
  0
VERTEX
  8
0
 62
7
 10
3.22351758
 20
19.32204688
  0
VERTEX
  8
0
 62
7
 10
3.24964063
 20
19.30762500
  0
VERTEX
  8
0
 62
7
 10
3.27409961
 20
19.29039063
  0
VERTEX
  8
0
 62
7
 10
3.29662500
 20
19.27100000
  0
VERTEX
  8
0
 62
7
 10
3.31694727
 20
19.25010938
  0
VERTEX
  8
0
 62
7
 10
3.33479688
 20
19.22837500
  0
VERTEX
  8
0
 62
7
 10
3.34990430
 20
19.20645313
  0
VERTEX
  8
0
 62
7
 10
3.36200000
 20
19.18500000
  0
VERTEX
  8
0
 62
7
 10
3.37701563
 20
19.14782813
  0
VERTEX
  8
0
 62
7
 10
3.38762500
 20
19.10887500
  0
VERTEX
  8
0
 62
7
 10
3.39392188
 20
19.06898438
  0
VERTEX
  8
0
 62
7
 10
3.39600000
 20
19.02900000
  0
VERTEX
  8
0
 62
7
 10
3.39400000
 20
18.99200000
  0
SEQEND
  0
POLYLINE
  8
0
 62
7
 66
1
 70
1
  0
VERTEX
  8
0
 62
7
 10
3.09800000
 20
18.69200000
  0
VERTEX
  8
0
 62
7
 10
3.09764063
 20
18.66409375
  0
VERTEX
  8
0
 62
7
 10
3.09962500
 20
18.63600000
  0
VERTEX
  8
0
 62
7
 10
3.10404688
 20
18.60790625
  0
VERTEX
  8
0
 62
7
 10
3.11100000
 20
18.58000000
  0
VERTEX
  8
0
 62
7
 10
3.12251563
 20
18.54467188
  0
VERTEX
  8
0
 62
7
 10
3.13712500
 20
18.51037500
  0
VERTEX
  8
0
 62
7
 10
3.15642188
 20
18.47889063
  0
VERTEX
  8
0
 62
7
 10
3.18200000
 20
18.45200000
  0
VERTEX
  8
0
 62
7
 10
3.20038086
 20
18.43838086
  0
VERTEX
  8
0
 62
7
 10
3.22010938
 20
18.42742188
  0
VERTEX
  8
0
 62
7
 10
3.24093945
 20
18.41897070
  0
VERTEX
  8
0
 62
7
 10
3.26262500
 20
18.41287500
  0
VERTEX
  8
0
 62
7
 10
3.28491992
 20
18.40898242
  0
VERTEX
  8
0
 62
7
 10
3.30757813
 20
18.40714063
  0
VERTEX
  8
0
 62
7
 10
3.33035352
 20
18.40719727
  0
VERTEX
  8
0
 62
7
 10
3.35300000
 20
18.40900000
  0
VERTEX
  8
0
 62
7
 10
3.37669922
 20
18.41273633
  0
VERTEX
  8
0
 62
7
 10
3.39971875
 20
18.41864063
  0
VERTEX
  8
0
 62
7
 10
3.42194141
 20
18.42663086
  0
VERTEX
  8
0
 62
7
 10
3.44325000
 20
18.43662500
  0
VERTEX
  8
0
 62
7
 10
3.46352734
 20
18.44854102
  0
VERTEX
  8
0
 62
7
 10
3.48265625
 20
18.46229688
  0
VERTEX
  8
0
 62
7
 10
3.50051953
 20
18.47781055
  0
VERTEX
  8
0
 62
7
 10
3.51700000
 20
18.49500000
  0
VERTEX
  8
0
 62
7
 10
3.53295703
 20
18.51480273
  0
VERTEX
  8
0
 62
7
 10
3.54696875
 20
18.53585938
  0
VERTEX
  8
0
 62
7
 10
3.55887109
 20
18.55801758
  0
VERTEX
  8
0
 62
7
 10
3.56850000
 20
18.58112500
  0
VERTEX
  8
0
 62
7
 10
3.57569141
 20
18.60502930
  0
VERTEX
  8
0
 62
7
 10
3.58028125
 20
18.62957813
  0
VERTEX
  8
0
 62
7
 10
3.58210547
 20
18.65461914
  0
VERTEX
  8
0
 62
7
 10
3.58100000
 20
18.68000000
  0
VERTEX
  8
0
 62
7
 10
3.57610938
 20
18.71046875
  0
VERTEX
  8
0
 62
7
 10
3.56737500
 20
18.74000000
  0
VERTEX
  8
0
 62
7
 10
3.55470313
 20
18.76803125
  0
VERTEX
  8
0
 62
7
 10
3.53800000
 20
18.79400000
  0
VERTEX
  8
0
 62
7
 10
3.51139063
 20
18.82165625
  0
VERTEX
  8
0
 62
7
 10
3.48037500
 20
18.84350000
  0
VERTEX
  8
0
 62
7
 10
3.44617188
 20
18.86009375
  0
VERTEX
  8
0
 62
7
 10
3.41000000
 20
18.87200000
  0
VERTEX
  8
0
 62
7
 10
3.36400000
 20
18.88100000
  0
VERTEX
  8
0
 62
7
 10
3.34564063
 20
18.84692188
  0
VERTEX
  8
0
 62
7
 10
3.32362500
 20
18.81537500
  0
VERTEX
  8
0
 62
7
 10
3.29804688
 20
18.78664063
  0
VERTEX
  8
0
 62
7
 10
3.26900000
 20
18.76100000
  0
VERTEX
  8
0
 62
7
 10
3.22976563
 20
18.73418750
  0
VERTEX
  8
0
 62
7
 10
3.18762500
 20
18.71375000
  0
VERTEX
  8
0
 62
7
 10
3.14342188
 20
18.69968750
  0
VERTEX
  8
0
 62
7
 10
3.09800000
 20
18.69200000
  0
SEQEND
  0
POLYLINE
  8
0
 62
7
 66
1
 70
1
  0
VERTEX
  8
0
 62
7
 10
3.17800000
 20
19.27600000
  0
VERTEX
  8
0
 62
7
 10
3.15650586
 20
19.28218164
  0
VERTEX
  8
0
 62
7
 10
3.13335938
 20
19.28757813
  0
VERTEX
  8
0
 62
7
 10
3.10868945
 20
19.29159180
  0
VERTEX
  8
0
 62
7
 10
3.08262500
 20
19.29362500
  0
VERTEX
  8
0
 62
7
 10
3.05529492
 20
19.29308008
  0
VERTEX
  8
0
 62
7
 10
3.02682813
 20
19.28935938
  0
VERTEX
  8
0
 62
7
 10
2.99735352
 20
19.28186523
  0
VERTEX
  8
0
 62
7
 10
2.96700000
 20
19.27000000
  0
VERTEX
  8
0
 62
7
 10
3.01700000
 20
19.20500000
  0
VERTEX
  8
0
 62
7
 10
3.02525000
 20
19.18742188
  0
VERTEX
  8
0
 62
7
 10
3.02750000
 20
19.16862500
  0
VERTEX
  8
0
 62
7
 10
3.02375000
 20
19.15001563
  0
VERTEX
  8
0
 62
7
 10
3.01400000
 20
19.13300000
  0
VERTEX
  8
0
 62
7
 10
2.95500000
 20
19.06000000
  0
VERTEX
  8
0
 62
7
 10
2.98200000
 20
19.02500000
  0
VERTEX
  8
0
 62
7
 10
3.00600000
 20
18.98775000
  0
VERTEX
  8
0
 62
7
 10
3.02700000
 20
18.94862500
  0
VERTEX
  8
0
 62
7
 10
3.04500000
 20
18.90800000
  0
VERTEX
  8
0
 62
7
 10
3.05792188
 20
18.86996875
  0
VERTEX
  8
0
 62
7
 10
3.06812500
 20
18.83100000
  0
VERTEX
  8
0
 62
7
 10
3.07551563
 20
18.79128125
  0
VERTEX
  8
0
 62
7
 10
3.08000000
 20
18.75100000
  0
VERTEX
  8
0
 62
7
 10
3.12076563
 20
18.75625000
  0
VERTEX
  8
0
 62
7
 10
3.16012500
 20
18.76750000
  0
VERTEX
  8
0
 62
7
 10
3.19742188
 20
18.78475000
  0
VERTEX
  8
0
 62
7
 10
3.23200000
 20
18.80800000
  0
VERTEX
  8
0
 62
7
 10
3.25069141
 20
18.82415234
  0
VERTEX
  8
0
 62
7
 10
3.26771875
 20
18.84178125
  0
VERTEX
  8
0
 62
7
 10
3.28301172
 20
18.86076953
  0
VERTEX
  8
0
 62
7
 10
3.29650000
 20
18.88100000
  0
VERTEX
  8
0
 62
7
 10
3.30811328
 20
18.90235547
  0
VERTEX
  8
0
 62
7
 10
3.31778125
 20
18.92471875
  0
VERTEX
  8
0
 62
7
 10
3.32543359
 20
18.94797266
  0
VERTEX
  8
0
 62
7
 10
3.33100000
 20
18.97200000
  0
VERTEX
  8
0
 62
7
 10
3.33427734
 20
18.99529297
  0
VERTEX
  8
0
 62
7
 10
3.33584375
 20
19.01921875
  0
VERTEX
  8
0
 62
7
 10
3.33567578
 20
19.04347266
  0
VERTEX
  8
0
 62
7
 10
3.33375000
 20
19.06775000
  0
VERTEX
  8
0
 62
7
 10
3.33004297
 20
19.09174609
  0
VERTEX
  8
0
 62
7
 10
3.32453125
 20
19.11515625
  0
VERTEX
  8
0
 62
7
 10
3.31719141
 20
19.13767578
  0
VERTEX
  8
0
 62
7
 10
3.30800000
 20
19.15900000
  0
VERTEX
  8
0
 62
7
 10
3.29839453
 20
19.17620898
  0
VERTEX
  8
0
 62
7
 10
3.28628125
 20
19.19373438
  0
VERTEX
  8
0
 62
7
 10
3.27196484
 20
19.21104883
  0
VERTEX
  8
0
 62
7
 10
3.25575000
 20
19.22762500
  0
VERTEX
  8
0
 62
7
 10
3.23794141
 20
19.24293555
  0
VERTEX
  8
0
 62
7
 10
3.21884375
 20
19.25645313
  0
VERTEX
  8
0
 62
7
 10
3.19876172
 20
19.26765039
  0
VERTEX
  8
0
 62
7
 10
3.17800000
 20
19.27600000
  0
SEQEND
  0
POLYLINE
  8
0
 62
7
 66
1
 70
1
  0
VERTEX
  8
0
 62
7
 10
3.69900000
 20
18.81600000
  0
VERTEX
  8
0
 62
7
 10
3.68138965
 20
18.79791748
  0
VERTEX
  8
0
 62
7
 10
3.66569531
 20
18.77863672
  0
VERTEX
  8
0
 62
7
 10
3.65193457
 20
18.75829541
  0
VERTEX
  8
0
 62
7
 10
3.64012500
 20
18.73703125
  0
VERTEX
  8
0
 62
7
 10
3.63028418
 20
18.71498193
  0
VERTEX
  8
0
 62
7
 10
3.62242969
 20
18.69228516
  0
VERTEX
  8
0
 62
7
 10
3.61657910
 20
18.66907861
  0
VERTEX
  8
0
 62
7
 10
3.61275000
 20
18.64550000
  0
VERTEX
  8
0
 62
7
 10
3.61095996
 20
18.62168701
  0
VERTEX
  8
0
 62
7
 10
3.61122656
 20
18.59777734
  0
VERTEX
  8
0
 62
7
 10
3.61356738
 20
18.57390869
  0
VERTEX
  8
0
 62
7
 10
3.61800000
 20
18.55021875
  0
VERTEX
  8
0
 62
7
 10
3.62454199
 20
18.52684521
  0
VERTEX
  8
0
 62
7
 10
3.63321094
 20
18.50392578
  0
VERTEX
  8
0
 62
7
 10
3.64402441
 20
18.48159814
  0
VERTEX
  8
0
 62
7
 10
3.65700000
 20
18.46000000
  0
VERTEX
  8
0
 62
7
 10
3.66893945
 20
18.44361914
  0
VERTEX
  8
0
 62
7
 10
3.68220313
 20
18.42832813
  0
VERTEX
  8
0
 62
7
 10
3.69670898
 20
18.41427930
  0
VERTEX
  8
0
 62
7
 10
3.71237500
 20
18.40162500
  0
VERTEX
  8
0
 62
7
 10
3.72911914
 20
18.39051758
  0
VERTEX
  8
0
 62
7
 10
3.74685938
 20
18.38110938
  0
VERTEX
  8
0
 62
7
 10
3.76551367
 20
18.37355273
  0
VERTEX
  8
0
 62
7
 10
3.78500000
 20
18.36800000
  0
VERTEX
  8
0
 62
7
 10
3.82125000
 20
18.36368750
  0
VERTEX
  8
0
 62
7
 10
3.85750000
 20
18.36650000
  0
VERTEX
  8
0
 62
7
 10
3.89300000
 20
18.37531250
  0
VERTEX
  8
0
 62
7
 10
3.92700000
 20
18.38900000
  0
VERTEX
  8
0
 62
7
 10
3.96173438
 20
18.40801563
  0
VERTEX
  8
0
 62
7
 10
3.99337500
 20
18.43087500
  0
VERTEX
  8
0
 62
7
 10
4.02107813
 20
18.45804688
  0
VERTEX
  8
0
 62
7
 10
4.04400000
 20
18.49000000
  0
VERTEX
  8
0
 62
7
 10
4.05564453
 20
18.51342773
  0
VERTEX
  8
0
 62
7
 10
4.06440625
 20
18.53848438
  0
VERTEX
  8
0
 62
7
 10
4.07040234
 20
18.56483008
  0
VERTEX
  8
0
 62
7
 10
4.07375000
 20
18.59212500
  0
VERTEX
  8
0
 62
7
 10
4.07456641
 20
18.62002930
  0
VERTEX
  8
0
 62
7
 10
4.07296875
 20
18.64820313
  0
VERTEX
  8
0
 62
7
 10
4.06907422
 20
18.67630664
  0
VERTEX
  8
0
 62
7
 10
4.06300000
 20
18.70400000
  0
VERTEX
  8
0
 62
7
 10
4.05289063
 20
18.73581250
  0
VERTEX
  8
0
 62
7
 10
4.03837500
 20
18.76725000
  0
VERTEX
  8
0
 62
7
 10
4.01842188
 20
18.79681250
  0
VERTEX
  8
0
 62
7
 10
3.99200000
 20
18.82300000
  0
VERTEX
  8
0
 62
7
 10
3.97253711
 20
18.83674219
  0
VERTEX
  8
0
 62
7
 10
3.95179688
 20
18.84800000
  0
VERTEX
  8
0
 62
7
 10
3.93000195
 20
18.85682031
  0
VERTEX
  8
0
 62
7
 10
3.90737500
 20
18.86325000
  0
VERTEX
  8
0
 62
7
 10
3.88413867
 20
18.86733594
  0
VERTEX
  8
0
 62
7
 10
3.86051563
 20
18.86912500
  0
VERTEX
  8
0
 62
7
 10
3.83672852
 20
18.86866406
  0
VERTEX
  8
0
 62
7
 10
3.81300000
 20
18.86600000
  0
VERTEX
  8
0
 62
7
 10
3.78182813
 20
18.85973438
  0
VERTEX
  8
0
 62
7
 10
3.75187500
 20
18.84962500
  0
VERTEX
  8
0
 62
7
 10
3.72398438
 20
18.83520313
  0
VERTEX
  8
0
 62
7
 10
3.69900000
 20
18.81600000
  0
SEQEND
  0
POLYLINE
  8
0
 62
7
 66
1
 70
1
  0
VERTEX
  8
0
 62
7
 10
1.50500000
 20
20.08000000
  0
VERTEX
  8
0
 62
7
 10
1.50190625
 20
20.09323438
  0
VERTEX
  8
0
 62
7
 10
1.50425000
 20
20.10637500
  0
VERTEX
  8
0
 62
7
 10
1.51146875
 20
20.11782813
  0
VERTEX
  8
0
 62
7
 10
1.52300000
 20
20.12600000
  0
VERTEX
  8
0
 62
7
 10
1.53623438
 20
20.12909375
  0
VERTEX
  8
0
 62
7
 10
1.54937500
 20
20.12675000
  0
VERTEX
  8
0
 62
7
 10
1.56082813
 20
20.11953125
  0
VERTEX
  8
0
 62
7
 10
1.56900000
 20
20.10800000
  0
VERTEX
  8
0
 62
7
 10
1.59063672
 20
20.07043164
  0
VERTEX
  8
0
 62
7
 10
1.61815625
 20
20.03920313
  0
VERTEX
  8
0
 62
7
 10
1.65059766
 20
20.01390430
  0
VERTEX
  8
0
 62
7
 10
1.68700000
 20
19.99412500
  0
VERTEX
  8
0
 62
7
 10
1.72640234
 20
19.97945508
  0
VERTEX
  8
0
 62
7
 10
1.76784375
 20
19.96948438
  0
VERTEX
  8
0
 62
7
 10
1.81036328
 20
19.96380273
  0
VERTEX
  8
0
 62
7
 10
1.85300000
 20
19.96200000
  0
VERTEX
  8
0
 62
7
 10
1.90587500
 20
19.96512500
  0
VERTEX
  8
0
 62
7
 10
1.96100000
 20
19.97200000
  0
VERTEX
  8
0
 62
7
 10
2.02600000
 20
19.97900000
  0
VERTEX
  8
0
 62
7
 10
2.09012500
 20
19.98587500
  0
VERTEX
  8
0
 62
7
 10
2.15500000
 20
19.99500000
  0
VERTEX
  8
0
 62
7
 10
2.25895313
 20
20.00785938
  0
VERTEX
  8
0
 62
7
 10
2.36562500
 20
20.01462500
  0
VERTEX
  8
0
 62
7
 10
2.47323438
 20
20.01482813
  0
VERTEX
  8
0
 62
7
 10
2.58000000
 20
20.00800000
  0
VERTEX
  8
0
 62
7
 10
2.57700000
 20
19.98300000
  0
VERTEX
  8
0
 62
7
 10
2.47873438
 20
19.97339063
  0
VERTEX
  8
0
 62
7
 10
2.37662500
 20
19.95937500
  0
VERTEX
  8
0
 62
7
 10
2.27170313
 20
19.94292188
  0
VERTEX
  8
0
 62
7
 10
2.16500000
 20
19.92600000
  0
VERTEX
  8
0
 62
7
 10
2.03200000
 20
19.90900000
  0
VERTEX
  8
0
 62
7
 10
1.97000000
 20
19.90200000
  0
VERTEX
  8
0
 62
7
 10
1.91225000
 20
19.89512500
  0
VERTEX
  8
0
 62
7
 10
1.85300000
 20
19.89200000
  0
VERTEX
  8
0
 62
7
 10
1.80400000
 20
19.89500000
  0
VERTEX
  8
0
 62
7
 10
1.76654688
 20
19.90060938
  0
VERTEX
  8
0
 62
7
 10
1.72937500
 20
19.90837500
  0
VERTEX
  8
0
 62
7
 10
1.69276563
 20
19.91820313
  0
VERTEX
  8
0
 62
7
 10
1.65700000
 20
19.93000000
  0
VERTEX
  8
0
 62
7
 10
1.70742188
 20
19.83835938
  0
VERTEX
  8
0
 62
7
 10
1.76112500
 20
19.74812500
  0
VERTEX
  8
0
 62
7
 10
1.81801563
 20
19.65957813
  0
VERTEX
  8
0
 62
7
 10
1.87800000
 20
19.57300000
  0
VERTEX
  8
0
 62
7
 10
1.95187500
 20
19.47775000
  0
VERTEX
  8
0
 62
7
 10
2.03100000
 20
19.38400000
  0
VERTEX
  8
0
 62
7
 10
2.12000000
 20
19.27600000
  0
VERTEX
  8
0
 62
7
 10
2.21826563
 20
19.14906250
  0
VERTEX
  8
0
 62
7
 10
2.31287500
 20
19.01575000
  0
VERTEX
  8
0
 62
7
 10
2.40054688
 20
18.88056250
  0
VERTEX
  8
0
 62
7
 10
2.47800000
 20
18.74800000
  0
VERTEX
  8
0
 62
7
 10
2.46100000
 20
18.73500000
  0
VERTEX
  8
0
 62
7
 10
2.06600000
 20
19.23200000
  0
VERTEX
  8
0
 62
7
 10
1.97700000
 20
19.33800000
  0
VERTEX
  8
0
 62
7
 10
1.89762500
 20
19.43362500
  0
VERTEX
  8
0
 62
7
 10
1.82200000
 20
19.53300000
  0
VERTEX
  8
0
 62
7
 10
1.76689063
 20
19.61176563
  0
VERTEX
  8
0
 62
7
 10
1.71412500
 20
19.69212500
  0
VERTEX
  8
0
 62
7
 10
1.66379688
 20
19.77417188
  0
VERTEX
  8
0
 62
7
 10
1.61600000
 20
19.85800000
  0
VERTEX
  8
0
 62
7
 10
1.60587500
 20
19.81320313
  0
VERTEX
  8
0
 62
7
 10
1.59350000
 20
19.76887500
  0
VERTEX
  8
0
 62
7
 10
1.57887500
 20
19.72510938
  0
VERTEX
  8
0
 62
7
 10
1.56200000
 20
19.68200000
  0
VERTEX
  8
0
 62
7
 10
1.54490625
 20
19.64540625
  0
VERTEX
  8
0
 62
7
 10
1.52575000
 20
19.61050000
  0
VERTEX
  8
0
 62
7
 10
1.50546875
 20
19.57709375
  0
VERTEX
  8
0
 62
7
 10
1.48500000
 20
19.54500000
  0
VERTEX
  8
0
 62
7
 10
1.43900000
 20
19.47200000
  0
VERTEX
  8
0
 62
7
 10
1.40900000
 20
19.41900000
  0
VERTEX
  8
0
 62
7
 10
1.38018359
 20
19.36727148
  0
VERTEX
  8
0
 62
7
 10
1.35303125
 20
19.31548438
  0
VERTEX
  8
0
 62
7
 10
1.32761328
 20
19.26348633
  0
VERTEX
  8
0
 62
7
 10
1.30400000
 20
19.21112500
  0
VERTEX
  8
0
 62
7
 10
1.28226172
 20
19.15824805
  0
VERTEX
  8
0
 62
7
 10
1.26246875
 20
19.10470313
  0
VERTEX
  8
0
 62
7
 10
1.24469141
 20
19.05033789
  0
VERTEX
  8
0
 62
7
 10
1.22900000
 20
18.99500000
  0
VERTEX
  8
0
 62
7
 10
1.21000000
 20
19.00000000
  0
VERTEX
  8
0
 62
7
 10
1.21621875
 20
19.06249219
  0
VERTEX
  8
0
 62
7
 10
1.22581250
 20
19.12325000
  0
VERTEX
  8
0
 62
7
 10
1.23868750
 20
19.18232031
  0
VERTEX
  8
0
 62
7
 10
1.25475000
 20
19.23975000
  0
VERTEX
  8
0
 62
7
 10
1.27390625
 20
19.29558594
  0
VERTEX
  8
0
 62
7
 10
1.29606250
 20
19.34987500
  0
VERTEX
  8
0
 62
7
 10
1.32112500
 20
19.40266406
  0
VERTEX
  8
0
 62
7
 10
1.34900000
 20
19.45400000
  0
VERTEX
  8
0
 62
7
 10
1.37900000
 20
19.50600000
  0
VERTEX
  8
0
 62
7
 10
1.42600000
 20
19.58300000
  0
VERTEX
  8
0
 62
7
 10
1.44653125
 20
19.61462500
  0
VERTEX
  8
0
 62
7
 10
1.46575000
 20
19.64550000
  0
VERTEX
  8
0
 62
7
 10
1.48309375
 20
19.67637500
  0
VERTEX
  8
0
 62
7
 10
1.49800000
 20
19.70800000
  0
VERTEX
  8
0
 62
7
 10
1.51495313
 20
19.75331055
  0
VERTEX
  8
0
 62
7
 10
1.52806250
 20
19.79973438
  0
VERTEX
  8
0
 62
7
 10
1.53695313
 20
19.84688477
  0
VERTEX
  8
0
 62
7
 10
1.54125000
 20
19.89437500
  0
VERTEX
  8
0
 62
7
 10
1.54057813
 20
19.94181836
  0
VERTEX
  8
0
 62
7
 10
1.53456250
 20
19.98882813
  0
VERTEX
  8
0
 62
7
 10
1.52282813
 20
20.03501758
  0
VERTEX
  8
0
 62
7
 10
1.50500000
 20
20.08000000
  0
SEQEND
  0
POLYLINE
  8
0
 62
7
 66
1
 70
1
  0
VERTEX
  8
0
 62
7
 10
2.87300000
 20
21.06000000
  0
VERTEX
  8
0
 62
7
 10
2.83312500
 20
21.08900000
  0
VERTEX
  8
0
 62
7
 10
2.79100000
 20
21.11500000
  0
VERTEX
  8
0
 62
7
 10
2.72200000
 20
21.05400000
  0
VERTEX
  8
0
 62
7
 10
2.70629688
 20
21.04404688
  0
VERTEX
  8
0
 62
7
 10
2.68862500
 20
21.03962500
  0
VERTEX
  8
0
 62
7
 10
2.67039063
 20
21.04064063
  0
VERTEX
  8
0
 62
7
 10
2.65300000
 20
21.04700000
  0
VERTEX
  8
0
 62
7
 10
2.62714258
 20
21.06272461
  0
VERTEX
  8
0
 62
7
 10
2.60289063
 20
21.08054688
  0
VERTEX
  8
0
 62
7
 10
2.58034961
 20
21.10031445
  0
VERTEX
  8
0
 62
7
 10
2.55962500
 20
21.12187500
  0
VERTEX
  8
0
 62
7
 10
2.54082227
 20
21.14507617
  0
VERTEX
  8
0
 62
7
 10
2.52404688
 20
21.16976563
  0
VERTEX
  8
0
 62
7
 10
2.50940430
 20
21.19579102
  0
VERTEX
  8
0
 62
7
 10
2.49700000
 20
21.22300000
  0
VERTEX
  8
0
 62
7
 10
2.49400000
 20
21.23000000
  0
VERTEX
  8
0
 62
7
 10
2.48100000
 20
21.20200000
  0
VERTEX
  8
0
 62
7
 10
2.45101563
 20
21.14745313
  0
VERTEX
  8
0
 62
7
 10
2.41812500
 20
21.09487500
  0
VERTEX
  8
0
 62
7
 10
2.38242188
 20
21.04435938
  0
VERTEX
  8
0
 62
7
 10
2.34400000
 20
20.99600000
  0
VERTEX
  8
0
 62
7
 10
2.35437500
 20
20.96612500
  0
VERTEX
  8
0
 62
7
 10
2.36700000
 20
20.93700000
  0
VERTEX
  8
0
 62
7
 10
2.37886914
 20
20.91519336
  0
VERTEX
  8
0
 62
7
 10
2.39201563
 20
20.89417188
  0
VERTEX
  8
0
 62
7
 10
2.40649805
 20
20.87415820
  0
VERTEX
  8
0
 62
7
 10
2.42237500
 20
20.85537500
  0
VERTEX
  8
0
 62
7
 10
2.43970508
 20
20.83804492
  0
VERTEX
  8
0
 62
7
 10
2.45854688
 20
20.82239063
  0
VERTEX
  8
0
 62
7
 10
2.47895898
 20
20.80863477
  0
VERTEX
  8
0
 62
7
 10
2.50100000
 20
20.79700000
  0
VERTEX
  8
0
 62
7
 10
2.52726172
 20
20.78686914
  0
VERTEX
  8
0
 62
7
 10
2.55415625
 20
20.77970313
  0
VERTEX
  8
0
 62
7
 10
2.58147266
 20
20.77546680
  0
VERTEX
  8
0
 62
7
 10
2.60900000
 20
20.77412500
  0
VERTEX
  8
0
 62
7
 10
2.63652734
 20
20.77564258
  0
VERTEX
  8
0
 62
7
 10
2.66384375
 20
20.77998438
  0
VERTEX
  8
0
 62
7
 10
2.69073828
 20
20.78711523
  0
VERTEX
  8
0
 62
7
 10
2.71700000
 20
20.79700000
  0
VERTEX
  8
0
 62
7
 10
2.74821875
 20
20.81310938
  0
VERTEX
  8
0
 62
7
 10
2.77700000
 20
20.83287500
  0
VERTEX
  8
0
 62
7
 10
2.80278125
 20
20.85620313
  0
VERTEX
  8
0
 62
7
 10
2.82500000
 20
20.88300000
  0
VERTEX
  8
0
 62
7
 10
2.84670313
 20
20.92012500
  0
VERTEX
  8
0
 62
7
 10
2.86137500
 20
20.96025000
  0
VERTEX
  8
0
 62
7
 10
2.86985938
 20
21.00225000
  0
VERTEX
  8
0
 62
7
 10
2.87300000
 20
21.04500000
  0
VERTEX
  8
0
 62
7
 10
2.87300000
 20
21.06000000
  0
SEQEND
  0
POLYLINE
  8
0
 62
7
 66
1
 70
1
  0
VERTEX
  8
0
 62
7
 10
16.51600000
 20
18.94200000
  0
VERTEX
  8
0
 62
7
 10
16.48256250
 20
18.92581250
  0
VERTEX
  8
0
 62
7
 10
16.45025000
 20
18.90550000
  0
VERTEX
  8
0
 62
7
 10
16.41981250
 20
18.88068750
  0
VERTEX
  8
0
 62
7
 10
16.39200000
 20
18.85100000
  0
VERTEX
  8
0
 62
7
 10
16.36300000
 20
18.88200000
  0
VERTEX
  8
0
 62
7
 10
16.32432813
 20
18.91168750
  0
VERTEX
  8
0
 62
7
 10
16.28312500
 20
18.93275000
  0
VERTEX
  8
0
 62
7
 10
16.24135938
 20
18.94668750
  0
VERTEX
  8
0
 62
7
 10
16.20100000
 20
18.95500000
  0
VERTEX
  8
0
 62
7
 10
16.17400000
 20
18.95812500
  0
VERTEX
  8
0
 62
7
 10
16.14700000
 20
18.95900000
  0
VERTEX
  8
0
 62
7
 10
16.12500000
 20
18.95800000
  0
VERTEX
  8
0
 62
7
 10
16.13100000
 20
18.98400000
  0
VERTEX
  8
0
 62
7
 10
16.13400000
 20
19.01900000
  0
VERTEX
  8
0
 62
7
 10
16.13266016
 20
19.04238281
  0
VERTEX
  8
0
 62
7
 10
16.12890625
 20
19.06450000
  0
VERTEX
  8
0
 62
7
 10
16.12313672
 20
19.08530469
  0
VERTEX
  8
0
 62
7
 10
16.11575000
 20
19.10475000
  0
VERTEX
  8
0
 62
7
 10
16.10714453
 20
19.12278906
  0
VERTEX
  8
0
 62
7
 10
16.09771875
 20
19.13937500
  0
VERTEX
  8
0
 62
7
 10
16.08787109
 20
19.15446094
  0
VERTEX
  8
0
 62
7
 10
16.07800000
 20
19.16800000
  0
VERTEX
  8
0
 62
7
 10
16.05273828
 20
19.19646875
  0
VERTEX
  8
0
 62
7
 10
16.02478125
 20
19.21931250
  0
VERTEX
  8
0
 62
7
 10
15.99499609
 20
19.23718750
  0
VERTEX
  8
0
 62
7
 10
15.96425000
 20
19.25075000
  0
VERTEX
  8
0
 62
7
 10
15.93341016
 20
19.26065625
  0
VERTEX
  8
0
 62
7
 10
15.90334375
 20
19.26756250
  0
VERTEX
  8
0
 62
7
 10
15.87491797
 20
19.27212500
  0
VERTEX
  8
0
 62
7
 10
15.84900000
 20
19.27500000
  0
VERTEX
  8
0
 62
7
 10
15.81800000
 20
19.27600000
  0
VERTEX
  8
0
 62
7
 10
15.78174268
 20
19.27430029
  0
VERTEX
  8
0
 62
7
 10
15.74722266
 20
19.26933984
  0
VERTEX
  8
0
 62
7
 10
15.71444287
 20
19.26132666
  0
VERTEX
  8
0
 62
7
 10
15.68340625
 20
19.25046875
  0
VERTEX
  8
0
 62
7
 10
15.65411572
 20
19.23697412
  0
VERTEX
  8
0
 62
7
 10
15.62657422
 20
19.22105078
  0
VERTEX
  8
0
 62
7
 10
15.60078467
 20
19.20290674
  0
VERTEX
  8
0
 62
7
 10
15.57675000
 20
19.18275000
  0
VERTEX
  8
0
 62
7
 10
15.55447314
 20
19.16078857
  0
VERTEX
  8
0
 62
7
 10
15.53395703
 20
19.13723047
  0
VERTEX
  8
0
 62
7
 10
15.51520459
 20
19.11228369
  0
VERTEX
  8
0
 62
7
 10
15.49821875
 20
19.08615625
  0
VERTEX
  8
0
 62
7
 10
15.48300244
 20
19.05905615
  0
VERTEX
  8
0
 62
7
 10
15.46955859
 20
19.03119141
  0
VERTEX
  8
0
 62
7
 10
15.45789014
 20
19.00277002
  0
VERTEX
  8
0
 62
7
 10
15.44800000
 20
18.97400000
  0
VERTEX
  8
0
 62
7
 10
15.43700000
 20
18.93237500
  0
VERTEX
  8
0
 62
7
 10
15.42900000
 20
18.89000000
  0
VERTEX
  8
0
 62
7
 10
10.00000000
 20
18.89000000
  0
VERTEX
  8
0
 62
7
 10
4.57100000
 20
18.89000000
  0
VERTEX
  8
0
 62
7
 10
4.56300000
 20
18.93237500
  0
VERTEX
  8
0
 62
7
 10
4.55200000
 20
18.97400000
  0
VERTEX
  8
0
 62
7
 10
4.54210986
 20
19.00277002
  0
VERTEX
  8
0
 62
7
 10
4.53044141
 20
19.03119141
  0
VERTEX
  8
0
 62
7
 10
4.51699756
 20
19.05905615
  0
VERTEX
  8
0
 62
7
 10
4.50178125
 20
19.08615625
  0
VERTEX
  8
0
 62
7
 10
4.48479541
 20
19.11228369
  0
VERTEX
  8
0
 62
7
 10
4.46604297
 20
19.13723047
  0
VERTEX
  8
0
 62
7
 10
4.44552686
 20
19.16078857
  0
VERTEX
  8
0
 62
7
 10
4.42325000
 20
19.18275000
  0
VERTEX
  8
0
 62
7
 10
4.39921533
 20
19.20290674
  0
VERTEX
  8
0
 62
7
 10
4.37342578
 20
19.22105078
  0
VERTEX
  8
0
 62
7
 10
4.34588428
 20
19.23697412
  0
VERTEX
  8
0
 62
7
 10
4.31659375
 20
19.25046875
  0
VERTEX
  8
0
 62
7
 10
4.28555713
 20
19.26132666
  0
VERTEX
  8
0
 62
7
 10
4.25277734
 20
19.26933984
  0
VERTEX
  8
0
 62
7
 10
4.21825732
 20
19.27430029
  0
VERTEX
  8
0
 62
7
 10
4.18200000
 20
19.27600000
  0
VERTEX
  8
0
 62
7
 10
4.15100000
 20
19.27500000
  0
VERTEX
  8
0
 62
7
 10
4.12508203
 20
19.27212500
  0
VERTEX
  8
0
 62
7
 10
4.09665625
 20
19.26756250
  0
VERTEX
  8
0
 62
7
 10
4.06658984
 20
19.26065625
  0
VERTEX
  8
0
 62
7
 10
4.03575000
 20
19.25075000
  0
VERTEX
  8
0
 62
7
 10
4.00500391
 20
19.23718750
  0
VERTEX
  8
0
 62
7
 10
3.97521875
 20
19.21931250
  0
VERTEX
  8
0
 62
7
 10
3.94726172
 20
19.19646875
  0
VERTEX
  8
0
 62
7
 10
3.92200000
 20
19.16800000
  0
VERTEX
  8
0
 62
7
 10
3.91212891
 20
19.15446094
  0
VERTEX
  8
0
 62
7
 10
3.90228125
 20
19.13937500
  0
VERTEX
  8
0
 62
7
 10
3.89285547
 20
19.12278906
  0
VERTEX
  8
0
 62
7
 10
3.88425000
 20
19.10475000
  0
VERTEX
  8
0
 62
7
 10
3.87686328
 20
19.08530469
  0
VERTEX
  8
0
 62
7
 10
3.87109375
 20
19.06450000
  0
VERTEX
  8
0
 62
7
 10
3.86733984
 20
19.04238281
  0
VERTEX
  8
0
 62
7
 10
3.86600000
 20
19.01900000
  0
VERTEX
  8
0
 62
7
 10
3.86900000
 20
18.98400000
  0
VERTEX
  8
0
 62
7
 10
3.87500000
 20
18.95800000
  0
VERTEX
  8
0
 62
7
 10
3.85300000
 20
18.95900000
  0
VERTEX
  8
0
 62
7
 10
3.82600000
 20
18.95812500
  0
VERTEX
  8
0
 62
7
 10
3.79900000
 20
18.95500000
  0
VERTEX
  8
0
 62
7
 10
3.75864063
 20
18.94668750
  0
VERTEX
  8
0
 62
7
 10
3.71687500
 20
18.93275000
  0
VERTEX
  8
0
 62
7
 10
3.67567188
 20
18.91168750
  0
VERTEX
  8
0
 62
7
 10
3.63700000
 20
18.88200000
  0
VERTEX
  8
0
 62
7
 10
3.60800000
 20
18.85100000
  0
VERTEX
  8
0
 62
7
 10
3.58018750
 20
18.88068750
  0
VERTEX
  8
0
 62
7
 10
3.54975000
 20
18.90550000
  0
VERTEX
  8
0
 62
7
 10
3.51743750
 20
18.92581250
  0
VERTEX
  8
0
 62
7
 10
3.48400000
 20
18.94200000
  0
VERTEX
  8
0
 62
7
 10
3.52943750
 20
18.97845313
  0
VERTEX
  8
0
 62
7
 10
3.56925000
 20
19.02137500
  0
VERTEX
  8
0
 62
7
 10
3.60268750
 20
19.07010938
  0
VERTEX
  8
0
 62
7
 10
3.62900000
 20
19.12400000
  0
VERTEX
  8
0
 62
7
 10
3.64023438
 20
19.15732813
  0
VERTEX
  8
0
 62
7
 10
3.64837500
 20
19.19112500
  0
VERTEX
  8
0
 62
7
 10
3.65332813
 20
19.22510938
  0
VERTEX
  8
0
 62
7
 10
3.65500000
 20
19.25900000
  0
VERTEX
  8
0
 62
7
 10
3.65365527
 20
19.29030078
  0
VERTEX
  8
0
 62
7
 10
3.64967969
 20
19.32110938
  0
VERTEX
  8
0
 62
7
 10
3.64316113
 20
19.35128516
  0
VERTEX
  8
0
 62
7
 10
3.63418750
 20
19.38068750
  0
VERTEX
  8
0
 62
7
 10
3.62284668
 20
19.40917578
  0
VERTEX
  8
0
 62
7
 10
3.60922656
 20
19.43660938
  0
VERTEX
  8
0
 62
7
 10
3.59341504
 20
19.46284766
  0
VERTEX
  8
0
 62
7
 10
3.57550000
 20
19.48775000
  0
VERTEX
  8
0
 62
7
 10
3.55556934
 20
19.51117578
  0
VERTEX
  8
0
 62
7
 10
3.53371094
 20
19.53298438
  0
VERTEX
  8
0
 62
7
 10
3.51001270
 20
19.55303516
  0
VERTEX
  8
0
 62
7
 10
3.48456250
 20
19.57118750
  0
VERTEX
  8
0
 62
7
 10
3.45744824
 20
19.58730078
  0
VERTEX
  8
0
 62
7
 10
3.42875781
 20
19.60123438
  0
VERTEX
  8
0
 62
7
 10
3.39857910
 20
19.61284766
  0
VERTEX
  8
0
 62
7
 10
3.36700000
 20
19.62200000
  0
VERTEX
  8
0
 62
7
 10
3.33750000
 20
19.62762500
  0
VERTEX
  8
0
 62
7
 10
3.30800000
 20
19.63100000
  0
VERTEX
  8
0
 62
7
 10
3.30137500
 20
19.66475000
  0
VERTEX
  8
0
 62
7
 10
3.29100000
 20
19.69700000
  0
VERTEX
  8
0
 62
7
 10
3.28600000
 20
19.80900000
  0
VERTEX
  8
0
 62
7
 10
3.28342578
 20
19.84151172
  0
VERTEX
  8
0
 62
7
 10
3.27871875
 20
19.87371875
  0
VERTEX
  8
0
 62
7
 10
3.27190234
 20
19.90550391
  0
VERTEX
  8
0
 62
7
 10
3.26300000
 20
19.93675000
  0
VERTEX
  8
0
 62
7
 10
3.25203516
 20
19.96733984
  0
VERTEX
  8
0
 62
7
 10
3.23903125
 20
19.99715625
  0
VERTEX
  8
0
 62
7
 10
3.22401172
 20
20.02608203
  0
VERTEX
  8
0
 62
7
 10
3.20700000
 20
20.05400000
  0
VERTEX
  8
0
 62
7
 10
3.18400000
 20
20.08500000
  0
VERTEX
  8
0
 62
7
 10
3.21200000
 20
20.08400000
  0
VERTEX
  8
0
 62
7
 10
3.23600000
 20
20.08500000
  0
VERTEX
  8
0
 62
7
 10
3.26150586
 20
20.08756641
  0
VERTEX
  8
0
 62
7
 10
3.28760938
 20
20.09165625
  0
VERTEX
  8
0
 62
7
 10
3.31406445
 20
20.09748047
  0
VERTEX
  8
0
 62
7
 10
3.34062500
 20
20.10525000
  0
VERTEX
  8
0
 62
7
 10
3.36704492
 20
20.11517578
  0
VERTEX
  8
0
 62
7
 10
3.39307813
 20
20.12746875
  0
VERTEX
  8
0
 62
7
 10
3.41847852
 20
20.14233984
  0
VERTEX
  8
0
 62
7
 10
3.44300000
 20
20.16000000
  0
VERTEX
  8
0
 62
7
 10
3.46600586
 20
20.18034180
  0
VERTEX
  8
0
 62
7
 10
3.48810938
 20
20.20310938
  0
VERTEX
  8
0
 62
7
 10
3.50868945
 20
20.22829102
  0
VERTEX
  8
0
 62
7
 10
3.52712500
 20
20.25587500
  0
VERTEX
  8
0
 62
7
 10
3.54279492
 20
20.28584961
  0
VERTEX
  8
0
 62
7
 10
3.55507813
 20
20.31820313
  0
VERTEX
  8
0
 62
7
 10
3.56335352
 20
20.35292383
  0
VERTEX
  8
0
 62
7
 10
3.56700000
 20
20.39000000
  0
VERTEX
  8
0
 62
7
 10
3.56700000
 20
20.39900000
  0
VERTEX
  8
0
 62
7
 10
3.56595898
 20
20.42558398
  0
VERTEX
  8
0
 62
7
 10
3.56260938
 20
20.45323438
  0
VERTEX
  8
0
 62
7
 10
3.55661133
 20
20.48142383
  0
VERTEX
  8
0
 62
7
 10
3.54762500
 20
20.50962500
  0
VERTEX
  8
0
 62
7
 10
3.53531055
 20
20.53731055
  0
VERTEX
  8
0
 62
7
 10
3.51932813
 20
20.56395313
  0
VERTEX
  8
0
 62
7
 10
3.49933789
 20
20.58902539
  0
VERTEX
  8
0
 62
7
 10
3.47500000
 20
20.61200000
  0
VERTEX
  8
0
 62
7
 10
3.44020313
 20
20.63554688
  0
VERTEX
  8
0
 62
7
 10
3.40212500
 20
20.65337500
  0
VERTEX
  8
0
 62
7
 10
3.36123438
 20
20.66501563
  0
VERTEX
  8
0
 62
7
 10
3.31800000
 20
20.67000000
  0
VERTEX
  8
0
 62
7
 10
3.29111523
 20
20.66709180
  0
VERTEX
  8
0
 62
7
 10
3.26792188
 20
20.65704688
  0
VERTEX
  8
0
 62
7
 10
3.24911133
 20
20.64125977
  0
VERTEX
  8
0
 62
7
 10
3.23537500
 20
20.62112500
  0
VERTEX
  8
0
 62
7
 10
3.22740430
 20
20.59803711
  0
VERTEX
  8
0
 62
7
 10
3.22589063
 20
20.57339063
  0
VERTEX
  8
0
 62
7
 10
3.23152539
 20
20.54858008
  0
VERTEX
  8
0
 62
7
 10
3.24500000
 20
20.52500000
  0
VERTEX
  8
0
 62
7
 10
3.25214063
 20
20.51396875
  0
VERTEX
  8
0
 62
7
 10
3.25712500
 20
20.50200000
  0
VERTEX
  8
0
 62
7
 10
3.26004688
 20
20.48928125
  0
VERTEX
  8
0
 62
7
 10
3.26100000
 20
20.47600000
  0
VERTEX
  8
0
 62
7
 10
3.25937500
 20
20.45912500
  0
VERTEX
  8
0
 62
7
 10
3.25400000
 20
20.44300000
  0
VERTEX
  8
0
 62
7
 10
3.24260938
 20
20.42662500
  0
VERTEX
  8
0
 62
7
 10
3.22662500
 20
20.41400000
  0
VERTEX
  8
0
 62
7
 10
3.20632813
 20
20.40587500
  0
VERTEX
  8
0
 62
7
 10
3.18200000
 20
20.40300000
  0
VERTEX
  8
0
 62
7
 10
3.16037500
 20
20.40525000
  0
VERTEX
  8
0
 62
7
 10
3.13800000
 20
20.41200000
  0
VERTEX
  8
0
 62
7
 10
3.12445313
 20
20.41985938
  0
VERTEX
  8
0
 62
7
 10
3.10987500
 20
20.43212500
  0
VERTEX
  8
0
 62
7
 10
3.09285938
 20
20.44982813
  0
VERTEX
  8
0
 62
7
 10
3.07200000
 20
20.47400000
  0
VERTEX
  8
0
 62
7
 10
3.05073438
 20
20.50392188
  0
VERTEX
  8
0
 62
7
 10
3.03237500
 20
20.53862500
  0
VERTEX
  8
0
 62
7
 10
3.01532813
 20
20.57876563
  0
VERTEX
  8
0
 62
7
 10
2.99800000
 20
20.62500000
  0
VERTEX
  8
0
 62
7
 10
2.99800000
 20
20.62700000
  0
VERTEX
  8
0
 62
7
 10
2.98356250
 20
20.67332813
  0
VERTEX
  8
0
 62
7
 10
2.97250000
 20
20.72237500
  0
VERTEX
  8
0
 62
7
 10
2.96368750
 20
20.77423438
  0
VERTEX
  8
0
 62
7
 10
2.95600000
 20
20.82900000
  0
VERTEX
  8
0
 62
7
 10
2.95500000
 20
20.84300000
  0
VERTEX
  8
0
 62
7
 10
2.95200000
 20
20.86600000
  0
VERTEX
  8
0
 62
7
 10
2.94700000
 20
20.93200000
  0
VERTEX
  8
0
 62
7
 10
2.94900000
 20
20.94000000
  0
VERTEX
  8
0
 62
7
 10
2.98787500
 20
20.88475000
  0
VERTEX
  8
0
 62
7
 10
3.02000000
 20
20.82500000
  0
VERTEX
  8
0
 62
7
 10
3.03193359
 20
20.80558789
  0
VERTEX
  8
0
 62
7
 10
3.04759375
 20
20.79026563
  0
VERTEX
  8
0
 62
7
 10
3.06601953
 20
20.77927930
  0
VERTEX
  8
0
 62
7
 10
3.08625000
 20
20.77287500
  0
VERTEX
  8
0
 62
7
 10
3.10732422
 20
20.77129883
  0
VERTEX
  8
0
 62
7
 10
3.12828125
 20
20.77479688
  0
VERTEX
  8
0
 62
7
 10
3.14816016
 20
20.78361523
  0
VERTEX
  8
0
 62
7
 10
3.16600000
 20
20.79800000
  0
VERTEX
  8
0
 62
7
 10
3.19370313
 20
20.82910938
  0
VERTEX
  8
0
 62
7
 10
3.21812500
 20
20.86237500
  0
VERTEX
  8
0
 62
7
 10
3.23898438
 20
20.89770313
  0
VERTEX
  8
0
 62
7
 10
3.25600000
 20
20.93500000
  0
VERTEX
  8
0
 62
7
 10
3.27162500
 20
20.97962500
  0
VERTEX
  8
0
 62
7
 10
3.28200000
 20
21.01900000
  0
VERTEX
  8
0
 62
7
 10
3.29100000
 20
21.05400000
  0
VERTEX
  8
0
 62
7
 10
3.29700000
 20
21.07200000
  0
VERTEX
  8
0
 62
7
 10
3.31300000
 20
21.06900000
  0
VERTEX
  8
0
 62
7
 10
3.32679688
 20
21.06761133
  0
VERTEX
  8
0
 62
7
 10
3.34031250
 20
21.06857813
  0
VERTEX
  8
0
 62
7
 10
3.35335938
 20
21.07172461
  0
VERTEX
  8
0
 62
7
 10
3.36575000
 20
21.07687500
  0
VERTEX
  8
0
 62
7
 10
3.37729688
 20
21.08385352
  0
VERTEX
  8
0
 62
7
 10
3.38781250
 20
21.09248438
  0
VERTEX
  8
0
 62
7
 10
3.39710938
 20
21.10259180
  0
VERTEX
  8
0
 62
7
 10
3.40500000
 20
21.11400000
  0
VERTEX
  8
0
 62
7
 10
3.42410938
 20
21.14996875
  0
VERTEX
  8
0
 62
7
 10
3.44087500
 20
21.18725000
  0
VERTEX
  8
0
 62
7
 10
3.45520313
 20
21.22565625
  0
VERTEX
  8
0
 62
7
 10
3.46700000
 20
21.26500000
  0
VERTEX
  8
0
 62
7
 10
3.47579688
 20
21.30076563
  0
VERTEX
  8
0
 62
7
 10
3.48262500
 20
21.33737500
  0
VERTEX
  8
0
 62
7
 10
3.48739063
 20
21.37454688
  0
VERTEX
  8
0
 62
7
 10
3.49000000
 20
21.41200000
  0
VERTEX
  8
0
 62
7
 10
3.50400000
 20
21.41500000
  0
VERTEX
  8
0
 62
7
 10
3.51821094
 20
21.41905078
  0
VERTEX
  8
0
 62
7
 10
3.53143750
 20
21.42509375
  0
VERTEX
  8
0
 62
7
 10
3.54344531
 20
21.43296484
  0
VERTEX
  8
0
 62
7
 10
3.55400000
 20
21.44250000
  0
VERTEX
  8
0
 62
7
 10
3.56286719
 20
21.45353516
  0
VERTEX
  8
0
 62
7
 10
3.56981250
 20
21.46590625
  0
VERTEX
  8
0
 62
7
 10
3.57460156
 20
21.47944922
  0
VERTEX
  8
0
 62
7
 10
3.57700000
 20
21.49400000
  0
VERTEX
  8
0
 62
7
 10
3.58000000
 20
21.56800000
  0
VERTEX
  8
0
 62
7
 10
3.57818359
 20
21.62075000
  0
VERTEX
  8
0
 62
7
 10
3.57278125
 20
21.67312500
  0
VERTEX
  8
0
 62
7
 10
3.56386328
 20
21.72493750
  0
VERTEX
  8
0
 62
7
 10
3.55150000
 20
21.77600000
  0
VERTEX
  8
0
 62
7
 10
3.53576172
 20
21.82612500
  0
VERTEX
  8
0
 62
7
 10
3.51671875
 20
21.87512500
  0
VERTEX
  8
0
 62
7
 10
3.49444141
 20
21.92281250
  0
VERTEX
  8
0
 62
7
 10
3.46900000
 20
21.96900000
  0
VERTEX
  8
0
 62
7
 10
3.42537500
 20
22.03475000
  0
VERTEX
  8
0
 62
7
 10
3.37500000
 20
22.09600000
  0
VERTEX
  8
0
 62
7
 10
3.40212500
 20
22.10226563
  0
VERTEX
  8
0
 62
7
 10
3.42925000
 20
22.11087500
  0
VERTEX
  8
0
 62
7
 10
3.45600000
 20
22.12229688
  0
VERTEX
  8
0
 62
7
 10
3.48200000
 20
22.13700000
  0
VERTEX
  8
0
 62
7
 10
3.51243750
 20
22.15801563
  0
VERTEX
  8
0
 62
7
 10
3.54100000
 20
22.18137500
  0
VERTEX
  8
0
 62
7
 10
3.56806250
 20
22.20829688
  0
VERTEX
  8
0
 62
7
 10
3.59400000
 20
22.24000000
  0
VERTEX
  8
0
 62
7
 10
3.61393750
 20
22.26954688
  0
VERTEX
  8
0
 62
7
 10
3.63425000
 20
22.30537500
  0
VERTEX
  8
0
 62
7
 10
3.65193750
 20
22.34701563
  0
VERTEX
  8
0
 62
7
 10
3.66400000
 20
22.39400000
  0
VERTEX
  8
0
 62
7
 10
3.66514063
 20
22.41207813
  0
VERTEX
  8
0
 62
7
 10
3.66262500
 20
22.42987500
  0
VERTEX
  8
0
 62
7
 10
3.65654688
 20
22.44673438
  0
VERTEX
  8
0
 62
7
 10
3.64700000
 20
22.46200000
  0
VERTEX
  8
0
 62
7
 10
3.58900000
 20
22.53900000
  0
VERTEX
  8
0
 62
7
 10
3.59914063
 20
22.56335938
  0
VERTEX
  8
0
 62
7
 10
3.60712500
 20
22.58837500
  0
VERTEX
  8
0
 62
7
 10
3.61304688
 20
22.61395313
  0
VERTEX
  8
0
 62
7
 10
3.61700000
 20
22.64000000
  0
VERTEX
  8
0
 62
7
 10
3.61900000
 20
22.67200000
  0
VERTEX
  8
0
 62
7
 10
3.61800000
 20
22.70400000
  0
VERTEX
  8
0
 62
7
 10
3.63700000
 20
22.71500000
  0
VERTEX
  8
0
 62
7
 10
3.70553125
 20
22.75431250
  0
VERTEX
  8
0
 62
7
 10
3.77350000
 20
22.79175000
  0
VERTEX
  8
0
 62
7
 10
3.83921875
 20
22.82581250
  0
VERTEX
  8
0
 62
7
 10
3.90100000
 20
22.85500000
  0
VERTEX
  8
0
 62
7
 10
4.04151563
 20
22.91318750
  0
VERTEX
  8
0
 62
7
 10
4.17987500
 20
22.96425000
  0
VERTEX
  8
0
 62
7
 10
4.32554688
 20
23.01193750
  0
VERTEX
  8
0
 62
7
 10
4.48800000
 20
23.06000000
  0
VERTEX
  8
0
 62
7
 10
4.86600000
 20
23.16600000
  0
VERTEX
  8
0
 62
7
 10
5.03853125
 20
23.21339063
  0
VERTEX
  8
0
 62
7
 10
5.21125000
 20
23.26162500
  0
VERTEX
  8
0
 62
7
 10
5.38434375
 20
23.31154688
  0
VERTEX
  8
0
 62
7
 10
5.55800000
 20
23.36400000
  0
VERTEX
  8
0
 62
7
 10
5.82475708
 20
23.44404541
  0
VERTEX
  8
0
 62
7
 10
6.09324414
 20
23.51916016
  0
VERTEX
  8
0
 62
7
 10
6.36340991
 20
23.58931201
  0
VERTEX
  8
0
 62
7
 10
6.63520313
 20
23.65446875
  0
VERTEX
  8
0
 62
7
 10
6.90857251
 20
23.71459814
  0
VERTEX
  8
0
 62
7
 10
7.18346680
 20
23.76966797
  0
VERTEX
  8
0
 62
7
 10
7.45983472
 20
23.81964600
  0
VERTEX
  8
0
 62
7
 10
7.73762500
 20
23.86450000
  0
VERTEX
  8
0
 62
7
 10
8.01678638
 20
23.90419775
  0
VERTEX
  8
0
 62
7
 10
8.29726758
 20
23.93870703
  0
VERTEX
  8
0
 62
7
 10
8.57901733
 20
23.96799561
  0
VERTEX
  8
0
 62
7
 10
8.86198438
 20
23.99203125
  0
VERTEX
  8
0
 62
7
 10
9.14611743
 20
24.01078174
  0
VERTEX
  8
0
 62
7
 10
9.43136523
 20
24.02421484
  0
VERTEX
  8
0
 62
7
 10
9.71767651
 20
24.03229834
  0
VERTEX
  8
0
 62
7
 10
10.00500000
 20
24.03500000
  0
VERTEX
  8
0
 62
7
 10
10.29221118
 20
24.03229834
  0
VERTEX
  8
0
 62
7
 10
10.57820508
 20
24.02421484
  0
VERTEX
  8
0
 62
7
 10
10.86295972
 20
24.01078174
  0
VERTEX
  8
0
 62
7
 10
11.14645313
 20
23.99203125
  0
VERTEX
  8
0
 62
7
 10
11.42866333
 20
23.96799561
  0
VERTEX
  8
0
 62
7
 10
11.70956836
 20
23.93870703
  0
VERTEX
  8
0
 62
7
 10
11.98914624
 20
23.90419775
  0
VERTEX
  8
0
 62
7
 10
12.26737500
 20
23.86450000
  0
VERTEX
  8
0
 62
7
 10
12.54423267
 20
23.81964600
  0
VERTEX
  8
0
 62
7
 10
12.81969727
 20
23.76966797
  0
VERTEX
  8
0
 62
7
 10
13.09374683
 20
23.71459814
  0
VERTEX
  8
0
 62
7
 10
13.36635938
 20
23.65446875
  0
VERTEX
  8
0
 62
7
 10
13.63751294
 20
23.58931201
  0
VERTEX
  8
0
 62
7
 10
13.90718555
 20
23.51916016
  0
VERTEX
  8
0
 62
7
 10
14.17535522
 20
23.44404541
  0
VERTEX
  8
0
 62
7
 10
14.44200000
 20
23.36400000
  0
VERTEX
  8
0
 62
7
 10
14.61565625
 20
23.31154688
  0
VERTEX
  8
0
 62
7
 10
14.78875000
 20
23.26162500
  0
VERTEX
  8
0
 62
7
 10
14.96146875
 20
23.21339063
  0
VERTEX
  8
0
 62
7
 10
15.13400000
 20
23.16600000
  0
VERTEX
  8
0
 62
7
 10
15.51200000
 20
23.06000000
  0
VERTEX
  8
0
 62
7
 10
15.67445313
 20
23.01193750
  0
VERTEX
  8
0
 62
7
 10
15.82012500
 20
22.96425000
  0
VERTEX
  8
0
 62
7
 10
15.95848438
 20
22.91318750
  0
VERTEX
  8
0
 62
7
 10
16.09900000
 20
22.85500000
  0
VERTEX
  8
0
 62
7
 10
16.16078125
 20
22.82581250
  0
VERTEX
  8
0
 62
7
 10
16.22650000
 20
22.79175000
  0
VERTEX
  8
0
 62
7
 10
16.29446875
 20
22.75431250
  0
VERTEX
  8
0
 62
7
 10
16.36300000
 20
22.71500000
  0
VERTEX
  8
0
 62
7
 10
16.38200000
 20
22.70400000
  0
VERTEX
  8
0
 62
7
 10
16.38100000
 20
22.67200000
  0
VERTEX
  8
0
 62
7
 10
16.38300000
 20
22.64000000
  0
VERTEX
  8
0
 62
7
 10
16.38695313
 20
22.61395313
  0
VERTEX
  8
0
 62
7
 10
16.39287500
 20
22.58837500
  0
VERTEX
  8
0
 62
7
 10
16.40085938
 20
22.56335938
  0
VERTEX
  8
0
 62
7
 10
16.41100000
 20
22.53900000
  0
VERTEX
  8
0
 62
7
 10
16.35300000
 20
22.46200000
  0
VERTEX
  8
0
 62
7
 10
16.34345313
 20
22.44673438
  0
VERTEX
  8
0
 62
7
 10
16.33737500
 20
22.42987500
  0
VERTEX
  8
0
 62
7
 10
16.33485938
 20
22.41207813
  0
VERTEX
  8
0
 62
7
 10
16.33600000
 20
22.39400000
  0
VERTEX
  8
0
 62
7
 10
16.34806250
 20
22.34701563
  0
VERTEX
  8
0
 62
7
 10
16.36575000
 20
22.30537500
  0
VERTEX
  8
0
 62
7
 10
16.38606250
 20
22.26954688
  0
VERTEX
  8
0
 62
7
 10
16.40600000
 20
22.24000000
  0
VERTEX
  8
0
 62
7
 10
16.43193750
 20
22.20829688
  0
VERTEX
  8
0
 62
7
 10
16.45900000
 20
22.18137500
  0
VERTEX
  8
0
 62
7
 10
16.48756250
 20
22.15801563
  0
VERTEX
  8
0
 62
7
 10
16.51800000
 20
22.13700000
  0
VERTEX
  8
0
 62
7
 10
16.54400000
 20
22.12229688
  0
VERTEX
  8
0
 62
7
 10
16.57075000
 20
22.11087500
  0
VERTEX
  8
0
 62
7
 10
16.59787500
 20
22.10226563
  0
VERTEX
  8
0
 62
7
 10
16.62500000
 20
22.09600000
  0
VERTEX
  8
0
 62
7
 10
16.57462500
 20
22.03475000
  0
VERTEX
  8
0
 62
7
 10
16.53100000
 20
21.96900000
  0
VERTEX
  8
0
 62
7
 10
16.50555859
 20
21.92281250
  0
VERTEX
  8
0
 62
7
 10
16.48328125
 20
21.87512500
  0
VERTEX
  8
0
 62
7
 10
16.46423828
 20
21.82612500
  0
VERTEX
  8
0
 62
7
 10
16.44850000
 20
21.77600000
  0
VERTEX
  8
0
 62
7
 10
16.43613672
 20
21.72493750
  0
VERTEX
  8
0
 62
7
 10
16.42721875
 20
21.67312500
  0
VERTEX
  8
0
 62
7
 10
16.42181641
 20
21.62075000
  0
VERTEX
  8
0
 62
7
 10
16.42000000
 20
21.56800000
  0
VERTEX
  8
0
 62
7
 10
16.42300000
 20
21.49400000
  0
VERTEX
  8
0
 62
7
 10
16.42539844
 20
21.47944922
  0
VERTEX
  8
0
 62
7
 10
16.43018750
 20
21.46590625
  0
VERTEX
  8
0
 62
7
 10
16.43713281
 20
21.45353516
  0
VERTEX
  8
0
 62
7
 10
16.44600000
 20
21.44250000
  0
VERTEX
  8
0
 62
7
 10
16.45655469
 20
21.43296484
  0
VERTEX
  8
0
 62
7
 10
16.46856250
 20
21.42509375
  0
VERTEX
  8
0
 62
7
 10
16.48178906
 20
21.41905078
  0
VERTEX
  8
0
 62
7
 10
16.49600000
 20
21.41500000
  0
VERTEX
  8
0
 62
7
 10
16.51000000
 20
21.41200000
  0
VERTEX
  8
0
 62
7
 10
16.51260938
 20
21.37454688
  0
VERTEX
  8
0
 62
7
 10
16.51737500
 20
21.33737500
  0
VERTEX
  8
0
 62
7
 10
16.52420313
 20
21.30076563
  0
VERTEX
  8
0
 62
7
 10
16.53300000
 20
21.26500000
  0
VERTEX
  8
0
 62
7
 10
16.54479688
 20
21.22565625
  0
VERTEX
  8
0
 62
7
 10
16.55912500
 20
21.18725000
  0
VERTEX
  8
0
 62
7
 10
16.57589063
 20
21.14996875
  0
VERTEX
  8
0
 62
7
 10
16.59500000
 20
21.11400000
  0
VERTEX
  8
0
 62
7
 10
16.60289063
 20
21.10259180
  0
VERTEX
  8
0
 62
7
 10
16.61218750
 20
21.09248438
  0
VERTEX
  8
0
 62
7
 10
16.62270313
 20
21.08385352
  0
VERTEX
  8
0
 62
7
 10
16.63425000
 20
21.07687500
  0
VERTEX
  8
0
 62
7
 10
16.64664063
 20
21.07172461
  0
VERTEX
  8
0
 62
7
 10
16.65968750
 20
21.06857813
  0
VERTEX
  8
0
 62
7
 10
16.67320313
 20
21.06761133
  0
VERTEX
  8
0
 62
7
 10
16.68700000
 20
21.06900000
  0
VERTEX
  8
0
 62
7
 10
16.70300000
 20
21.07200000
  0
VERTEX
  8
0
 62
7
 10
16.70900000
 20
21.05400000
  0
VERTEX
  8
0
 62
7
 10
16.71800000
 20
21.01900000
  0
VERTEX
  8
0
 62
7
 10
16.72837500
 20
20.97962500
  0
VERTEX
  8
0
 62
7
 10
16.74400000
 20
20.93500000
  0
VERTEX
  8
0
 62
7
 10
16.76101563
 20
20.89770313
  0
VERTEX
  8
0
 62
7
 10
16.78187500
 20
20.86237500
  0
VERTEX
  8
0
 62
7
 10
16.80629688
 20
20.82910938
  0
VERTEX
  8
0
 62
7
 10
16.83400000
 20
20.79800000
  0
VERTEX
  8
0
 62
7
 10
16.85183984
 20
20.78361523
  0
VERTEX
  8
0
 62
7
 10
16.87171875
 20
20.77479688
  0
VERTEX
  8
0
 62
7
 10
16.89267578
 20
20.77129883
  0
VERTEX
  8
0
 62
7
 10
16.91375000
 20
20.77287500
  0
VERTEX
  8
0
 62
7
 10
16.93398047
 20
20.77927930
  0
VERTEX
  8
0
 62
7
 10
16.95240625
 20
20.79026563
  0
VERTEX
  8
0
 62
7
 10
16.96806641
 20
20.80558789
  0
VERTEX
  8
0
 62
7
 10
16.98000000
 20
20.82500000
  0
VERTEX
  8
0
 62
7
 10
17.01212500
 20
20.88475000
  0
VERTEX
  8
0
 62
7
 10
17.05100000
 20
20.94000000
  0
VERTEX
  8
0
 62
7
 10
17.05300000
 20
20.93200000
  0
VERTEX
  8
0
 62
7
 10
17.04800000
 20
20.86600000
  0
VERTEX
  8
0
 62
7
 10
17.04500000
 20
20.84300000
  0
VERTEX
  8
0
 62
7
 10
17.04400000
 20
20.82900000
  0
VERTEX
  8
0
 62
7
 10
17.03631250
 20
20.77423438
  0
VERTEX
  8
0
 62
7
 10
17.02750000
 20
20.72237500
  0
VERTEX
  8
0
 62
7
 10
17.01643750
 20
20.67332813
  0
VERTEX
  8
0
 62
7
 10
17.00200000
 20
20.62700000
  0
VERTEX
  8
0
 62
7
 10
17.00200000
 20
20.62500000
  0
VERTEX
  8
0
 62
7
 10
16.98467188
 20
20.57876563
  0
VERTEX
  8
0
 62
7
 10
16.96762500
 20
20.53862500
  0
VERTEX
  8
0
 62
7
 10
16.94926563
 20
20.50392188
  0
VERTEX
  8
0
 62
7
 10
16.92800000
 20
20.47400000
  0
VERTEX
  8
0
 62
7
 10
16.90714063
 20
20.44982813
  0
VERTEX
  8
0
 62
7
 10
16.89012500
 20
20.43212500
  0
VERTEX
  8
0
 62
7
 10
16.87554688
 20
20.41985938
  0
VERTEX
  8
0
 62
7
 10
16.86200000
 20
20.41200000
  0
VERTEX
  8
0
 62
7
 10
16.83962500
 20
20.40525000
  0
VERTEX
  8
0
 62
7
 10
16.81800000
 20
20.40300000
  0
VERTEX
  8
0
 62
7
 10
16.79367188
 20
20.40587500
  0
VERTEX
  8
0
 62
7
 10
16.77337500
 20
20.41400000
  0
VERTEX
  8
0
 62
7
 10
16.75739063
 20
20.42662500
  0
VERTEX
  8
0
 62
7
 10
16.74600000
 20
20.44300000
  0
VERTEX
  8
0
 62
7
 10
16.74062500
 20
20.45912500
  0
VERTEX
  8
0
 62
7
 10
16.73900000
 20
20.47600000
  0
VERTEX
  8
0
 62
7
 10
16.73995313
 20
20.48928125
  0
VERTEX
  8
0
 62
7
 10
16.74287500
 20
20.50200000
  0
VERTEX
  8
0
 62
7
 10
16.74785938
 20
20.51396875
  0
VERTEX
  8
0
 62
7
 10
16.75500000
 20
20.52500000
  0
VERTEX
  8
0
 62
7
 10
16.76847461
 20
20.54858008
  0
VERTEX
  8
0
 62
7
 10
16.77410938
 20
20.57339063
  0
VERTEX
  8
0
 62
7
 10
16.77259570
 20
20.59803711
  0
VERTEX
  8
0
 62
7
 10
16.76462500
 20
20.62112500
  0
VERTEX
  8
0
 62
7
 10
16.75088867
 20
20.64125977
  0
VERTEX
  8
0
 62
7
 10
16.73207813
 20
20.65704688
  0
VERTEX
  8
0
 62
7
 10
16.70888477
 20
20.66709180
  0
VERTEX
  8
0
 62
7
 10
16.68200000
 20
20.67000000
  0
VERTEX
  8
0
 62
7
 10
16.63876563
 20
20.66501563
  0
VERTEX
  8
0
 62
7
 10
16.59787500
 20
20.65337500
  0
VERTEX
  8
0
 62
7
 10
16.55979688
 20
20.63554688
  0
VERTEX
  8
0
 62
7
 10
16.52500000
 20
20.61200000
  0
VERTEX
  8
0
 62
7
 10
16.50066211
 20
20.58902539
  0
VERTEX
  8
0
 62
7
 10
16.48067188
 20
20.56395313
  0
VERTEX
  8
0
 62
7
 10
16.46468945
 20
20.53731055
  0
VERTEX
  8
0
 62
7
 10
16.45237500
 20
20.50962500
  0
VERTEX
  8
0
 62
7
 10
16.44338867
 20
20.48142383
  0
VERTEX
  8
0
 62
7
 10
16.43739063
 20
20.45323438
  0
VERTEX
  8
0
 62
7
 10
16.43404102
 20
20.42558398
  0
VERTEX
  8
0
 62
7
 10
16.43300000
 20
20.39900000
  0
VERTEX
  8
0
 62
7
 10
16.43300000
 20
20.39000000
  0
VERTEX
  8
0
 62
7
 10
16.43664648
 20
20.35292383
  0
VERTEX
  8
0
 62
7
 10
16.44492188
 20
20.31820313
  0
VERTEX
  8
0
 62
7
 10
16.45720508
 20
20.28584961
  0
VERTEX
  8
0
 62
7
 10
16.47287500
 20
20.25587500
  0
VERTEX
  8
0
 62
7
 10
16.49131055
 20
20.22829102
  0
VERTEX
  8
0
 62
7
 10
16.51189063
 20
20.20310938
  0
VERTEX
  8
0
 62
7
 10
16.53399414
 20
20.18034180
  0
VERTEX
  8
0
 62
7
 10
16.55700000
 20
20.16000000
  0
VERTEX
  8
0
 62
7
 10
16.58152148
 20
20.14233984
  0
VERTEX
  8
0
 62
7
 10
16.60692188
 20
20.12746875
  0
VERTEX
  8
0
 62
7
 10
16.63295508
 20
20.11517578
  0
VERTEX
  8
0
 62
7
 10
16.65937500
 20
20.10525000
  0
VERTEX
  8
0
 62
7
 10
16.68593555
 20
20.09748047
  0
VERTEX
  8
0
 62
7
 10
16.71239063
 20
20.09165625
  0
VERTEX
  8
0
 62
7
 10
16.73849414
 20
20.08756641
  0
VERTEX
  8
0
 62
7
 10
16.76400000
 20
20.08500000
  0
VERTEX
  8
0
 62
7
 10
16.78800000
 20
20.08400000
  0
VERTEX
  8
0
 62
7
 10
16.81600000
 20
20.08500000
  0
VERTEX
  8
0
 62
7
 10
16.79300000
 20
20.05400000
  0
VERTEX
  8
0
 62
7
 10
16.77598828
 20
20.02608203
  0
VERTEX
  8
0
 62
7
 10
16.76096875
 20
19.99715625
  0
VERTEX
  8
0
 62
7
 10
16.74796484
 20
19.96733984
  0
VERTEX
  8
0
 62
7
 10
16.73700000
 20
19.93675000
  0
VERTEX
  8
0
 62
7
 10
16.72809766
 20
19.90550391
  0
VERTEX
  8
0
 62
7
 10
16.72128125
 20
19.87371875
  0
VERTEX
  8
0
 62
7
 10
16.71657422
 20
19.84151172
  0
VERTEX
  8
0
 62
7
 10
16.71400000
 20
19.80900000
  0
VERTEX
  8
0
 62
7
 10
16.70900000
 20
19.69700000
  0
VERTEX
  8
0
 62
7
 10
16.69862500
 20
19.66475000
  0
VERTEX
  8
0
 62
7
 10
16.69200000
 20
19.63100000
  0
VERTEX
  8
0
 62
7
 10
16.66250000
 20
19.62762500
  0
VERTEX
  8
0
 62
7
 10
16.63300000
 20
19.62200000
  0
VERTEX
  8
0
 62
7
 10
16.60142090
 20
19.61284766
  0
VERTEX
  8
0
 62
7
 10
16.57124219
 20
19.60123438
  0
VERTEX
  8
0
 62
7
 10
16.54255176
 20
19.58730078
  0
VERTEX
  8
0
 62
7
 10
16.51543750
 20
19.57118750
  0
VERTEX
  8
0
 62
7
 10
16.48998730
 20
19.55303516
  0
VERTEX
  8
0
 62
7
 10
16.46628906
 20
19.53298438
  0
VERTEX
  8
0
 62
7
 10
16.44443066
 20
19.51117578
  0
VERTEX
  8
0
 62
7
 10
16.42450000
 20
19.48775000
  0
VERTEX
  8
0
 62
7
 10
16.40658496
 20
19.46284766
  0
VERTEX
  8
0
 62
7
 10
16.39077344
 20
19.43660938
  0
VERTEX
  8
0
 62
7
 10
16.37715332
 20
19.40917578
  0
VERTEX
  8
0
 62
7
 10
16.36581250
 20
19.38068750
  0
VERTEX
  8
0
 62
7
 10
16.35683887
 20
19.35128516
  0
VERTEX
  8
0
 62
7
 10
16.35032031
 20
19.32110938
  0
VERTEX
  8
0
 62
7
 10
16.34634473
 20
19.29030078
  0
VERTEX
  8
0
 62
7
 10
16.34500000
 20
19.25900000
  0
VERTEX
  8
0
 62
7
 10
16.34667188
 20
19.22510938
  0
VERTEX
  8
0
 62
7
 10
16.35162500
 20
19.19112500
  0
VERTEX
  8
0
 62
7
 10
16.35976563
 20
19.15732813
  0
VERTEX
  8
0
 62
7
 10
16.37100000
 20
19.12400000
  0
VERTEX
  8
0
 62
7
 10
16.39731250
 20
19.07010938
  0
VERTEX
  8
0
 62
7
 10
16.43075000
 20
19.02137500
  0
VERTEX
  8
0
 62
7
 10
16.47056250
 20
18.97845313
  0
VERTEX
  8
0
 62
7
 10
16.51600000
 20
18.94200000
  0
SEQEND
  0
POLYLINE
  8
0
 62
7
 66
1
 70
1
  0
VERTEX
  8
0
 62
7
 10
2.79600000
 20
20.52200000
  0
VERTEX
  8
0
 62
7
 10
2.80500000
 20
20.49900000
  0
VERTEX
  8
0
 62
7
 10
2.82631250
 20
20.45196875
  0
VERTEX
  8
0
 62
7
 10
2.85025000
 20
20.40700000
  0
VERTEX
  8
0
 62
7
 10
2.87756250
 20
20.36428125
  0
VERTEX
  8
0
 62
7
 10
2.90900000
 20
20.32400000
  0
VERTEX
  8
0
 62
7
 10
2.94426563
 20
20.28870313
  0
VERTEX
  8
0
 62
7
 10
2.98262500
 20
20.25687500
  0
VERTEX
  8
0
 62
7
 10
3.02417188
 20
20.22935938
  0
VERTEX
  8
0
 62
7
 10
3.06900000
 20
20.20700000
  0
VERTEX
  8
0
 62
7
 10
3.10751563
 20
20.19257813
  0
VERTEX
  8
0
 62
7
 10
3.14762500
 20
20.18162500
  0
VERTEX
  8
0
 62
7
 10
3.18867188
 20
20.17535938
  0
VERTEX
  8
0
 62
7
 10
3.23000000
 20
20.17500000
  0
VERTEX
  8
0
 62
7
 10
3.27181250
 20
20.18021875
  0
VERTEX
  8
0
 62
7
 10
3.31250000
 20
20.19050000
  0
VERTEX
  8
0
 62
7
 10
3.35093750
 20
20.20678125
  0
VERTEX
  8
0
 62
7
 10
3.38600000
 20
20.23000000
  0
VERTEX
  8
0
 62
7
 10
3.40451172
 20
20.24602539
  0
VERTEX
  8
0
 62
7
 10
3.42159375
 20
20.26332813
  0
VERTEX
  8
0
 62
7
 10
3.43694141
 20
20.28187305
  0
VERTEX
  8
0
 62
7
 10
3.45025000
 20
20.30162500
  0
VERTEX
  8
0
 62
7
 10
3.46121484
 20
20.32254883
  0
VERTEX
  8
0
 62
7
 10
3.46953125
 20
20.34460938
  0
VERTEX
  8
0
 62
7
 10
3.47489453
 20
20.36777148
  0
VERTEX
  8
0
 62
7
 10
3.47700000
 20
20.39200000
  0
VERTEX
  8
0
 62
7
 10
3.47684375
 20
20.41304688
  0
VERTEX
  8
0
 62
7
 10
3.47481250
 20
20.43400000
  0
VERTEX
  8
0
 62
7
 10
3.47081250
 20
20.45457813
  0
VERTEX
  8
0
 62
7
 10
3.46475000
 20
20.47450000
  0
VERTEX
  8
0
 62
7
 10
3.45653125
 20
20.49348438
  0
VERTEX
  8
0
 62
7
 10
3.44606250
 20
20.51125000
  0
VERTEX
  8
0
 62
7
 10
3.43325000
 20
20.52751563
  0
VERTEX
  8
0
 62
7
 10
3.41800000
 20
20.54200000
  0
VERTEX
  8
0
 62
7
 10
3.39517188
 20
20.55750000
  0
VERTEX
  8
0
 62
7
 10
3.37037500
 20
20.56925000
  0
VERTEX
  8
0
 62
7
 10
3.34389063
 20
20.57687500
  0
VERTEX
  8
0
 62
7
 10
3.31600000
 20
20.58000000
  0
VERTEX
  8
0
 62
7
 10
3.32916211
 20
20.56041992
  0
VERTEX
  8
0
 62
7
 10
3.33935938
 20
20.53942188
  0
VERTEX
  8
0
 62
7
 10
3.34653320
 20
20.51736914
  0
VERTEX
  8
0
 62
7
 10
3.35062500
 20
20.49462500
  0
VERTEX
  8
0
 62
7
 10
3.35157617
 20
20.47155273
  0
VERTEX
  8
0
 62
7
 10
3.34932813
 20
20.44851563
  0
VERTEX
  8
0
 62
7
 10
3.34382227
 20
20.42587695
  0
VERTEX
  8
0
 62
7
 10
3.33500000
 20
20.40400000
  0
VERTEX
  8
0
 62
7
 10
3.31683008
 20
20.37465039
  0
VERTEX
  8
0
 62
7
 10
3.29370313
 20
20.35107813
  0
VERTEX
  8
0
 62
7
 10
3.26656836
 20
20.33324805
  0
VERTEX
  8
0
 62
7
 10
3.23637500
 20
20.32112500
  0
VERTEX
  8
0
 62
7
 10
3.20407227
 20
20.31467383
  0
VERTEX
  8
0
 62
7
 10
3.17060938
 20
20.31385938
  0
VERTEX
  8
0
 62
7
 10
3.13693555
 20
20.31864648
  0
VERTEX
  8
0
 62
7
 10
3.10400000
 20
20.32900000
  0
VERTEX
  8
0
 62
7
 10
3.07443750
 20
20.34540625
  0
VERTEX
  8
0
 62
7
 10
3.04825000
 20
20.36650000
  0
VERTEX
  8
0
 62
7
 10
3.02468750
 20
20.39059375
  0
VERTEX
  8
0
 62
7
 10
3.00300000
 20
20.41600000
  0
VERTEX
  8
0
 62
7
 10
2.97360938
 20
20.45664063
  0
VERTEX
  8
0
 62
7
 10
2.95012500
 20
20.50112500
  0
VERTEX
  8
0
 62
7
 10
2.93057813
 20
20.54804688
  0
VERTEX
  8
0
 62
7
 10
2.91300000
 20
20.59600000
  0
VERTEX
  8
0
 62
7
 10
2.89625000
 20
20.65009375
  0
VERTEX
  8
0
 62
7
 10
2.88400000
 20
20.70550000
  0
VERTEX
  8
0
 62
7
 10
2.87475000
 20
20.76165625
  0
VERTEX
  8
0
 62
7
 10
2.86700000
 20
20.81800000
  0
VERTEX
  8
0
 62
7
 10
2.86200000
 20
20.86000000
  0
VERTEX
  8
0
 62
7
 10
2.84254688
 20
20.83146875
  0
VERTEX
  8
0
 62
7
 10
2.82037500
 20
20.80575000
  0
VERTEX
  8
0
 62
7
 10
2.79576563
 20
20.78265625
  0
VERTEX
  8
0
 62
7
 10
2.76900000
 20
20.76200000
  0
VERTEX
  8
0
 62
7
 10
2.76700000
 20
20.76000000
  0
VERTEX
  8
0
 62
7
 10
2.78773438
 20
20.72750000
  0
VERTEX
  8
0
 62
7
 10
2.80312500
 20
20.69200000
  0
VERTEX
  8
0
 62
7
 10
2.81270313
 20
20.65425000
  0
VERTEX
  8
0
 62
7
 10
2.81600000
 20
20.61500000
  0
VERTEX
  8
0
 62
7
 10
2.81600000
 20
20.60100000
  0
VERTEX
  8
0
 62
7
 10
2.80937500
 20
20.55962500
  0
VERTEX
  8
0
 62
7
 10
2.79600000
 20
20.52200000
  0
SEQEND
  0
POLYLINE
  8
0
 62
7
 66
1
 70
1
  0
VERTEX
  8
0
 62
7
 10
2.67800000
 20
20.44100000
  0
VERTEX
  8
0
 62
7
 10
2.68500000
 20
20.44700000
  0
VERTEX
  8
0
 62
7
 10
2.70281445
 20
20.46227539
  0
VERTEX
  8
0
 62
7
 10
2.71932813
 20
20.47882813
  0
VERTEX
  8
0
 62
7
 10
2.73427148
 20
20.49662305
  0
VERTEX
  8
0
 62
7
 10
2.74737500
 20
20.51562500
  0
VERTEX
  8
0
 62
7
 10
2.75836914
 20
20.53579883
  0
VERTEX
  8
0
 62
7
 10
2.76698438
 20
20.55710938
  0
VERTEX
  8
0
 62
7
 10
2.77295117
 20
20.57952148
  0
VERTEX
  8
0
 62
7
 10
2.77600000
 20
20.60300000
  0
VERTEX
  8
0
 62
7
 10
2.77476563
 20
20.64000000
  0
VERTEX
  8
0
 62
7
 10
2.76687500
 20
20.67550000
  0
VERTEX
  8
0
 62
7
 10
2.75279688
 20
20.70875000
  0
VERTEX
  8
0
 62
7
 10
2.73300000
 20
20.73900000
  0
VERTEX
  8
0
 62
7
 10
2.70264063
 20
20.72834375
  0
VERTEX
  8
0
 62
7
 10
2.67162500
 20
20.72050000
  0
VERTEX
  8
0
 62
7
 10
2.64004688
 20
20.71565625
  0
VERTEX
  8
0
 62
7
 10
2.60800000
 20
20.71400000
  0
VERTEX
  8
0
 62
7
 10
2.57429688
 20
20.71570313
  0
VERTEX
  8
0
 62
7
 10
2.54087500
 20
20.72087500
  0
VERTEX
  8
0
 62
7
 10
2.50801563
 20
20.72960938
  0
VERTEX
  8
0
 62
7
 10
2.47600000
 20
20.74200000
  0
VERTEX
  8
0
 62
7
 10
2.44800000
 20
20.75700000
  0
VERTEX
  8
0
 62
7
 10
2.42971484
 20
20.73760352
  0
VERTEX
  8
0
 62
7
 10
2.41459375
 20
20.71639063
  0
VERTEX
  8
0
 62
7
 10
2.40261328
 20
20.69370117
  0
VERTEX
  8
0
 62
7
 10
2.39375000
 20
20.66987500
  0
VERTEX
  8
0
 62
7
 10
2.38798047
 20
20.64525195
  0
VERTEX
  8
0
 62
7
 10
2.38528125
 20
20.62017188
  0
VERTEX
  8
0
 62
7
 10
2.38562891
 20
20.59497461
  0
VERTEX
  8
0
 62
7
 10
2.38900000
 20
20.57000000
  0
VERTEX
  8
0
 62
7
 10
2.44400000
 20
20.57300000
  0
VERTEX
  8
0
 62
7
 10
2.48804688
 20
20.57129688
  0
VERTEX
  8
0
 62
7
 10
2.53162500
 20
20.56612500
  0
VERTEX
  8
0
 62
7
 10
2.57464063
 20
20.55739063
  0
VERTEX
  8
0
 62
7
 10
2.61700000
 20
20.54500000
  0
VERTEX
  8
0
 62
7
 10
2.66500000
 20
20.52900000
  0
VERTEX
  8
0
 62
7
 10
2.65700000
 20
20.47900000
  0
VERTEX
  8
0
 62
7
 10
2.65200000
 20
20.44500000
  0
VERTEX
  8
0
 62
7
 10
2.67800000
 20
20.44100000
  0
SEQEND
  0
POLYLINE
  8
0
 62
7
 66
1
 70
1
  0
VERTEX
  8
0
 62
7
 10
2.15600000
 20
20.47800000
  0
VERTEX
  8
0
 62
7
 10
2.18867188
 20
20.50140625
  0
VERTEX
  8
0
 62
7
 10
2.22387500
 20
20.52200000
  0
VERTEX
  8
0
 62
7
 10
2.26189063
 20
20.53959375
  0
VERTEX
  8
0
 62
7
 10
2.30300000
 20
20.55400000
  0
VERTEX
  8
0
 62
7
 10
2.32056250
 20
20.57428125
  0
VERTEX
  8
0
 62
7
 10
2.33550000
 20
20.59625000
  0
VERTEX
  8
0
 62
7
 10
2.34743750
 20
20.62009375
  0
VERTEX
  8
0
 62
7
 10
2.35600000
 20
20.64600000
  0
VERTEX
  8
0
 62
7
 10
2.36126563
 20
20.67570313
  0
VERTEX
  8
0
 62
7
 10
2.36212500
 20
20.70587500
  0
VERTEX
  8
0
 62
7
 10
2.35867188
 20
20.73585938
  0
VERTEX
  8
0
 62
7
 10
2.35100000
 20
20.76500000
  0
VERTEX
  8
0
 62
7
 10
2.33750000
 20
20.79692188
  0
VERTEX
  8
0
 62
7
 10
2.31950000
 20
20.82612500
  0
VERTEX
  8
0
 62
7
 10
2.29700000
 20
20.85176563
  0
VERTEX
  8
0
 62
7
 10
2.27000000
 20
20.87300000
  0
VERTEX
  8
0
 62
7
 10
2.24000000
 20
20.88900000
  0
VERTEX
  8
0
 62
7
 10
2.17175000
 20
20.83250000
  0
VERTEX
  8
0
 62
7
 10
2.09900000
 20
20.78200000
  0
VERTEX
  8
0
 62
7
 10
1.97300000
 20
20.70800000
  0
VERTEX
  8
0
 62
7
 10
2.00427148
 20
20.68855469
  0
VERTEX
  8
0
 62
7
 10
2.03267188
 20
20.66568750
  0
VERTEX
  8
0
 62
7
 10
2.05795508
 20
20.63972656
  0
VERTEX
  8
0
 62
7
 10
2.07987500
 20
20.61100000
  0
VERTEX
  8
0
 62
7
 10
2.09818555
 20
20.57983594
  0
VERTEX
  8
0
 62
7
 10
2.11264063
 20
20.54656250
  0
VERTEX
  8
0
 62
7
 10
2.12299414
 20
20.51150781
  0
VERTEX
  8
0
 62
7
 10
2.12900000
 20
20.47500000
  0
VERTEX
  8
0
 62
7
 10
2.15600000
 20
20.47800000
  0
SEQEND
  0
POLYLINE
  8
0
 62
7
 66
1
 70
1
  0
VERTEX
  8
0
 62
7
 10
2.89900000
 20
22.72700000
  0
VERTEX
  8
0
 62
7
 10
2.90832813
 20
22.73762500
  0
VERTEX
  8
0
 62
7
 10
2.92037500
 20
22.74375000
  0
VERTEX
  8
0
 62
7
 10
2.93373438
 20
22.74500000
  0
VERTEX
  8
0
 62
7
 10
2.94700000
 20
22.74100000
  0
VERTEX
  8
0
 62
7
 10
2.95762500
 20
22.73167188
  0
VERTEX
  8
0
 62
7
 10
2.96375000
 20
22.71962500
  0
VERTEX
  8
0
 62
7
 10
2.96500000
 20
22.70626563
  0
VERTEX
  8
0
 62
7
 10
2.96100000
 20
22.69300000
  0
VERTEX
  8
0
 62
7
 10
2.93779102
 20
22.64929102
  0
VERTEX
  8
0
 62
7
 10
2.91464063
 20
22.60507813
  0
VERTEX
  8
0
 62
7
 10
2.89263867
 20
22.56023242
  0
VERTEX
  8
0
 62
7
 10
2.87287500
 20
22.51462500
  0
VERTEX
  8
0
 62
7
 10
2.85643945
 20
22.46812695
  0
VERTEX
  8
0
 62
7
 10
2.84442188
 20
22.42060938
  0
VERTEX
  8
0
 62
7
 10
2.83791211
 20
22.37194336
  0
VERTEX
  8
0
 62
7
 10
2.83800000
 20
22.32200000
  0
VERTEX
  8
0
 62
7
 10
2.84362500
 20
22.28118750
  0
VERTEX
  8
0
 62
7
 10
2.85375000
 20
22.24075000
  0
VERTEX
  8
0
 62
7
 10
2.86725000
 20
22.19993750
  0
VERTEX
  8
0
 62
7
 10
2.88300000
 20
22.15800000
  0
VERTEX
  8
0
 62
7
 10
2.90500000
 20
22.09600000
  0
VERTEX
  8
0
 62
7
 10
2.92750000
 20
22.03687500
  0
VERTEX
  8
0
 62
7
 10
2.95300000
 20
21.97700000
  0
VERTEX
  8
0
 62
7
 10
2.97318945
 20
21.92894141
  0
VERTEX
  8
0
 62
7
 10
2.99170313
 20
21.87940625
  0
VERTEX
  8
0
 62
7
 10
3.00845898
 20
21.82860547
  0
VERTEX
  8
0
 62
7
 10
3.02337500
 20
21.77675000
  0
VERTEX
  8
0
 62
7
 10
3.03636914
 20
21.72405078
  0
VERTEX
  8
0
 62
7
 10
3.04735938
 20
21.67071875
  0
VERTEX
  8
0
 62
7
 10
3.05626367
 20
21.61696484
  0
VERTEX
  8
0
 62
7
 10
3.06300000
 20
21.56300000
  0
VERTEX
  8
0
 62
7
 10
3.02900000
 20
21.54900000
  0
VERTEX
  8
0
 62
7
 10
2.99418750
 20
21.64750000
  0
VERTEX
  8
0
 62
7
 10
2.96200000
 20
21.74825000
  0
VERTEX
  8
0
 62
7
 10
2.92831250
 20
21.84937500
  0
VERTEX
  8
0
 62
7
 10
2.88900000
 20
21.94900000
  0
VERTEX
  8
0
 62
7
 10
2.86250000
 20
22.01037500
  0
VERTEX
  8
0
 62
7
 10
2.83900000
 20
22.07400000
  0
VERTEX
  8
0
 62
7
 10
2.81700000
 20
22.13300000
  0
VERTEX
  8
0
 62
7
 10
2.80118750
 20
22.17593750
  0
VERTEX
  8
0
 62
7
 10
2.78650000
 20
22.22075000
  0
VERTEX
  8
0
 62
7
 10
2.77481250
 20
22.26743750
  0
VERTEX
  8
0
 62
7
 10
2.76800000
 20
22.31600000
  0
VERTEX
  8
0
 62
7
 10
2.76600000
 20
22.36000000
  0
VERTEX
  8
0
 62
7
 10
2.76600000
 20
22.37900000
  0
VERTEX
  8
0
 62
7
 10
2.68325000
 20
22.26350000
  0
VERTEX
  8
0
 62
7
 10
2.59600000
 20
22.15100000
  0
VERTEX
  8
0
 62
7
 10
2.52784375
 20
22.06957813
  0
VERTEX
  8
0
 62
7
 10
2.45725000
 20
21.99012500
  0
VERTEX
  8
0
 62
7
 10
2.38478125
 20
21.91235938
  0
VERTEX
  8
0
 62
7
 10
2.31100000
 20
21.83600000
  0
VERTEX
  8
0
 62
7
 10
2.20662500
 20
21.73500000
  0
VERTEX
  8
0
 62
7
 10
2.10000000
 20
21.63700000
  0
VERTEX
  8
0
 62
7
 10
1.95509375
 20
21.50576563
  0
VERTEX
  8
0
 62
7
 10
1.81225000
 20
21.37237500
  0
VERTEX
  8
0
 62
7
 10
1.67053125
 20
21.23804688
  0
VERTEX
  8
0
 62
7
 10
1.52900000
 20
21.10400000
  0
VERTEX
  8
0
 62
7
 10
1.50800000
 20
21.13100000
  0
VERTEX
  8
0
 62
7
 10
1.63857813
 20
21.27640625
  0
VERTEX
  8
0
 62
7
 10
1.77262500
 20
21.41750000
  0
VERTEX
  8
0
 62
7
 10
1.91060938
 20
21.55484375
  0
VERTEX
  8
0
 62
7
 10
2.05300000
 20
21.68900000
  0
VERTEX
  8
0
 62
7
 10
2.15850000
 20
21.78637500
  0
VERTEX
  8
0
 62
7
 10
2.26100000
 20
21.88600000
  0
VERTEX
  8
0
 62
7
 10
2.33401563
 20
21.96085938
  0
VERTEX
  8
0
 62
7
 10
2.40562500
 20
22.03712500
  0
VERTEX
  8
0
 62
7
 10
2.47517188
 20
22.11507813
  0
VERTEX
  8
0
 62
7
 10
2.54200000
 20
22.19500000
  0
VERTEX
  8
0
 62
7
 10
2.60403125
 20
22.27392188
  0
VERTEX
  8
0
 62
7
 10
2.66400000
 20
22.35462500
  0
VERTEX
  8
0
 62
7
 10
2.72171875
 20
22.43701563
  0
VERTEX
  8
0
 62
7
 10
2.77700000
 20
22.52100000
  0
VERTEX
  8
0
 62
7
 10
2.66925000
 20
22.51300000
  0
VERTEX
  8
0
 62
7
 10
2.56600000
 20
22.51100000
  0
VERTEX
  8
0
 62
7
 10
2.46662500
 20
22.51287500
  0
VERTEX
  8
0
 62
7
 10
2.36800000
 20
22.51700000
  0
VERTEX
  8
0
 62
7
 10
2.22439063
 20
22.52626563
  0
VERTEX
  8
0
 62
7
 10
2.07862500
 20
22.54012500
  0
VERTEX
  8
0
 62
7
 10
1.92854688
 20
22.56017188
  0
VERTEX
  8
0
 62
7
 10
1.77200000
 20
22.58800000
  0
VERTEX
  8
0
 62
7
 10
1.77900000
 20
22.62000000
  0
VERTEX
  8
0
 62
7
 10
1.90976563
 20
22.61625000
  0
VERTEX
  8
0
 62
7
 10
2.06162500
 20
22.60725000
  0
VERTEX
  8
0
 62
7
 10
2.22042188
 20
22.59637500
  0
VERTEX
  8
0
 62
7
 10
2.37200000
 20
22.58700000
  0
VERTEX
  8
0
 62
7
 10
2.46937500
 20
22.58250000
  0
VERTEX
  8
0
 62
7
 10
2.56600000
 20
22.58100000
  0
VERTEX
  8
0
 62
7
 10
2.61398242
 20
22.58255664
  0
VERTEX
  8
0
 62
7
 10
2.66204688
 20
22.58764063
  0
VERTEX
  8
0
 62
7
 10
2.70924414
 20
22.59687305
  0
VERTEX
  8
0
 62
7
 10
2.75462500
 20
22.61087500
  0
VERTEX
  8
0
 62
7
 10
2.79724023
 20
22.63026758
  0
VERTEX
  8
0
 62
7
 10
2.83614063
 20
22.65567188
  0
VERTEX
  8
0
 62
7
 10
2.87037695
 20
22.68770898
  0
VERTEX
  8
0
 62
7
 10
2.89900000
 20
22.72700000
  0
SEQEND
  0
POLYLINE
  8
0
 62
7
 66
1
 70
1
  0
VERTEX
  8
0
 62
7
 10
2.41000000
 20
5.91000000
  0
VERTEX
  8
0
 62
7
 10
17.59000000
 20
5.91000000
  0
VERTEX
  8
0
 62
7
 10
17.59000000
 20
17.09000000
  0
VERTEX
  8
0
 62
7
 10
2.41000000
 20
17.09000000
  0
VERTEX
  8
0
 62
7
 10
2.41000000
 20
5.91000000
  0
SEQEND
  0
POLYLINE
  8
0
 62
7
 66
1
 70
1
  0
VERTEX
  8
0
 62
7
 10
2.50000000
 20
6.00000000
  0
VERTEX
  8
0
 62
7
 10
17.50000000
 20
6.00000000
  0
VERTEX
  8
0
 62
7
 10
17.50000000
 20
17.00000000
  0
VERTEX
  8
0
 62
7
 10
2.50000000
 20
17.00000000
  0
VERTEX
  8
0
 62
7
 10
2.50000000
 20
6.00000000
  0
SEQEND
  0
POLYLINE
  8
0
 62
7
 66
1
 70
1
  0
VERTEX
  8
0
 62
7
 10
2.75000000
 20
6.25000000
  0
VERTEX
  8
0
 62
7
 10
17.25000000
 20
6.25000000
  0
VERTEX
  8
0
 62
7
 10
17.25000000
 20
16.75000000
  0
VERTEX
  8
0
 62
7
 10
2.75000000
 20
16.75000000
  0
VERTEX
  8
0
 62
7
 10
2.75000000
 20
6.25000000
  0
SEQEND
  0
POLYLINE
  8
0
 62
7
 66
1
 70
1
  0
VERTEX
  8
0
 62
7
 10
2.84000000
 20
6.34000000
  0
VERTEX
  8
0
 62
7
 10
17.16000000
 20
6.34000000
  0
VERTEX
  8
0
 62
7
 10
17.16000000
 20
16.66000000
  0
VERTEX
  8
0
 62
7
 10
2.84000000
 20
16.66000000
  0
VERTEX
  8
0
 62
7
 10
2.84000000
 20
6.34000000
  0
SEQEND
  0
ENDSEC
  0
EOF
