  0
SECTION
  2
ENTITIES
  0
POLYLINE
  8
0
 62
7
 66
1
 70
1
  0
VERTEX
  8
0
 62
7
 10
20.00000000
 20
24.50000000
  0
VERTEX
  8
0
 62
7
 10
19.69776459
 20
24.59166928
  0
VERTEX
  8
0
 62
7
 10
19.39461670
 20
24.68048706
  0
VERTEX
  8
0
 62
7
 10
19.09058136
 20
24.76644949
  0
VERTEX
  8
0
 62
7
 10
18.78568359
 20
24.84955273
  0
VERTEX
  8
0
 62
7
 10
18.47994843
 20
24.92979294
  0
VERTEX
  8
0
 62
7
 10
18.17340088
 20
25.00716626
  0
VERTEX
  8
0
 62
7
 10
17.86606598
 20
25.08166885
  0
VERTEX
  8
0
 62
7
 10
17.55796875
 20
25.15329688
  0
VERTEX
  8
0
 62
7
 10
17.24913422
 20
25.22204648
  0
VERTEX
  8
0
 62
7
 10
16.93958740
 20
25.28791382
  0
VERTEX
  8
0
 62
7
 10
16.62935333
 20
25.35089505
  0
VERTEX
  8
0
 62
7
 10
16.31845703
 20
25.41098633
  0
VERTEX
  8
0
 62
7
 10
16.00692352
 20
25.46818381
  0
VERTEX
  8
0
 62
7
 10
15.69477783
 20
25.52248364
  0
VERTEX
  8
0
 62
7
 10
15.38204498
 20
25.57388199
  0
VERTEX
  8
0
 62
7
 10
15.06875000
 20
25.62237500
  0
VERTEX
  8
0
 62
7
 10
14.75491791
 20
25.66795883
  0
VERTEX
  8
0
 62
7
 10
14.44057373
 20
25.71062964
  0
VERTEX
  8
0
 62
7
 10
14.12574249
 20
25.75038358
  0
VERTEX
  8
0
 62
7
 10
13.81044922
 20
25.78721680
  0
VERTEX
  8
0
 62
7
 10
13.49471893
 20
25.82112546
  0
VERTEX
  8
0
 62
7
 10
13.17857666
 20
25.85210571
  0
VERTEX
  8
0
 62
7
 10
12.86204742
 20
25.88015372
  0
VERTEX
  8
0
 62
7
 10
12.54515625
 20
25.90526563
  0
VERTEX
  8
0
 62
7
 10
12.22792816
 20
25.92743759
  0
VERTEX
  8
0
 62
7
 10
11.91038818
 20
25.94666577
  0
VERTEX
  8
0
 62
7
 10
11.59256134
 20
25.96294632
  0
VERTEX
  8
0
 62
7
 10
11.27447266
 20
25.97627539
  0
VERTEX
  8
0
 62
7
 10
10.95614716
 20
25.98664914
  0
VERTEX
  8
0
 62
7
 10
10.63760986
 20
25.99406372
  0
VERTEX
  8
0
 62
7
 10
10.31888580
 20
25.99851529
  0
VERTEX
  8
0
 62
7
 10
10.00000000
 20
26.00000000
  0
VERTEX
  8
0
 62
7
 10
9.68111420
 20
25.99851529
  0
VERTEX
  8
0
 62
7
 10
9.36239014
 20
25.99406372
  0
VERTEX
  8
0
 62
7
 10
9.04385284
 20
25.98664914
  0
VERTEX
  8
0
 62
7
 10
8.72552734
 20
25.97627539
  0
VERTEX
  8
0
 62
7
 10
8.40743866
 20
25.96294632
  0
VERTEX
  8
0
 62
7
 10
8.08961182
 20
25.94666577
  0
VERTEX
  8
0
 62
7
 10
7.77207184
 20
25.92743759
  0
VERTEX
  8
0
 62
7
 10
7.45484375
 20
25.90526563
  0
VERTEX
  8
0
 62
7
 10
7.13795258
 20
25.88015372
  0
VERTEX
  8
0
 62
7
 10
6.82142334
 20
25.85210571
  0
VERTEX
  8
0
 62
7
 10
6.50528107
 20
25.82112546
  0
VERTEX
  8
0
 62
7
 10
6.18955078
 20
25.78721680
  0
VERTEX
  8
0
 62
7
 10
5.87425751
 20
25.75038358
  0
VERTEX
  8
0
 62
7
 10
5.55942627
 20
25.71062964
  0
VERTEX
  8
0
 62
7
 10
5.24508209
 20
25.66795883
  0
VERTEX
  8
0
 62
7
 10
4.93125000
 20
25.62237500
  0
VERTEX
  8
0
 62
7
 10
4.61795502
 20
25.57388199
  0
VERTEX
  8
0
 62
7
 10
4.30522217
 20
25.52248364
  0
VERTEX
  8
0
 62
7
 10
3.99307648
 20
25.46818381
  0
VERTEX
  8
0
 62
7
 10
3.68154297
 20
25.41098633
  0
VERTEX
  8
0
 62
7
 10
3.37064667
 20
25.35089505
  0
VERTEX
  8
0
 62
7
 10
3.06041260
 20
25.28791382
  0
VERTEX
  8
0
 62
7
 10
2.75086578
 20
25.22204648
  0
VERTEX
  8
0
 62
7
 10
2.44203125
 20
25.15329688
  0
VERTEX
  8
0
 62
7
 10
2.13393402
 20
25.08166885
  0
VERTEX
  8
0
 62
7
 10
1.82659912
 20
25.00716626
  0
VERTEX
  8
0
 62
7
 10
1.52005157
 20
24.92979294
  0
VERTEX
  8
0
 62
7
 10
1.21431641
 20
24.84955273
  0
VERTEX
  8
0
 62
7
 10
.90941864
 20
24.76644949
  0
VERTEX
  8
0
 62
7
 10
.60538330
 20
24.68048706
  0
VERTEX
  8
0
 62
7
 10
.30223541
 20
24.59166928
  0
VERTEX
  8
0
 62
7
 10
.00000000
 20
24.50000000
  0
VERTEX
  8
0
 62
7
 10
.00000000
 20
.00000000
  0
VERTEX
  8
0
 62
7
 10
20.00000000
 20
.00000000
  0
VERTEX
  8
0
 62
7
 10
20.00000000
 20
24.50000000
  0
SEQEND
  0
POLYLINE
  8
0
 62
7
 66
1
 70
1
  0
VERTEX
  8
0
 62
7
 10
10.00000000
 20
4.91000000
  0
VERTEX
  8
0
 62
7
 10
17.55900000
 20
4.91000000
  0
VERTEX
  8
0
 62
7
 10
17.55900000
 20
18.62800000
  0
VERTEX
  8
0
 62
7
 10
19.34000000
 20
18.62800000
  0
VERTEX
  8
0
 62
7
 10
19.34000000
 20
23.94200000
  0
VERTEX
  8
0
 62
7
 10
19.34000000
 20
24.01000000
  0
VERTEX
  8
0
 62
7
 10
19.27500000
 20
24.02800000
  0
VERTEX
  8
0
 62
7
 10
18.99382675
 20
24.10822018
  0
VERTEX
  8
0
 62
7
 10
18.71188354
 20
24.18594116
  0
VERTEX
  8
0
 62
7
 10
18.42919144
 20
24.26115982
  0
VERTEX
  8
0
 62
7
 10
18.14577148
 20
24.33387305
  0
VERTEX
  8
0
 62
7
 10
17.86164474
 20
24.40407773
  0
VERTEX
  8
0
 62
7
 10
17.57683228
 20
24.47177075
  0
VERTEX
  8
0
 62
7
 10
17.29135513
 20
24.53694901
  0
VERTEX
  8
0
 62
7
 10
17.00523438
 20
24.59960938
  0
VERTEX
  8
0
 62
7
 10
16.71849106
 20
24.65974875
  0
VERTEX
  8
0
 62
7
 10
16.43114624
 20
24.71736401
  0
VERTEX
  8
0
 62
7
 10
16.14322098
 20
24.77245206
  0
VERTEX
  8
0
 62
7
 10
15.85473633
 20
24.82500977
  0
VERTEX
  8
0
 62
7
 10
15.56571335
 20
24.87503403
  0
VERTEX
  8
0
 62
7
 10
15.27617310
 20
24.92252173
  0
VERTEX
  8
0
 62
7
 10
14.98613663
 20
24.96746976
  0
VERTEX
  8
0
 62
7
 10
14.69562500
 20
25.00987500
  0
VERTEX
  8
0
 62
7
 10
14.40465927
 20
25.04973434
  0
VERTEX
  8
0
 62
7
 10
14.11326050
 20
25.08704468
  0
VERTEX
  8
0
 62
7
 10
13.82144974
 20
25.12180289
  0
VERTEX
  8
0
 62
7
 10
13.52924805
 20
25.15400586
  0
VERTEX
  8
0
 62
7
 10
13.23667648
 20
25.18365048
  0
VERTEX
  8
0
 62
7
 10
12.94375610
 20
25.21073364
  0
VERTEX
  8
0
 62
7
 10
12.65050797
 20
25.23525223
  0
VERTEX
  8
0
 62
7
 10
12.35695313
 20
25.25720313
  0
VERTEX
  8
0
 62
7
 10
12.06311264
 20
25.27658322
  0
VERTEX
  8
0
 62
7
 10
11.76900757
 20
25.29338940
  0
VERTEX
  8
0
 62
7
 10
11.47465897
 20
25.30761856
  0
VERTEX
  8
0
 62
7
 10
11.18008789
 20
25.31926758
  0
VERTEX
  8
0
 62
7
 10
10.88531540
 20
25.32833334
  0
VERTEX
  8
0
 62
7
 10
10.59036255
 20
25.33481274
  0
VERTEX
  8
0
 62
7
 10
10.29525040
 20
25.33870267
  0
VERTEX
  8
0
 62
7
 10
10.00000000
 20
25.34000000
  0
VERTEX
  8
0
 62
7
 10
9.70474960
 20
25.33870267
  0
VERTEX
  8
0
 62
7
 10
9.40963745
 20
25.33481274
  0
VERTEX
  8
0
 62
7
 10
9.11468460
 20
25.32833334
  0
VERTEX
  8
0
 62
7
 10
8.81991211
 20
25.31926758
  0
VERTEX
  8
0
 62
7
 10
8.52534103
 20
25.30761856
  0
VERTEX
  8
0
 62
7
 10
8.23099243
 20
25.29338940
  0
VERTEX
  8
0
 62
7
 10
7.93688736
 20
25.27658322
  0
VERTEX
  8
0
 62
7
 10
7.64304688
 20
25.25720313
  0
VERTEX
  8
0
 62
7
 10
7.34949203
 20
25.23525223
  0
VERTEX
  8
0
 62
7
 10
7.05624390
 20
25.21073364
  0
VERTEX
  8
0
 62
7
 10
6.76332352
 20
25.18365048
  0
VERTEX
  8
0
 62
7
 10
6.47075195
 20
25.15400586
  0
VERTEX
  8
0
 62
7
 10
6.17855026
 20
25.12180289
  0
VERTEX
  8
0
 62
7
 10
5.88673950
 20
25.08704468
  0
VERTEX
  8
0
 62
7
 10
5.59534073
 20
25.04973434
  0
VERTEX
  8
0
 62
7
 10
5.30437500
 20
25.00987500
  0
VERTEX
  8
0
 62
7
 10
5.01386337
 20
24.96746976
  0
VERTEX
  8
0
 62
7
 10
4.72382690
 20
24.92252173
  0
VERTEX
  8
0
 62
7
 10
4.43428665
 20
24.87503403
  0
VERTEX
  8
0
 62
7
 10
4.14526367
 20
24.82500977
  0
VERTEX
  8
0
 62
7
 10
3.85677902
 20
24.77245206
  0
VERTEX
  8
0
 62
7
 10
3.56885376
 20
24.71736401
  0
VERTEX
  8
0
 62
7
 10
3.28150894
 20
24.65974875
  0
VERTEX
  8
0
 62
7
 10
2.99476563
 20
24.59960938
  0
VERTEX
  8
0
 62
7
 10
2.70864487
 20
24.53694901
  0
VERTEX
  8
0
 62
7
 10
2.42316772
 20
24.47177075
  0
VERTEX
  8
0
 62
7
 10
2.13835526
 20
24.40407773
  0
VERTEX
  8
0
 62
7
 10
1.85422852
 20
24.33387305
  0
VERTEX
  8
0
 62
7
 10
1.57080856
 20
24.26115982
  0
VERTEX
  8
0
 62
7
 10
1.28811646
 20
24.18594116
  0
VERTEX
  8
0
 62
7
 10
1.00617325
 20
24.10822018
  0
VERTEX
  8
0
 62
7
 10
.72500000
 20
24.02800000
  0
VERTEX
  8
0
 62
7
 10
.66000000
 20
24.01000000
  0
VERTEX
  8
0
 62
7
 10
.66000000
 20
23.94200000
  0
VERTEX
  8
0
 62
7
 10
.66000000
 20
18.62800000
  0
VERTEX
  8
0
 62
7
 10
2.44100000
 20
18.62800000
  0
VERTEX
  8
0
 62
7
 10
2.44100000
 20
4.91000000
  0
VERTEX
  8
0
 62
7
 10
10.00000000
 20
4.91000000
  0
SEQEND
  0
POLYLINE
  8
0
 62
7
 66
1
 70
1
  0
VERTEX
  8
0
 62
7
 10
17.78200000
 20
18.71900000
  0
VERTEX
  8
0
 62
7
 10
17.78200000
 20
21.34400000
  0
VERTEX
  8
0
 62
7
 10
18.62400000
 20
21.34400000
  0
VERTEX
  8
0
 62
7
 10
18.62400000
 20
21.98700000
  0
VERTEX
  8
0
 62
7
 10
18.23000000
 20
21.98700000
  0
VERTEX
  8
0
 62
7
 10
18.25587500
 20
22.04060938
  0
VERTEX
  8
0
 62
7
 10
18.27650000
 20
22.09637500
  0
VERTEX
  8
0
 62
7
 10
18.29187500
 20
22.15420313
  0
VERTEX
  8
0
 62
7
 10
18.30200000
 20
22.21400000
  0
VERTEX
  8
0
 62
7
 10
18.30562500
 20
22.25200000
  0
VERTEX
  8
0
 62
7
 10
18.30700000
 20
22.29000000
  0
VERTEX
  8
0
 62
7
 10
18.30417188
 20
22.34992188
  0
VERTEX
  8
0
 62
7
 10
18.29562500
 20
22.40937500
  0
VERTEX
  8
0
 62
7
 10
18.28126563
 20
22.46789063
  0
VERTEX
  8
0
 62
7
 10
18.26100000
 20
22.52500000
  0
VERTEX
  8
0
 62
7
 10
18.23850000
 20
22.57437500
  0
VERTEX
  8
0
 62
7
 10
18.21300000
 20
22.62000000
  0
VERTEX
  8
0
 62
7
 10
18.19300000
 20
22.65200000
  0
VERTEX
  8
0
 62
7
 10
18.20292188
 20
22.69659375
  0
VERTEX
  8
0
 62
7
 10
18.21012500
 20
22.74175000
  0
VERTEX
  8
0
 62
7
 10
18.21451563
 20
22.78728125
  0
VERTEX
  8
0
 62
7
 10
18.21600000
 20
22.83300000
  0
VERTEX
  8
0
 62
7
 10
18.21225000
 20
22.90537500
  0
VERTEX
  8
0
 62
7
 10
18.20100000
 20
22.97700000
  0
VERTEX
  8
0
 62
7
 10
18.18692358
 20
23.02972095
  0
VERTEX
  8
0
 62
7
 10
18.16849805
 20
23.07983008
  0
VERTEX
  8
0
 62
7
 10
18.14599146
 20
23.12724683
  0
VERTEX
  8
0
 62
7
 10
18.11967188
 20
23.17189063
  0
VERTEX
  8
0
 62
7
 10
18.08980737
 20
23.21368091
  0
VERTEX
  8
0
 62
7
 10
18.05666602
 20
23.25253711
  0
VERTEX
  8
0
 62
7
 10
18.02051587
 20
23.28837866
  0
VERTEX
  8
0
 62
7
 10
17.98162500
 20
23.32112500
  0
VERTEX
  8
0
 62
7
 10
17.94026147
 20
23.35069556
  0
VERTEX
  8
0
 62
7
 10
17.89669336
 20
23.37700977
  0
VERTEX
  8
0
 62
7
 10
17.85118872
 20
23.39998706
  0
VERTEX
  8
0
 62
7
 10
17.80401563
 20
23.41954688
  0
VERTEX
  8
0
 62
7
 10
17.75544214
 20
23.43560864
  0
VERTEX
  8
0
 62
7
 10
17.70573633
 20
23.44809180
  0
VERTEX
  8
0
 62
7
 10
17.65516626
 20
23.45691577
  0
VERTEX
  8
0
 62
7
 10
17.60400000
 20
23.46200000
  0
VERTEX
  8
0
 62
7
 10
17.55100000
 20
23.46300000
  0
VERTEX
  8
0
 62
7
 10
17.46818750
 20
23.45909375
  0
VERTEX
  8
0
 62
7
 10
17.38650000
 20
23.44750000
  0
VERTEX
  8
0
 62
7
 10
17.30631250
 20
23.42840625
  0
VERTEX
  8
0
 62
7
 10
17.22800000
 20
23.40200000
  0
VERTEX
  8
0
 62
7
 10
17.17325000
 20
23.37837500
  0
VERTEX
  8
0
 62
7
 10
17.12000000
 20
23.35100000
  0
VERTEX
  8
0
 62
7
 10
17.09750000
 20
23.38462500
  0
VERTEX
  8
0
 62
7
 10
17.07200000
 20
23.41600000
  0
VERTEX
  8
0
 62
7
 10
17.04112500
 20
23.44459375
  0
VERTEX
  8
0
 62
7
 10
17.00725000
 20
23.47000000
  0
VERTEX
  8
0
 62
7
 10
16.97075000
 20
23.49165625
  0
VERTEX
  8
0
 62
7
 10
16.93200000
 20
23.50900000
  0
VERTEX
  8
0
 62
7
 10
16.91578125
 20
23.51334375
  0
VERTEX
  8
0
 62
7
 10
16.89900000
 20
23.51450000
  0
VERTEX
  8
0
 62
7
 10
16.88221875
 20
23.51265625
  0
VERTEX
  8
0
 62
7
 10
16.86600000
 20
23.50800000
  0
VERTEX
  8
0
 62
7
 10
16.79750000
 20
23.47887500
  0
VERTEX
  8
0
 62
7
 10
16.72900000
 20
23.44600000
  0
VERTEX
  8
0
 62
7
 10
16.65987500
 20
23.40862500
  0
VERTEX
  8
0
 62
7
 10
16.59300000
 20
23.36900000
  0
VERTEX
  8
0
 62
7
 10
16.47762500
 20
23.37587500
  0
VERTEX
  8
0
 62
7
 10
16.36000000
 20
23.37900000
  0
VERTEX
  8
0
 62
7
 10
16.25700000
 20
23.37600000
  0
VERTEX
  8
0
 62
7
 10
16.21400000
 20
23.37300000
  0
VERTEX
  8
0
 62
7
 10
16.17890430
 20
23.37100781
  0
VERTEX
  8
0
 62
7
 10
16.14210938
 20
23.36850000
  0
VERTEX
  8
0
 62
7
 10
16.10397852
 20
23.36505469
  0
VERTEX
  8
0
 62
7
 10
16.06487500
 20
23.36025000
  0
VERTEX
  8
0
 62
7
 10
16.02516211
 20
23.35366406
  0
VERTEX
  8
0
 62
7
 10
15.98520313
 20
23.34487500
  0
VERTEX
  8
0
 62
7
 10
15.94536133
 20
23.33346094
  0
VERTEX
  8
0
 62
7
 10
15.90600000
 20
23.31900000
  0
VERTEX
  8
0
 62
7
 10
15.86029688
 20
23.29784375
  0
VERTEX
  8
0
 62
7
 10
15.81637500
 20
23.27350000
  0
VERTEX
  8
0
 62
7
 10
15.77451563
 20
23.24615625
  0
VERTEX
  8
0
 62
7
 10
15.73500000
 20
23.21600000
  0
VERTEX
  8
0
 62
7
 10
15.72717188
 20
23.26648438
  0
VERTEX
  8
0
 62
7
 10
15.71662500
 20
23.31837500
  0
VERTEX
  8
0
 62
7
 10
15.70251563
 20
23.37082813
  0
VERTEX
  8
0
 62
7
 10
15.68400000
 20
23.42300000
  0
VERTEX
  8
0
 62
7
 10
15.64821875
 20
23.50090625
  0
VERTEX
  8
0
 62
7
 10
15.60550000
 20
23.57525000
  0
VERTEX
  8
0
 62
7
 10
15.55603125
 20
23.64546875
  0
VERTEX
  8
0
 62
7
 10
15.50000000
 20
23.71100000
  0
VERTEX
  8
0
 62
7
 10
15.48588477
 20
23.72322656
  0
VERTEX
  8
0
 62
7
 10
15.47014063
 20
23.73212500
  0
VERTEX
  8
0
 62
7
 10
15.45329492
 20
23.73764844
  0
VERTEX
  8
0
 62
7
 10
15.43587500
 20
23.73975000
  0
VERTEX
  8
0
 62
7
 10
15.41840820
 20
23.73838281
  0
VERTEX
  8
0
 62
7
 10
15.40142188
 20
23.73350000
  0
VERTEX
  8
0
 62
7
 10
15.38544336
 20
23.72505469
  0
VERTEX
  8
0
 62
7
 10
15.37100000
 20
23.71300000
  0
VERTEX
  8
0
 62
7
 10
15.31812500
 20
23.66625000
  0
VERTEX
  8
0
 62
7
 10
15.26000000
 20
23.62700000
  0
VERTEX
  8
0
 62
7
 10
15.21792188
 20
23.60596875
  0
VERTEX
  8
0
 62
7
 10
15.17237500
 20
23.58850000
  0
VERTEX
  8
0
 62
7
 10
15.12289063
 20
23.57328125
  0
VERTEX
  8
0
 62
7
 10
15.06900000
 20
23.55900000
  0
VERTEX
  8
0
 62
7
 10
15.02128125
 20
23.54709375
  0
VERTEX
  8
0
 62
7
 10
14.97525000
 20
23.53725000
  0
VERTEX
  8
0
 62
7
 10
14.93034375
 20
23.53003125
  0
VERTEX
  8
0
 62
7
 10
14.88600000
 20
23.52600000
  0
VERTEX
  8
0
 62
7
 10
14.85100000
 20
23.52500000
  0
VERTEX
  8
0
 62
7
 10
14.80582813
 20
23.52648438
  0
VERTEX
  8
0
 62
7
 10
14.76037500
 20
23.53087500
  0
VERTEX
  8
0
 62
7
 10
14.71473438
 20
23.53807813
  0
VERTEX
  8
0
 62
7
 10
14.66900000
 20
23.54800000
  0
VERTEX
  8
0
 62
7
 10
14.61971875
 20
23.56059375
  0
VERTEX
  8
0
 62
7
 10
14.57250000
 20
23.57600000
  0
VERTEX
  8
0
 62
7
 10
14.52753125
 20
23.59440625
  0
VERTEX
  8
0
 62
7
 10
14.48500000
 20
23.61600000
  0
VERTEX
  8
0
 62
7
 10
14.42784375
 20
23.65151563
  0
VERTEX
  8
0
 62
7
 10
14.37500000
 20
23.69312500
  0
VERTEX
  8
0
 62
7
 10
14.32665625
 20
23.74017188
  0
VERTEX
  8
0
 62
7
 10
14.28300000
 20
23.79200000
  0
VERTEX
  8
0
 62
7
 10
14.26369922
 20
23.81084570
  0
VERTEX
  8
0
 62
7
 10
14.24128125
 20
23.82257813
  0
VERTEX
  8
0
 62
7
 10
14.21722266
 20
23.82749023
  0
VERTEX
  8
0
 62
7
 10
14.19300000
 20
23.82587500
  0
VERTEX
  8
0
 62
7
 10
14.17008984
 20
23.81802539
  0
VERTEX
  8
0
 62
7
 10
14.14996875
 20
23.80423438
  0
VERTEX
  8
0
 62
7
 10
14.13411328
 20
23.78479492
  0
VERTEX
  8
0
 62
7
 10
14.12400000
 20
23.76000000
  0
VERTEX
  8
0
 62
7
 10
14.10806250
 20
23.68765625
  0
VERTEX
  8
0
 62
7
 10
14.09625000
 20
23.61475000
  0
VERTEX
  8
0
 62
7
 10
14.08856250
 20
23.54146875
  0
VERTEX
  8
0
 62
7
 10
14.08500000
 20
23.46800000
  0
VERTEX
  8
0
 62
7
 10
14.08500000
 20
23.45800000
  0
VERTEX
  8
0
 62
7
 10
14.07400000
 20
23.45700000
  0
VERTEX
  8
0
 62
7
 10
14.06000000
 20
23.45500000
  0
VERTEX
  8
0
 62
7
 10
14.00800000
 20
23.44600000
  0
VERTEX
  8
0
 62
7
 10
14.00050000
 20
23.48787500
  0
VERTEX
  8
0
 62
7
 10
13.99000000
 20
23.52900000
  0
VERTEX
  8
0
 62
7
 10
13.96850000
 20
23.58442188
  0
VERTEX
  8
0
 62
7
 10
13.94025000
 20
23.63637500
  0
VERTEX
  8
0
 62
7
 10
13.90562500
 20
23.68439063
  0
VERTEX
  8
0
 62
7
 10
13.86500000
 20
23.72800000
  0
VERTEX
  8
0
 62
7
 10
13.85309570
 20
23.73737109
  0
VERTEX
  8
0
 62
7
 10
13.84007813
 20
23.74446875
  0
VERTEX
  8
0
 62
7
 10
13.82624023
 20
23.74926953
  0
VERTEX
  8
0
 62
7
 10
13.81187500
 20
23.75175000
  0
VERTEX
  8
0
 62
7
 10
13.79727539
 20
23.75188672
  0
VERTEX
  8
0
 62
7
 10
13.78273438
 20
23.74965625
  0
VERTEX
  8
0
 62
7
 10
13.76854492
 20
23.74503516
  0
VERTEX
  8
0
 62
7
 10
13.75500000
 20
23.73800000
  0
VERTEX
  8
0
 62
7
 10
13.72837500
 20
23.72362500
  0
VERTEX
  8
0
 62
7
 10
13.70100000
 20
23.71300000
  0
VERTEX
  8
0
 62
7
 10
13.66900000
 20
23.71000000
  0
VERTEX
  8
0
 62
7
 10
13.64425000
 20
23.70800000
  0
VERTEX
  8
0
 62
7
 10
13.61200000
 20
23.70300000
  0
VERTEX
  8
0
 62
7
 10
13.56212500
 20
23.68925000
  0
VERTEX
  8
0
 62
7
 10
13.51300000
 20
23.67100000
  0
VERTEX
  8
0
 62
7
 10
13.44548438
 20
23.71734375
  0
VERTEX
  8
0
 62
7
 10
13.37637500
 20
23.76050000
  0
VERTEX
  8
0
 62
7
 10
13.30557813
 20
23.80065625
  0
VERTEX
  8
0
 62
7
 10
13.23300000
 20
23.83800000
  0
VERTEX
  8
0
 62
7
 10
13.16790625
 20
23.86818555
  0
VERTEX
  8
0
 62
7
 10
13.10168750
 20
23.89573438
  0
VERTEX
  8
0
 62
7
 10
13.03443750
 20
23.92063477
  0
VERTEX
  8
0
 62
7
 10
12.96625000
 20
23.94287500
  0
VERTEX
  8
0
 62
7
 10
12.89721875
 20
23.96244336
  0
VERTEX
  8
0
 62
7
 10
12.82743750
 20
23.97932813
  0
VERTEX
  8
0
 62
7
 10
12.75700000
 20
23.99351758
  0
VERTEX
  8
0
 62
7
 10
12.68600000
 20
24.00500000
  0
VERTEX
  8
0
 62
7
 10
12.66160938
 20
24.00538281
  0
VERTEX
  8
0
 62
7
 10
12.63918750
 20
23.99962500
  0
VERTEX
  8
0
 62
7
 10
12.61948438
 20
23.98861719
  0
VERTEX
  8
0
 62
7
 10
12.60325000
 20
23.97325000
  0
VERTEX
  8
0
 62
7
 10
12.59123438
 20
23.95441406
  0
VERTEX
  8
0
 62
7
 10
12.58418750
 20
23.93300000
  0
VERTEX
  8
0
 62
7
 10
12.58285938
 20
23.90989844
  0
VERTEX
  8
0
 62
7
 10
12.58800000
 20
23.88600000
  0
VERTEX
  8
0
 62
7
 10
12.59645313
 20
23.85865625
  0
VERTEX
  8
0
 62
7
 10
12.60237500
 20
23.83075000
  0
VERTEX
  8
0
 62
7
 10
12.60585938
 20
23.80246875
  0
VERTEX
  8
0
 62
7
 10
12.60700000
 20
23.77400000
  0
VERTEX
  8
0
 62
7
 10
12.60562500
 20
23.75425000
  0
VERTEX
  8
0
 62
7
 10
12.60200000
 20
23.73300000
  0
VERTEX
  8
0
 62
7
 10
12.54200000
 20
23.76700000
  0
VERTEX
  8
0
 62
7
 10
12.51295313
 20
23.78106055
  0
VERTEX
  8
0
 62
7
 10
12.48212500
 20
23.79510938
  0
VERTEX
  8
0
 62
7
 10
12.44960938
 20
23.80857227
  0
VERTEX
  8
0
 62
7
 10
12.41550000
 20
23.82087500
  0
VERTEX
  8
0
 62
7
 10
12.37989063
 20
23.83144336
  0
VERTEX
  8
0
 62
7
 10
12.34287500
 20
23.83970313
  0
VERTEX
  8
0
 62
7
 10
12.30454688
 20
23.84508008
  0
VERTEX
  8
0
 62
7
 10
12.26500000
 20
23.84700000
  0
VERTEX
  8
0
 62
7
 10
12.23523047
 20
23.84638867
  0
VERTEX
  8
0
 62
7
 10
12.20459375
 20
23.84435938
  0
VERTEX
  8
0
 62
7
 10
12.17334766
 20
23.84061914
  0
VERTEX
  8
0
 62
7
 10
12.14175000
 20
23.83487500
  0
VERTEX
  8
0
 62
7
 10
12.11005859
 20
23.82683398
  0
VERTEX
  8
0
 62
7
 10
12.07853125
 20
23.81620313
  0
VERTEX
  8
0
 62
7
 10
12.04742578
 20
23.80268945
  0
VERTEX
  8
0
 62
7
 10
12.01700000
 20
23.78600000
  0
VERTEX
  8
0
 62
7
 10
11.98156250
 20
23.76128125
  0
VERTEX
  8
0
 62
7
 10
11.95025000
 20
23.73375000
  0
VERTEX
  8
0
 62
7
 10
11.92306250
 20
23.70359375
  0
VERTEX
  8
0
 62
7
 10
11.90000000
 20
23.67100000
  0
VERTEX
  8
0
 62
7
 10
11.84600000
 20
23.76800000
  0
VERTEX
  8
0
 62
7
 10
11.82061450
 20
23.80690063
  0
VERTEX
  8
0
 62
7
 10
11.79263477
 20
23.84515820
  0
VERTEX
  8
0
 62
7
 10
11.76232593
 20
23.88266870
  0
VERTEX
  8
0
 62
7
 10
11.72995313
 20
23.91932813
  0
VERTEX
  8
0
 62
7
 10
11.69578149
 20
23.95503247
  0
VERTEX
  8
0
 62
7
 10
11.66007617
 20
23.98967773
  0
VERTEX
  8
0
 62
7
 10
11.62310229
 20
24.02315991
  0
VERTEX
  8
0
 62
7
 10
11.58512500
 20
24.05537500
  0
VERTEX
  8
0
 62
7
 10
11.54640942
 20
24.08621899
  0
VERTEX
  8
0
 62
7
 10
11.50722070
 20
24.11558789
  0
VERTEX
  8
0
 62
7
 10
11.46782397
 20
24.14337769
  0
VERTEX
  8
0
 62
7
 10
11.42848438
 20
24.16948438
  0
VERTEX
  8
0
 62
7
 10
11.38946704
 20
24.19380396
  0
VERTEX
  8
0
 62
7
 10
11.35103711
 20
24.21623242
  0
VERTEX
  8
0
 62
7
 10
11.31345972
 20
24.23666577
  0
VERTEX
  8
0
 62
7
 10
11.27700000
 20
24.25500000
  0
VERTEX
  8
0
 62
7
 10
11.25853125
 20
24.26150000
  0
VERTEX
  8
0
 62
7
 10
11.23950000
 20
24.26425000
  0
VERTEX
  8
0
 62
7
 10
11.22046875
 20
24.26287500
  0
VERTEX
  8
0
 62
7
 10
11.20200000
 20
24.25700000
  0
VERTEX
  8
0
 62
7
 10
11.12806836
 20
24.22124609
  0
VERTEX
  8
0
 62
7
 10
11.05398438
 20
24.17890625
  0
VERTEX
  8
0
 62
7
 10
10.98081445
 20
24.13061328
  0
VERTEX
  8
0
 62
7
 10
10.90962500
 20
24.07700000
  0
VERTEX
  8
0
 62
7
 10
10.84148242
 20
24.01869922
  0
VERTEX
  8
0
 62
7
 10
10.77745313
 20
23.95634375
  0
VERTEX
  8
0
 62
7
 10
10.71860352
 20
23.89056641
  0
VERTEX
  8
0
 62
7
 10
10.66600000
 20
23.82200000
  0
VERTEX
  8
0
 62
7
 10
10.62825000
 20
23.89300000
  0
VERTEX
  8
0
 62
7
 10
10.59200000
 20
23.95500000
  0
VERTEX
  8
0
 62
7
 10
10.53973242
 20
24.03154297
  0
VERTEX
  8
0
 62
7
 10
10.47929688
 20
24.10534375
  0
VERTEX
  8
0
 62
7
 10
10.41236914
 20
24.17553516
  0
VERTEX
  8
0
 62
7
 10
10.34062500
 20
24.24125000
  0
VERTEX
  8
0
 62
7
 10
10.26574023
 20
24.30162109
  0
VERTEX
  8
0
 62
7
 10
10.18939063
 20
24.35578125
  0
VERTEX
  8
0
 62
7
 10
10.11325195
 20
24.40286328
  0
VERTEX
  8
0
 62
7
 10
10.03900000
 20
24.44200000
  0
VERTEX
  8
0
 62
7
 10
10.01978125
 20
24.44875000
  0
VERTEX
  8
0
 62
7
 10
10.00000000
 20
24.45100000
  0
VERTEX
  8
0
 62
7
 10
9.98021875
 20
24.44875000
  0
VERTEX
  8
0
 62
7
 10
9.96100000
 20
24.44200000
  0
VERTEX
  8
0
 62
7
 10
9.88674805
 20
24.40286328
  0
VERTEX
  8
0
 62
7
 10
9.81060938
 20
24.35578125
  0
VERTEX
  8
0
 62
7
 10
9.73425977
 20
24.30162109
  0
VERTEX
  8
0
 62
7
 10
9.65937500
 20
24.24125000
  0
VERTEX
  8
0
 62
7
 10
9.58763086
 20
24.17553516
  0
VERTEX
  8
0
 62
7
 10
9.52070313
 20
24.10534375
  0
VERTEX
  8
0
 62
7
 10
9.46026758
 20
24.03154297
  0
VERTEX
  8
0
 62
7
 10
9.40800000
 20
23.95500000
  0
VERTEX
  8
0
 62
7
 10
9.37175000
 20
23.89300000
  0
VERTEX
  8
0
 62
7
 10
9.33400000
 20
23.82200000
  0
VERTEX
  8
0
 62
7
 10
9.28139648
 20
23.89056641
  0
VERTEX
  8
0
 62
7
 10
9.22254688
 20
23.95634375
  0
VERTEX
  8
0
 62
7
 10
9.15851758
 20
24.01869922
  0
VERTEX
  8
0
 62
7
 10
9.09037500
 20
24.07700000
  0
VERTEX
  8
0
 62
7
 10
9.01918555
 20
24.13061328
  0
VERTEX
  8
0
 62
7
 10
8.94601562
 20
24.17890625
  0
VERTEX
  8
0
 62
7
 10
8.87193164
 20
24.22124609
  0
VERTEX
  8
0
 62
7
 10
8.79800000
 20
24.25700000
  0
VERTEX
  8
0
 62
7
 10
8.77953125
 20
24.26287500
  0
VERTEX
  8
0
 62
7
 10
8.76050000
 20
24.26425000
  0
VERTEX
  8
0
 62
7
 10
8.74146875
 20
24.26150000
  0
VERTEX
  8
0
 62
7
 10
8.72300000
 20
24.25500000
  0
VERTEX
  8
0
 62
7
 10
8.68654028
 20
24.23666577
  0
VERTEX
  8
0
 62
7
 10
8.64896289
 20
24.21623242
  0
VERTEX
  8
0
 62
7
 10
8.61053296
 20
24.19380396
  0
VERTEX
  8
0
 62
7
 10
8.57151563
 20
24.16948438
  0
VERTEX
  8
0
 62
7
 10
8.53217603
 20
24.14337769
  0
VERTEX
  8
0
 62
7
 10
8.49277930
 20
24.11558789
  0
VERTEX
  8
0
 62
7
 10
8.45359058
 20
24.08621899
  0
VERTEX
  8
0
 62
7
 10
8.41487500
 20
24.05537500
  0
VERTEX
  8
0
 62
7
 10
8.37689771
 20
24.02315991
  0
VERTEX
  8
0
 62
7
 10
8.33992383
 20
23.98967773
  0
VERTEX
  8
0
 62
7
 10
8.30421851
 20
23.95503247
  0
VERTEX
  8
0
 62
7
 10
8.27004688
 20
23.91932813
  0
VERTEX
  8
0
 62
7
 10
8.23767407
 20
23.88266870
  0
VERTEX
  8
0
 62
7
 10
8.20736523
 20
23.84515820
  0
VERTEX
  8
0
 62
7
 10
8.17938550
 20
23.80690063
  0
VERTEX
  8
0
 62
7
 10
8.15400000
 20
23.76800000
  0
VERTEX
  8
0
 62
7
 10
8.10000000
 20
23.67100000
  0
VERTEX
  8
0
 62
7
 10
8.07693750
 20
23.70359375
  0
VERTEX
  8
0
 62
7
 10
8.04975000
 20
23.73375000
  0
VERTEX
  8
0
 62
7
 10
8.01843750
 20
23.76128125
  0
VERTEX
  8
0
 62
7
 10
7.98300000
 20
23.78600000
  0
VERTEX
  8
0
 62
7
 10
7.95257422
 20
23.80268945
  0
VERTEX
  8
0
 62
7
 10
7.92146875
 20
23.81620313
  0
VERTEX
  8
0
 62
7
 10
7.88994141
 20
23.82683398
  0
VERTEX
  8
0
 62
7
 10
7.85825000
 20
23.83487500
  0
VERTEX
  8
0
 62
7
 10
7.82665234
 20
23.84061914
  0
VERTEX
  8
0
 62
7
 10
7.79540625
 20
23.84435938
  0
VERTEX
  8
0
 62
7
 10
7.76476953
 20
23.84638867
  0
VERTEX
  8
0
 62
7
 10
7.73500000
 20
23.84700000
  0
VERTEX
  8
0
 62
7
 10
7.69545313
 20
23.84508008
  0
VERTEX
  8
0
 62
7
 10
7.65712500
 20
23.83970313
  0
VERTEX
  8
0
 62
7
 10
7.62010938
 20
23.83144336
  0
VERTEX
  8
0
 62
7
 10
7.58450000
 20
23.82087500
  0
VERTEX
  8
0
 62
7
 10
7.55039063
 20
23.80857227
  0
VERTEX
  8
0
 62
7
 10
7.51787500
 20
23.79510938
  0
VERTEX
  8
0
 62
7
 10
7.48704688
 20
23.78106055
  0
VERTEX
  8
0
 62
7
 10
7.45800000
 20
23.76700000
  0
VERTEX
  8
0
 62
7
 10
7.39800000
 20
23.73300000
  0
VERTEX
  8
0
 62
7
 10
7.39437500
 20
23.75425000
  0
VERTEX
  8
0
 62
7
 10
7.39300000
 20
23.77400000
  0
VERTEX
  8
0
 62
7
 10
7.39414063
 20
23.80246875
  0
VERTEX
  8
0
 62
7
 10
7.39762500
 20
23.83075000
  0
VERTEX
  8
0
 62
7
 10
7.40354688
 20
23.85865625
  0
VERTEX
  8
0
 62
7
 10
7.41200000
 20
23.88600000
  0
VERTEX
  8
0
 62
7
 10
7.41714063
 20
23.90989844
  0
VERTEX
  8
0
 62
7
 10
7.41581250
 20
23.93300000
  0
VERTEX
  8
0
 62
7
 10
7.40876563
 20
23.95441406
  0
VERTEX
  8
0
 62
7
 10
7.39675000
 20
23.97325000
  0
VERTEX
  8
0
 62
7
 10
7.38051563
 20
23.98861719
  0
VERTEX
  8
0
 62
7
 10
7.36081250
 20
23.99962500
  0
VERTEX
  8
0
 62
7
 10
7.33839063
 20
24.00538281
  0
VERTEX
  8
0
 62
7
 10
7.31400000
 20
24.00500000
  0
VERTEX
  8
0
 62
7
 10
7.24300000
 20
23.99351758
  0
VERTEX
  8
0
 62
7
 10
7.17256250
 20
23.97932813
  0
VERTEX
  8
0
 62
7
 10
7.10278125
 20
23.96244336
  0
VERTEX
  8
0
 62
7
 10
7.03375000
 20
23.94287500
  0
VERTEX
  8
0
 62
7
 10
6.96556250
 20
23.92063477
  0
VERTEX
  8
0
 62
7
 10
6.89831250
 20
23.89573438
  0
VERTEX
  8
0
 62
7
 10
6.83209375
 20
23.86818555
  0
VERTEX
  8
0
 62
7
 10
6.76700000
 20
23.83800000
  0
VERTEX
  8
0
 62
7
 10
6.69442188
 20
23.80065625
  0
VERTEX
  8
0
 62
7
 10
6.62362500
 20
23.76050000
  0
VERTEX
  8
0
 62
7
 10
6.55451563
 20
23.71734375
  0
VERTEX
  8
0
 62
7
 10
6.48700000
 20
23.67100000
  0
VERTEX
  8
0
 62
7
 10
6.43787500
 20
23.68925000
  0
VERTEX
  8
0
 62
7
 10
6.38800000
 20
23.70300000
  0
VERTEX
  8
0
 62
7
 10
6.35575000
 20
23.70800000
  0
VERTEX
  8
0
 62
7
 10
6.33100000
 20
23.71000000
  0
VERTEX
  8
0
 62
7
 10
6.29900000
 20
23.71300000
  0
VERTEX
  8
0
 62
7
 10
6.27162500
 20
23.72362500
  0
VERTEX
  8
0
 62
7
 10
6.24500000
 20
23.73800000
  0
VERTEX
  8
0
 62
7
 10
6.23145508
 20
23.74503516
  0
VERTEX
  8
0
 62
7
 10
6.21726563
 20
23.74965625
  0
VERTEX
  8
0
 62
7
 10
6.20272461
 20
23.75188672
  0
VERTEX
  8
0
 62
7
 10
6.18812500
 20
23.75175000
  0
VERTEX
  8
0
 62
7
 10
6.17375977
 20
23.74926953
  0
VERTEX
  8
0
 62
7
 10
6.15992188
 20
23.74446875
  0
VERTEX
  8
0
 62
7
 10
6.14690430
 20
23.73737109
  0
VERTEX
  8
0
 62
7
 10
6.13500000
 20
23.72800000
  0
VERTEX
  8
0
 62
7
 10
6.09437500
 20
23.68439063
  0
VERTEX
  8
0
 62
7
 10
6.05975000
 20
23.63637500
  0
VERTEX
  8
0
 62
7
 10
6.03150000
 20
23.58442188
  0
VERTEX
  8
0
 62
7
 10
6.01000000
 20
23.52900000
  0
VERTEX
  8
0
 62
7
 10
5.99950000
 20
23.48787500
  0
VERTEX
  8
0
 62
7
 10
5.99200000
 20
23.44600000
  0
VERTEX
  8
0
 62
7
 10
5.94000000
 20
23.45500000
  0
VERTEX
  8
0
 62
7
 10
5.92600000
 20
23.45700000
  0
VERTEX
  8
0
 62
7
 10
5.91500000
 20
23.45800000
  0
VERTEX
  8
0
 62
7
 10
5.91500000
 20
23.46800000
  0
VERTEX
  8
0
 62
7
 10
5.91143750
 20
23.54146875
  0
VERTEX
  8
0
 62
7
 10
5.90375000
 20
23.61475000
  0
VERTEX
  8
0
 62
7
 10
5.89193750
 20
23.68765625
  0
VERTEX
  8
0
 62
7
 10
5.87600000
 20
23.76000000
  0
VERTEX
  8
0
 62
7
 10
5.86588672
 20
23.78479492
  0
VERTEX
  8
0
 62
7
 10
5.85003125
 20
23.80423438
  0
VERTEX
  8
0
 62
7
 10
5.82991016
 20
23.81802539
  0
VERTEX
  8
0
 62
7
 10
5.80700000
 20
23.82587500
  0
VERTEX
  8
0
 62
7
 10
5.78277734
 20
23.82749023
  0
VERTEX
  8
0
 62
7
 10
5.75871875
 20
23.82257813
  0
VERTEX
  8
0
 62
7
 10
5.73630078
 20
23.81084570
  0
VERTEX
  8
0
 62
7
 10
5.71700000
 20
23.79200000
  0
VERTEX
  8
0
 62
7
 10
5.67334375
 20
23.74017188
  0
VERTEX
  8
0
 62
7
 10
5.62500000
 20
23.69312500
  0
VERTEX
  8
0
 62
7
 10
5.57215625
 20
23.65151563
  0
VERTEX
  8
0
 62
7
 10
5.51500000
 20
23.61600000
  0
VERTEX
  8
0
 62
7
 10
5.47246875
 20
23.59440625
  0
VERTEX
  8
0
 62
7
 10
5.42750000
 20
23.57600000
  0
VERTEX
  8
0
 62
7
 10
5.38028125
 20
23.56059375
  0
VERTEX
  8
0
 62
7
 10
5.33100000
 20
23.54800000
  0
VERTEX
  8
0
 62
7
 10
5.28526563
 20
23.53807813
  0
VERTEX
  8
0
 62
7
 10
5.23962500
 20
23.53087500
  0
VERTEX
  8
0
 62
7
 10
5.19417188
 20
23.52648438
  0
VERTEX
  8
0
 62
7
 10
5.14900000
 20
23.52500000
  0
VERTEX
  8
0
 62
7
 10
5.11400000
 20
23.52600000
  0
VERTEX
  8
0
 62
7
 10
5.06965625
 20
23.53003125
  0
VERTEX
  8
0
 62
7
 10
5.02475000
 20
23.53725000
  0
VERTEX
  8
0
 62
7
 10
4.97871875
 20
23.54709375
  0
VERTEX
  8
0
 62
7
 10
4.93100000
 20
23.55900000
  0
VERTEX
  8
0
 62
7
 10
4.87710938
 20
23.57328125
  0
VERTEX
  8
0
 62
7
 10
4.82762500
 20
23.58850000
  0
VERTEX
  8
0
 62
7
 10
4.78207813
 20
23.60596875
  0
VERTEX
  8
0
 62
7
 10
4.74000000
 20
23.62700000
  0
VERTEX
  8
0
 62
7
 10
4.68187500
 20
23.66625000
  0
VERTEX
  8
0
 62
7
 10
4.62900000
 20
23.71300000
  0
VERTEX
  8
0
 62
7
 10
4.61455664
 20
23.72505469
  0
VERTEX
  8
0
 62
7
 10
4.59857813
 20
23.73350000
  0
VERTEX
  8
0
 62
7
 10
4.58159180
 20
23.73838281
  0
VERTEX
  8
0
 62
7
 10
4.56412500
 20
23.73975000
  0
VERTEX
  8
0
 62
7
 10
4.54670508
 20
23.73764844
  0
VERTEX
  8
0
 62
7
 10
4.52985938
 20
23.73212500
  0
VERTEX
  8
0
 62
7
 10
4.51411523
 20
23.72322656
  0
VERTEX
  8
0
 62
7
 10
4.50000000
 20
23.71100000
  0
VERTEX
  8
0
 62
7
 10
4.44396875
 20
23.64546875
  0
VERTEX
  8
0
 62
7
 10
4.39450000
 20
23.57525000
  0
VERTEX
  8
0
 62
7
 10
4.35178125
 20
23.50090625
  0
VERTEX
  8
0
 62
7
 10
4.31600000
 20
23.42300000
  0
VERTEX
  8
0
 62
7
 10
4.29748438
 20
23.37082813
  0
VERTEX
  8
0
 62
7
 10
4.28337500
 20
23.31837500
  0
VERTEX
  8
0
 62
7
 10
4.27282813
 20
23.26648438
  0
VERTEX
  8
0
 62
7
 10
4.26500000
 20
23.21600000
  0
VERTEX
  8
0
 62
7
 10
4.22548438
 20
23.24615625
  0
VERTEX
  8
0
 62
7
 10
4.18362500
 20
23.27350000
  0
VERTEX
  8
0
 62
7
 10
4.13970313
 20
23.29784375
  0
VERTEX
  8
0
 62
7
 10
4.09400000
 20
23.31900000
  0
VERTEX
  8
0
 62
7
 10
4.05463867
 20
23.33346094
  0
VERTEX
  8
0
 62
7
 10
4.01479688
 20
23.34487500
  0
VERTEX
  8
0
 62
7
 10
3.97483789
 20
23.35366406
  0
VERTEX
  8
0
 62
7
 10
3.93512500
 20
23.36025000
  0
VERTEX
  8
0
 62
7
 10
3.89602148
 20
23.36505469
  0
VERTEX
  8
0
 62
7
 10
3.85789063
 20
23.36850000
  0
VERTEX
  8
0
 62
7
 10
3.82109570
 20
23.37100781
  0
VERTEX
  8
0
 62
7
 10
3.78600000
 20
23.37300000
  0
VERTEX
  8
0
 62
7
 10
3.74300000
 20
23.37600000
  0
VERTEX
  8
0
 62
7
 10
3.64000000
 20
23.37900000
  0
VERTEX
  8
0
 62
7
 10
3.52237500
 20
23.37587500
  0
VERTEX
  8
0
 62
7
 10
3.40700000
 20
23.36900000
  0
VERTEX
  8
0
 62
7
 10
3.34012500
 20
23.40862500
  0
VERTEX
  8
0
 62
7
 10
3.27100000
 20
23.44600000
  0
VERTEX
  8
0
 62
7
 10
3.20250000
 20
23.47887500
  0
VERTEX
  8
0
 62
7
 10
3.13400000
 20
23.50800000
  0
VERTEX
  8
0
 62
7
 10
3.10100000
 20
23.52200000
  0
VERTEX
  8
0
 62
7
 10
3.06800000
 20
23.50900000
  0
VERTEX
  8
0
 62
7
 10
3.02925000
 20
23.49165625
  0
VERTEX
  8
0
 62
7
 10
2.99275000
 20
23.47000000
  0
VERTEX
  8
0
 62
7
 10
2.95887500
 20
23.44459375
  0
VERTEX
  8
0
 62
7
 10
2.92800000
 20
23.41600000
  0
VERTEX
  8
0
 62
7
 10
2.90250000
 20
23.38462500
  0
VERTEX
  8
0
 62
7
 10
2.88000000
 20
23.35100000
  0
VERTEX
  8
0
 62
7
 10
2.82675000
 20
23.37837500
  0
VERTEX
  8
0
 62
7
 10
2.77200000
 20
23.40200000
  0
VERTEX
  8
0
 62
7
 10
2.69368750
 20
23.42840625
  0
VERTEX
  8
0
 62
7
 10
2.61350000
 20
23.44750000
  0
VERTEX
  8
0
 62
7
 10
2.53181250
 20
23.45909375
  0
VERTEX
  8
0
 62
7
 10
2.44900000
 20
23.46300000
  0
VERTEX
  8
0
 62
7
 10
2.39600000
 20
23.46200000
  0
VERTEX
  8
0
 62
7
 10
2.34483374
 20
23.45691577
  0
VERTEX
  8
0
 62
7
 10
2.29426367
 20
23.44809180
  0
VERTEX
  8
0
 62
7
 10
2.24455786
 20
23.43560864
  0
VERTEX
  8
0
 62
7
 10
2.19598438
 20
23.41954688
  0
VERTEX
  8
0
 62
7
 10
2.14881128
 20
23.39998706
  0
VERTEX
  8
0
 62
7
 10
2.10330664
 20
23.37700977
  0
VERTEX
  8
0
 62
7
 10
2.05973853
 20
23.35069556
  0
VERTEX
  8
0
 62
7
 10
2.01837500
 20
23.32112500
  0
VERTEX
  8
0
 62
7
 10
1.97948413
 20
23.28837866
  0
VERTEX
  8
0
 62
7
 10
1.94333398
 20
23.25253711
  0
VERTEX
  8
0
 62
7
 10
1.91019263
 20
23.21368091
  0
VERTEX
  8
0
 62
7
 10
1.88032813
 20
23.17189063
  0
VERTEX
  8
0
 62
7
 10
1.85400854
 20
23.12724683
  0
VERTEX
  8
0
 62
7
 10
1.83150195
 20
23.07983008
  0
VERTEX
  8
0
 62
7
 10
1.81307642
 20
23.02972095
  0
VERTEX
  8
0
 62
7
 10
1.79900000
 20
22.97700000
  0
VERTEX
  8
0
 62
7
 10
1.78775000
 20
22.90537500
  0
VERTEX
  8
0
 62
7
 10
1.78400000
 20
22.83300000
  0
VERTEX
  8
0
 62
7
 10
1.78548438
 20
22.78728125
  0
VERTEX
  8
0
 62
7
 10
1.78987500
 20
22.74175000
  0
VERTEX
  8
0
 62
7
 10
1.79707813
 20
22.69659375
  0
VERTEX
  8
0
 62
7
 10
1.80700000
 20
22.65200000
  0
VERTEX
  8
0
 62
7
 10
1.78700000
 20
22.62000000
  0
VERTEX
  8
0
 62
7
 10
1.76150000
 20
22.57437500
  0
VERTEX
  8
0
 62
7
 10
1.73900000
 20
22.52500000
  0
VERTEX
  8
0
 62
7
 10
1.71873438
 20
22.46789063
  0
VERTEX
  8
0
 62
7
 10
1.70437500
 20
22.40937500
  0
VERTEX
  8
0
 62
7
 10
1.69582813
 20
22.34992188
  0
VERTEX
  8
0
 62
7
 10
1.69300000
 20
22.29000000
  0
VERTEX
  8
0
 62
7
 10
1.69437500
 20
22.25200000
  0
VERTEX
  8
0
 62
7
 10
1.69800000
 20
22.21400000
  0
VERTEX
  8
0
 62
7
 10
1.70812500
 20
22.15420313
  0
VERTEX
  8
0
 62
7
 10
1.72350000
 20
22.09637500
  0
VERTEX
  8
0
 62
7
 10
1.74412500
 20
22.04060938
  0
VERTEX
  8
0
 62
7
 10
1.77000000
 20
21.98700000
  0
VERTEX
  8
0
 62
7
 10
1.37600000
 20
21.98700000
  0
VERTEX
  8
0
 62
7
 10
1.37600000
 20
21.34400000
  0
VERTEX
  8
0
 62
7
 10
2.21800000
 20
21.34400000
  0
VERTEX
  8
0
 62
7
 10
2.21800000
 20
18.71900000
  0
VERTEX
  8
0
 62
7
 10
.75000000
 20
18.71800000
  0
VERTEX
  8
0
 62
7
 10
.75000000
 20
23.94200000
  0
VERTEX
  8
0
 62
7
 10
1.03042038
 20
24.02194476
  0
VERTEX
  8
0
 62
7
 10
1.31160522
 20
24.09940186
  0
VERTEX
  8
0
 62
7
 10
1.59353384
 20
24.17436798
  0
VERTEX
  8
0
 62
7
 10
1.87618555
 20
24.24683984
  0
VERTEX
  8
0
 62
7
 10
2.15953964
 20
24.31681415
  0
VERTEX
  8
0
 62
7
 10
2.44357544
 20
24.38428760
  0
VERTEX
  8
0
 62
7
 10
2.72827225
 20
24.44925690
  0
VERTEX
  8
0
 62
7
 10
3.01360938
 20
24.51171875
  0
VERTEX
  8
0
 62
7
 10
3.29956613
 20
24.57166986
  0
VERTEX
  8
0
 62
7
 10
3.58612183
 20
24.62910693
  0
VERTEX
  8
0
 62
7
 10
3.87325577
 20
24.68402667
  0
VERTEX
  8
0
 62
7
 10
4.16094727
 20
24.73642578
  0
VERTEX
  8
0
 62
7
 10
4.44917563
 20
24.78630096
  0
VERTEX
  8
0
 62
7
 10
4.73792017
 20
24.83364893
  0
VERTEX
  8
0
 62
7
 10
5.02716019
 20
24.87846637
  0
VERTEX
  8
0
 62
7
 10
5.31687500
 20
24.92075000
  0
VERTEX
  8
0
 62
7
 10
5.60704391
 20
24.96049652
  0
VERTEX
  8
0
 62
7
 10
5.89764624
 20
24.99770264
  0
VERTEX
  8
0
 62
7
 10
6.18866129
 20
25.03236505
  0
VERTEX
  8
0
 62
7
 10
6.48006836
 20
25.06448047
  0
VERTEX
  8
0
 62
7
 10
6.77184677
 20
25.09404559
  0
VERTEX
  8
0
 62
7
 10
7.06397583
 20
25.12105713
  0
VERTEX
  8
0
 62
7
 10
7.35643484
 20
25.14551178
  0
VERTEX
  8
0
 62
7
 10
7.64920313
 20
25.16740625
  0
VERTEX
  8
0
 62
7
 10
7.94225998
 20
25.18673724
  0
VERTEX
  8
0
 62
7
 10
8.23558472
 20
25.20350146
  0
VERTEX
  8
0
 62
7
 10
8.52915665
 20
25.21769562
  0
VERTEX
  8
0
 62
7
 10
8.82295508
 20
25.22931641
  0
VERTEX
  8
0
 62
7
 10
9.11695932
 20
25.23836053
  0
VERTEX
  8
0
 62
7
 10
9.41114868
 20
25.24482471
  0
VERTEX
  8
0
 62
7
 10
9.70550247
 20
25.24870563
  0
VERTEX
  8
0
 62
7
 10
10.00000000
 20
25.25000000
  0
VERTEX
  8
0
 62
7
 10
10.29449753
 20
25.24870563
  0
VERTEX
  8
0
 62
7
 10
10.58885132
 20
25.24482471
  0
VERTEX
  8
0
 62
7
 10
10.88304068
 20
25.23836053
  0
VERTEX
  8
0
 62
7
 10
11.17704492
 20
25.22931641
  0
VERTEX
  8
0
 62
7
 10
11.47084335
 20
25.21769562
  0
VERTEX
  8
0
 62
7
 10
11.76441528
 20
25.20350146
  0
VERTEX
  8
0
 62
7
 10
12.05774002
 20
25.18673724
  0
VERTEX
  8
0
 62
7
 10
12.35079688
 20
25.16740625
  0
VERTEX
  8
0
 62
7
 10
12.64356516
 20
25.14551178
  0
VERTEX
  8
0
 62
7
 10
12.93602417
 20
25.12105713
  0
VERTEX
  8
0
 62
7
 10
13.22815323
 20
25.09404559
  0
VERTEX
  8
0
 62
7
 10
13.51993164
 20
25.06448047
  0
VERTEX
  8
0
 62
7
 10
13.81133871
 20
25.03236505
  0
VERTEX
  8
0
 62
7
 10
14.10235376
 20
24.99770264
  0
VERTEX
  8
0
 62
7
 10
14.39295609
 20
24.96049652
  0
VERTEX
  8
0
 62
7
 10
14.68312500
 20
24.92075000
  0
VERTEX
  8
0
 62
7
 10
14.97283981
 20
24.87846637
  0
VERTEX
  8
0
 62
7
 10
15.26207983
 20
24.83364893
  0
VERTEX
  8
0
 62
7
 10
15.55082437
 20
24.78630096
  0
VERTEX
  8
0
 62
7
 10
15.83905273
 20
24.73642578
  0
VERTEX
  8
0
 62
7
 10
16.12674423
 20
24.68402667
  0
VERTEX
  8
0
 62
7
 10
16.41387817
 20
24.62910693
  0
VERTEX
  8
0
 62
7
 10
16.70043387
 20
24.57166986
  0
VERTEX
  8
0
 62
7
 10
16.98639063
 20
24.51171875
  0
VERTEX
  8
0
 62
7
 10
17.27172775
 20
24.44925690
  0
VERTEX
  8
0
 62
7
 10
17.55642456
 20
24.38428760
  0
VERTEX
  8
0
 62
7
 10
17.84046036
 20
24.31681415
  0
VERTEX
  8
0
 62
7
 10
18.12381445
 20
24.24683984
  0
VERTEX
  8
0
 62
7
 10
18.40646616
 20
24.17436798
  0
VERTEX
  8
0
 62
7
 10
18.68839478
 20
24.09940186
  0
VERTEX
  8
0
 62
7
 10
18.96957962
 20
24.02194476
  0
VERTEX
  8
0
 62
7
 10
19.25000000
 20
23.94200000
  0
VERTEX
  8
0
 62
7
 10
19.25000000
 20
18.71800000
  0
VERTEX
  8
0
 62
7
 10
17.78200000
 20
18.71900000
  0
SEQEND
  0
POLYLINE
  8
0
 62
7
 66
1
 70
1
  0
VERTEX
  8
0
 62
7
 10
17.46900000
 20
18.62800000
  0
VERTEX
  8
0
 62
7
 10
17.46900000
 20
5.00000000
  0
VERTEX
  8
0
 62
7
 10
10.00000000
 20
5.00000000
  0
VERTEX
  8
0
 62
7
 10
2.53100000
 20
5.00000000
  0
VERTEX
  8
0
 62
7
 10
2.53100000
 20
18.62800000
  0
VERTEX
  8
0
 62
7
 10
2.83200000
 20
18.62700000
  0
VERTEX
  8
0
 62
7
 10
2.83200000
 20
21.34400000
  0
VERTEX
  8
0
 62
7
 10
3.67400000
 20
21.34400000
  0
VERTEX
  8
0
 62
7
 10
3.67400000
 20
21.80400000
  0
VERTEX
  8
0
 62
7
 10
3.70841602
 20
21.79003125
  0
VERTEX
  8
0
 62
7
 10
3.74326563
 20
21.77868750
  0
VERTEX
  8
0
 62
7
 10
3.77832617
 20
21.76968750
  0
VERTEX
  8
0
 62
7
 10
3.81337500
 20
21.76275000
  0
VERTEX
  8
0
 62
7
 10
3.84818945
 20
21.75759375
  0
VERTEX
  8
0
 62
7
 10
3.88254688
 20
21.75393750
  0
VERTEX
  8
0
 62
7
 10
3.91622461
 20
21.75150000
  0
VERTEX
  8
0
 62
7
 10
3.94900000
 20
21.75000000
  0
VERTEX
  8
0
 62
7
 10
3.97800000
 20
21.75000000
  0
VERTEX
  8
0
 62
7
 10
4.03150391
 20
21.75168555
  0
VERTEX
  8
0
 62
7
 10
4.08465625
 20
21.75673438
  0
VERTEX
  8
0
 62
7
 10
4.13729297
 20
21.76513477
  0
VERTEX
  8
0
 62
7
 10
4.18925000
 20
21.77687500
  0
VERTEX
  8
0
 62
7
 10
4.24036328
 20
21.79194336
  0
VERTEX
  8
0
 62
7
 10
4.29046875
 20
21.81032813
  0
VERTEX
  8
0
 62
7
 10
4.33940234
 20
21.83201758
  0
VERTEX
  8
0
 62
7
 10
4.38700000
 20
21.85700000
  0
VERTEX
  8
0
 62
7
 10
4.40426758
 20
21.86961914
  0
VERTEX
  8
0
 62
7
 10
4.41770313
 20
21.88520313
  0
VERTEX
  8
0
 62
7
 10
4.42713086
 20
21.90296680
  0
VERTEX
  8
0
 62
7
 10
4.43237500
 20
21.92212500
  0
VERTEX
  8
0
 62
7
 10
4.43325977
 20
21.94189258
  0
VERTEX
  8
0
 62
7
 10
4.42960938
 20
21.96148438
  0
VERTEX
  8
0
 62
7
 10
4.42124805
 20
21.98011523
  0
VERTEX
  8
0
 62
7
 10
4.40800000
 20
21.99700000
  0
VERTEX
  8
0
 62
7
 10
4.39300000
 20
22.01300000
  0
VERTEX
  8
0
 62
7
 10
4.43600000
 20
21.99700000
  0
VERTEX
  8
0
 62
7
 10
4.47139063
 20
21.98681250
  0
VERTEX
  8
0
 62
7
 10
4.50687500
 20
21.98000000
  0
VERTEX
  8
0
 62
7
 10
4.54217188
 20
21.97618750
  0
VERTEX
  8
0
 62
7
 10
4.57700000
 20
21.97500000
  0
VERTEX
  8
0
 62
7
 10
4.62275000
 20
21.97662500
  0
VERTEX
  8
0
 62
7
 10
4.66700000
 20
21.98200000
  0
VERTEX
  8
0
 62
7
 10
4.70875000
 20
21.99040625
  0
VERTEX
  8
0
 62
7
 10
4.74975000
 20
22.00200000
  0
VERTEX
  8
0
 62
7
 10
4.78962500
 20
22.01659375
  0
VERTEX
  8
0
 62
7
 10
4.82800000
 20
22.03400000
  0
VERTEX
  8
0
 62
7
 10
4.90125000
 20
22.00425000
  0
VERTEX
  8
0
 62
7
 10
4.97600000
 20
21.97900000
  0
VERTEX
  8
0
 62
7
 10
5.01437305
 20
21.96769336
  0
VERTEX
  8
0
 62
7
 10
5.05367188
 20
21.95717188
  0
VERTEX
  8
0
 62
7
 10
5.09379102
 20
21.94765820
  0
VERTEX
  8
0
 62
7
 10
5.13462500
 20
21.93937500
  0
VERTEX
  8
0
 62
7
 10
5.17606836
 20
21.93254492
  0
VERTEX
  8
0
 62
7
 10
5.21801563
 20
21.92739063
  0
VERTEX
  8
0
 62
7
 10
5.26036133
 20
21.92413477
  0
VERTEX
  8
0
 62
7
 10
5.30300000
 20
21.92300000
  0
VERTEX
  8
0
 62
7
 10
5.36812500
 20
21.92562500
  0
VERTEX
  8
0
 62
7
 10
5.43400000
 20
21.93500000
  0
VERTEX
  8
0
 62
7
 10
5.50310938
 20
21.95089063
  0
VERTEX
  8
0
 62
7
 10
5.57062500
 20
21.97287500
  0
VERTEX
  8
0
 62
7
 10
5.63607813
 20
22.00067188
  0
VERTEX
  8
0
 62
7
 10
5.69900000
 20
22.03400000
  0
VERTEX
  8
0
 62
7
 10
5.71992188
 20
22.05117188
  0
VERTEX
  8
0
 62
7
 10
5.73437500
 20
22.07312500
  0
VERTEX
  8
0
 62
7
 10
5.74189063
 20
22.09826563
  0
VERTEX
  8
0
 62
7
 10
5.74200000
 20
22.12500000
  0
VERTEX
  8
0
 62
7
 10
5.73237500
 20
22.21000000
  0
VERTEX
  8
0
 62
7
 10
5.72800000
 20
22.29500000
  0
VERTEX
  8
0
 62
7
 10
5.81487500
 20
22.30450000
  0
VERTEX
  8
0
 62
7
 10
5.90100000
 20
22.32000000
  0
VERTEX
  8
0
 62
7
 10
5.97390625
 20
22.33823438
  0
VERTEX
  8
0
 62
7
 10
6.04550000
 20
22.36012500
  0
VERTEX
  8
0
 62
7
 10
6.11559375
 20
22.38595313
  0
VERTEX
  8
0
 62
7
 10
6.18400000
 20
22.41600000
  0
VERTEX
  8
0
 62
7
 10
6.21445508
 20
22.36024219
  0
VERTEX
  8
0
 62
7
 10
6.24801563
 20
22.30631250
  0
VERTEX
  8
0
 62
7
 10
6.28459961
 20
22.25435156
  0
VERTEX
  8
0
 62
7
 10
6.32412500
 20
22.20450000
  0
VERTEX
  8
0
 62
7
 10
6.36650977
 20
22.15689844
  0
VERTEX
  8
0
 62
7
 10
6.41167188
 20
22.11168750
  0
VERTEX
  8
0
 62
7
 10
6.45952930
 20
22.06900781
  0
VERTEX
  8
0
 62
7
 10
6.51000000
 20
22.02900000
  0
VERTEX
  8
0
 62
7
 10
6.55331250
 20
21.99804688
  0
VERTEX
  8
0
 62
7
 10
6.59775000
 20
21.96962500
  0
VERTEX
  8
0
 62
7
 10
6.64331250
 20
21.94364063
  0
VERTEX
  8
0
 62
7
 10
6.69000000
 20
21.92000000
  0
VERTEX
  8
0
 62
7
 10
6.70647266
 20
21.91388086
  0
VERTEX
  8
0
 62
7
 10
6.72334375
 20
21.91117188
  0
VERTEX
  8
0
 62
7
 10
6.74016797
 20
21.91172070
  0
VERTEX
  8
0
 62
7
 10
6.75650000
 20
21.91537500
  0
VERTEX
  8
0
 62
7
 10
6.77189453
 20
21.92198242
  0
VERTEX
  8
0
 62
7
 10
6.78590625
 20
21.93139063
  0
VERTEX
  8
0
 62
7
 10
6.79808984
 20
21.94344727
  0
VERTEX
  8
0
 62
7
 10
6.80800000
 20
21.95800000
  0
VERTEX
  8
0
 62
7
 10
6.83221289
 20
21.99885352
  0
VERTEX
  8
0
 62
7
 10
6.85901563
 20
22.03807813
  0
VERTEX
  8
0
 62
7
 10
6.88827930
 20
22.07554492
  0
VERTEX
  8
0
 62
7
 10
6.91987500
 20
22.11112500
  0
VERTEX
  8
0
 62
7
 10
6.95367383
 20
22.14468945
  0
VERTEX
  8
0
 62
7
 10
6.98954688
 20
22.17610938
  0
VERTEX
  8
0
 62
7
 10
7.02736523
 20
22.20525586
  0
VERTEX
  8
0
 62
7
 10
7.06700000
 20
22.23200000
  0
VERTEX
  8
0
 62
7
 10
7.13412500
 20
22.26887500
  0
VERTEX
  8
0
 62
7
 10
7.20800000
 20
22.30200000
  0
VERTEX
  8
0
 62
7
 10
7.24648438
 20
22.31698438
  0
VERTEX
  8
0
 62
7
 10
7.28712500
 20
22.32962500
  0
VERTEX
  8
0
 62
7
 10
7.33020313
 20
22.34095313
  0
VERTEX
  8
0
 62
7
 10
7.37600000
 20
22.35200000
  0
VERTEX
  8
0
 62
7
 10
7.45012500
 20
22.37125000
  0
VERTEX
  8
0
 62
7
 10
7.52800000
 20
22.39500000
  0
VERTEX
  8
0
 62
7
 10
7.58700000
 20
22.41500000
  0
VERTEX
  8
0
 62
7
 10
7.64567188
 20
22.43539063
  0
VERTEX
  8
0
 62
7
 10
7.70762500
 20
22.45887500
  0
VERTEX
  8
0
 62
7
 10
7.77051563
 20
22.48742188
  0
VERTEX
  8
0
 62
7
 10
7.83200000
 20
22.52300000
  0
VERTEX
  8
0
 62
7
 10
7.88600000
 20
22.56200000
  0
VERTEX
  8
0
 62
7
 10
7.93700000
 20
22.60400000
  0
VERTEX
  8
0
 62
7
 10
7.93700000
 20
21.25500000
  0
VERTEX
  8
0
 62
7
 10
8.34600000
 20
21.25500000
  0
VERTEX
  8
0
 62
7
 10
8.34600000
 20
22.47900000
  0
VERTEX
  8
0
 62
7
 10
8.35063281
 20
22.49137500
  0
VERTEX
  8
0
 62
7
 10
8.35793750
 20
22.50225000
  0
VERTEX
  8
0
 62
7
 10
8.36814844
 20
22.51162500
  0
VERTEX
  8
0
 62
7
 10
8.38150000
 20
22.51950000
  0
VERTEX
  8
0
 62
7
 10
8.39822656
 20
22.52587500
  0
VERTEX
  8
0
 62
7
 10
8.41856250
 20
22.53075000
  0
VERTEX
  8
0
 62
7
 10
8.44274219
 20
22.53412500
  0
VERTEX
  8
0
 62
7
 10
8.47100000
 20
22.53600000
  0
VERTEX
  8
0
 62
7
 10
8.55800000
 20
22.53900000
  0
VERTEX
  8
0
 62
7
 10
8.55800000
 20
22.62600000
  0
VERTEX
  8
0
 62
7
 10
8.55800000
 20
22.75800000
  0
VERTEX
  8
0
 62
7
 10
8.55800000
 20
22.82700000
  0
VERTEX
  8
0
 62
7
 10
8.49100000
 20
22.84500000
  0
VERTEX
  8
0
 62
7
 10
8.47007422
 20
22.85173047
  0
VERTEX
  8
0
 62
7
 10
8.45015625
 20
22.86059375
  0
VERTEX
  8
0
 62
7
 10
8.43141016
 20
22.87147266
  0
VERTEX
  8
0
 62
7
 10
8.41400000
 20
22.88425000
  0
VERTEX
  8
0
 62
7
 10
8.39808984
 20
22.89880859
  0
VERTEX
  8
0
 62
7
 10
8.38384375
 20
22.91503125
  0
VERTEX
  8
0
 62
7
 10
8.37142578
 20
22.93280078
  0
VERTEX
  8
0
 62
7
 10
8.36100000
 20
22.95200000
  0
VERTEX
  8
0
 62
7
 10
8.34818750
 20
22.98348438
  0
VERTEX
  8
0
 62
7
 10
8.33950000
 20
23.01637500
  0
VERTEX
  8
0
 62
7
 10
8.33456250
 20
23.05057813
  0
VERTEX
  8
0
 62
7
 10
8.33300000
 20
23.08600000
  0
VERTEX
  8
0
 62
7
 10
8.33440625
 20
23.12077539
  0
VERTEX
  8
0
 62
7
 10
8.33843750
 20
23.15607813
  0
VERTEX
  8
0
 62
7
 10
8.34481250
 20
23.19187305
  0
VERTEX
  8
0
 62
7
 10
8.35325000
 20
23.22812500
  0
VERTEX
  8
0
 62
7
 10
8.36346875
 20
23.26479883
  0
VERTEX
  8
0
 62
7
 10
8.37518750
 20
23.30185938
  0
VERTEX
  8
0
 62
7
 10
8.38812500
 20
23.33927148
  0
VERTEX
  8
0
 62
7
 10
8.40200000
 20
23.37700000
  0
VERTEX
  8
0
 62
7
 10
8.42856250
 20
23.43696875
  0
VERTEX
  8
0
 62
7
 10
8.46150000
 20
23.49450000
  0
VERTEX
  8
0
 62
7
 10
8.50043750
 20
23.55053125
  0
VERTEX
  8
0
 62
7
 10
8.54500000
 20
23.60600000
  0
VERTEX
  8
0
 62
7
 10
8.56708008
 20
23.63113281
  0
VERTEX
  8
0
 62
7
 10
8.59114063
 20
23.65668750
  0
VERTEX
  8
0
 62
7
 10
8.61691211
 20
23.68214844
  0
VERTEX
  8
0
 62
7
 10
8.64412500
 20
23.70700000
  0
VERTEX
  8
0
 62
7
 10
8.67250977
 20
23.73072656
  0
VERTEX
  8
0
 62
7
 10
8.70179687
 20
23.75281250
  0
VERTEX
  8
0
 62
7
 10
8.73171680
 20
23.77274219
  0
VERTEX
  8
0
 62
7
 10
8.76200000
 20
23.79000000
  0
VERTEX
  8
0
 62
7
 10
8.81601563
 20
23.75520313
  0
VERTEX
  8
0
 62
7
 10
8.87462500
 20
23.70887500
  0
VERTEX
  8
0
 62
7
 10
8.93117188
 20
23.65710938
  0
VERTEX
  8
0
 62
7
 10
8.97900000
 20
23.60600000
  0
VERTEX
  8
0
 62
7
 10
9.02356250
 20
23.55053125
  0
VERTEX
  8
0
 62
7
 10
9.06250000
 20
23.49450000
  0
VERTEX
  8
0
 62
7
 10
9.09543750
 20
23.43696875
  0
VERTEX
  8
0
 62
7
 10
9.12200000
 20
23.37700000
  0
VERTEX
  8
0
 62
7
 10
9.13587500
 20
23.33927148
  0
VERTEX
  8
0
 62
7
 10
9.14881250
 20
23.30185938
  0
VERTEX
  8
0
 62
7
 10
9.16053125
 20
23.26479883
  0
VERTEX
  8
0
 62
7
 10
9.17075000
 20
23.22812500
  0
VERTEX
  8
0
 62
7
 10
9.17918750
 20
23.19187305
  0
VERTEX
  8
0
 62
7
 10
9.18556250
 20
23.15607813
  0
VERTEX
  8
0
 62
7
 10
9.18959375
 20
23.12077539
  0
VERTEX
  8
0
 62
7
 10
9.19100000
 20
23.08600000
  0
VERTEX
  8
0
 62
7
 10
9.18943750
 20
23.05057813
  0
VERTEX
  8
0
 62
7
 10
9.18450000
 20
23.01637500
  0
VERTEX
  8
0
 62
7
 10
9.17581250
 20
22.98348438
  0
VERTEX
  8
0
 62
7
 10
9.16300000
 20
22.95200000
  0
VERTEX
  8
0
 62
7
 10
9.15257422
 20
22.93280078
  0
VERTEX
  8
0
 62
7
 10
9.14015625
 20
22.91503125
  0
VERTEX
  8
0
 62
7
 10
9.12591016
 20
22.89880859
  0
VERTEX
  8
0
 62
7
 10
9.11000000
 20
22.88425000
  0
VERTEX
  8
0
 62
7
 10
9.09258984
 20
22.87147266
  0
VERTEX
  8
0
 62
7
 10
9.07384375
 20
22.86059375
  0
VERTEX
  8
0
 62
7
 10
9.05392578
 20
22.85173047
  0
VERTEX
  8
0
 62
7
 10
9.03300000
 20
22.84500000
  0
VERTEX
  8
0
 62
7
 10
8.96600000
 20
22.82700000
  0
VERTEX
  8
0
 62
7
 10
8.96600000
 20
22.75800000
  0
VERTEX
  8
0
 62
7
 10
8.96600000
 20
22.62600000
  0
VERTEX
  8
0
 62
7
 10
8.96600000
 20
22.53900000
  0
VERTEX
  8
0
 62
7
 10
9.05300000
 20
22.53600000
  0
VERTEX
  8
0
 62
7
 10
9.08125781
 20
22.53412500
  0
VERTEX
  8
0
 62
7
 10
9.10543750
 20
22.53075000
  0
VERTEX
  8
0
 62
7
 10
9.12577344
 20
22.52587500
  0
VERTEX
  8
0
 62
7
 10
9.14250000
 20
22.51950000
  0
VERTEX
  8
0
 62
7
 10
9.15585156
 20
22.51162500
  0
VERTEX
  8
0
 62
7
 10
9.16606250
 20
22.50225000
  0
VERTEX
  8
0
 62
7
 10
9.17336719
 20
22.49137500
  0
VERTEX
  8
0
 62
7
 10
9.17800000
 20
22.47900000
  0
VERTEX
  8
0
 62
7
 10
9.17800000
 20
21.64000000
  0
VERTEX
  8
0
 62
7
 10
9.58700000
 20
21.64000000
  0
VERTEX
  8
0
 62
7
 10
9.58700000
 20
22.47700000
  0
VERTEX
  8
0
 62
7
 10
9.59163281
 20
22.48937500
  0
VERTEX
  8
0
 62
7
 10
9.59893750
 20
22.50025000
  0
VERTEX
  8
0
 62
7
 10
9.60914844
 20
22.50962500
  0
VERTEX
  8
0
 62
7
 10
9.62250000
 20
22.51750000
  0
VERTEX
  8
0
 62
7
 10
9.63922656
 20
22.52387500
  0
VERTEX
  8
0
 62
7
 10
9.65956250
 20
22.52875000
  0
VERTEX
  8
0
 62
7
 10
9.68374219
 20
22.53212500
  0
VERTEX
  8
0
 62
7
 10
9.71200000
 20
22.53400000
  0
VERTEX
  8
0
 62
7
 10
9.79900000
 20
22.53700000
  0
VERTEX
  8
0
 62
7
 10
9.79900000
 20
22.62400000
  0
VERTEX
  8
0
 62
7
 10
9.79900000
 20
22.75600000
  0
VERTEX
  8
0
 62
7
 10
9.79900000
 20
22.82500000
  0
VERTEX
  8
0
 62
7
 10
9.73200000
 20
22.84300000
  0
VERTEX
  8
0
 62
7
 10
9.70935547
 20
22.85000781
  0
VERTEX
  8
0
 62
7
 10
9.68865625
 20
22.85837500
  0
VERTEX
  8
0
 62
7
 10
9.66987891
 20
22.86824219
  0
VERTEX
  8
0
 62
7
 10
9.65300000
 20
22.87975000
  0
VERTEX
  8
0
 62
7
 10
9.63799609
 20
22.89303906
  0
VERTEX
  8
0
 62
7
 10
9.62484375
 20
22.90825000
  0
VERTEX
  8
0
 62
7
 10
9.61351953
 20
22.92552344
  0
VERTEX
  8
0
 62
7
 10
9.60400000
 20
22.94500000
  0
VERTEX
  8
0
 62
7
 10
9.59229688
 20
22.98318750
  0
VERTEX
  8
0
 62
7
 10
9.58312500
 20
23.03375000
  0
VERTEX
  8
0
 62
7
 10
9.57714063
 20
23.09518750
  0
VERTEX
  8
0
 62
7
 10
9.57500000
 20
23.16600000
  0
VERTEX
  8
0
 62
7
 10
9.57602930
 20
23.21698047
  0
VERTEX
  8
0
 62
7
 10
9.57910938
 20
23.26896875
  0
VERTEX
  8
0
 62
7
 10
9.58422852
 20
23.32128516
  0
VERTEX
  8
0
 62
7
 10
9.59137500
 20
23.37325000
  0
VERTEX
  8
0
 62
7
 10
9.60053711
 20
23.42418359
  0
VERTEX
  8
0
 62
7
 10
9.61170313
 20
23.47340625
  0
VERTEX
  8
0
 62
7
 10
9.62486133
 20
23.52023828
  0
VERTEX
  8
0
 62
7
 10
9.64000000
 20
23.56400000
  0
VERTEX
  8
0
 62
7
 10
9.66712500
 20
23.62410938
  0
VERTEX
  8
0
 62
7
 10
9.70025000
 20
23.68187500
  0
VERTEX
  8
0
 62
7
 10
9.73900000
 20
23.73795313
  0
VERTEX
  8
0
 62
7
 10
9.78300000
 20
23.79300000
  0
VERTEX
  8
0
 62
7
 10
9.82914063
 20
23.84354688
  0
VERTEX
  8
0
 62
7
 10
9.88212500
 20
23.89362500
  0
VERTEX
  8
0
 62
7
 10
9.93979688
 20
23.93939063
  0
VERTEX
  8
0
 62
7
 10
10.00000000
 20
23.97700000
  0
VERTEX
  8
0
 62
7
 10
10.06020313
 20
23.93939063
  0
VERTEX
  8
0
 62
7
 10
10.11787500
 20
23.89362500
  0
VERTEX
  8
0
 62
7
 10
10.17085938
 20
23.84354688
  0
VERTEX
  8
0
 62
7
 10
10.21700000
 20
23.79300000
  0
VERTEX
  8
0
 62
7
 10
10.26100000
 20
23.73795313
  0
VERTEX
  8
0
 62
7
 10
10.29975000
 20
23.68187500
  0
VERTEX
  8
0
 62
7
 10
10.33287500
 20
23.62410938
  0
VERTEX
  8
0
 62
7
 10
10.36000000
 20
23.56400000
  0
VERTEX
  8
0
 62
7
 10
10.37513867
 20
23.52023828
  0
VERTEX
  8
0
 62
7
 10
10.38829688
 20
23.47340625
  0
VERTEX
  8
0
 62
7
 10
10.39946289
 20
23.42418359
  0
VERTEX
  8
0
 62
7
 10
10.40862500
 20
23.37325000
  0
VERTEX
  8
0
 62
7
 10
10.41577148
 20
23.32128516
  0
VERTEX
  8
0
 62
7
 10
10.42089063
 20
23.26896875
  0
VERTEX
  8
0
 62
7
 10
10.42397070
 20
23.21698047
  0
VERTEX
  8
0
 62
7
 10
10.42500000
 20
23.16600000
  0
VERTEX
  8
0
 62
7
 10
10.42285938
 20
23.09518750
  0
VERTEX
  8
0
 62
7
 10
10.41687500
 20
23.03375000
  0
VERTEX
  8
0
 62
7
 10
10.40770313
 20
22.98318750
  0
VERTEX
  8
0
 62
7
 10
10.39600000
 20
22.94500000
  0
VERTEX
  8
0
 62
7
 10
10.38648047
 20
22.92552344
  0
VERTEX
  8
0
 62
7
 10
10.37515625
 20
22.90825000
  0
VERTEX
  8
0
 62
7
 10
10.36200391
 20
22.89303906
  0
VERTEX
  8
0
 62
7
 10
10.34700000
 20
22.87975000
  0
VERTEX
  8
0
 62
7
 10
10.33012109
 20
22.86824219
  0
VERTEX
  8
0
 62
7
 10
10.31134375
 20
22.85837500
  0
VERTEX
  8
0
 62
7
 10
10.29064453
 20
22.85000781
  0
VERTEX
  8
0
 62
7
 10
10.26800000
 20
22.84300000
  0
VERTEX
  8
0
 62
7
 10
10.20100000
 20
22.82500000
  0
VERTEX
  8
0
 62
7
 10
10.20100000
 20
22.75600000
  0
VERTEX
  8
0
 62
7
 10
10.20100000
 20
22.62400000
  0
VERTEX
  8
0
 62
7
 10
10.20100000
 20
22.53700000
  0
VERTEX
  8
0
 62
7
 10
10.28800000
 20
22.53400000
  0
VERTEX
  8
0
 62
7
 10
10.31625781
 20
22.53212500
  0
VERTEX
  8
0
 62
7
 10
10.34043750
 20
22.52875000
  0
VERTEX
  8
0
 62
7
 10
10.36077344
 20
22.52387500
  0
VERTEX
  8
0
 62
7
 10
10.37750000
 20
22.51750000
  0
VERTEX
  8
0
 62
7
 10
10.39085156
 20
22.50962500
  0
VERTEX
  8
0
 62
7
 10
10.40106250
 20
22.50025000
  0
VERTEX
  8
0
 62
7
 10
10.40836719
 20
22.48937500
  0
VERTEX
  8
0
 62
7
 10
10.41300000
 20
22.47700000
  0
VERTEX
  8
0
 62
7
 10
10.41300000
 20
21.64000000
  0
VERTEX
  8
0
 62
7
 10
10.82200000
 20
21.64000000
  0
VERTEX
  8
0
 62
7
 10
10.82200000
 20
22.47900000
  0
VERTEX
  8
0
 62
7
 10
10.82663281
 20
22.49137500
  0
VERTEX
  8
0
 62
7
 10
10.83393750
 20
22.50225000
  0
VERTEX
  8
0
 62
7
 10
10.84414844
 20
22.51162500
  0
VERTEX
  8
0
 62
7
 10
10.85750000
 20
22.51950000
  0
VERTEX
  8
0
 62
7
 10
10.87422656
 20
22.52587500
  0
VERTEX
  8
0
 62
7
 10
10.89456250
 20
22.53075000
  0
VERTEX
  8
0
 62
7
 10
10.91874219
 20
22.53412500
  0
VERTEX
  8
0
 62
7
 10
10.94700000
 20
22.53600000
  0
VERTEX
  8
0
 62
7
 10
11.03400000
 20
22.53900000
  0
VERTEX
  8
0
 62
7
 10
11.03400000
 20
22.62600000
  0
VERTEX
  8
0
 62
7
 10
11.03400000
 20
22.75800000
  0
VERTEX
  8
0
 62
7
 10
11.03400000
 20
22.82700000
  0
VERTEX
  8
0
 62
7
 10
10.96700000
 20
22.84500000
  0
VERTEX
  8
0
 62
7
 10
10.94607422
 20
22.85173047
  0
VERTEX
  8
0
 62
7
 10
10.92615625
 20
22.86059375
  0
VERTEX
  8
0
 62
7
 10
10.90741016
 20
22.87147266
  0
VERTEX
  8
0
 62
7
 10
10.89000000
 20
22.88425000
  0
VERTEX
  8
0
 62
7
 10
10.87408984
 20
22.89880859
  0
VERTEX
  8
0
 62
7
 10
10.85984375
 20
22.91503125
  0
VERTEX
  8
0
 62
7
 10
10.84742578
 20
22.93280078
  0
VERTEX
  8
0
 62
7
 10
10.83700000
 20
22.95200000
  0
VERTEX
  8
0
 62
7
 10
10.82418750
 20
22.98348438
  0
VERTEX
  8
0
 62
7
 10
10.81550000
 20
23.01637500
  0
VERTEX
  8
0
 62
7
 10
10.81056250
 20
23.05057813
  0
VERTEX
  8
0
 62
7
 10
10.80900000
 20
23.08600000
  0
VERTEX
  8
0
 62
7
 10
10.81040625
 20
23.12077539
  0
VERTEX
  8
0
 62
7
 10
10.81443750
 20
23.15607813
  0
VERTEX
  8
0
 62
7
 10
10.82081250
 20
23.19187305
  0
VERTEX
  8
0
 62
7
 10
10.82925000
 20
23.22812500
  0
VERTEX
  8
0
 62
7
 10
10.83946875
 20
23.26479883
  0
VERTEX
  8
0
 62
7
 10
10.85118750
 20
23.30185938
  0
VERTEX
  8
0
 62
7
 10
10.86412500
 20
23.33927148
  0
VERTEX
  8
0
 62
7
 10
10.87800000
 20
23.37700000
  0
VERTEX
  8
0
 62
7
 10
10.90456250
 20
23.43696875
  0
VERTEX
  8
0
 62
7
 10
10.93750000
 20
23.49450000
  0
VERTEX
  8
0
 62
7
 10
10.97643750
 20
23.55053125
  0
VERTEX
  8
0
 62
7
 10
11.02100000
 20
23.60600000
  0
VERTEX
  8
0
 62
7
 10
11.06882813
 20
23.65710938
  0
VERTEX
  8
0
 62
7
 10
11.12537500
 20
23.70887500
  0
VERTEX
  8
0
 62
7
 10
11.18398438
 20
23.75520313
  0
VERTEX
  8
0
 62
7
 10
11.23800000
 20
23.79000000
  0
VERTEX
  8
0
 62
7
 10
11.26828320
 20
23.77274219
  0
VERTEX
  8
0
 62
7
 10
11.29820313
 20
23.75281250
  0
VERTEX
  8
0
 62
7
 10
11.32749023
 20
23.73072656
  0
VERTEX
  8
0
 62
7
 10
11.35587500
 20
23.70700000
  0
VERTEX
  8
0
 62
7
 10
11.38308789
 20
23.68214844
  0
VERTEX
  8
0
 62
7
 10
11.40885938
 20
23.65668750
  0
VERTEX
  8
0
 62
7
 10
11.43291992
 20
23.63113281
  0
VERTEX
  8
0
 62
7
 10
11.45500000
 20
23.60600000
  0
VERTEX
  8
0
 62
7
 10
11.49956250
 20
23.55053125
  0
VERTEX
  8
0
 62
7
 10
11.53850000
 20
23.49450000
  0
VERTEX
  8
0
 62
7
 10
11.57143750
 20
23.43696875
  0
VERTEX
  8
0
 62
7
 10
11.59800000
 20
23.37700000
  0
VERTEX
  8
0
 62
7
 10
11.61187500
 20
23.33927148
  0
VERTEX
  8
0
 62
7
 10
11.62481250
 20
23.30185938
  0
VERTEX
  8
0
 62
7
 10
11.63653125
 20
23.26479883
  0
VERTEX
  8
0
 62
7
 10
11.64675000
 20
23.22812500
  0
VERTEX
  8
0
 62
7
 10
11.65518750
 20
23.19187305
  0
VERTEX
  8
0
 62
7
 10
11.66156250
 20
23.15607813
  0
VERTEX
  8
0
 62
7
 10
11.66559375
 20
23.12077539
  0
VERTEX
  8
0
 62
7
 10
11.66700000
 20
23.08600000
  0
VERTEX
  8
0
 62
7
 10
11.66543750
 20
23.05057813
  0
VERTEX
  8
0
 62
7
 10
11.66050000
 20
23.01637500
  0
VERTEX
  8
0
 62
7
 10
11.65181250
 20
22.98348438
  0
VERTEX
  8
0
 62
7
 10
11.63900000
 20
22.95200000
  0
VERTEX
  8
0
 62
7
 10
11.62857422
 20
22.93280078
  0
VERTEX
  8
0
 62
7
 10
11.61615625
 20
22.91503125
  0
VERTEX
  8
0
 62
7
 10
11.60191016
 20
22.89880859
  0
VERTEX
  8
0
 62
7
 10
11.58600000
 20
22.88425000
  0
VERTEX
  8
0
 62
7
 10
11.56858984
 20
22.87147266
  0
VERTEX
  8
0
 62
7
 10
11.54984375
 20
22.86059375
  0
VERTEX
  8
0
 62
7
 10
11.52992578
 20
22.85173047
  0
VERTEX
  8
0
 62
7
 10
11.50900000
 20
22.84500000
  0
VERTEX
  8
0
 62
7
 10
11.44200000
 20
22.82700000
  0
VERTEX
  8
0
 62
7
 10
11.44200000
 20
22.75800000
  0
VERTEX
  8
0
 62
7
 10
11.44200000
 20
22.62600000
  0
VERTEX
  8
0
 62
7
 10
11.44200000
 20
22.53900000
  0
VERTEX
  8
0
 62
7
 10
11.52900000
 20
22.53600000
  0
VERTEX
  8
0
 62
7
 10
11.55725781
 20
22.53412500
  0
VERTEX
  8
0
 62
7
 10
11.58143750
 20
22.53075000
  0
VERTEX
  8
0
 62
7
 10
11.60177344
 20
22.52587500
  0
VERTEX
  8
0
 62
7
 10
11.61850000
 20
22.51950000
  0
VERTEX
  8
0
 62
7
 10
11.63185156
 20
22.51162500
  0
VERTEX
  8
0
 62
7
 10
11.64206250
 20
22.50225000
  0
VERTEX
  8
0
 62
7
 10
11.64936719
 20
22.49137500
  0
VERTEX
  8
0
 62
7
 10
11.65400000
 20
22.47900000
  0
VERTEX
  8
0
 62
7
 10
11.65400000
 20
21.25500000
  0
VERTEX
  8
0
 62
7
 10
12.06300000
 20
21.25500000
  0
VERTEX
  8
0
 62
7
 10
12.06300000
 20
22.60400000
  0
VERTEX
  8
0
 62
7
 10
12.11400000
 20
22.56200000
  0
VERTEX
  8
0
 62
7
 10
12.16800000
 20
22.52300000
  0
VERTEX
  8
0
 62
7
 10
12.22948438
 20
22.48742188
  0
VERTEX
  8
0
 62
7
 10
12.29237500
 20
22.45887500
  0
VERTEX
  8
0
 62
7
 10
12.35432813
 20
22.43539063
  0
VERTEX
  8
0
 62
7
 10
12.41300000
 20
22.41500000
  0
VERTEX
  8
0
 62
7
 10
12.47200000
 20
22.39500000
  0
VERTEX
  8
0
 62
7
 10
12.54987500
 20
22.37125000
  0
VERTEX
  8
0
 62
7
 10
12.62400000
 20
22.35200000
  0
VERTEX
  8
0
 62
7
 10
12.66979688
 20
22.34095313
  0
VERTEX
  8
0
 62
7
 10
12.71287500
 20
22.32962500
  0
VERTEX
  8
0
 62
7
 10
12.75351563
 20
22.31698438
  0
VERTEX
  8
0
 62
7
 10
12.79200000
 20
22.30200000
  0
VERTEX
  8
0
 62
7
 10
12.86587500
 20
22.26887500
  0
VERTEX
  8
0
 62
7
 10
12.93300000
 20
22.23200000
  0
VERTEX
  8
0
 62
7
 10
12.97263477
 20
22.20525586
  0
VERTEX
  8
0
 62
7
 10
13.01045313
 20
22.17610938
  0
VERTEX
  8
0
 62
7
 10
13.04632617
 20
22.14468945
  0
VERTEX
  8
0
 62
7
 10
13.08012500
 20
22.11112500
  0
VERTEX
  8
0
 62
7
 10
13.11172070
 20
22.07554492
  0
VERTEX
  8
0
 62
7
 10
13.14098438
 20
22.03807813
  0
VERTEX
  8
0
 62
7
 10
13.16778711
 20
21.99885352
  0
VERTEX
  8
0
 62
7
 10
13.19200000
 20
21.95800000
  0
VERTEX
  8
0
 62
7
 10
13.20191016
 20
21.94344727
  0
VERTEX
  8
0
 62
7
 10
13.21409375
 20
21.93139063
  0
VERTEX
  8
0
 62
7
 10
13.22810547
 20
21.92198242
  0
VERTEX
  8
0
 62
7
 10
13.24350000
 20
21.91537500
  0
VERTEX
  8
0
 62
7
 10
13.25983203
 20
21.91172070
  0
VERTEX
  8
0
 62
7
 10
13.27665625
 20
21.91117188
  0
VERTEX
  8
0
 62
7
 10
13.29352734
 20
21.91388086
  0
VERTEX
  8
0
 62
7
 10
13.31000000
 20
21.92000000
  0
VERTEX
  8
0
 62
7
 10
13.35668750
 20
21.94364063
  0
VERTEX
  8
0
 62
7
 10
13.40225000
 20
21.96962500
  0
VERTEX
  8
0
 62
7
 10
13.44668750
 20
21.99804688
  0
VERTEX
  8
0
 62
7
 10
13.49000000
 20
22.02900000
  0
VERTEX
  8
0
 62
7
 10
13.54047070
 20
22.06900781
  0
VERTEX
  8
0
 62
7
 10
13.58832813
 20
22.11168750
  0
VERTEX
  8
0
 62
7
 10
13.63349023
 20
22.15689844
  0
VERTEX
  8
0
 62
7
 10
13.67587500
 20
22.20450000
  0
VERTEX
  8
0
 62
7
 10
13.71540039
 20
22.25435156
  0
VERTEX
  8
0
 62
7
 10
13.75198438
 20
22.30631250
  0
VERTEX
  8
0
 62
7
 10
13.78554492
 20
22.36024219
  0
VERTEX
  8
0
 62
7
 10
13.81600000
 20
22.41600000
  0
VERTEX
  8
0
 62
7
 10
13.88440625
 20
22.38595313
  0
VERTEX
  8
0
 62
7
 10
13.95450000
 20
22.36012500
  0
VERTEX
  8
0
 62
7
 10
14.02609375
 20
22.33823438
  0
VERTEX
  8
0
 62
7
 10
14.09900000
 20
22.32000000
  0
VERTEX
  8
0
 62
7
 10
14.18512500
 20
22.30450000
  0
VERTEX
  8
0
 62
7
 10
14.27200000
 20
22.29500000
  0
VERTEX
  8
0
 62
7
 10
14.26762500
 20
22.21000000
  0
VERTEX
  8
0
 62
7
 10
14.25800000
 20
22.12500000
  0
VERTEX
  8
0
 62
7
 10
14.25810938
 20
22.09826563
  0
VERTEX
  8
0
 62
7
 10
14.26562500
 20
22.07312500
  0
VERTEX
  8
0
 62
7
 10
14.28007813
 20
22.05117188
  0
VERTEX
  8
0
 62
7
 10
14.30100000
 20
22.03400000
  0
VERTEX
  8
0
 62
7
 10
14.36392188
 20
22.00067188
  0
VERTEX
  8
0
 62
7
 10
14.42937500
 20
21.97287500
  0
VERTEX
  8
0
 62
7
 10
14.49689063
 20
21.95089063
  0
VERTEX
  8
0
 62
7
 10
14.56600000
 20
21.93500000
  0
VERTEX
  8
0
 62
7
 10
14.63187500
 20
21.92562500
  0
VERTEX
  8
0
 62
7
 10
14.69700000
 20
21.92300000
  0
VERTEX
  8
0
 62
7
 10
14.73963867
 20
21.92413477
  0
VERTEX
  8
0
 62
7
 10
14.78198438
 20
21.92739063
  0
VERTEX
  8
0
 62
7
 10
14.82393164
 20
21.93254492
  0
VERTEX
  8
0
 62
7
 10
14.86537500
 20
21.93937500
  0
VERTEX
  8
0
 62
7
 10
14.90620898
 20
21.94765820
  0
VERTEX
  8
0
 62
7
 10
14.94632813
 20
21.95717188
  0
VERTEX
  8
0
 62
7
 10
14.98562695
 20
21.96769336
  0
VERTEX
  8
0
 62
7
 10
15.02400000
 20
21.97900000
  0
VERTEX
  8
0
 62
7
 10
15.09875000
 20
22.00425000
  0
VERTEX
  8
0
 62
7
 10
15.17200000
 20
22.03400000
  0
VERTEX
  8
0
 62
7
 10
15.21037500
 20
22.01659375
  0
VERTEX
  8
0
 62
7
 10
15.25025000
 20
22.00200000
  0
VERTEX
  8
0
 62
7
 10
15.29125000
 20
21.99040625
  0
VERTEX
  8
0
 62
7
 10
15.33300000
 20
21.98200000
  0
VERTEX
  8
0
 62
7
 10
15.37725000
 20
21.97662500
  0
VERTEX
  8
0
 62
7
 10
15.42300000
 20
21.97500000
  0
VERTEX
  8
0
 62
7
 10
15.45782813
 20
21.97618750
  0
VERTEX
  8
0
 62
7
 10
15.49312500
 20
21.98000000
  0
VERTEX
  8
0
 62
7
 10
15.52860938
 20
21.98681250
  0
VERTEX
  8
0
 62
7
 10
15.56400000
 20
21.99700000
  0
VERTEX
  8
0
 62
7
 10
15.60700000
 20
22.01300000
  0
VERTEX
  8
0
 62
7
 10
15.59200000
 20
21.99700000
  0
VERTEX
  8
0
 62
7
 10
15.57875195
 20
21.98011523
  0
VERTEX
  8
0
 62
7
 10
15.57039063
 20
21.96148438
  0
VERTEX
  8
0
 62
7
 10
15.56674023
 20
21.94189258
  0
VERTEX
  8
0
 62
7
 10
15.56762500
 20
21.92212500
  0
VERTEX
  8
0
 62
7
 10
15.57286914
 20
21.90296680
  0
VERTEX
  8
0
 62
7
 10
15.58229688
 20
21.88520313
  0
VERTEX
  8
0
 62
7
 10
15.59573242
 20
21.86961914
  0
VERTEX
  8
0
 62
7
 10
15.61300000
 20
21.85700000
  0
VERTEX
  8
0
 62
7
 10
15.66059766
 20
21.83201758
  0
VERTEX
  8
0
 62
7
 10
15.70953125
 20
21.81032813
  0
VERTEX
  8
0
 62
7
 10
15.75963672
 20
21.79194336
  0
VERTEX
  8
0
 62
7
 10
15.81075000
 20
21.77687500
  0
VERTEX
  8
0
 62
7
 10
15.86270703
 20
21.76513477
  0
VERTEX
  8
0
 62
7
 10
15.91534375
 20
21.75673438
  0
VERTEX
  8
0
 62
7
 10
15.96849609
 20
21.75168555
  0
VERTEX
  8
0
 62
7
 10
16.02200000
 20
21.75000000
  0
VERTEX
  8
0
 62
7
 10
16.05100000
 20
21.75000000
  0
VERTEX
  8
0
 62
7
 10
16.08377539
 20
21.75150000
  0
VERTEX
  8
0
 62
7
 10
16.11745313
 20
21.75393750
  0
VERTEX
  8
0
 62
7
 10
16.15181055
 20
21.75759375
  0
VERTEX
  8
0
 62
7
 10
16.18662500
 20
21.76275000
  0
VERTEX
  8
0
 62
7
 10
16.22167383
 20
21.76968750
  0
VERTEX
  8
0
 62
7
 10
16.25673438
 20
21.77868750
  0
VERTEX
  8
0
 62
7
 10
16.29158398
 20
21.79003125
  0
VERTEX
  8
0
 62
7
 10
16.32600000
 20
21.80400000
  0
VERTEX
  8
0
 62
7
 10
16.32600000
 20
21.34400000
  0
VERTEX
  8
0
 62
7
 10
17.16800000
 20
21.34400000
  0
VERTEX
  8
0
 62
7
 10
17.16800000
 20
18.62700000
  0
VERTEX
  8
0
 62
7
 10
17.46900000
 20
18.62800000
  0
SEQEND
  0
POLYLINE
  8
0
 62
7
 66
1
 70
1
  0
VERTEX
  8
0
 62
7
 10
18.13600000
 20
22.57300000
  0
VERTEX
  8
0
 62
7
 10
18.10662500
 20
22.51150000
  0
VERTEX
  8
0
 62
7
 10
18.07200000
 20
22.45300000
  0
VERTEX
  8
0
 62
7
 10
18.08319531
 20
22.41731641
  0
VERTEX
  8
0
 62
7
 10
18.09125000
 20
22.38090625
  0
VERTEX
  8
0
 62
7
 10
18.09611719
 20
22.34398047
  0
VERTEX
  8
0
 62
7
 10
18.09775000
 20
22.30675000
  0
VERTEX
  8
0
 62
7
 10
18.09610156
 20
22.26942578
  0
VERTEX
  8
0
 62
7
 10
18.09112500
 20
22.23221875
  0
VERTEX
  8
0
 62
7
 10
18.08277344
 20
22.19533984
  0
VERTEX
  8
0
 62
7
 10
18.07100000
 20
22.15900000
  0
VERTEX
  8
0
 62
7
 10
18.05387500
 20
22.12093750
  0
VERTEX
  8
0
 62
7
 10
18.03300000
 20
22.08475000
  0
VERTEX
  8
0
 62
7
 10
18.00912500
 20
22.05043750
  0
VERTEX
  8
0
 62
7
 10
17.98300000
 20
22.01800000
  0
VERTEX
  8
0
 62
7
 10
17.95362500
 20
21.98637500
  0
VERTEX
  8
0
 62
7
 10
17.92200000
 20
21.95700000
  0
VERTEX
  8
0
 62
7
 10
18.10400000
 20
21.95700000
  0
VERTEX
  8
0
 62
7
 10
18.12513086
 20
21.98656250
  0
VERTEX
  8
0
 62
7
 10
18.14423438
 20
22.01743750
  0
VERTEX
  8
0
 62
7
 10
18.16125195
 20
22.04953125
  0
VERTEX
  8
0
 62
7
 10
18.17612500
 20
22.08275000
  0
VERTEX
  8
0
 62
7
 10
18.18879492
 20
22.11700000
  0
VERTEX
  8
0
 62
7
 10
18.19920313
 20
22.15218750
  0
VERTEX
  8
0
 62
7
 10
18.20729102
 20
22.18821875
  0
VERTEX
  8
0
 62
7
 10
18.21300000
 20
22.22500000
  0
VERTEX
  8
0
 62
7
 10
18.21604883
 20
22.25882422
  0
VERTEX
  8
0
 62
7
 10
18.21695313
 20
22.29271875
  0
VERTEX
  8
0
 62
7
 10
18.21572461
 20
22.32656641
  0
VERTEX
  8
0
 62
7
 10
18.21237500
 20
22.36025000
  0
VERTEX
  8
0
 62
7
 10
18.20691602
 20
22.39365234
  0
VERTEX
  8
0
 62
7
 10
18.19935938
 20
22.42665625
  0
VERTEX
  8
0
 62
7
 10
18.18971680
 20
22.45914453
  0
VERTEX
  8
0
 62
7
 10
18.17800000
 20
22.49100000
  0
VERTEX
  8
0
 62
7
 10
18.15850000
 20
22.53312500
  0
VERTEX
  8
0
 62
7
 10
18.13600000
 20
22.57300000
  0
SEQEND
  0
POLYLINE
  8
0
 62
7
 66
1
 70
1
  0
VERTEX
  8
0
 62
7
 10
17.28700000
 20
23.07600000
  0
VERTEX
  8
0
 62
7
 10
17.30501563
 20
23.05389063
  0
VERTEX
  8
0
 62
7
 10
17.32087500
 20
23.02962500
  0
VERTEX
  8
0
 62
7
 10
17.33354688
 20
23.00104688
  0
VERTEX
  8
0
 62
7
 10
17.34200000
 20
22.96600000
  0
VERTEX
  8
0
 62
7
 10
17.34300000
 20
22.95900000
  0
VERTEX
  8
0
 62
7
 10
17.34100000
 20
22.95200000
  0
VERTEX
  8
0
 62
7
 10
17.32962500
 20
22.91301563
  0
VERTEX
  8
0
 62
7
 10
17.31450000
 20
22.87862500
  0
VERTEX
  8
0
 62
7
 10
17.29712500
 20
22.84892188
  0
VERTEX
  8
0
 62
7
 10
17.27900000
 20
22.82400000
  0
VERTEX
  8
0
 62
7
 10
17.26200000
 20
22.80100000
  0
VERTEX
  8
0
 62
7
 10
17.24400000
 20
22.77800000
  0
VERTEX
  8
0
 62
7
 10
17.24400000
 20
21.89700000
  0
VERTEX
  8
0
 62
7
 10
16.41600000
 20
21.89700000
  0
VERTEX
  8
0
 62
7
 10
16.41600000
 20
21.43400000
  0
VERTEX
  8
0
 62
7
 10
17.25800000
 20
21.43400000
  0
VERTEX
  8
0
 62
7
 10
17.25800000
 20
18.71700000
  0
VERTEX
  8
0
 62
7
 10
17.69200000
 20
18.71700000
  0
VERTEX
  8
0
 62
7
 10
17.69200000
 20
21.43400000
  0
VERTEX
  8
0
 62
7
 10
18.53400000
 20
21.43400000
  0
VERTEX
  8
0
 62
7
 10
18.53400000
 20
21.89700000
  0
VERTEX
  8
0
 62
7
 10
17.70600000
 20
21.89700000
  0
VERTEX
  8
0
 62
7
 10
17.70600000
 20
23.07600000
  0
VERTEX
  8
0
 62
7
 10
17.47500000
 20
23.07600000
  0
VERTEX
  8
0
 62
7
 10
17.28700000
 20
23.07600000
  0
SEQEND
  0
POLYLINE
  8
0
 62
7
 66
1
 70
1
  0
VERTEX
  8
0
 62
7
 10
15.76400000
 20
22.22600000
  0
VERTEX
  8
0
 62
7
 10
15.78000000
 20
22.27900000
  0
VERTEX
  8
0
 62
7
 10
15.79400000
 20
22.32300000
  0
VERTEX
  8
0
 62
7
 10
15.79900000
 20
22.33900000
  0
VERTEX
  8
0
 62
7
 10
15.76100000
 20
22.36600000
  0
VERTEX
  8
0
 62
7
 10
15.71987500
 20
22.40187500
  0
VERTEX
  8
0
 62
7
 10
15.68400000
 20
22.44300000
  0
VERTEX
  8
0
 62
7
 10
15.70831250
 20
22.45006250
  0
VERTEX
  8
0
 62
7
 10
15.73150000
 20
22.46050000
  0
VERTEX
  8
0
 62
7
 10
15.75318750
 20
22.47393750
  0
VERTEX
  8
0
 62
7
 10
15.77300000
 20
22.49000000
  0
VERTEX
  8
0
 62
7
 10
15.78677344
 20
22.50450977
  0
VERTEX
  8
0
 62
7
 10
15.79881250
 20
22.52020313
  0
VERTEX
  8
0
 62
7
 10
15.80907031
 20
22.53695117
  0
VERTEX
  8
0
 62
7
 10
15.81750000
 20
22.55462500
  0
VERTEX
  8
0
 62
7
 10
15.82405469
 20
22.57309570
  0
VERTEX
  8
0
 62
7
 10
15.82868750
 20
22.59223438
  0
VERTEX
  8
0
 62
7
 10
15.83135156
 20
22.61191211
  0
VERTEX
  8
0
 62
7
 10
15.83200000
 20
22.63200000
  0
VERTEX
  8
0
 62
7
 10
15.80025000
 20
22.65000000
  0
VERTEX
  8
0
 62
7
 10
15.77300000
 20
22.67400000
  0
VERTEX
  8
0
 62
7
 10
15.74300000
 20
22.72100000
  0
VERTEX
  8
0
 62
7
 10
15.71537500
 20
22.75012500
  0
VERTEX
  8
0
 62
7
 10
15.68400000
 20
22.77400000
  0
VERTEX
  8
0
 62
7
 10
15.68193750
 20
22.85423438
  0
VERTEX
  8
0
 62
7
 10
15.67725000
 20
22.93437500
  0
VERTEX
  8
0
 62
7
 10
15.66993750
 20
23.01432813
  0
VERTEX
  8
0
 62
7
 10
15.66000000
 20
23.09400000
  0
VERTEX
  8
0
 62
7
 10
15.65500391
 20
23.13124414
  0
VERTEX
  8
0
 62
7
 10
15.65021875
 20
23.16864063
  0
VERTEX
  8
0
 62
7
 10
15.64519922
 20
23.20606055
  0
VERTEX
  8
0
 62
7
 10
15.63950000
 20
23.24337500
  0
VERTEX
  8
0
 62
7
 10
15.63267578
 20
23.28045508
  0
VERTEX
  8
0
 62
7
 10
15.62428125
 20
23.31717188
  0
VERTEX
  8
0
 62
7
 10
15.61387109
 20
23.35339648
  0
VERTEX
  8
0
 62
7
 10
15.60100000
 20
23.38900000
  0
VERTEX
  8
0
 62
7
 10
15.56859375
 20
23.45957813
  0
VERTEX
  8
0
 62
7
 10
15.53000000
 20
23.52687500
  0
VERTEX
  8
0
 62
7
 10
15.48540625
 20
23.59023438
  0
VERTEX
  8
0
 62
7
 10
15.43500000
 20
23.64900000
  0
VERTEX
  8
0
 62
7
 10
15.40484375
 20
23.62085938
  0
VERTEX
  8
0
 62
7
 10
15.37300000
 20
23.59487500
  0
VERTEX
  8
0
 62
7
 10
15.33965625
 20
23.57095313
  0
VERTEX
  8
0
 62
7
 10
15.30500000
 20
23.54900000
  0
VERTEX
  8
0
 62
7
 10
15.25414063
 20
23.52360938
  0
VERTEX
  8
0
 62
7
 10
15.20112500
 20
23.50337500
  0
VERTEX
  8
0
 62
7
 10
15.14679688
 20
23.48670313
  0
VERTEX
  8
0
 62
7
 10
15.09200000
 20
23.47200000
  0
VERTEX
  8
0
 62
7
 10
15.04231250
 20
23.45976563
  0
VERTEX
  8
0
 62
7
 10
14.99225000
 20
23.44912500
  0
VERTEX
  8
0
 62
7
 10
14.94181250
 20
23.44092188
  0
VERTEX
  8
0
 62
7
 10
14.89100000
 20
23.43600000
  0
VERTEX
  8
0
 62
7
 10
14.82968750
 20
23.43539063
  0
VERTEX
  8
0
 62
7
 10
14.76875000
 20
23.43937500
  0
VERTEX
  8
0
 62
7
 10
14.70818750
 20
23.44767188
  0
VERTEX
  8
0
 62
7
 10
14.64800000
 20
23.46000000
  0
VERTEX
  8
0
 62
7
 10
14.59442188
 20
23.47414063
  0
VERTEX
  8
0
 62
7
 10
14.54187500
 20
23.49137500
  0
VERTEX
  8
0
 62
7
 10
14.49064063
 20
23.51217188
  0
VERTEX
  8
0
 62
7
 10
14.44100000
 20
23.53700000
  0
VERTEX
  8
0
 62
7
 10
14.37581250
 20
23.57796875
  0
VERTEX
  8
0
 62
7
 10
14.31550000
 20
23.62550000
  0
VERTEX
  8
0
 62
7
 10
14.26043750
 20
23.67903125
  0
VERTEX
  8
0
 62
7
 10
14.21100000
 20
23.73800000
  0
VERTEX
  8
0
 62
7
 10
14.19637500
 20
23.67089063
  0
VERTEX
  8
0
 62
7
 10
14.18550000
 20
23.60312500
  0
VERTEX
  8
0
 62
7
 10
14.17837500
 20
23.53479688
  0
VERTEX
  8
0
 62
7
 10
14.17500000
 20
23.46600000
  0
VERTEX
  8
0
 62
7
 10
14.17573438
 20
23.37923047
  0
VERTEX
  8
0
 62
7
 10
14.18237500
 20
23.29309375
  0
VERTEX
  8
0
 62
7
 10
14.19482813
 20
23.20784766
  0
VERTEX
  8
0
 62
7
 10
14.21300000
 20
23.12375000
  0
VERTEX
  8
0
 62
7
 10
14.23679688
 20
23.04105859
  0
VERTEX
  8
0
 62
7
 10
14.26612500
 20
22.96003125
  0
VERTEX
  8
0
 62
7
 10
14.30089063
 20
22.88092578
  0
VERTEX
  8
0
 62
7
 10
14.34100000
 20
22.80400000
  0
VERTEX
  8
0
 62
7
 10
14.33462500
 20
22.75825000
  0
VERTEX
  8
0
 62
7
 10
14.33050000
 20
22.71250000
  0
VERTEX
  8
0
 62
7
 10
14.32862500
 20
22.66675000
  0
VERTEX
  8
0
 62
7
 10
14.32900000
 20
22.62100000
  0
VERTEX
  8
0
 62
7
 10
14.33396875
 20
22.56596875
  0
VERTEX
  8
0
 62
7
 10
14.34325000
 20
22.51150000
  0
VERTEX
  8
0
 62
7
 10
14.35290625
 20
22.45703125
  0
VERTEX
  8
0
 62
7
 10
14.35900000
 20
22.40200000
  0
VERTEX
  8
0
 62
7
 10
14.36162500
 20
22.32926563
  0
VERTEX
  8
0
 62
7
 10
14.36050000
 20
22.25662500
  0
VERTEX
  8
0
 62
7
 10
14.35562500
 20
22.18417188
  0
VERTEX
  8
0
 62
7
 10
14.34700000
 20
22.11200000
  0
VERTEX
  8
0
 62
7
 10
14.40300000
 20
22.08220313
  0
VERTEX
  8
0
 62
7
 10
14.46125000
 20
22.05737500
  0
VERTEX
  8
0
 62
7
 10
14.52137500
 20
22.03760938
  0
VERTEX
  8
0
 62
7
 10
14.58300000
 20
22.02300000
  0
VERTEX
  8
0
 62
7
 10
14.63524414
 20
22.01565820
  0
VERTEX
  8
0
 62
7
 10
14.68764063
 20
22.01282813
  0
VERTEX
  8
0
 62
7
 10
14.74006055
 20
22.01405273
  0
VERTEX
  8
0
 62
7
 10
14.79237500
 20
22.01887500
  0
VERTEX
  8
0
 62
7
 10
14.84445508
 20
22.02683789
  0
VERTEX
  8
0
 62
7
 10
14.89617188
 20
22.03748438
  0
VERTEX
  8
0
 62
7
 10
14.94739648
 20
22.05035742
  0
VERTEX
  8
0
 62
7
 10
14.99800000
 20
22.06500000
  0
VERTEX
  8
0
 62
7
 10
15.04337500
 20
22.07960938
  0
VERTEX
  8
0
 62
7
 10
15.08800000
 20
22.09637500
  0
VERTEX
  8
0
 62
7
 10
15.13187500
 20
22.11520313
  0
VERTEX
  8
0
 62
7
 10
15.17500000
 20
22.13600000
  0
VERTEX
  8
0
 62
7
 10
15.21523438
 20
22.11332813
  0
VERTEX
  8
0
 62
7
 10
15.25762500
 20
22.09487500
  0
VERTEX
  8
0
 62
7
 10
15.30170313
 20
22.08073438
  0
VERTEX
  8
0
 62
7
 10
15.34700000
 20
22.07100000
  0
VERTEX
  8
0
 62
7
 10
15.39453125
 20
22.06568750
  0
VERTEX
  8
0
 62
7
 10
15.44225000
 20
22.06525000
  0
VERTEX
  8
0
 62
7
 10
15.48959375
 20
22.07043750
  0
VERTEX
  8
0
 62
7
 10
15.53600000
 20
22.08200000
  0
VERTEX
  8
0
 62
7
 10
15.57135938
 20
22.09585938
  0
VERTEX
  8
0
 62
7
 10
15.60512500
 20
22.11337500
  0
VERTEX
  8
0
 62
7
 10
15.63682813
 20
22.13445313
  0
VERTEX
  8
0
 62
7
 10
15.66600000
 20
22.15900000
  0
VERTEX
  8
0
 62
7
 10
15.64512500
 20
22.19262500
  0
VERTEX
  8
0
 62
7
 10
15.63100000
 20
22.23000000
  0
VERTEX
  8
0
 62
7
 10
15.62575000
 20
22.25970313
  0
VERTEX
  8
0
 62
7
 10
15.62500000
 20
22.28987500
  0
VERTEX
  8
0
 62
7
 10
15.62875000
 20
22.31985938
  0
VERTEX
  8
0
 62
7
 10
15.63700000
 20
22.34900000
  0
VERTEX
  8
0
 62
7
 10
15.67762500
 20
22.29812500
  0
VERTEX
  8
0
 62
7
 10
15.72500000
 20
22.25400000
  0
VERTEX
  8
0
 62
7
 10
15.76400000
 20
22.22600000
  0
SEQEND
  0
POLYLINE
  8
0
 62
7
 66
1
 70
1
  0
VERTEX
  8
0
 62
7
 10
17.76600000
 20
22.36600000
  0
VERTEX
  8
0
 62
7
 10
17.76600000
 20
22.24700000
  0
VERTEX
  8
0
 62
7
 10
17.81003125
 20
22.27398438
  0
VERTEX
  8
0
 62
7
 10
17.85200000
 20
22.30387500
  0
VERTEX
  8
0
 62
7
 10
17.89171875
 20
22.33657813
  0
VERTEX
  8
0
 62
7
 10
17.92900000
 20
22.37200000
  0
VERTEX
  8
0
 62
7
 10
17.95780078
 20
22.40274219
  0
VERTEX
  8
0
 62
7
 10
17.98484375
 20
22.43493750
  0
VERTEX
  8
0
 62
7
 10
18.00996484
 20
22.46853906
  0
VERTEX
  8
0
 62
7
 10
18.03300000
 20
22.50350000
  0
VERTEX
  8
0
 62
7
 10
18.05378516
 20
22.53977344
  0
VERTEX
  8
0
 62
7
 10
18.07215625
 20
22.57731250
  0
VERTEX
  8
0
 62
7
 10
18.08794922
 20
22.61607031
  0
VERTEX
  8
0
 62
7
 10
18.10100000
 20
22.65600000
  0
VERTEX
  8
0
 62
7
 10
18.11045703
 20
22.69301172
  0
VERTEX
  8
0
 62
7
 10
18.11778125
 20
22.73046875
  0
VERTEX
  8
0
 62
7
 10
18.12290234
 20
22.76825391
  0
VERTEX
  8
0
 62
7
 10
18.12575000
 20
22.80625000
  0
VERTEX
  8
0
 62
7
 10
18.12625391
 20
22.84433984
  0
VERTEX
  8
0
 62
7
 10
18.12434375
 20
22.88240625
  0
VERTEX
  8
0
 62
7
 10
18.11994922
 20
22.92033203
  0
VERTEX
  8
0
 62
7
 10
18.11300000
 20
22.95800000
  0
VERTEX
  8
0
 62
7
 10
18.10114087
 20
23.00236499
  0
VERTEX
  8
0
 62
7
 10
18.08558008
 20
23.04465430
  0
VERTEX
  8
0
 62
7
 10
18.06653003
 20
23.08478442
  0
VERTEX
  8
0
 62
7
 10
18.04420313
 20
23.12267188
  0
VERTEX
  8
0
 62
7
 10
18.01881177
 20
23.15823315
  0
VERTEX
  8
0
 62
7
 10
17.99056836
 20
23.19138477
  0
VERTEX
  8
0
 62
7
 10
17.95968530
 20
23.22204321
  0
VERTEX
  8
0
 62
7
 10
17.92637500
 20
23.25012500
  0
VERTEX
  8
0
 62
7
 10
17.89084985
 20
23.27554663
  0
VERTEX
  8
0
 62
7
 10
17.85332227
 20
23.29822461
  0
VERTEX
  8
0
 62
7
 10
17.81400464
 20
23.31807544
  0
VERTEX
  8
0
 62
7
 10
17.77310938
 20
23.33501563
  0
VERTEX
  8
0
 62
7
 10
17.73084888
 20
23.34896167
  0
VERTEX
  8
0
 62
7
 10
17.68743555
 20
23.35983008
  0
VERTEX
  8
0
 62
7
 10
17.64308179
 20
23.36753735
  0
VERTEX
  8
0
 62
7
 10
17.59800000
 20
23.37200000
  0
VERTEX
  8
0
 62
7
 10
17.55489063
 20
23.37341211
  0
VERTEX
  8
0
 62
7
 10
17.51187500
 20
23.37242188
  0
VERTEX
  8
0
 62
7
 10
17.46904688
 20
23.36906445
  0
VERTEX
  8
0
 62
7
 10
17.42650000
 20
23.36337500
  0
VERTEX
  8
0
 62
7
 10
17.38432813
 20
23.35538867
  0
VERTEX
  8
0
 62
7
 10
17.34262500
 20
23.34514063
  0
VERTEX
  8
0
 62
7
 10
17.30148438
 20
23.33266602
  0
VERTEX
  8
0
 62
7
 10
17.26100000
 20
23.31800000
  0
VERTEX
  8
0
 62
7
 10
17.21284375
 20
23.29759375
  0
VERTEX
  8
0
 62
7
 10
17.16600000
 20
23.27400000
  0
VERTEX
  8
0
 62
7
 10
17.12065625
 20
23.24740625
  0
VERTEX
  8
0
 62
7
 10
17.07700000
 20
23.21800000
  0
VERTEX
  8
0
 62
7
 10
17.06632813
 20
23.25542188
  0
VERTEX
  8
0
 62
7
 10
17.05087500
 20
23.29087500
  0
VERTEX
  8
0
 62
7
 10
17.03073438
 20
23.32389063
  0
VERTEX
  8
0
 62
7
 10
17.00600000
 20
23.35400000
  0
VERTEX
  8
0
 62
7
 10
16.98282813
 20
23.37606250
  0
VERTEX
  8
0
 62
7
 10
16.95712500
 20
23.39550000
  0
VERTEX
  8
0
 62
7
 10
16.92935938
 20
23.41193750
  0
VERTEX
  8
0
 62
7
 10
16.90000000
 20
23.42500000
  0
VERTEX
  8
0
 62
7
 10
16.83425000
 20
23.39700000
  0
VERTEX
  8
0
 62
7
 10
16.77000000
 20
23.36600000
  0
VERTEX
  8
0
 62
7
 10
16.69187500
 20
23.32337500
  0
VERTEX
  8
0
 62
7
 10
16.61600000
 20
23.27700000
  0
VERTEX
  8
0
 62
7
 10
16.52765625
 20
23.28290625
  0
VERTEX
  8
0
 62
7
 10
16.43950000
 20
23.28750000
  0
VERTEX
  8
0
 62
7
 10
16.35134375
 20
23.28909375
  0
VERTEX
  8
0
 62
7
 10
16.26300000
 20
23.28600000
  0
VERTEX
  8
0
 62
7
 10
16.22258594
 20
23.28356445
  0
VERTEX
  8
0
 62
7
 10
16.18175000
 20
23.28114063
  0
VERTEX
  8
0
 62
7
 10
16.14072656
 20
23.27817773
  0
VERTEX
  8
0
 62
7
 10
16.09975000
 20
23.27412500
  0
VERTEX
  8
0
 62
7
 10
16.05905469
 20
23.26843164
  0
VERTEX
  8
0
 62
7
 10
16.01887500
 20
23.26054688
  0
VERTEX
  8
0
 62
7
 10
15.97944531
 20
23.24991992
  0
VERTEX
  8
0
 62
7
 10
15.94100000
 20
23.23600000
  0
VERTEX
  8
0
 62
7
 10
15.88967188
 20
23.21168750
  0
VERTEX
  8
0
 62
7
 10
15.84087500
 20
23.18250000
  0
VERTEX
  8
0
 62
7
 10
15.79489063
 20
23.14881250
  0
VERTEX
  8
0
 62
7
 10
15.75200000
 20
23.11100000
  0
VERTEX
  8
0
 62
7
 10
15.79467188
 20
23.06778125
  0
VERTEX
  8
0
 62
7
 10
15.83087500
 20
23.01950000
  0
VERTEX
  8
0
 62
7
 10
15.86014063
 20
22.96671875
  0
VERTEX
  8
0
 62
7
 10
15.88200000
 20
22.91000000
  0
VERTEX
  8
0
 62
7
 10
15.88825781
 20
22.88395117
  0
VERTEX
  8
0
 62
7
 10
15.89175000
 20
22.85760938
  0
VERTEX
  8
0
 62
7
 10
15.89317969
 20
22.83105664
  0
VERTEX
  8
0
 62
7
 10
15.89325000
 20
22.80437500
  0
VERTEX
  8
0
 62
7
 10
15.89266406
 20
22.77764648
  0
VERTEX
  8
0
 62
7
 10
15.89212500
 20
22.75095313
  0
VERTEX
  8
0
 62
7
 10
15.89233594
 20
22.72437695
  0
VERTEX
  8
0
 62
7
 10
15.89400000
 20
22.69800000
  0
VERTEX
  8
0
 62
7
 10
15.90450000
 20
22.61462500
  0
VERTEX
  8
0
 62
7
 10
15.91800000
 20
22.53200000
  0
VERTEX
  8
0
 62
7
 10
15.88637500
 20
22.41812500
  0
VERTEX
  8
0
 62
7
 10
15.85100000
 20
22.30500000
  0
VERTEX
  8
0
 62
7
 10
15.83721875
 20
22.26054688
  0
VERTEX
  8
0
 62
7
 10
15.82250000
 20
22.21337500
  0
VERTEX
  8
0
 62
7
 10
15.80628125
 20
22.16676563
  0
VERTEX
  8
0
 62
7
 10
15.78800000
 20
22.12400000
  0
VERTEX
  8
0
 62
7
 10
15.76064063
 20
22.07323438
  0
VERTEX
  8
0
 62
7
 10
15.72962500
 20
22.02462500
  0
VERTEX
  8
0
 62
7
 10
15.69504688
 20
21.97845313
  0
VERTEX
  8
0
 62
7
 10
15.65700000
 20
21.93500000
  0
VERTEX
  8
0
 62
7
 10
15.70234766
 20
21.91147656
  0
VERTEX
  8
0
 62
7
 10
15.74903125
 20
21.89118750
  0
VERTEX
  8
0
 62
7
 10
15.79688672
 20
21.87417969
  0
VERTEX
  8
0
 62
7
 10
15.84575000
 20
21.86050000
  0
VERTEX
  8
0
 62
7
 10
15.89545703
 20
21.85019531
  0
VERTEX
  8
0
 62
7
 10
15.94584375
 20
21.84331250
  0
VERTEX
  8
0
 62
7
 10
15.99674609
 20
21.83989844
  0
VERTEX
  8
0
 62
7
 10
16.04800000
 20
21.84000000
  0
VERTEX
  8
0
 62
7
 10
16.08406250
 20
21.84164453
  0
VERTEX
  8
0
 62
7
 10
16.12012500
 20
21.84453125
  0
VERTEX
  8
0
 62
7
 10
16.15600000
 20
21.84896484
  0
VERTEX
  8
0
 62
7
 10
16.19150000
 20
21.85525000
  0
VERTEX
  8
0
 62
7
 10
16.22643750
 20
21.86369141
  0
VERTEX
  8
0
 62
7
 10
16.26062500
 20
21.87459375
  0
VERTEX
  8
0
 62
7
 10
16.29387500
 20
21.88826172
  0
VERTEX
  8
0
 62
7
 10
16.32600000
 20
21.90500000
  0
VERTEX
  8
0
 62
7
 10
16.35615625
 20
21.92410938
  0
VERTEX
  8
0
 62
7
 10
16.38500000
 20
21.94537500
  0
VERTEX
  8
0
 62
7
 10
16.41234375
 20
21.96870313
  0
VERTEX
  8
0
 62
7
 10
16.43800000
 20
21.99400000
  0
VERTEX
  8
0
 62
7
 10
16.47828125
 20
21.97657813
  0
VERTEX
  8
0
 62
7
 10
16.51950000
 20
21.96187500
  0
VERTEX
  8
0
 62
7
 10
16.56146875
 20
21.94998438
  0
VERTEX
  8
0
 62
7
 10
16.60400000
 20
21.94100000
  0
VERTEX
  8
0
 62
7
 10
16.65082813
 20
21.93556250
  0
VERTEX
  8
0
 62
7
 10
16.69812500
 20
21.93425000
  0
VERTEX
  8
0
 62
7
 10
16.74560938
 20
21.93481250
  0
VERTEX
  8
0
 62
7
 10
16.79300000
 20
21.93500000
  0
VERTEX
  8
0
 62
7
 10
16.96500000
 20
21.93500000
  0
VERTEX
  8
0
 62
7
 10
17.05650000
 20
21.92825000
  0
VERTEX
  8
0
 62
7
 10
17.14800000
 20
21.91700000
  0
VERTEX
  8
0
 62
7
 10
17.17181250
 20
21.99646875
  0
VERTEX
  8
0
 62
7
 10
17.19075000
 20
22.07725000
  0
VERTEX
  8
0
 62
7
 10
17.20481250
 20
22.15915625
  0
VERTEX
  8
0
 62
7
 10
17.21400000
 20
22.24200000
  0
VERTEX
  8
0
 62
7
 10
17.21714063
 20
22.31023438
  0
VERTEX
  8
0
 62
7
 10
17.21662500
 20
22.37837500
  0
VERTEX
  8
0
 62
7
 10
17.21329688
 20
22.44632813
  0
VERTEX
  8
0
 62
7
 10
17.20800000
 20
22.51400000
  0
VERTEX
  8
0
 62
7
 10
17.19375000
 20
22.64137500
  0
VERTEX
  8
0
 62
7
 10
17.17200000
 20
22.76800000
  0
VERTEX
  8
0
 62
7
 10
17.19273438
 20
22.78220313
  0
VERTEX
  8
0
 62
7
 10
17.21037500
 20
22.80062500
  0
VERTEX
  8
0
 62
7
 10
17.22782813
 20
22.82298438
  0
VERTEX
  8
0
 62
7
 10
17.24800000
 20
22.84900000
  0
VERTEX
  8
0
 62
7
 10
17.26389063
 20
22.87112500
  0
VERTEX
  8
0
 62
7
 10
17.27912500
 20
22.89700000
  0
VERTEX
  8
0
 62
7
 10
17.29229688
 20
22.92662500
  0
VERTEX
  8
0
 62
7
 10
17.30200000
 20
22.96000000
  0
VERTEX
  8
0
 62
7
 10
17.29307813
 20
22.99454688
  0
VERTEX
  8
0
 62
7
 10
17.27862500
 20
23.02187500
  0
VERTEX
  8
0
 62
7
 10
17.25910938
 20
23.04676563
  0
VERTEX
  8
0
 62
7
 10
17.23500000
 20
23.07400000
  0
VERTEX
  8
0
 62
7
 10
17.21737500
 20
23.09285938
  0
VERTEX
  8
0
 62
7
 10
17.20125000
 20
23.10637500
  0
VERTEX
  8
0
 62
7
 10
17.18325000
 20
23.11745313
  0
VERTEX
  8
0
 62
7
 10
17.16000000
 20
23.12900000
  0
VERTEX
  8
0
 62
7
 10
17.18860962
 20
23.15267969
  0
VERTEX
  8
0
 62
7
 10
17.21848633
 20
23.17420313
  0
VERTEX
  8
0
 62
7
 10
17.24951440
 20
23.19354688
  0
VERTEX
  8
0
 62
7
 10
17.28157813
 20
23.21068750
  0
VERTEX
  8
0
 62
7
 10
17.31456177
 20
23.22560156
  0
VERTEX
  8
0
 62
7
 10
17.34834961
 20
23.23826563
  0
VERTEX
  8
0
 62
7
 10
17.38282593
 20
23.24865625
  0
VERTEX
  8
0
 62
7
 10
17.41787500
 20
23.25675000
  0
VERTEX
  8
0
 62
7
 10
17.45338110
 20
23.26252344
  0
VERTEX
  8
0
 62
7
 10
17.48922852
 20
23.26595313
  0
VERTEX
  8
0
 62
7
 10
17.52530151
 20
23.26701563
  0
VERTEX
  8
0
 62
7
 10
17.56148438
 20
23.26568750
  0
VERTEX
  8
0
 62
7
 10
17.59766138
 20
23.26194531
  0
VERTEX
  8
0
 62
7
 10
17.63371680
 20
23.25576563
  0
VERTEX
  8
0
 62
7
 10
17.66953491
 20
23.24712500
  0
VERTEX
  8
0
 62
7
 10
17.70500000
 20
23.23600000
  0
VERTEX
  8
0
 62
7
 10
17.75881250
 20
23.21445313
  0
VERTEX
  8
0
 62
7
 10
17.81000000
 20
23.18812500
  0
VERTEX
  8
0
 62
7
 10
17.85743750
 20
23.15598438
  0
VERTEX
  8
0
 62
7
 10
17.90000000
 20
23.11700000
  0
VERTEX
  8
0
 62
7
 10
17.93264063
 20
23.07753125
  0
VERTEX
  8
0
 62
7
 10
17.96012500
 20
23.03450000
  0
VERTEX
  8
0
 62
7
 10
17.98254688
 20
22.98846875
  0
VERTEX
  8
0
 62
7
 10
18.00000000
 20
22.94000000
  0
VERTEX
  8
0
 62
7
 10
18.00812109
 20
22.90791016
  0
VERTEX
  8
0
 62
7
 10
18.01378125
 20
22.87546875
  0
VERTEX
  8
0
 62
7
 10
18.01705078
 20
22.84279297
  0
VERTEX
  8
0
 62
7
 10
18.01800000
 20
22.81000000
  0
VERTEX
  8
0
 62
7
 10
18.01669922
 20
22.77720703
  0
VERTEX
  8
0
 62
7
 10
18.01321875
 20
22.74453125
  0
VERTEX
  8
0
 62
7
 10
18.00762891
 20
22.71208984
  0
VERTEX
  8
0
 62
7
 10
18.00000000
 20
22.68000000
  0
VERTEX
  8
0
 62
7
 10
17.98029688
 20
22.62168750
  0
VERTEX
  8
0
 62
7
 10
17.95337500
 20
22.56675000
  0
VERTEX
  8
0
 62
7
 10
17.92026563
 20
22.51518750
  0
VERTEX
  8
0
 62
7
 10
17.88200000
 20
22.46700000
  0
VERTEX
  8
0
 62
7
 10
17.85557813
 20
22.43870313
  0
VERTEX
  8
0
 62
7
 10
17.82737500
 20
22.41237500
  0
VERTEX
  8
0
 62
7
 10
17.79748438
 20
22.38810938
  0
VERTEX
  8
0
 62
7
 10
17.76600000
 20
22.36600000
  0
SEQEND
  0
POLYLINE
  8
0
 62
7
 66
1
 70
1
  0
VERTEX
  8
0
 62
7
 10
16.98600000
 20
22.99000000
  0
VERTEX
  8
0
 62
7
 10
16.96258008
 20
22.95824609
  0
VERTEX
  8
0
 62
7
 10
16.93982813
 20
22.92590625
  0
VERTEX
  8
0
 62
7
 10
16.91813086
 20
22.89286328
  0
VERTEX
  8
0
 62
7
 10
16.89787500
 20
22.85900000
  0
VERTEX
  8
0
 62
7
 10
16.87944727
 20
22.82419922
  0
VERTEX
  8
0
 62
7
 10
16.86323438
 20
22.78834375
  0
VERTEX
  8
0
 62
7
 10
16.84962305
 20
22.75131641
  0
VERTEX
  8
0
 62
7
 10
16.83900000
 20
22.71300000
  0
VERTEX
  8
0
 62
7
 10
16.83154688
 20
22.67698438
  0
VERTEX
  8
0
 62
7
 10
16.82587500
 20
22.64087500
  0
VERTEX
  8
0
 62
7
 10
16.82226563
 20
22.60457813
  0
VERTEX
  8
0
 62
7
 10
16.82100000
 20
22.56800000
  0
VERTEX
  8
0
 62
7
 10
16.82194531
 20
22.52382617
  0
VERTEX
  8
0
 62
7
 10
16.82481250
 20
22.47860938
  0
VERTEX
  8
0
 62
7
 10
16.82964844
 20
22.43280664
  0
VERTEX
  8
0
 62
7
 10
16.83650000
 20
22.38687500
  0
VERTEX
  8
0
 62
7
 10
16.84541406
 20
22.34127148
  0
VERTEX
  8
0
 62
7
 10
16.85643750
 20
22.29645313
  0
VERTEX
  8
0
 62
7
 10
16.86961719
 20
22.25287695
  0
VERTEX
  8
0
 62
7
 10
16.88500000
 20
22.21100000
  0
VERTEX
  8
0
 62
7
 10
16.87100000
 20
22.19800000
  0
VERTEX
  8
0
 62
7
 10
16.84373633
 20
22.23895898
  0
VERTEX
  8
0
 62
7
 10
16.81976563
 20
22.28210938
  0
VERTEX
  8
0
 62
7
 10
16.79919336
 20
22.32711133
  0
VERTEX
  8
0
 62
7
 10
16.78212500
 20
22.37362500
  0
VERTEX
  8
0
 62
7
 10
16.76866602
 20
22.42131055
  0
VERTEX
  8
0
 62
7
 10
16.75892188
 20
22.46982813
  0
VERTEX
  8
0
 62
7
 10
16.75299805
 20
22.51883789
  0
VERTEX
  8
0
 62
7
 10
16.75100000
 20
22.56800000
  0
VERTEX
  8
0
 62
7
 10
16.75229688
 20
22.60848438
  0
VERTEX
  8
0
 62
7
 10
16.75612500
 20
22.64887500
  0
VERTEX
  8
0
 62
7
 10
16.76239063
 20
22.68907813
  0
VERTEX
  8
0
 62
7
 10
16.77100000
 20
22.72900000
  0
VERTEX
  8
0
 62
7
 10
16.77400000
 20
22.74100000
  0
VERTEX
  8
0
 62
7
 10
16.76500000
 20
22.73200000
  0
VERTEX
  8
0
 62
7
 10
16.68712500
 20
22.66100000
  0
VERTEX
  8
0
 62
7
 10
16.60700000
 20
22.59600000
  0
VERTEX
  8
0
 62
7
 10
16.52000000
 20
22.52300000
  0
VERTEX
  8
0
 62
7
 10
16.44900000
 20
22.46300000
  0
VERTEX
  8
0
 62
7
 10
16.35337500
 20
22.38062500
  0
VERTEX
  8
0
 62
7
 10
16.26300000
 20
22.29525000
  0
VERTEX
  8
0
 62
7
 10
16.17787500
 20
22.20650000
  0
VERTEX
  8
0
 62
7
 10
16.09800000
 20
22.11400000
  0
VERTEX
  8
0
 62
7
 10
16.07700000
 20
22.13000000
  0
VERTEX
  8
0
 62
7
 10
16.10819531
 20
22.18534766
  0
VERTEX
  8
0
 62
7
 10
16.14300000
 20
22.23884375
  0
VERTEX
  8
0
 62
7
 10
16.18099219
 20
22.29041797
  0
VERTEX
  8
0
 62
7
 10
16.22175000
 20
22.34000000
  0
VERTEX
  8
0
 62
7
 10
16.26485156
 20
22.38751953
  0
VERTEX
  8
0
 62
7
 10
16.30987500
 20
22.43290625
  0
VERTEX
  8
0
 62
7
 10
16.35639844
 20
22.47608984
  0
VERTEX
  8
0
 62
7
 10
16.40400000
 20
22.51700000
  0
VERTEX
  8
0
 62
7
 10
16.47400000
 20
22.57700000
  0
VERTEX
  8
0
 62
7
 10
16.56300000
 20
22.65000000
  0
VERTEX
  8
0
 62
7
 10
16.64125000
 20
22.71450000
  0
VERTEX
  8
0
 62
7
 10
16.71500000
 20
22.78200000
  0
VERTEX
  8
0
 62
7
 10
16.75500000
 20
22.82300000
  0
VERTEX
  8
0
 62
7
 10
16.70196875
 20
22.80914063
  0
VERTEX
  8
0
 62
7
 10
16.64800000
 20
22.79912500
  0
VERTEX
  8
0
 62
7
 10
16.59328125
 20
22.79304688
  0
VERTEX
  8
0
 62
7
 10
16.53800000
 20
22.79100000
  0
VERTEX
  8
0
 62
7
 10
16.50800000
 20
22.79200000
  0
VERTEX
  8
0
 62
7
 10
16.50000000
 20
22.79200000
  0
VERTEX
  8
0
 62
7
 10
16.47674365
 20
22.79341650
  0
VERTEX
  8
0
 62
7
 10
16.45251172
 20
22.79583203
  0
VERTEX
  8
0
 62
7
 10
16.42754736
 20
22.79930811
  0
VERTEX
  8
0
 62
7
 10
16.40209375
 20
22.80390625
  0
VERTEX
  8
0
 62
7
 10
16.37639404
 20
22.80968799
  0
VERTEX
  8
0
 62
7
 10
16.35069141
 20
22.81671484
  0
VERTEX
  8
0
 62
7
 10
16.32522900
 20
22.82504834
  0
VERTEX
  8
0
 62
7
 10
16.30025000
 20
22.83475000
  0
VERTEX
  8
0
 62
7
 10
16.27599756
 20
22.84588135
  0
VERTEX
  8
0
 62
7
 10
16.25271484
 20
22.85850391
  0
VERTEX
  8
0
 62
7
 10
16.23064502
 20
22.87267920
  0
VERTEX
  8
0
 62
7
 10
16.21003125
 20
22.88846875
  0
VERTEX
  8
0
 62
7
 10
16.19111670
 20
22.90593408
  0
VERTEX
  8
0
 62
7
 10
16.17414453
 20
22.92513672
  0
VERTEX
  8
0
 62
7
 10
16.15935791
 20
22.94613818
  0
VERTEX
  8
0
 62
7
 10
16.14700000
 20
22.96900000
  0
VERTEX
  8
0
 62
7
 10
16.16900000
 20
22.98200000
  0
VERTEX
  8
0
 62
7
 10
16.20722266
 20
22.95436719
  0
VERTEX
  8
0
 62
7
 10
16.24565625
 20
22.93062500
  0
VERTEX
  8
0
 62
7
 10
16.28469922
 20
22.91063281
  0
VERTEX
  8
0
 62
7
 10
16.32475000
 20
22.89425000
  0
VERTEX
  8
0
 62
7
 10
16.36620703
 20
22.88133594
  0
VERTEX
  8
0
 62
7
 10
16.40946875
 20
22.87175000
  0
VERTEX
  8
0
 62
7
 10
16.45493359
 20
22.86535156
  0
VERTEX
  8
0
 62
7
 10
16.50300000
 20
22.86200000
  0
VERTEX
  8
0
 62
7
 10
16.51000000
 20
22.86200000
  0
VERTEX
  8
0
 62
7
 10
16.53800000
 20
22.86100000
  0
VERTEX
  8
0
 62
7
 10
16.59393164
 20
22.86330273
  0
VERTEX
  8
0
 62
7
 10
16.64945313
 20
22.87042188
  0
VERTEX
  8
0
 62
7
 10
16.70377930
 20
22.88267383
  0
VERTEX
  8
0
 62
7
 10
16.75612500
 20
22.90037500
  0
VERTEX
  8
0
 62
7
 10
16.80570508
 20
22.92384180
  0
VERTEX
  8
0
 62
7
 10
16.85173438
 20
22.95339063
  0
VERTEX
  8
0
 62
7
 10
16.89342773
 20
22.98933789
  0
VERTEX
  8
0
 62
7
 10
16.93000000
 20
23.03200000
  0
VERTEX
  8
0
 62
7
 10
16.94004688
 20
23.04110938
  0
VERTEX
  8
0
 62
7
 10
16.95262500
 20
23.04562500
  0
VERTEX
  8
0
 62
7
 10
16.96614063
 20
23.04507813
  0
VERTEX
  8
0
 62
7
 10
16.97900000
 20
23.03900000
  0
VERTEX
  8
0
 62
7
 10
16.98810938
 20
23.02895313
  0
VERTEX
  8
0
 62
7
 10
16.99262500
 20
23.01637500
  0
VERTEX
  8
0
 62
7
 10
16.99207813
 20
23.00285938
  0
VERTEX
  8
0
 62
7
 10
16.98600000
 20
22.99000000
  0
SEQEND
  0
POLYLINE
  8
0
 62
7
 66
1
 70
1
  0
VERTEX
  8
0
 62
7
 10
13.87000000
 20
22.64600000
  0
VERTEX
  8
0
 62
7
 10
13.84987500
 20
22.57775000
  0
VERTEX
  8
0
 62
7
 10
13.82600000
 20
22.51100000
  0
VERTEX
  8
0
 62
7
 10
13.89609375
 20
22.47817188
  0
VERTEX
  8
0
 62
7
 10
13.96825000
 20
22.45012500
  0
VERTEX
  8
0
 62
7
 10
14.04228125
 20
22.42676563
  0
VERTEX
  8
0
 62
7
 10
14.11800000
 20
22.40800000
  0
VERTEX
  8
0
 62
7
 10
14.20862500
 20
22.39225000
  0
VERTEX
  8
0
 62
7
 10
14.30000000
 20
22.38400000
  0
VERTEX
  8
0
 62
7
 10
14.29900000
 20
22.39800000
  0
VERTEX
  8
0
 62
7
 10
14.29387500
 20
22.44500000
  0
VERTEX
  8
0
 62
7
 10
14.28500000
 20
22.49500000
  0
VERTEX
  8
0
 62
7
 10
14.27800000
 20
22.53400000
  0
VERTEX
  8
0
 62
7
 10
14.21056250
 20
22.54318750
  0
VERTEX
  8
0
 62
7
 10
14.14350000
 20
22.55575000
  0
VERTEX
  8
0
 62
7
 10
14.07718750
 20
22.57168750
  0
VERTEX
  8
0
 62
7
 10
14.01200000
 20
22.59100000
  0
VERTEX
  8
0
 62
7
 10
13.94025000
 20
22.61662500
  0
VERTEX
  8
0
 62
7
 10
13.87000000
 20
22.64600000
  0
SEQEND
  0
POLYLINE
  8
0
 62
7
 66
1
 70
1
  0
VERTEX
  8
0
 62
7
 10
12.60100000
 20
23.62500000
  0
VERTEX
  8
0
 62
7
 10
12.55300000
 20
23.65775000
  0
VERTEX
  8
0
 62
7
 10
12.50200000
 20
23.68600000
  0
VERTEX
  8
0
 62
7
 10
12.47401563
 20
23.69967383
  0
VERTEX
  8
0
 62
7
 10
12.44556250
 20
23.71270313
  0
VERTEX
  8
0
 62
7
 10
12.41664063
 20
23.72472461
  0
VERTEX
  8
0
 62
7
 10
12.38725000
 20
23.73537500
  0
VERTEX
  8
0
 62
7
 10
12.35739063
 20
23.74429102
  0
VERTEX
  8
0
 62
7
 10
12.32706250
 20
23.75110938
  0
VERTEX
  8
0
 62
7
 10
12.29626563
 20
23.75546680
  0
VERTEX
  8
0
 62
7
 10
12.26500000
 20
23.75700000
  0
VERTEX
  8
0
 62
7
 10
12.23872656
 20
23.75645508
  0
VERTEX
  8
0
 62
7
 10
12.21250000
 20
23.75470313
  0
VERTEX
  8
0
 62
7
 10
12.18646094
 20
23.75156836
  0
VERTEX
  8
0
 62
7
 10
12.16075000
 20
23.74687500
  0
VERTEX
  8
0
 62
7
 10
12.13550781
 20
23.74044727
  0
VERTEX
  8
0
 62
7
 10
12.11087500
 20
23.73210938
  0
VERTEX
  8
0
 62
7
 10
12.08699219
 20
23.72168555
  0
VERTEX
  8
0
 62
7
 10
12.06400000
 20
23.70900000
  0
VERTEX
  8
0
 62
7
 10
12.03689111
 20
23.69012842
  0
VERTEX
  8
0
 62
7
 10
12.01292578
 20
23.66893359
  0
VERTEX
  8
0
 62
7
 10
11.99208350
 20
23.64567041
  0
VERTEX
  8
0
 62
7
 10
11.97434375
 20
23.62059375
  0
VERTEX
  8
0
 62
7
 10
11.95968604
 20
23.59395850
  0
VERTEX
  8
0
 62
7
 10
11.94808984
 20
23.56601953
  0
VERTEX
  8
0
 62
7
 10
11.93953467
 20
23.53703174
  0
VERTEX
  8
0
 62
7
 10
11.93400000
 20
23.50725000
  0
VERTEX
  8
0
 62
7
 10
11.93146533
 20
23.47692920
  0
VERTEX
  8
0
 62
7
 10
11.93191016
 20
23.44632422
  0
VERTEX
  8
0
 62
7
 10
11.93531396
 20
23.41568994
  0
VERTEX
  8
0
 62
7
 10
11.94165625
 20
23.38528125
  0
VERTEX
  8
0
 62
7
 10
11.95091650
 20
23.35535303
  0
VERTEX
  8
0
 62
7
 10
11.96307422
 20
23.32616016
  0
VERTEX
  8
0
 62
7
 10
11.97810889
 20
23.29795752
  0
VERTEX
  8
0
 62
7
 10
11.99600000
 20
23.27100000
  0
VERTEX
  8
0
 62
7
 10
12.01840625
 20
23.24198438
  0
VERTEX
  8
0
 62
7
 10
12.04100000
 20
23.21737500
  0
VERTEX
  8
0
 62
7
 10
12.06659375
 20
23.19632813
  0
VERTEX
  8
0
 62
7
 10
12.09800000
 20
23.17800000
  0
VERTEX
  8
0
 62
7
 10
12.11528369
 20
23.17035400
  0
VERTEX
  8
0
 62
7
 10
12.13361328
 20
23.16361328
  0
VERTEX
  8
0
 62
7
 10
12.15276904
 20
23.15788623
  0
VERTEX
  8
0
 62
7
 10
12.17253125
 20
23.15328125
  0
VERTEX
  8
0
 62
7
 10
12.19268018
 20
23.14990674
  0
VERTEX
  8
0
 62
7
 10
12.21299609
 20
23.14787109
  0
VERTEX
  8
0
 62
7
 10
12.23325928
 20
23.14728271
  0
VERTEX
  8
0
 62
7
 10
12.25325000
 20
23.14825000
  0
VERTEX
  8
0
 62
7
 10
12.27274854
 20
23.15088135
  0
VERTEX
  8
0
 62
7
 10
12.29153516
 20
23.15528516
  0
VERTEX
  8
0
 62
7
 10
12.30939014
 20
23.16156982
  0
VERTEX
  8
0
 62
7
 10
12.32609375
 20
23.16984375
  0
VERTEX
  8
0
 62
7
 10
12.34142627
 20
23.18021533
  0
VERTEX
  8
0
 62
7
 10
12.35516797
 20
23.19279297
  0
VERTEX
  8
0
 62
7
 10
12.36709912
 20
23.20768506
  0
VERTEX
  8
0
 62
7
 10
12.37700000
 20
23.22500000
  0
VERTEX
  8
0
 62
7
 10
12.38037500
 20
23.23800000
  0
VERTEX
  8
0
 62
7
 10
12.38225000
 20
23.25775000
  0
VERTEX
  8
0
 62
7
 10
12.38150000
 20
23.28012500
  0
VERTEX
  8
0
 62
7
 10
12.37700000
 20
23.30100000
  0
VERTEX
  8
0
 62
7
 10
12.35476563
 20
23.28475000
  0
VERTEX
  8
0
 62
7
 10
12.33037500
 20
23.27225000
  0
VERTEX
  8
0
 62
7
 10
12.30429688
 20
23.26387500
  0
VERTEX
  8
0
 62
7
 10
12.27700000
 20
23.26000000
  0
VERTEX
  8
0
 62
7
 10
12.24875000
 20
23.26103125
  0
VERTEX
  8
0
 62
7
 10
12.22125000
 20
23.26675000
  0
VERTEX
  8
0
 62
7
 10
12.19487500
 20
23.27659375
  0
VERTEX
  8
0
 62
7
 10
12.17000000
 20
23.29000000
  0
VERTEX
  8
0
 62
7
 10
12.15168750
 20
23.30245703
  0
VERTEX
  8
0
 62
7
 10
12.13450000
 20
23.31653125
  0
VERTEX
  8
0
 62
7
 10
12.11881250
 20
23.33215234
  0
VERTEX
  8
0
 62
7
 10
12.10500000
 20
23.34925000
  0
VERTEX
  8
0
 62
7
 10
12.09343750
 20
23.36775391
  0
VERTEX
  8
0
 62
7
 10
12.08450000
 20
23.38759375
  0
VERTEX
  8
0
 62
7
 10
12.07856250
 20
23.40869922
  0
VERTEX
  8
0
 62
7
 10
12.07600000
 20
23.43100000
  0
VERTEX
  8
0
 62
7
 10
12.07753125
 20
23.45995313
  0
VERTEX
  8
0
 62
7
 10
12.08375000
 20
23.48787500
  0
VERTEX
  8
0
 62
7
 10
12.09484375
 20
23.51410938
  0
VERTEX
  8
0
 62
7
 10
12.11100000
 20
23.53800000
  0
VERTEX
  8
0
 62
7
 10
12.12981250
 20
23.55706250
  0
VERTEX
  8
0
 62
7
 10
12.15125000
 20
23.57350000
  0
VERTEX
  8
0
 62
7
 10
12.17456250
 20
23.58693750
  0
VERTEX
  8
0
 62
7
 10
12.19900000
 20
23.59700000
  0
VERTEX
  8
0
 62
7
 10
12.23114063
 20
23.60403125
  0
VERTEX
  8
0
 62
7
 10
12.26412500
 20
23.60525000
  0
VERTEX
  8
0
 62
7
 10
12.29729688
 20
23.60234375
  0
VERTEX
  8
0
 62
7
 10
12.33000000
 20
23.59700000
  0
VERTEX
  8
0
 62
7
 10
12.36329688
 20
23.58735938
  0
VERTEX
  8
0
 62
7
 10
12.39462500
 20
23.57312500
  0
VERTEX
  8
0
 62
7
 10
12.42464063
 20
23.55607813
  0
VERTEX
  8
0
 62
7
 10
12.45400000
 20
23.53800000
  0
VERTEX
  8
0
 62
7
 10
12.50287500
 20
23.50375000
  0
VERTEX
  8
0
 62
7
 10
12.54800000
 20
23.46500000
  0
VERTEX
  8
0
 62
7
 10
12.57300000
 20
23.53900000
  0
VERTEX
  8
0
 62
7
 10
12.59700000
 20
23.61300000
  0
VERTEX
  8
0
 62
7
 10
12.60100000
 20
23.62500000
  0
SEQEND
  0
POLYLINE
  8
0
 62
7
 66
1
 70
1
  0
VERTEX
  8
0
 62
7
 10
14.12700000
 20
23.25400000
  0
VERTEX
  8
0
 62
7
 10
14.12037500
 20
23.31312500
  0
VERTEX
  8
0
 62
7
 10
14.11600000
 20
23.37300000
  0
VERTEX
  8
0
 62
7
 10
14.07500000
 20
23.36600000
  0
VERTEX
  8
0
 62
7
 10
13.91600000
 20
23.33700000
  0
VERTEX
  8
0
 62
7
 10
13.92031250
 20
23.37853125
  0
VERTEX
  8
0
 62
7
 10
13.91975000
 20
23.42025000
  0
VERTEX
  8
0
 62
7
 10
13.91431250
 20
23.46159375
  0
VERTEX
  8
0
 62
7
 10
13.90400000
 20
23.50200000
  0
VERTEX
  8
0
 62
7
 10
13.88681250
 20
23.54654688
  0
VERTEX
  8
0
 62
7
 10
13.86400000
 20
23.58837500
  0
VERTEX
  8
0
 62
7
 10
13.83593750
 20
23.62701563
  0
VERTEX
  8
0
 62
7
 10
13.80300000
 20
23.66200000
  0
VERTEX
  8
0
 62
7
 10
13.76562500
 20
23.64187500
  0
VERTEX
  8
0
 62
7
 10
13.72600000
 20
23.62700000
  0
VERTEX
  8
0
 62
7
 10
13.70259375
 20
23.62231250
  0
VERTEX
  8
0
 62
7
 10
13.67900000
 20
23.62025000
  0
VERTEX
  8
0
 62
7
 10
13.65540625
 20
23.61856250
  0
VERTEX
  8
0
 62
7
 10
13.63200000
 20
23.61500000
  0
VERTEX
  8
0
 62
7
 10
13.59846875
 20
23.60637500
  0
VERTEX
  8
0
 62
7
 10
13.56550000
 20
23.59550000
  0
VERTEX
  8
0
 62
7
 10
13.53328125
 20
23.58237500
  0
VERTEX
  8
0
 62
7
 10
13.50200000
 20
23.56700000
  0
VERTEX
  8
0
 62
7
 10
13.42870313
 20
23.62045313
  0
VERTEX
  8
0
 62
7
 10
13.35287500
 20
23.66987500
  0
VERTEX
  8
0
 62
7
 10
13.27460938
 20
23.71535938
  0
VERTEX
  8
0
 62
7
 10
13.19400000
 20
23.75700000
  0
VERTEX
  8
0
 62
7
 10
13.13195117
 20
23.78573438
  0
VERTEX
  8
0
 62
7
 10
13.06885938
 20
23.81193750
  0
VERTEX
  8
0
 62
7
 10
13.00480664
 20
23.83560938
  0
VERTEX
  8
0
 62
7
 10
12.93987500
 20
23.85675000
  0
VERTEX
  8
0
 62
7
 10
12.87414648
 20
23.87535938
  0
VERTEX
  8
0
 62
7
 10
12.80770313
 20
23.89143750
  0
VERTEX
  8
0
 62
7
 10
12.74062695
 20
23.90498438
  0
VERTEX
  8
0
 62
7
 10
12.67300000
 20
23.91600000
  0
VERTEX
  8
0
 62
7
 10
12.68350000
 20
23.88115625
  0
VERTEX
  8
0
 62
7
 10
12.69100000
 20
23.84575000
  0
VERTEX
  8
0
 62
7
 10
12.69550000
 20
23.80996875
  0
VERTEX
  8
0
 62
7
 10
12.69700000
 20
23.77400000
  0
VERTEX
  8
0
 62
7
 10
12.69240625
 20
23.72876563
  0
VERTEX
  8
0
 62
7
 10
12.68200000
 20
23.68437500
  0
VERTEX
  8
0
 62
7
 10
12.66859375
 20
23.64054688
  0
VERTEX
  8
0
 62
7
 10
12.65500000
 20
23.59700000
  0
VERTEX
  8
0
 62
7
 10
12.60200000
 20
23.43700000
  0
VERTEX
  8
0
 62
7
 10
12.57587500
 20
23.33425000
  0
VERTEX
  8
0
 62
7
 10
12.55500000
 20
23.23000000
  0
VERTEX
  8
0
 62
7
 10
12.42500000
 20
23.10000000
  0
VERTEX
  8
0
 62
7
 10
12.39393750
 20
23.06581250
  0
VERTEX
  8
0
 62
7
 10
12.36400000
 20
23.03050000
  0
VERTEX
  8
0
 62
7
 10
12.33331250
 20
22.99593750
  0
VERTEX
  8
0
 62
7
 10
12.30000000
 20
22.96400000
  0
VERTEX
  8
0
 62
7
 10
12.26664063
 20
22.93728711
  0
VERTEX
  8
0
 62
7
 10
12.23187500
 20
22.91267188
  0
VERTEX
  8
0
 62
7
 10
12.19579688
 20
22.89018945
  0
VERTEX
  8
0
 62
7
 10
12.15850000
 20
22.86987500
  0
VERTEX
  8
0
 62
7
 10
12.12007813
 20
22.85176367
  0
VERTEX
  8
0
 62
7
 10
12.08062500
 20
22.83589063
  0
VERTEX
  8
0
 62
7
 10
12.04023438
 20
22.82229102
  0
VERTEX
  8
0
 62
7
 10
11.99900000
 20
22.81100000
  0
VERTEX
  8
0
 62
7
 10
12.04601563
 20
22.75029688
  0
VERTEX
  8
0
 62
7
 10
12.09837500
 20
22.69437500
  0
VERTEX
  8
0
 62
7
 10
12.15579688
 20
22.64351563
  0
VERTEX
  8
0
 62
7
 10
12.21800000
 20
22.59800000
  0
VERTEX
  8
0
 62
7
 10
12.25091602
 20
22.57795898
  0
VERTEX
  8
0
 62
7
 10
12.28501563
 20
22.56029688
  0
VERTEX
  8
0
 62
7
 10
12.32007617
 20
22.54458008
  0
VERTEX
  8
0
 62
7
 10
12.35587500
 20
22.53037500
  0
VERTEX
  8
0
 62
7
 10
12.39218945
 20
22.51724805
  0
VERTEX
  8
0
 62
7
 10
12.42879688
 20
22.50476563
  0
VERTEX
  8
0
 62
7
 10
12.46547461
 20
22.49249414
  0
VERTEX
  8
0
 62
7
 10
12.50200000
 20
22.48000000
  0
VERTEX
  8
0
 62
7
 10
12.54213281
 20
22.46681250
  0
VERTEX
  8
0
 62
7
 10
12.58287500
 20
22.45531250
  0
VERTEX
  8
0
 62
7
 10
12.62399219
 20
22.44484375
  0
VERTEX
  8
0
 62
7
 10
12.66525000
 20
22.43475000
  0
VERTEX
  8
0
 62
7
 10
12.70641406
 20
22.42437500
  0
VERTEX
  8
0
 62
7
 10
12.74725000
 20
22.41306250
  0
VERTEX
  8
0
 62
7
 10
12.78752344
 20
22.40015625
  0
VERTEX
  8
0
 62
7
 10
12.82700000
 20
22.38500000
  0
VERTEX
  8
0
 62
7
 10
12.86653125
 20
22.36762500
  0
VERTEX
  8
0
 62
7
 10
12.90550000
 20
22.34950000
  0
VERTEX
  8
0
 62
7
 10
12.94371875
 20
22.32987500
  0
VERTEX
  8
0
 62
7
 10
12.98100000
 20
22.30800000
  0
VERTEX
  8
0
 62
7
 10
13.02537109
 20
22.27811523
  0
VERTEX
  8
0
 62
7
 10
13.06765625
 20
22.24554688
  0
VERTEX
  8
0
 62
7
 10
13.10773828
 20
22.21042383
  0
VERTEX
  8
0
 62
7
 10
13.14550000
 20
22.17287500
  0
VERTEX
  8
0
 62
7
 10
13.18082422
 20
22.13302930
  0
VERTEX
  8
0
 62
7
 10
13.21359375
 20
22.09101563
  0
VERTEX
  8
0
 62
7
 10
13.24369141
 20
22.04696289
  0
VERTEX
  8
0
 62
7
 10
13.27100000
 20
22.00100000
  0
VERTEX
  8
0
 62
7
 10
13.31393750
 20
22.02295313
  0
VERTEX
  8
0
 62
7
 10
13.35575000
 20
22.04687500
  0
VERTEX
  8
0
 62
7
 10
13.39643750
 20
22.07285938
  0
VERTEX
  8
0
 62
7
 10
13.43600000
 20
22.10100000
  0
VERTEX
  8
0
 62
7
 10
13.47528516
 20
22.13190137
  0
VERTEX
  8
0
 62
7
 10
13.51285938
 20
22.16455469
  0
VERTEX
  8
0
 62
7
 10
13.54867578
 20
22.19888379
  0
VERTEX
  8
0
 62
7
 10
13.58268750
 20
22.23481250
  0
VERTEX
  8
0
 62
7
 10
13.61484766
 20
22.27226465
  0
VERTEX
  8
0
 62
7
 10
13.64510938
 20
22.31116406
  0
VERTEX
  8
0
 62
7
 10
13.67342578
 20
22.35143457
  0
VERTEX
  8
0
 62
7
 10
13.69975000
 20
22.39300000
  0
VERTEX
  8
0
 62
7
 10
13.72403516
 20
22.43578418
  0
VERTEX
  8
0
 62
7
 10
13.74623438
 20
22.47971094
  0
VERTEX
  8
0
 62
7
 10
13.76630078
 20
22.52470410
  0
VERTEX
  8
0
 62
7
 10
13.78418750
 20
22.57068750
  0
VERTEX
  8
0
 62
7
 10
13.79984766
 20
22.61758496
  0
VERTEX
  8
0
 62
7
 10
13.81323438
 20
22.66532031
  0
VERTEX
  8
0
 62
7
 10
13.82430078
 20
22.71381738
  0
VERTEX
  8
0
 62
7
 10
13.83300000
 20
22.76300000
  0
VERTEX
  8
0
 62
7
 10
13.88320313
 20
22.78379688
  0
VERTEX
  8
0
 62
7
 10
13.93162500
 20
22.80862500
  0
VERTEX
  8
0
 62
7
 10
13.97798438
 20
22.83739063
  0
VERTEX
  8
0
 62
7
 10
14.02200000
 20
22.87000000
  0
VERTEX
  8
0
 62
7
 10
14.05479688
 20
22.89809375
  0
VERTEX
  8
0
 62
7
 10
14.08562500
 20
22.92825000
  0
VERTEX
  8
0
 62
7
 10
14.11439063
 20
22.96028125
  0
VERTEX
  8
0
 62
7
 10
14.14100000
 20
22.99400000
  0
VERTEX
  8
0
 62
7
 10
14.13406250
 20
23.02809375
  0
VERTEX
  8
0
 62
7
 10
14.12375000
 20
23.06125000
  0
VERTEX
  8
0
 62
7
 10
14.11006250
 20
23.09328125
  0
VERTEX
  8
0
 62
7
 10
14.09300000
 20
23.12400000
  0
VERTEX
  8
0
 62
7
 10
14.07109375
 20
23.15490625
  0
VERTEX
  8
0
 62
7
 10
14.04600000
 20
23.18300000
  0
VERTEX
  8
0
 62
7
 10
14.01790625
 20
23.20809375
  0
VERTEX
  8
0
 62
7
 10
13.98700000
 20
23.23000000
  0
VERTEX
  8
0
 62
7
 10
14.02125000
 20
23.23937500
  0
VERTEX
  8
0
 62
7
 10
14.05625000
 20
23.24650000
  0
VERTEX
  8
0
 62
7
 10
14.09162500
 20
23.25137500
  0
VERTEX
  8
0
 62
7
 10
14.12700000
 20
23.25400000
  0
SEQEND
  0
POLYLINE
  8
0
 62
7
 66
1
 70
1
  0
VERTEX
  8
0
 62
7
 10
13.75500000
 20
23.15600000
  0
VERTEX
  8
0
 62
7
 10
13.72193433
 20
23.14467261
  0
VERTEX
  8
0
 62
7
 10
13.68955273
 20
23.13170898
  0
VERTEX
  8
0
 62
7
 10
13.65795337
 20
23.11713696
  0
VERTEX
  8
0
 62
7
 10
13.62723438
 20
23.10098438
  0
VERTEX
  8
0
 62
7
 10
13.59749390
 20
23.08327905
  0
VERTEX
  8
0
 62
7
 10
13.56883008
 20
23.06404883
  0
VERTEX
  8
0
 62
7
 10
13.54134106
 20
23.04332153
  0
VERTEX
  8
0
 62
7
 10
13.51512500
 20
23.02112500
  0
VERTEX
  8
0
 62
7
 10
13.49028003
 20
22.99748706
  0
VERTEX
  8
0
 62
7
 10
13.46690430
 20
22.97243555
  0
VERTEX
  8
0
 62
7
 10
13.44509595
 20
22.94599829
  0
VERTEX
  8
0
 62
7
 10
13.42495313
 20
22.91820313
  0
VERTEX
  8
0
 62
7
 10
13.40657397
 20
22.88907788
  0
VERTEX
  8
0
 62
7
 10
13.39005664
 20
22.85865039
  0
VERTEX
  8
0
 62
7
 10
13.37549927
 20
22.82694849
  0
VERTEX
  8
0
 62
7
 10
13.36300000
 20
22.79400000
  0
VERTEX
  8
0
 62
7
 10
13.34945508
 20
22.75272070
  0
VERTEX
  8
0
 62
7
 10
13.33751563
 20
22.71295313
  0
VERTEX
  8
0
 62
7
 10
13.32747461
 20
22.67367773
  0
VERTEX
  8
0
 62
7
 10
13.31962500
 20
22.63387500
  0
VERTEX
  8
0
 62
7
 10
13.31425977
 20
22.59252539
  0
VERTEX
  8
0
 62
7
 10
13.31167188
 20
22.54860938
  0
VERTEX
  8
0
 62
7
 10
13.31215430
 20
22.50110742
  0
VERTEX
  8
0
 62
7
 10
13.31600000
 20
22.44900000
  0
VERTEX
  8
0
 62
7
 10
13.29800000
 20
22.44100000
  0
VERTEX
  8
0
 62
7
 10
13.27995117
 20
22.48689063
  0
VERTEX
  8
0
 62
7
 10
13.26817188
 20
22.53418750
  0
VERTEX
  8
0
 62
7
 10
13.26208789
 20
22.58232813
  0
VERTEX
  8
0
 62
7
 10
13.26112500
 20
22.63075000
  0
VERTEX
  8
0
 62
7
 10
13.26470898
 20
22.67889063
  0
VERTEX
  8
0
 62
7
 10
13.27226563
 20
22.72618750
  0
VERTEX
  8
0
 62
7
 10
13.28322070
 20
22.77207813
  0
VERTEX
  8
0
 62
7
 10
13.29700000
 20
22.81600000
  0
VERTEX
  8
0
 62
7
 10
13.32078125
 20
22.87689063
  0
VERTEX
  8
0
 62
7
 10
13.35000000
 20
22.93487500
  0
VERTEX
  8
0
 62
7
 10
13.38446875
 20
22.98967188
  0
VERTEX
  8
0
 62
7
 10
13.42400000
 20
23.04100000
  0
VERTEX
  8
0
 62
7
 10
13.11100000
 20
22.93100000
  0
VERTEX
  8
0
 62
7
 10
12.99800000
 20
22.88900000
  0
VERTEX
  8
0
 62
7
 10
12.89165625
 20
22.85006250
  0
VERTEX
  8
0
 62
7
 10
12.78175000
 20
22.81600000
  0
VERTEX
  8
0
 62
7
 10
12.66921875
 20
22.78718750
  0
VERTEX
  8
0
 62
7
 10
12.55500000
 20
22.76400000
  0
VERTEX
  8
0
 62
7
 10
12.55200000
 20
22.78600000
  0
VERTEX
  8
0
 62
7
 10
12.65926563
 20
22.83432813
  0
VERTEX
  8
0
 62
7
 10
12.76362500
 20
22.87562500
  0
VERTEX
  8
0
 62
7
 10
12.86742188
 20
22.91410938
  0
VERTEX
  8
0
 62
7
 10
12.97300000
 20
22.95400000
  0
VERTEX
  8
0
 62
7
 10
13.08700000
 20
22.99700000
  0
VERTEX
  8
0
 62
7
 10
13.39800000
 20
23.10600000
  0
VERTEX
  8
0
 62
7
 10
13.34181250
 20
23.12210938
  0
VERTEX
  8
0
 62
7
 10
13.28750000
 20
23.14337500
  0
VERTEX
  8
0
 62
7
 10
13.23543750
 20
23.16970313
  0
VERTEX
  8
0
 62
7
 10
13.18600000
 20
23.20100000
  0
VERTEX
  8
0
 62
7
 10
13.14500000
 20
23.23222070
  0
VERTEX
  8
0
 62
7
 10
13.10681250
 20
23.26645313
  0
VERTEX
  8
0
 62
7
 10
13.07153125
 20
23.30342773
  0
VERTEX
  8
0
 62
7
 10
13.03925000
 20
23.34287500
  0
VERTEX
  8
0
 62
7
 10
13.01006250
 20
23.38452539
  0
VERTEX
  8
0
 62
7
 10
12.98406250
 20
23.42810938
  0
VERTEX
  8
0
 62
7
 10
12.96134375
 20
23.47335742
  0
VERTEX
  8
0
 62
7
 10
12.94200000
 20
23.52000000
  0
VERTEX
  8
0
 62
7
 10
12.96400000
 20
23.53200000
  0
VERTEX
  8
0
 62
7
 10
13.02631250
 20
23.44715625
  0
VERTEX
  8
0
 62
7
 10
13.08900000
 20
23.37525000
  0
VERTEX
  8
0
 62
7
 10
13.15468750
 20
23.31346875
  0
VERTEX
  8
0
 62
7
 10
13.22600000
 20
23.25900000
  0
VERTEX
  8
0
 62
7
 10
13.25457837
 20
23.24083057
  0
VERTEX
  8
0
 62
7
 10
13.28400195
 20
23.22525391
  0
VERTEX
  8
0
 62
7
 10
13.31417847
 20
23.21216748
  0
VERTEX
  8
0
 62
7
 10
13.34501563
 20
23.20146875
  0
VERTEX
  8
0
 62
7
 10
13.37642114
 20
23.19305518
  0
VERTEX
  8
0
 62
7
 10
13.40830273
 20
23.18682422
  0
VERTEX
  8
0
 62
7
 10
13.44056812
 20
23.18267334
  0
VERTEX
  8
0
 62
7
 10
13.47312500
 20
23.18050000
  0
VERTEX
  8
0
 62
7
 10
13.50588110
 20
23.18020166
  0
VERTEX
  8
0
 62
7
 10
13.53874414
 20
23.18167578
  0
VERTEX
  8
0
 62
7
 10
13.57162183
 20
23.18481982
  0
VERTEX
  8
0
 62
7
 10
13.60442188
 20
23.18953125
  0
VERTEX
  8
0
 62
7
 10
13.63705200
 20
23.19570752
  0
VERTEX
  8
0
 62
7
 10
13.66941992
 20
23.20324609
  0
VERTEX
  8
0
 62
7
 10
13.70143335
 20
23.21204443
  0
VERTEX
  8
0
 62
7
 10
13.73300000
 20
23.22200000
  0
VERTEX
  8
0
 62
7
 10
13.74662500
 20
23.22376563
  0
VERTEX
  8
0
 62
7
 10
13.75950000
 20
23.22037500
  0
VERTEX
  8
0
 62
7
 10
13.77012500
 20
23.21229688
  0
VERTEX
  8
0
 62
7
 10
13.77700000
 20
23.20000000
  0
VERTEX
  8
0
 62
7
 10
13.77876563
 20
23.18637500
  0
VERTEX
  8
0
 62
7
 10
13.77537500
 20
23.17350000
  0
VERTEX
  8
0
 62
7
 10
13.76729688
 20
23.16287500
  0
VERTEX
  8
0
 62
7
 10
13.75500000
 20
23.15600000
  0
SEQEND
  0
POLYLINE
  8
0
 62
7
 66
1
 70
1
  0
VERTEX
  8
0
 62
7
 10
15.45600000
 20
22.46600000
  0
VERTEX
  8
0
 62
7
 10
15.41975781
 20
22.48485352
  0
VERTEX
  8
0
 62
7
 10
15.38300000
 20
22.50282813
  0
VERTEX
  8
0
 62
7
 10
15.34567969
 20
22.51941992
  0
VERTEX
  8
0
 62
7
 10
15.30775000
 20
22.53412500
  0
VERTEX
  8
0
 62
7
 10
15.26916406
 20
22.54643945
  0
VERTEX
  8
0
 62
7
 10
15.22987500
 20
22.55585938
  0
VERTEX
  8
0
 62
7
 10
15.18983594
 20
22.56188086
  0
VERTEX
  8
0
 62
7
 10
15.14900000
 20
22.56400000
  0
VERTEX
  8
0
 62
7
 10
15.11467188
 20
22.56287500
  0
VERTEX
  8
0
 62
7
 10
15.08062500
 20
22.55950000
  0
VERTEX
  8
0
 62
7
 10
15.04676563
 20
22.55387500
  0
VERTEX
  8
0
 62
7
 10
15.01300000
 20
22.54600000
  0
VERTEX
  8
0
 62
7
 10
14.97124023
 20
22.53401953
  0
VERTEX
  8
0
 62
7
 10
14.93167188
 20
22.52028125
  0
VERTEX
  8
0
 62
7
 10
14.89348633
 20
22.50433984
  0
VERTEX
  8
0
 62
7
 10
14.85587500
 20
22.48575000
  0
VERTEX
  8
0
 62
7
 10
14.81802930
 20
22.46406641
  0
VERTEX
  8
0
 62
7
 10
14.77914063
 20
22.43884375
  0
VERTEX
  8
0
 62
7
 10
14.73840039
 20
22.40963672
  0
VERTEX
  8
0
 62
7
 10
14.69500000
 20
22.37600000
  0
VERTEX
  8
0
 62
7
 10
14.67300000
 20
22.38600000
  0
VERTEX
  8
0
 62
7
 10
14.70225781
 20
22.42741992
  0
VERTEX
  8
0
 62
7
 10
14.73568750
 20
22.46535938
  0
VERTEX
  8
0
 62
7
 10
14.77277344
 20
22.49971289
  0
VERTEX
  8
0
 62
7
 10
14.81300000
 20
22.53037500
  0
VERTEX
  8
0
 62
7
 10
14.85585156
 20
22.55724023
  0
VERTEX
  8
0
 62
7
 10
14.90081250
 20
22.58020313
  0
VERTEX
  8
0
 62
7
 10
14.94736719
 20
22.59915820
  0
VERTEX
  8
0
 62
7
 10
14.99500000
 20
22.61400000
  0
VERTEX
  8
0
 62
7
 10
15.03326563
 20
22.62260938
  0
VERTEX
  8
0
 62
7
 10
15.07162500
 20
22.62887500
  0
VERTEX
  8
0
 62
7
 10
15.11017188
 20
22.63270313
  0
VERTEX
  8
0
 62
7
 10
15.14900000
 20
22.63400000
  0
VERTEX
  8
0
 62
7
 10
15.17000000
 20
22.63400000
  0
VERTEX
  8
0
 62
7
 10
15.06750000
 20
22.70700000
  0
VERTEX
  8
0
 62
7
 10
14.96800000
 20
22.78300000
  0
VERTEX
  8
0
 62
7
 10
14.83917188
 20
22.88278125
  0
VERTEX
  8
0
 62
7
 10
14.71887500
 20
22.97900000
  0
VERTEX
  8
0
 62
7
 10
14.60364063
 20
23.07521875
  0
VERTEX
  8
0
 62
7
 10
14.49000000
 20
23.17500000
  0
VERTEX
  8
0
 62
7
 10
14.50700000
 20
23.19600000
  0
VERTEX
  8
0
 62
7
 10
14.64212500
 20
23.10548438
  0
VERTEX
  8
0
 62
7
 10
14.77125000
 20
23.01787500
  0
VERTEX
  8
0
 62
7
 10
14.89400000
 20
22.93007813
  0
VERTEX
  8
0
 62
7
 10
15.01000000
 20
22.83900000
  0
VERTEX
  8
0
 62
7
 10
15.13275000
 20
22.74612500
  0
VERTEX
  8
0
 62
7
 10
15.25700000
 20
22.66000000
  0
VERTEX
  8
0
 62
7
 10
15.23800000
 20
22.70300000
  0
VERTEX
  8
0
 62
7
 10
15.22051563
 20
22.75470313
  0
VERTEX
  8
0
 62
7
 10
15.20837500
 20
22.80762500
  0
VERTEX
  8
0
 62
7
 10
15.20129688
 20
22.86148438
  0
VERTEX
  8
0
 62
7
 10
15.19900000
 20
22.91600000
  0
VERTEX
  8
0
 62
7
 10
15.20058203
 20
22.95862891
  0
VERTEX
  8
0
 62
7
 10
15.20528125
 20
23.00090625
  0
VERTEX
  8
0
 62
7
 10
15.21302734
 20
23.04266797
  0
VERTEX
  8
0
 62
7
 10
15.22375000
 20
23.08375000
  0
VERTEX
  8
0
 62
7
 10
15.23737891
 20
23.12398828
  0
VERTEX
  8
0
 62
7
 10
15.25384375
 20
23.16321875
  0
VERTEX
  8
0
 62
7
 10
15.27307422
 20
23.20127734
  0
VERTEX
  8
0
 62
7
 10
15.29500000
 20
23.23800000
  0
VERTEX
  8
0
 62
7
 10
15.31400000
 20
23.22400000
  0
VERTEX
  8
0
 62
7
 10
15.29009375
 20
23.11625000
  0
VERTEX
  8
0
 62
7
 10
15.27650000
 20
23.04000000
  0
VERTEX
  8
0
 62
7
 10
15.27040625
 20
22.97875000
  0
VERTEX
  8
0
 62
7
 10
15.26900000
 20
22.91600000
  0
VERTEX
  8
0
 62
7
 10
15.27109375
 20
22.86765625
  0
VERTEX
  8
0
 62
7
 10
15.27750000
 20
22.82025000
  0
VERTEX
  8
0
 62
7
 10
15.28840625
 20
22.77396875
  0
VERTEX
  8
0
 62
7
 10
15.30400000
 20
22.72900000
  0
VERTEX
  8
0
 62
7
 10
15.31855078
 20
22.69718945
  0
VERTEX
  8
0
 62
7
 10
15.33584375
 20
22.66707813
  0
VERTEX
  8
0
 62
7
 10
15.35571484
 20
22.63877148
  0
VERTEX
  8
0
 62
7
 10
15.37800000
 20
22.61237500
  0
VERTEX
  8
0
 62
7
 10
15.40253516
 20
22.58799414
  0
VERTEX
  8
0
 62
7
 10
15.42915625
 20
22.56573438
  0
VERTEX
  8
0
 62
7
 10
15.45769922
 20
22.54570117
  0
VERTEX
  8
0
 62
7
 10
15.48800000
 20
22.52800000
  0
VERTEX
  8
0
 62
7
 10
15.49878125
 20
22.51925000
  0
VERTEX
  8
0
 62
7
 10
15.50525000
 20
22.50750000
  0
VERTEX
  8
0
 62
7
 10
15.50684375
 20
22.49425000
  0
VERTEX
  8
0
 62
7
 10
15.50300000
 20
22.48100000
  0
VERTEX
  8
0
 62
7
 10
15.49425000
 20
22.47021875
  0
VERTEX
  8
0
 62
7
 10
15.48250000
 20
22.46375000
  0
VERTEX
  8
0
 62
7
 10
15.46925000
 20
22.46215625
  0
VERTEX
  8
0
 62
7
 10
15.45600000
 20
22.46600000
  0
SEQEND
  0
POLYLINE
  8
0
 62
7
 66
1
 70
1
  0
VERTEX
  8
0
 62
7
 10
10.00000000
 20
24.07600000
  0
VERTEX
  8
0
 62
7
 10
10.04169727
 20
24.05665234
  0
VERTEX
  8
0
 62
7
 10
10.08251563
 20
24.03296875
  0
VERTEX
  8
0
 62
7
 10
10.12204492
 20
24.00586328
  0
VERTEX
  8
0
 62
7
 10
10.15987500
 20
23.97625000
  0
VERTEX
  8
0
 62
7
 10
10.19559570
 20
23.94504297
  0
VERTEX
  8
0
 62
7
 10
10.22879688
 20
23.91315625
  0
VERTEX
  8
0
 62
7
 10
10.25906836
 20
23.88150391
  0
VERTEX
  8
0
 62
7
 10
10.28600000
 20
23.85100000
  0
VERTEX
  8
0
 62
7
 10
10.33332813
 20
23.79146875
  0
VERTEX
  8
0
 62
7
 10
10.37587500
 20
23.72950000
  0
VERTEX
  8
0
 62
7
 10
10.41298438
 20
23.66453125
  0
VERTEX
  8
0
 62
7
 10
10.44400000
 20
23.59600000
  0
VERTEX
  8
0
 62
7
 10
10.45869727
 20
23.55406274
  0
VERTEX
  8
0
 62
7
 10
10.47167188
 20
23.50992383
  0
VERTEX
  8
0
 62
7
 10
10.48293555
 20
23.46403003
  0
VERTEX
  8
0
 62
7
 10
10.49250000
 20
23.41682813
  0
VERTEX
  8
0
 62
7
 10
10.50037695
 20
23.36876489
  0
VERTEX
  8
0
 62
7
 10
10.50657813
 20
23.32028711
  0
VERTEX
  8
0
 62
7
 10
10.51111523
 20
23.27184155
  0
VERTEX
  8
0
 62
7
 10
10.51400000
 20
23.22387500
  0
VERTEX
  8
0
 62
7
 10
10.51524414
 20
23.17683423
  0
VERTEX
  8
0
 62
7
 10
10.51485938
 20
23.13116602
  0
VERTEX
  8
0
 62
7
 10
10.51285742
 20
23.08731714
  0
VERTEX
  8
0
 62
7
 10
10.50925000
 20
23.04573438
  0
VERTEX
  8
0
 62
7
 10
10.50404883
 20
23.00686450
  0
VERTEX
  8
0
 62
7
 10
10.49726563
 20
22.97115430
  0
VERTEX
  8
0
 62
7
 10
10.48891211
 20
22.93905054
  0
VERTEX
  8
0
 62
7
 10
10.47900000
 20
22.91100000
  0
VERTEX
  8
0
 62
7
 10
10.46394922
 20
22.87997656
  0
VERTEX
  8
0
 62
7
 10
10.44596875
 20
22.85275000
  0
VERTEX
  8
0
 62
7
 10
10.42531641
 20
22.82908594
  0
VERTEX
  8
0
 62
7
 10
10.40225000
 20
22.80875000
  0
VERTEX
  8
0
 62
7
 10
10.37702734
 20
22.79150781
  0
VERTEX
  8
0
 62
7
 10
10.34990625
 20
22.77712500
  0
VERTEX
  8
0
 62
7
 10
10.32114453
 20
22.76536719
  0
VERTEX
  8
0
 62
7
 10
10.29100000
 20
22.75600000
  0
VERTEX
  8
0
 62
7
 10
10.29100000
 20
22.62400000
  0
VERTEX
  8
0
 62
7
 10
10.30652051
 20
22.62320825
  0
VERTEX
  8
0
 62
7
 10
10.32258594
 20
22.62188477
  0
VERTEX
  8
0
 62
7
 10
10.33901465
 20
22.61991968
  0
VERTEX
  8
0
 62
7
 10
10.35562500
 20
22.61720313
  0
VERTEX
  8
0
 62
7
 10
10.37223535
 20
22.61362524
  0
VERTEX
  8
0
 62
7
 10
10.38866406
 20
22.60907617
  0
VERTEX
  8
0
 62
7
 10
10.40472949
 20
22.60344604
  0
VERTEX
  8
0
 62
7
 10
10.42025000
 20
22.59662500
  0
VERTEX
  8
0
 62
7
 10
10.43504395
 20
22.58850317
  0
VERTEX
  8
0
 62
7
 10
10.44892969
 20
22.57897070
  0
VERTEX
  8
0
 62
7
 10
10.46172559
 20
22.56791772
  0
VERTEX
  8
0
 62
7
 10
10.47325000
 20
22.55523438
  0
VERTEX
  8
0
 62
7
 10
10.48332129
 20
22.54081079
  0
VERTEX
  8
0
 62
7
 10
10.49175781
 20
22.52453711
  0
VERTEX
  8
0
 62
7
 10
10.49837793
 20
22.50630347
  0
VERTEX
  8
0
 62
7
 10
10.50300000
 20
22.48600000
  0
VERTEX
  8
0
 62
7
 10
10.50300000
 20
21.73000000
  0
VERTEX
  8
0
 62
7
 10
10.73200000
 20
21.73000000
  0
VERTEX
  8
0
 62
7
 10
10.73200000
 20
22.48800000
  0
VERTEX
  8
0
 62
7
 10
10.73662207
 20
22.50830347
  0
VERTEX
  8
0
 62
7
 10
10.74324219
 20
22.52653711
  0
VERTEX
  8
0
 62
7
 10
10.75167871
 20
22.54281079
  0
VERTEX
  8
0
 62
7
 10
10.76175000
 20
22.55723438
  0
VERTEX
  8
0
 62
7
 10
10.77327441
 20
22.56991772
  0
VERTEX
  8
0
 62
7
 10
10.78607031
 20
22.58097070
  0
VERTEX
  8
0
 62
7
 10
10.79995605
 20
22.59050317
  0
VERTEX
  8
0
 62
7
 10
10.81475000
 20
22.59862500
  0
VERTEX
  8
0
 62
7
 10
10.83027051
 20
22.60544604
  0
VERTEX
  8
0
 62
7
 10
10.84633594
 20
22.61107617
  0
VERTEX
  8
0
 62
7
 10
10.86276465
 20
22.61562524
  0
VERTEX
  8
0
 62
7
 10
10.87937500
 20
22.61920313
  0
VERTEX
  8
0
 62
7
 10
10.89598535
 20
22.62191968
  0
VERTEX
  8
0
 62
7
 10
10.91241406
 20
22.62388477
  0
VERTEX
  8
0
 62
7
 10
10.92847949
 20
22.62520825
  0
VERTEX
  8
0
 62
7
 10
10.94400000
 20
22.62600000
  0
VERTEX
  8
0
 62
7
 10
10.94400000
 20
22.75800000
  0
VERTEX
  8
0
 62
7
 10
10.91389648
 20
22.76781836
  0
VERTEX
  8
0
 62
7
 10
10.88523438
 20
22.78067188
  0
VERTEX
  8
0
 62
7
 10
10.85823633
 20
22.79640820
  0
VERTEX
  8
0
 62
7
 10
10.83312500
 20
22.81487500
  0
VERTEX
  8
0
 62
7
 10
10.81012305
 20
22.83591992
  0
VERTEX
  8
0
 62
7
 10
10.78945313
 20
22.85939063
  0
VERTEX
  8
0
 62
7
 10
10.77133789
 20
22.88513477
  0
VERTEX
  8
0
 62
7
 10
10.75600000
 20
22.91300000
  0
VERTEX
  8
0
 62
7
 10
10.74325415
 20
22.94305884
  0
VERTEX
  8
0
 62
7
 10
10.73339258
 20
22.97356445
  0
VERTEX
  8
0
 62
7
 10
10.72622925
 20
23.00444800
  0
VERTEX
  8
0
 62
7
 10
10.72157813
 20
23.03564063
  0
VERTEX
  8
0
 62
7
 10
10.71925317
 20
23.06707349
  0
VERTEX
  8
0
 62
7
 10
10.71906836
 20
23.09867773
  0
VERTEX
  8
0
 62
7
 10
10.72083765
 20
23.13038452
  0
VERTEX
  8
0
 62
7
 10
10.72437500
 20
23.16212500
  0
VERTEX
  8
0
 62
7
 10
10.72949438
 20
23.19383032
  0
VERTEX
  8
0
 62
7
 10
10.73600977
 20
23.22543164
  0
VERTEX
  8
0
 62
7
 10
10.74373511
 20
23.25686011
  0
VERTEX
  8
0
 62
7
 10
10.75248438
 20
23.28804688
  0
VERTEX
  8
0
 62
7
 10
10.76207153
 20
23.31892310
  0
VERTEX
  8
0
 62
7
 10
10.77231055
 20
23.34941992
  0
VERTEX
  8
0
 62
7
 10
10.78301538
 20
23.37946851
  0
VERTEX
  8
0
 62
7
 10
10.79400000
 20
23.40900000
  0
VERTEX
  8
0
 62
7
 10
10.82459375
 20
23.47795313
  0
VERTEX
  8
0
 62
7
 10
10.86175000
 20
23.54287500
  0
VERTEX
  8
0
 62
7
 10
10.90453125
 20
23.60460938
  0
VERTEX
  8
0
 62
7
 10
10.95200000
 20
23.66400000
  0
VERTEX
  8
0
 62
7
 10
10.97999805
 20
23.69511914
  0
VERTEX
  8
0
 62
7
 10
11.01285938
 20
23.72826563
  0
VERTEX
  8
0
 62
7
 10
11.04925977
 20
23.76199805
  0
VERTEX
  8
0
 62
7
 10
11.08787500
 20
23.79487500
  0
VERTEX
  8
0
 62
7
 10
11.12738086
 20
23.82545508
  0
VERTEX
  8
0
 62
7
 10
11.16645313
 20
23.85229688
  0
VERTEX
  8
0
 62
7
 10
11.20376758
 20
23.87395898
  0
VERTEX
  8
0
 62
7
 10
11.23800000
 20
23.88900000
  0
VERTEX
  8
0
 62
7
 10
11.27969727
 20
23.86965234
  0
VERTEX
  8
0
 62
7
 10
11.32051563
 20
23.84596875
  0
VERTEX
  8
0
 62
7
 10
11.36004492
 20
23.81886328
  0
VERTEX
  8
0
 62
7
 10
11.39787500
 20
23.78925000
  0
VERTEX
  8
0
 62
7
 10
11.43359570
 20
23.75804297
  0
VERTEX
  8
0
 62
7
 10
11.46679688
 20
23.72615625
  0
VERTEX
  8
0
 62
7
 10
11.49706836
 20
23.69450391
  0
VERTEX
  8
0
 62
7
 10
11.52400000
 20
23.66400000
  0
VERTEX
  8
0
 62
7
 10
11.57146875
 20
23.60460938
  0
VERTEX
  8
0
 62
7
 10
11.61425000
 20
23.54287500
  0
VERTEX
  8
0
 62
7
 10
11.65140625
 20
23.47795313
  0
VERTEX
  8
0
 62
7
 10
11.68200000
 20
23.40900000
  0
VERTEX
  8
0
 62
7
 10
11.69298462
 20
23.37946851
  0
VERTEX
  8
0
 62
7
 10
11.70368945
 20
23.34941992
  0
VERTEX
  8
0
 62
7
 10
11.71392847
 20
23.31892310
  0
VERTEX
  8
0
 62
7
 10
11.72351563
 20
23.28804688
  0
VERTEX
  8
0
 62
7
 10
11.73226489
 20
23.25686011
  0
VERTEX
  8
0
 62
7
 10
11.73999023
 20
23.22543164
  0
VERTEX
  8
0
 62
7
 10
11.74650562
 20
23.19383032
  0
VERTEX
  8
0
 62
7
 10
11.75162500
 20
23.16212500
  0
VERTEX
  8
0
 62
7
 10
11.75516235
 20
23.13038452
  0
VERTEX
  8
0
 62
7
 10
11.75693164
 20
23.09867773
  0
VERTEX
  8
0
 62
7
 10
11.75674683
 20
23.06707349
  0
VERTEX
  8
0
 62
7
 10
11.75442188
 20
23.03564063
  0
VERTEX
  8
0
 62
7
 10
11.74977075
 20
23.00444800
  0
VERTEX
  8
0
 62
7
 10
11.74260742
 20
22.97356445
  0
VERTEX
  8
0
 62
7
 10
11.73274585
 20
22.94305884
  0
VERTEX
  8
0
 62
7
 10
11.72000000
 20
22.91300000
  0
VERTEX
  8
0
 62
7
 10
11.70466211
 20
22.88513477
  0
VERTEX
  8
0
 62
7
 10
11.68654688
 20
22.85939063
  0
VERTEX
  8
0
 62
7
 10
11.66587695
 20
22.83591992
  0
VERTEX
  8
0
 62
7
 10
11.64287500
 20
22.81487500
  0
VERTEX
  8
0
 62
7
 10
11.61776367
 20
22.79640820
  0
VERTEX
  8
0
 62
7
 10
11.59076563
 20
22.78067188
  0
VERTEX
  8
0
 62
7
 10
11.56210352
 20
22.76781836
  0
VERTEX
  8
0
 62
7
 10
11.53200000
 20
22.75800000
  0
VERTEX
  8
0
 62
7
 10
11.53200000
 20
22.62600000
  0
VERTEX
  8
0
 62
7
 10
11.54752051
 20
22.62520825
  0
VERTEX
  8
0
 62
7
 10
11.56358594
 20
22.62388477
  0
VERTEX
  8
0
 62
7
 10
11.58001465
 20
22.62191968
  0
VERTEX
  8
0
 62
7
 10
11.59662500
 20
22.61920313
  0
VERTEX
  8
0
 62
7
 10
11.61323535
 20
22.61562524
  0
VERTEX
  8
0
 62
7
 10
11.62966406
 20
22.61107617
  0
VERTEX
  8
0
 62
7
 10
11.64572949
 20
22.60544604
  0
VERTEX
  8
0
 62
7
 10
11.66125000
 20
22.59862500
  0
VERTEX
  8
0
 62
7
 10
11.67604395
 20
22.59050317
  0
VERTEX
  8
0
 62
7
 10
11.68992969
 20
22.58097070
  0
VERTEX
  8
0
 62
7
 10
11.70272559
 20
22.56991772
  0
VERTEX
  8
0
 62
7
 10
11.71425000
 20
22.55723438
  0
VERTEX
  8
0
 62
7
 10
11.72432129
 20
22.54281079
  0
VERTEX
  8
0
 62
7
 10
11.73275781
 20
22.52653711
  0
VERTEX
  8
0
 62
7
 10
11.73937793
 20
22.50830347
  0
VERTEX
  8
0
 62
7
 10
11.74400000
 20
22.48800000
  0
VERTEX
  8
0
 62
7
 10
11.74400000
 20
21.34500000
  0
VERTEX
  8
0
 62
7
 10
11.97300000
 20
21.34500000
  0
VERTEX
  8
0
 62
7
 10
11.97300000
 20
22.99400000
  0
VERTEX
  8
0
 62
7
 10
11.96973047
 20
23.08975586
  0
VERTEX
  8
0
 62
7
 10
11.95996875
 20
23.18479688
  0
VERTEX
  8
0
 62
7
 10
11.94378516
 20
23.27878320
  0
VERTEX
  8
0
 62
7
 10
11.92125000
 20
23.37137500
  0
VERTEX
  8
0
 62
7
 10
11.89243359
 20
23.46223242
  0
VERTEX
  8
0
 62
7
 10
11.85740625
 20
23.55101563
  0
VERTEX
  8
0
 62
7
 10
11.81623828
 20
23.63738477
  0
VERTEX
  8
0
 62
7
 10
11.76900000
 20
23.72100000
  0
VERTEX
  8
0
 62
7
 10
11.72030273
 20
23.79144727
  0
VERTEX
  8
0
 62
7
 10
11.66254688
 20
23.85970313
  0
VERTEX
  8
0
 62
7
 10
11.59773633
 20
23.92488867
  0
VERTEX
  8
0
 62
7
 10
11.52787500
 20
23.98612500
  0
VERTEX
  8
0
 62
7
 10
11.45496680
 20
24.04253320
  0
VERTEX
  8
0
 62
7
 10
11.38101563
 20
24.09323438
  0
VERTEX
  8
0
 62
7
 10
11.30802539
 20
24.13734961
  0
VERTEX
  8
0
 62
7
 10
11.23800000
 20
24.17400000
  0
VERTEX
  8
0
 62
7
 10
11.16251953
 20
24.13734961
  0
VERTEX
  8
0
 62
7
 10
11.08696875
 20
24.09323438
  0
VERTEX
  8
0
 62
7
 10
11.01268359
 20
24.04253320
  0
VERTEX
  8
0
 62
7
 10
10.94100000
 20
23.98612500
  0
VERTEX
  8
0
 62
7
 10
10.87325391
 20
23.92488867
  0
VERTEX
  8
0
 62
7
 10
10.81078125
 20
23.85970313
  0
VERTEX
  8
0
 62
7
 10
10.75491797
 20
23.79144727
  0
VERTEX
  8
0
 62
7
 10
10.70700000
 20
23.72100000
  0
VERTEX
  8
0
 62
7
 10
10.67687500
 20
23.67125000
  0
VERTEX
  8
0
 62
7
 10
10.64900000
 20
23.62000000
  0
VERTEX
  8
0
 62
7
 10
10.63626953
 20
23.66079883
  0
VERTEX
  8
0
 62
7
 10
10.62159375
 20
23.70057813
  0
VERTEX
  8
0
 62
7
 10
10.60537109
 20
23.73916211
  0
VERTEX
  8
0
 62
7
 10
10.58800000
 20
23.77637500
  0
VERTEX
  8
0
 62
7
 10
10.56987891
 20
23.81204102
  0
VERTEX
  8
0
 62
7
 10
10.55140625
 20
23.84598438
  0
VERTEX
  8
0
 62
7
 10
10.53298047
 20
23.87802930
  0
VERTEX
  8
0
 62
7
 10
10.51500000
 20
23.90800000
  0
VERTEX
  8
0
 62
7
 10
10.46699023
 20
23.97844727
  0
VERTEX
  8
0
 62
7
 10
10.41104688
 20
24.04670313
  0
VERTEX
  8
0
 62
7
 10
10.34879883
 20
24.11188867
  0
VERTEX
  8
0
 62
7
 10
10.28187500
 20
24.17312500
  0
VERTEX
  8
0
 62
7
 10
10.21190430
 20
24.22953320
  0
VERTEX
  8
0
 62
7
 10
10.14051563
 20
24.28023438
  0
VERTEX
  8
0
 62
7
 10
10.06933789
 20
24.32434961
  0
VERTEX
  8
0
 62
7
 10
10.00000000
 20
24.36100000
  0
VERTEX
  8
0
 62
7
 10
9.93066211
 20
24.32434961
  0
VERTEX
  8
0
 62
7
 10
9.85948437
 20
24.28023438
  0
VERTEX
  8
0
 62
7
 10
9.78809570
 20
24.22953320
  0
VERTEX
  8
0
 62
7
 10
9.71812500
 20
24.17312500
  0
VERTEX
  8
0
 62
7
 10
9.65120117
 20
24.11188867
  0
VERTEX
  8
0
 62
7
 10
9.58895313
 20
24.04670313
  0
VERTEX
  8
0
 62
7
 10
9.53300977
 20
23.97844727
  0
VERTEX
  8
0
 62
7
 10
9.48500000
 20
23.90800000
  0
VERTEX
  8
0
 62
7
 10
9.46701953
 20
23.87802930
  0
VERTEX
  8
0
 62
7
 10
9.44859375
 20
23.84598438
  0
VERTEX
  8
0
 62
7
 10
9.43012109
 20
23.81204102
  0
VERTEX
  8
0
 62
7
 10
9.41200000
 20
23.77637500
  0
VERTEX
  8
0
 62
7
 10
9.39462891
 20
23.73916211
  0
VERTEX
  8
0
 62
7
 10
9.37840625
 20
23.70057813
  0
VERTEX
  8
0
 62
7
 10
9.36373047
 20
23.66079883
  0
VERTEX
  8
0
 62
7
 10
9.35100000
 20
23.62000000
  0
VERTEX
  8
0
 62
7
 10
9.32312500
 20
23.67125000
  0
VERTEX
  8
0
 62
7
 10
9.29300000
 20
23.72100000
  0
VERTEX
  8
0
 62
7
 10
9.24508203
 20
23.79144727
  0
VERTEX
  8
0
 62
7
 10
9.18921875
 20
23.85970313
  0
VERTEX
  8
0
 62
7
 10
9.12674609
 20
23.92488867
  0
VERTEX
  8
0
 62
7
 10
9.05900000
 20
23.98612500
  0
VERTEX
  8
0
 62
7
 10
8.98731641
 20
24.04253320
  0
VERTEX
  8
0
 62
7
 10
8.91303125
 20
24.09323438
  0
VERTEX
  8
0
 62
7
 10
8.83748047
 20
24.13734961
  0
VERTEX
  8
0
 62
7
 10
8.76200000
 20
24.17400000
  0
VERTEX
  8
0
 62
7
 10
8.69197461
 20
24.13734961
  0
VERTEX
  8
0
 62
7
 10
8.61898438
 20
24.09323438
  0
VERTEX
  8
0
 62
7
 10
8.54503320
 20
24.04253320
  0
VERTEX
  8
0
 62
7
 10
8.47212500
 20
23.98612500
  0
VERTEX
  8
0
 62
7
 10
8.40226367
 20
23.92488867
  0
VERTEX
  8
0
 62
7
 10
8.33745313
 20
23.85970313
  0
VERTEX
  8
0
 62
7
 10
8.27969727
 20
23.79144727
  0
VERTEX
  8
0
 62
7
 10
8.23100000
 20
23.72100000
  0
VERTEX
  8
0
 62
7
 10
8.18376172
 20
23.63738477
  0
VERTEX
  8
0
 62
7
 10
8.14259375
 20
23.55101563
  0
VERTEX
  8
0
 62
7
 10
8.10756641
 20
23.46223242
  0
VERTEX
  8
0
 62
7
 10
8.07875000
 20
23.37137500
  0
VERTEX
  8
0
 62
7
 10
8.05621484
 20
23.27878320
  0
VERTEX
  8
0
 62
7
 10
8.04003125
 20
23.18479688
  0
VERTEX
  8
0
 62
7
 10
8.03026953
 20
23.08975586
  0
VERTEX
  8
0
 62
7
 10
8.02700000
 20
22.99400000
  0
VERTEX
  8
0
 62
7
 10
8.02700000
 20
21.34500000
  0
VERTEX
  8
0
 62
7
 10
8.25600000
 20
21.34500000
  0
VERTEX
  8
0
 62
7
 10
8.25600000
 20
22.48800000
  0
VERTEX
  8
0
 62
7
 10
8.26062207
 20
22.50830347
  0
VERTEX
  8
0
 62
7
 10
8.26724219
 20
22.52653711
  0
VERTEX
  8
0
 62
7
 10
8.27567871
 20
22.54281079
  0
VERTEX
  8
0
 62
7
 10
8.28575000
 20
22.55723438
  0
VERTEX
  8
0
 62
7
 10
8.29727441
 20
22.56991772
  0
VERTEX
  8
0
 62
7
 10
8.31007031
 20
22.58097070
  0
VERTEX
  8
0
 62
7
 10
8.32395605
 20
22.59050317
  0
VERTEX
  8
0
 62
7
 10
8.33875000
 20
22.59862500
  0
VERTEX
  8
0
 62
7
 10
8.35427051
 20
22.60544604
  0
VERTEX
  8
0
 62
7
 10
8.37033594
 20
22.61107617
  0
VERTEX
  8
0
 62
7
 10
8.38676465
 20
22.61562524
  0
VERTEX
  8
0
 62
7
 10
8.40337500
 20
22.61920313
  0
VERTEX
  8
0
 62
7
 10
8.41998535
 20
22.62191968
  0
VERTEX
  8
0
 62
7
 10
8.43641406
 20
22.62388477
  0
VERTEX
  8
0
 62
7
 10
8.45247949
 20
22.62520825
  0
VERTEX
  8
0
 62
7
 10
8.46800000
 20
22.62600000
  0
VERTEX
  8
0
 62
7
 10
8.46800000
 20
22.75800000
  0
VERTEX
  8
0
 62
7
 10
8.43789648
 20
22.76781836
  0
VERTEX
  8
0
 62
7
 10
8.40923438
 20
22.78067188
  0
VERTEX
  8
0
 62
7
 10
8.38223633
 20
22.79640820
  0
VERTEX
  8
0
 62
7
 10
8.35712500
 20
22.81487500
  0
VERTEX
  8
0
 62
7
 10
8.33412305
 20
22.83591992
  0
VERTEX
  8
0
 62
7
 10
8.31345313
 20
22.85939063
  0
VERTEX
  8
0
 62
7
 10
8.29533789
 20
22.88513477
  0
VERTEX
  8
0
 62
7
 10
8.28000000
 20
22.91300000
  0
VERTEX
  8
0
 62
7
 10
8.26725415
 20
22.94305884
  0
VERTEX
  8
0
 62
7
 10
8.25739258
 20
22.97356445
  0
VERTEX
  8
0
 62
7
 10
8.25022925
 20
23.00444800
  0
VERTEX
  8
0
 62
7
 10
8.24557813
 20
23.03564063
  0
VERTEX
  8
0
 62
7
 10
8.24325317
 20
23.06707349
  0
VERTEX
  8
0
 62
7
 10
8.24306836
 20
23.09867773
  0
VERTEX
  8
0
 62
7
 10
8.24483765
 20
23.13038452
  0
VERTEX
  8
0
 62
7
 10
8.24837500
 20
23.16212500
  0
VERTEX
  8
0
 62
7
 10
8.25349438
 20
23.19383032
  0
VERTEX
  8
0
 62
7
 10
8.26000977
 20
23.22543164
  0
VERTEX
  8
0
 62
7
 10
8.26773511
 20
23.25686011
  0
VERTEX
  8
0
 62
7
 10
8.27648438
 20
23.28804688
  0
VERTEX
  8
0
 62
7
 10
8.28607153
 20
23.31892310
  0
VERTEX
  8
0
 62
7
 10
8.29631055
 20
23.34941992
  0
VERTEX
  8
0
 62
7
 10
8.30701538
 20
23.37946851
  0
VERTEX
  8
0
 62
7
 10
8.31800000
 20
23.40900000
  0
VERTEX
  8
0
 62
7
 10
8.34859375
 20
23.47795313
  0
VERTEX
  8
0
 62
7
 10
8.38575000
 20
23.54287500
  0
VERTEX
  8
0
 62
7
 10
8.42853125
 20
23.60460938
  0
VERTEX
  8
0
 62
7
 10
8.47600000
 20
23.66400000
  0
VERTEX
  8
0
 62
7
 10
8.50293164
 20
23.69450391
  0
VERTEX
  8
0
 62
7
 10
8.53320313
 20
23.72615625
  0
VERTEX
  8
0
 62
7
 10
8.56640430
 20
23.75804297
  0
VERTEX
  8
0
 62
7
 10
8.60212500
 20
23.78925000
  0
VERTEX
  8
0
 62
7
 10
8.63995508
 20
23.81886328
  0
VERTEX
  8
0
 62
7
 10
8.67948437
 20
23.84596875
  0
VERTEX
  8
0
 62
7
 10
8.72030273
 20
23.86965234
  0
VERTEX
  8
0
 62
7
 10
8.76200000
 20
23.88900000
  0
VERTEX
  8
0
 62
7
 10
8.79623242
 20
23.87395898
  0
VERTEX
  8
0
 62
7
 10
8.83354688
 20
23.85229688
  0
VERTEX
  8
0
 62
7
 10
8.87261914
 20
23.82545508
  0
VERTEX
  8
0
 62
7
 10
8.91212500
 20
23.79487500
  0
VERTEX
  8
0
 62
7
 10
8.95074023
 20
23.76199805
  0
VERTEX
  8
0
 62
7
 10
8.98714063
 20
23.72826563
  0
VERTEX
  8
0
 62
7
 10
9.02000195
 20
23.69511914
  0
VERTEX
  8
0
 62
7
 10
9.04800000
 20
23.66400000
  0
VERTEX
  8
0
 62
7
 10
9.09546875
 20
23.60460938
  0
VERTEX
  8
0
 62
7
 10
9.13825000
 20
23.54287500
  0
VERTEX
  8
0
 62
7
 10
9.17540625
 20
23.47795313
  0
VERTEX
  8
0
 62
7
 10
9.20600000
 20
23.40900000
  0
VERTEX
  8
0
 62
7
 10
9.21698462
 20
23.37946851
  0
VERTEX
  8
0
 62
7
 10
9.22768945
 20
23.34941992
  0
VERTEX
  8
0
 62
7
 10
9.23792847
 20
23.31892310
  0
VERTEX
  8
0
 62
7
 10
9.24751563
 20
23.28804688
  0
VERTEX
  8
0
 62
7
 10
9.25626489
 20
23.25686011
  0
VERTEX
  8
0
 62
7
 10
9.26399023
 20
23.22543164
  0
VERTEX
  8
0
 62
7
 10
9.27050562
 20
23.19383032
  0
VERTEX
  8
0
 62
7
 10
9.27562500
 20
23.16212500
  0
VERTEX
  8
0
 62
7
 10
9.27916235
 20
23.13038452
  0
VERTEX
  8
0
 62
7
 10
9.28093164
 20
23.09867773
  0
VERTEX
  8
0
 62
7
 10
9.28074683
 20
23.06707349
  0
VERTEX
  8
0
 62
7
 10
9.27842187
 20
23.03564063
  0
VERTEX
  8
0
 62
7
 10
9.27377075
 20
23.00444800
  0
VERTEX
  8
0
 62
7
 10
9.26660742
 20
22.97356445
  0
VERTEX
  8
0
 62
7
 10
9.25674585
 20
22.94305884
  0
VERTEX
  8
0
 62
7
 10
9.24400000
 20
22.91300000
  0
VERTEX
  8
0
 62
7
 10
9.22866211
 20
22.88513477
  0
VERTEX
  8
0
 62
7
 10
9.21054688
 20
22.85939063
  0
VERTEX
  8
0
 62
7
 10
9.18987695
 20
22.83591992
  0
VERTEX
  8
0
 62
7
 10
9.16687500
 20
22.81487500
  0
VERTEX
  8
0
 62
7
 10
9.14176367
 20
22.79640820
  0
VERTEX
  8
0
 62
7
 10
9.11476563
 20
22.78067188
  0
VERTEX
  8
0
 62
7
 10
9.08610352
 20
22.76781836
  0
VERTEX
  8
0
 62
7
 10
9.05600000
 20
22.75800000
  0
VERTEX
  8
0
 62
7
 10
9.05600000
 20
22.62600000
  0
VERTEX
  8
0
 62
7
 10
9.07152051
 20
22.62520825
  0
VERTEX
  8
0
 62
7
 10
9.08758594
 20
22.62388477
  0
VERTEX
  8
0
 62
7
 10
9.10401465
 20
22.62191968
  0
VERTEX
  8
0
 62
7
 10
9.12062500
 20
22.61920313
  0
VERTEX
  8
0
 62
7
 10
9.13723535
 20
22.61562524
  0
VERTEX
  8
0
 62
7
 10
9.15366406
 20
22.61107617
  0
VERTEX
  8
0
 62
7
 10
9.16972949
 20
22.60544604
  0
VERTEX
  8
0
 62
7
 10
9.18525000
 20
22.59862500
  0
VERTEX
  8
0
 62
7
 10
9.20004395
 20
22.59050317
  0
VERTEX
  8
0
 62
7
 10
9.21392969
 20
22.58097070
  0
VERTEX
  8
0
 62
7
 10
9.22672559
 20
22.56991772
  0
VERTEX
  8
0
 62
7
 10
9.23825000
 20
22.55723438
  0
VERTEX
  8
0
 62
7
 10
9.24832129
 20
22.54281079
  0
VERTEX
  8
0
 62
7
 10
9.25675781
 20
22.52653711
  0
VERTEX
  8
0
 62
7
 10
9.26337793
 20
22.50830347
  0
VERTEX
  8
0
 62
7
 10
9.26800000
 20
22.48800000
  0
VERTEX
  8
0
 62
7
 10
9.26800000
 20
21.73000000
  0
VERTEX
  8
0
 62
7
 10
9.49700000
 20
21.73000000
  0
VERTEX
  8
0
 62
7
 10
9.49700000
 20
22.48600000
  0
VERTEX
  8
0
 62
7
 10
9.50162207
 20
22.50630347
  0
VERTEX
  8
0
 62
7
 10
9.50824219
 20
22.52453711
  0
VERTEX
  8
0
 62
7
 10
9.51667871
 20
22.54081079
  0
VERTEX
  8
0
 62
7
 10
9.52675000
 20
22.55523438
  0
VERTEX
  8
0
 62
7
 10
9.53827441
 20
22.56791772
  0
VERTEX
  8
0
 62
7
 10
9.55107031
 20
22.57897070
  0
VERTEX
  8
0
 62
7
 10
9.56495605
 20
22.58850317
  0
VERTEX
  8
0
 62
7
 10
9.57975000
 20
22.59662500
  0
VERTEX
  8
0
 62
7
 10
9.59527051
 20
22.60344604
  0
VERTEX
  8
0
 62
7
 10
9.61133594
 20
22.60907617
  0
VERTEX
  8
0
 62
7
 10
9.62776465
 20
22.61362524
  0
VERTEX
  8
0
 62
7
 10
9.64437500
 20
22.61720313
  0
VERTEX
  8
0
 62
7
 10
9.66098535
 20
22.61991968
  0
VERTEX
  8
0
 62
7
 10
9.67741406
 20
22.62188477
  0
VERTEX
  8
0
 62
7
 10
9.69347949
 20
22.62320825
  0
VERTEX
  8
0
 62
7
 10
9.70900000
 20
22.62400000
  0
VERTEX
  8
0
 62
7
 10
9.70900000
 20
22.75600000
  0
VERTEX
  8
0
 62
7
 10
9.67885547
 20
22.76536719
  0
VERTEX
  8
0
 62
7
 10
9.65009375
 20
22.77712500
  0
VERTEX
  8
0
 62
7
 10
9.62297266
 20
22.79150781
  0
VERTEX
  8
0
 62
7
 10
9.59775000
 20
22.80875000
  0
VERTEX
  8
0
 62
7
 10
9.57468359
 20
22.82908594
  0
VERTEX
  8
0
 62
7
 10
9.55403125
 20
22.85275000
  0
VERTEX
  8
0
 62
7
 10
9.53605078
 20
22.87997656
  0
VERTEX
  8
0
 62
7
 10
9.52100000
 20
22.91100000
  0
VERTEX
  8
0
 62
7
 10
9.51108789
 20
22.93905054
  0
VERTEX
  8
0
 62
7
 10
9.50273437
 20
22.97115430
  0
VERTEX
  8
0
 62
7
 10
9.49595117
 20
23.00686450
  0
VERTEX
  8
0
 62
7
 10
9.49075000
 20
23.04573438
  0
VERTEX
  8
0
 62
7
 10
9.48714258
 20
23.08731714
  0
VERTEX
  8
0
 62
7
 10
9.48514063
 20
23.13116602
  0
VERTEX
  8
0
 62
7
 10
9.48475586
 20
23.17683423
  0
VERTEX
  8
0
 62
7
 10
9.48600000
 20
23.22387500
  0
VERTEX
  8
0
 62
7
 10
9.48888477
 20
23.27184155
  0
VERTEX
  8
0
 62
7
 10
9.49342187
 20
23.32028711
  0
VERTEX
  8
0
 62
7
 10
9.49962305
 20
23.36876489
  0
VERTEX
  8
0
 62
7
 10
9.50750000
 20
23.41682813
  0
VERTEX
  8
0
 62
7
 10
9.51706445
 20
23.46403003
  0
VERTEX
  8
0
 62
7
 10
9.52832813
 20
23.50992383
  0
VERTEX
  8
0
 62
7
 10
9.54130273
 20
23.55406274
  0
VERTEX
  8
0
 62
7
 10
9.55600000
 20
23.59600000
  0
VERTEX
  8
0
 62
7
 10
9.58701562
 20
23.66453125
  0
VERTEX
  8
0
 62
7
 10
9.62412500
 20
23.72950000
  0
VERTEX
  8
0
 62
7
 10
9.66667188
 20
23.79146875
  0
VERTEX
  8
0
 62
7
 10
9.71400000
 20
23.85100000
  0
VERTEX
  8
0
 62
7
 10
9.74093164
 20
23.88150391
  0
VERTEX
  8
0
 62
7
 10
9.77120313
 20
23.91315625
  0
VERTEX
  8
0
 62
7
 10
9.80440430
 20
23.94504297
  0
VERTEX
  8
0
 62
7
 10
9.84012500
 20
23.97625000
  0
VERTEX
  8
0
 62
7
 10
9.87795508
 20
24.00586328
  0
VERTEX
  8
0
 62
7
 10
9.91748438
 20
24.03296875
  0
VERTEX
  8
0
 62
7
 10
9.95830273
 20
24.05665234
  0
VERTEX
  8
0
 62
7
 10
10.00000000
 20
24.07600000
  0
SEQEND
  0
POLYLINE
  8
0
 62
7
 66
1
 70
1
  0
VERTEX
  8
0
 62
7
 10
1.86400000
 20
22.57300000
  0
VERTEX
  8
0
 62
7
 10
1.84150000
 20
22.53312500
  0
VERTEX
  8
0
 62
7
 10
1.82200000
 20
22.49100000
  0
VERTEX
  8
0
 62
7
 10
1.81028320
 20
22.45914453
  0
VERTEX
  8
0
 62
7
 10
1.80064063
 20
22.42665625
  0
VERTEX
  8
0
 62
7
 10
1.79308398
 20
22.39365234
  0
VERTEX
  8
0
 62
7
 10
1.78762500
 20
22.36025000
  0
VERTEX
  8
0
 62
7
 10
1.78427539
 20
22.32656641
  0
VERTEX
  8
0
 62
7
 10
1.78304688
 20
22.29271875
  0
VERTEX
  8
0
 62
7
 10
1.78395117
 20
22.25882422
  0
VERTEX
  8
0
 62
7
 10
1.78700000
 20
22.22500000
  0
VERTEX
  8
0
 62
7
 10
1.79270898
 20
22.18821875
  0
VERTEX
  8
0
 62
7
 10
1.80079688
 20
22.15218750
  0
VERTEX
  8
0
 62
7
 10
1.81120508
 20
22.11700000
  0
VERTEX
  8
0
 62
7
 10
1.82387500
 20
22.08275000
  0
VERTEX
  8
0
 62
7
 10
1.83874805
 20
22.04953125
  0
VERTEX
  8
0
 62
7
 10
1.85576563
 20
22.01743750
  0
VERTEX
  8
0
 62
7
 10
1.87486914
 20
21.98656250
  0
VERTEX
  8
0
 62
7
 10
1.89600000
 20
21.95700000
  0
VERTEX
  8
0
 62
7
 10
2.07800000
 20
21.95700000
  0
VERTEX
  8
0
 62
7
 10
2.04637500
 20
21.98637500
  0
VERTEX
  8
0
 62
7
 10
2.01700000
 20
22.01800000
  0
VERTEX
  8
0
 62
7
 10
1.99087500
 20
22.05043750
  0
VERTEX
  8
0
 62
7
 10
1.96700000
 20
22.08475000
  0
VERTEX
  8
0
 62
7
 10
1.94612500
 20
22.12093750
  0
VERTEX
  8
0
 62
7
 10
1.92900000
 20
22.15900000
  0
VERTEX
  8
0
 62
7
 10
1.91722656
 20
22.19533984
  0
VERTEX
  8
0
 62
7
 10
1.90887500
 20
22.23221875
  0
VERTEX
  8
0
 62
7
 10
1.90389844
 20
22.26942578
  0
VERTEX
  8
0
 62
7
 10
1.90225000
 20
22.30675000
  0
VERTEX
  8
0
 62
7
 10
1.90388281
 20
22.34398047
  0
VERTEX
  8
0
 62
7
 10
1.90875000
 20
22.38090625
  0
VERTEX
  8
0
 62
7
 10
1.91680469
 20
22.41731641
  0
VERTEX
  8
0
 62
7
 10
1.92800000
 20
22.45300000
  0
VERTEX
  8
0
 62
7
 10
1.89337500
 20
22.51150000
  0
VERTEX
  8
0
 62
7
 10
1.86400000
 20
22.57300000
  0
SEQEND
  0
POLYLINE
  8
0
 62
7
 66
1
 70
1
  0
VERTEX
  8
0
 62
7
 10
2.71300000
 20
23.07600000
  0
VERTEX
  8
0
 62
7
 10
2.52500000
 20
23.07600000
  0
VERTEX
  8
0
 62
7
 10
2.29400000
 20
23.07600000
  0
VERTEX
  8
0
 62
7
 10
2.29400000
 20
21.89700000
  0
VERTEX
  8
0
 62
7
 10
1.46600000
 20
21.89700000
  0
VERTEX
  8
0
 62
7
 10
1.46600000
 20
21.43400000
  0
VERTEX
  8
0
 62
7
 10
2.30800000
 20
21.43400000
  0
VERTEX
  8
0
 62
7
 10
2.30800000
 20
18.71700000
  0
VERTEX
  8
0
 62
7
 10
2.74200000
 20
18.71700000
  0
VERTEX
  8
0
 62
7
 10
2.74200000
 20
21.43400000
  0
VERTEX
  8
0
 62
7
 10
3.58400000
 20
21.43400000
  0
VERTEX
  8
0
 62
7
 10
3.58400000
 20
21.89700000
  0
VERTEX
  8
0
 62
7
 10
2.75600000
 20
21.89700000
  0
VERTEX
  8
0
 62
7
 10
2.75600000
 20
22.77800000
  0
VERTEX
  8
0
 62
7
 10
2.73800000
 20
22.80100000
  0
VERTEX
  8
0
 62
7
 10
2.72100000
 20
22.82400000
  0
VERTEX
  8
0
 62
7
 10
2.70287500
 20
22.84892188
  0
VERTEX
  8
0
 62
7
 10
2.68550000
 20
22.87862500
  0
VERTEX
  8
0
 62
7
 10
2.67037500
 20
22.91301563
  0
VERTEX
  8
0
 62
7
 10
2.65900000
 20
22.95200000
  0
VERTEX
  8
0
 62
7
 10
2.65700000
 20
22.95900000
  0
VERTEX
  8
0
 62
7
 10
2.65800000
 20
22.96600000
  0
VERTEX
  8
0
 62
7
 10
2.66645313
 20
23.00104688
  0
VERTEX
  8
0
 62
7
 10
2.67912500
 20
23.02962500
  0
VERTEX
  8
0
 62
7
 10
2.69498438
 20
23.05389063
  0
VERTEX
  8
0
 62
7
 10
2.71300000
 20
23.07600000
  0
SEQEND
  0
POLYLINE
  8
0
 62
7
 66
1
 70
1
  0
VERTEX
  8
0
 62
7
 10
4.23600000
 20
22.22600000
  0
VERTEX
  8
0
 62
7
 10
4.27500000
 20
22.25400000
  0
VERTEX
  8
0
 62
7
 10
4.32237500
 20
22.29812500
  0
VERTEX
  8
0
 62
7
 10
4.36300000
 20
22.34900000
  0
VERTEX
  8
0
 62
7
 10
4.37125000
 20
22.31985938
  0
VERTEX
  8
0
 62
7
 10
4.37500000
 20
22.28987500
  0
VERTEX
  8
0
 62
7
 10
4.37425000
 20
22.25970313
  0
VERTEX
  8
0
 62
7
 10
4.36900000
 20
22.23000000
  0
VERTEX
  8
0
 62
7
 10
4.35487500
 20
22.19262500
  0
VERTEX
  8
0
 62
7
 10
4.33400000
 20
22.15900000
  0
VERTEX
  8
0
 62
7
 10
4.36317188
 20
22.13445313
  0
VERTEX
  8
0
 62
7
 10
4.39487500
 20
22.11337500
  0
VERTEX
  8
0
 62
7
 10
4.42864063
 20
22.09585938
  0
VERTEX
  8
0
 62
7
 10
4.46400000
 20
22.08200000
  0
VERTEX
  8
0
 62
7
 10
4.51040625
 20
22.07043750
  0
VERTEX
  8
0
 62
7
 10
4.55775000
 20
22.06525000
  0
VERTEX
  8
0
 62
7
 10
4.60546875
 20
22.06568750
  0
VERTEX
  8
0
 62
7
 10
4.65300000
 20
22.07100000
  0
VERTEX
  8
0
 62
7
 10
4.69829688
 20
22.08073438
  0
VERTEX
  8
0
 62
7
 10
4.74237500
 20
22.09487500
  0
VERTEX
  8
0
 62
7
 10
4.78476563
 20
22.11332813
  0
VERTEX
  8
0
 62
7
 10
4.82500000
 20
22.13600000
  0
VERTEX
  8
0
 62
7
 10
4.86812500
 20
22.11520313
  0
VERTEX
  8
0
 62
7
 10
4.91200000
 20
22.09637500
  0
VERTEX
  8
0
 62
7
 10
4.95662500
 20
22.07960938
  0
VERTEX
  8
0
 62
7
 10
5.00200000
 20
22.06500000
  0
VERTEX
  8
0
 62
7
 10
5.05260352
 20
22.05035742
  0
VERTEX
  8
0
 62
7
 10
5.10382813
 20
22.03748438
  0
VERTEX
  8
0
 62
7
 10
5.15554492
 20
22.02683789
  0
VERTEX
  8
0
 62
7
 10
5.20762500
 20
22.01887500
  0
VERTEX
  8
0
 62
7
 10
5.25993945
 20
22.01405273
  0
VERTEX
  8
0
 62
7
 10
5.31235938
 20
22.01282813
  0
VERTEX
  8
0
 62
7
 10
5.36475586
 20
22.01565820
  0
VERTEX
  8
0
 62
7
 10
5.41700000
 20
22.02300000
  0
VERTEX
  8
0
 62
7
 10
5.47862500
 20
22.03760938
  0
VERTEX
  8
0
 62
7
 10
5.53875000
 20
22.05737500
  0
VERTEX
  8
0
 62
7
 10
5.59700000
 20
22.08220313
  0
VERTEX
  8
0
 62
7
 10
5.65300000
 20
22.11200000
  0
VERTEX
  8
0
 62
7
 10
5.64437500
 20
22.18417188
  0
VERTEX
  8
0
 62
7
 10
5.63950000
 20
22.25662500
  0
VERTEX
  8
0
 62
7
 10
5.63837500
 20
22.32926563
  0
VERTEX
  8
0
 62
7
 10
5.64100000
 20
22.40200000
  0
VERTEX
  8
0
 62
7
 10
5.64709375
 20
22.45703125
  0
VERTEX
  8
0
 62
7
 10
5.65675000
 20
22.51150000
  0
VERTEX
  8
0
 62
7
 10
5.66603125
 20
22.56596875
  0
VERTEX
  8
0
 62
7
 10
5.67100000
 20
22.62100000
  0
VERTEX
  8
0
 62
7
 10
5.67137500
 20
22.66675000
  0
VERTEX
  8
0
 62
7
 10
5.66950000
 20
22.71250000
  0
VERTEX
  8
0
 62
7
 10
5.66537500
 20
22.75825000
  0
VERTEX
  8
0
 62
7
 10
5.65900000
 20
22.80400000
  0
VERTEX
  8
0
 62
7
 10
5.69910938
 20
22.88092578
  0
VERTEX
  8
0
 62
7
 10
5.73387500
 20
22.96003125
  0
VERTEX
  8
0
 62
7
 10
5.76320313
 20
23.04105859
  0
VERTEX
  8
0
 62
7
 10
5.78700000
 20
23.12375000
  0
VERTEX
  8
0
 62
7
 10
5.80517188
 20
23.20784766
  0
VERTEX
  8
0
 62
7
 10
5.81762500
 20
23.29309375
  0
VERTEX
  8
0
 62
7
 10
5.82426563
 20
23.37923047
  0
VERTEX
  8
0
 62
7
 10
5.82500000
 20
23.46600000
  0
VERTEX
  8
0
 62
7
 10
5.82162500
 20
23.53479688
  0
VERTEX
  8
0
 62
7
 10
5.81450000
 20
23.60312500
  0
VERTEX
  8
0
 62
7
 10
5.80362500
 20
23.67089063
  0
VERTEX
  8
0
 62
7
 10
5.78900000
 20
23.73800000
  0
VERTEX
  8
0
 62
7
 10
5.73956250
 20
23.67903125
  0
VERTEX
  8
0
 62
7
 10
5.68450000
 20
23.62550000
  0
VERTEX
  8
0
 62
7
 10
5.62418750
 20
23.57796875
  0
VERTEX
  8
0
 62
7
 10
5.55900000
 20
23.53700000
  0
VERTEX
  8
0
 62
7
 10
5.50935938
 20
23.51217188
  0
VERTEX
  8
0
 62
7
 10
5.45812500
 20
23.49137500
  0
VERTEX
  8
0
 62
7
 10
5.40557813
 20
23.47414063
  0
VERTEX
  8
0
 62
7
 10
5.35200000
 20
23.46000000
  0
VERTEX
  8
0
 62
7
 10
5.29181250
 20
23.44767188
  0
VERTEX
  8
0
 62
7
 10
5.23125000
 20
23.43937500
  0
VERTEX
  8
0
 62
7
 10
5.17031250
 20
23.43539063
  0
VERTEX
  8
0
 62
7
 10
5.10900000
 20
23.43600000
  0
VERTEX
  8
0
 62
7
 10
5.05818750
 20
23.44092188
  0
VERTEX
  8
0
 62
7
 10
5.00775000
 20
23.44912500
  0
VERTEX
  8
0
 62
7
 10
4.95768750
 20
23.45976563
  0
VERTEX
  8
0
 62
7
 10
4.90800000
 20
23.47200000
  0
VERTEX
  8
0
 62
7
 10
4.85320313
 20
23.48670313
  0
VERTEX
  8
0
 62
7
 10
4.79887500
 20
23.50337500
  0
VERTEX
  8
0
 62
7
 10
4.74585938
 20
23.52360938
  0
VERTEX
  8
0
 62
7
 10
4.69500000
 20
23.54900000
  0
VERTEX
  8
0
 62
7
 10
4.66034375
 20
23.57095313
  0
VERTEX
  8
0
 62
7
 10
4.62700000
 20
23.59487500
  0
VERTEX
  8
0
 62
7
 10
4.59515625
 20
23.62085938
  0
VERTEX
  8
0
 62
7
 10
4.56500000
 20
23.64900000
  0
VERTEX
  8
0
 62
7
 10
4.51459375
 20
23.59023438
  0
VERTEX
  8
0
 62
7
 10
4.47000000
 20
23.52687500
  0
VERTEX
  8
0
 62
7
 10
4.43140625
 20
23.45957813
  0
VERTEX
  8
0
 62
7
 10
4.39900000
 20
23.38900000
  0
VERTEX
  8
0
 62
7
 10
4.38612891
 20
23.35339648
  0
VERTEX
  8
0
 62
7
 10
4.37571875
 20
23.31717188
  0
VERTEX
  8
0
 62
7
 10
4.36732422
 20
23.28045508
  0
VERTEX
  8
0
 62
7
 10
4.36050000
 20
23.24337500
  0
VERTEX
  8
0
 62
7
 10
4.35480078
 20
23.20606055
  0
VERTEX
  8
0
 62
7
 10
4.34978125
 20
23.16864063
  0
VERTEX
  8
0
 62
7
 10
4.34499609
 20
23.13124414
  0
VERTEX
  8
0
 62
7
 10
4.34000000
 20
23.09400000
  0
VERTEX
  8
0
 62
7
 10
4.33006250
 20
23.01432813
  0
VERTEX
  8
0
 62
7
 10
4.32275000
 20
22.93437500
  0
VERTEX
  8
0
 62
7
 10
4.31806250
 20
22.85423438
  0
VERTEX
  8
0
 62
7
 10
4.31600000
 20
22.77400000
  0
VERTEX
  8
0
 62
7
 10
4.28462500
 20
22.75012500
  0
VERTEX
  8
0
 62
7
 10
4.25700000
 20
22.72100000
  0
VERTEX
  8
0
 62
7
 10
4.22700000
 20
22.67400000
  0
VERTEX
  8
0
 62
7
 10
4.19975000
 20
22.65000000
  0
VERTEX
  8
0
 62
7
 10
4.16800000
 20
22.63200000
  0
VERTEX
  8
0
 62
7
 10
4.16864844
 20
22.61191211
  0
VERTEX
  8
0
 62
7
 10
4.17131250
 20
22.59223438
  0
VERTEX
  8
0
 62
7
 10
4.17594531
 20
22.57309570
  0
VERTEX
  8
0
 62
7
 10
4.18250000
 20
22.55462500
  0
VERTEX
  8
0
 62
7
 10
4.19092969
 20
22.53695117
  0
VERTEX
  8
0
 62
7
 10
4.20118750
 20
22.52020313
  0
VERTEX
  8
0
 62
7
 10
4.21322656
 20
22.50450977
  0
VERTEX
  8
0
 62
7
 10
4.22700000
 20
22.49000000
  0
VERTEX
  8
0
 62
7
 10
4.24681250
 20
22.47393750
  0
VERTEX
  8
0
 62
7
 10
4.26850000
 20
22.46050000
  0
VERTEX
  8
0
 62
7
 10
4.29168750
 20
22.45006250
  0
VERTEX
  8
0
 62
7
 10
4.31600000
 20
22.44300000
  0
VERTEX
  8
0
 62
7
 10
4.28012500
 20
22.40187500
  0
VERTEX
  8
0
 62
7
 10
4.23900000
 20
22.36600000
  0
VERTEX
  8
0
 62
7
 10
4.20100000
 20
22.33900000
  0
VERTEX
  8
0
 62
7
 10
4.20600000
 20
22.32300000
  0
VERTEX
  8
0
 62
7
 10
4.22000000
 20
22.27900000
  0
VERTEX
  8
0
 62
7
 10
4.23600000
 20
22.22600000
  0
SEQEND
  0
POLYLINE
  8
0
 62
7
 66
1
 70
1
  0
VERTEX
  8
0
 62
7
 10
2.23400000
 20
22.36600000
  0
VERTEX
  8
0
 62
7
 10
2.20251563
 20
22.38810938
  0
VERTEX
  8
0
 62
7
 10
2.17262500
 20
22.41237500
  0
VERTEX
  8
0
 62
7
 10
2.14442188
 20
22.43870313
  0
VERTEX
  8
0
 62
7
 10
2.11800000
 20
22.46700000
  0
VERTEX
  8
0
 62
7
 10
2.07973438
 20
22.51518750
  0
VERTEX
  8
0
 62
7
 10
2.04662500
 20
22.56675000
  0
VERTEX
  8
0
 62
7
 10
2.01970313
 20
22.62168750
  0
VERTEX
  8
0
 62
7
 10
2.00000000
 20
22.68000000
  0
VERTEX
  8
0
 62
7
 10
1.99237109
 20
22.71208984
  0
VERTEX
  8
0
 62
7
 10
1.98678125
 20
22.74453125
  0
VERTEX
  8
0
 62
7
 10
1.98330078
 20
22.77720703
  0
VERTEX
  8
0
 62
7
 10
1.98200000
 20
22.81000000
  0
VERTEX
  8
0
 62
7
 10
1.98294922
 20
22.84279297
  0
VERTEX
  8
0
 62
7
 10
1.98621875
 20
22.87546875
  0
VERTEX
  8
0
 62
7
 10
1.99187891
 20
22.90791016
  0
VERTEX
  8
0
 62
7
 10
2.00000000
 20
22.94000000
  0
VERTEX
  8
0
 62
7
 10
2.01745313
 20
22.98846875
  0
VERTEX
  8
0
 62
7
 10
2.03987500
 20
23.03450000
  0
VERTEX
  8
0
 62
7
 10
2.06735938
 20
23.07753125
  0
VERTEX
  8
0
 62
7
 10
2.10000000
 20
23.11700000
  0
VERTEX
  8
0
 62
7
 10
2.14256250
 20
23.15598438
  0
VERTEX
  8
0
 62
7
 10
2.19000000
 20
23.18812500
  0
VERTEX
  8
0
 62
7
 10
2.24118750
 20
23.21445313
  0
VERTEX
  8
0
 62
7
 10
2.29500000
 20
23.23600000
  0
VERTEX
  8
0
 62
7
 10
2.33046509
 20
23.24712500
  0
VERTEX
  8
0
 62
7
 10
2.36628320
 20
23.25576563
  0
VERTEX
  8
0
 62
7
 10
2.40233862
 20
23.26194531
  0
VERTEX
  8
0
 62
7
 10
2.43851563
 20
23.26568750
  0
VERTEX
  8
0
 62
7
 10
2.47469849
 20
23.26701563
  0
VERTEX
  8
0
 62
7
 10
2.51077148
 20
23.26595313
  0
VERTEX
  8
0
 62
7
 10
2.54661890
 20
23.26252344
  0
VERTEX
  8
0
 62
7
 10
2.58212500
 20
23.25675000
  0
VERTEX
  8
0
 62
7
 10
2.61717407
 20
23.24865625
  0
VERTEX
  8
0
 62
7
 10
2.65165039
 20
23.23826563
  0
VERTEX
  8
0
 62
7
 10
2.68543823
 20
23.22560156
  0
VERTEX
  8
0
 62
7
 10
2.71842188
 20
23.21068750
  0
VERTEX
  8
0
 62
7
 10
2.75048560
 20
23.19354688
  0
VERTEX
  8
0
 62
7
 10
2.78151367
 20
23.17420313
  0
VERTEX
  8
0
 62
7
 10
2.81139038
 20
23.15267969
  0
VERTEX
  8
0
 62
7
 10
2.84000000
 20
23.12900000
  0
VERTEX
  8
0
 62
7
 10
2.81675000
 20
23.11745313
  0
VERTEX
  8
0
 62
7
 10
2.79875000
 20
23.10637500
  0
VERTEX
  8
0
 62
7
 10
2.78262500
 20
23.09285938
  0
VERTEX
  8
0
 62
7
 10
2.76500000
 20
23.07400000
  0
VERTEX
  8
0
 62
7
 10
2.74089063
 20
23.04676563
  0
VERTEX
  8
0
 62
7
 10
2.72137500
 20
23.02187500
  0
VERTEX
  8
0
 62
7
 10
2.70692188
 20
22.99454688
  0
VERTEX
  8
0
 62
7
 10
2.69800000
 20
22.96000000
  0
VERTEX
  8
0
 62
7
 10
2.70770313
 20
22.92662500
  0
VERTEX
  8
0
 62
7
 10
2.72087500
 20
22.89700000
  0
VERTEX
  8
0
 62
7
 10
2.73610938
 20
22.87112500
  0
VERTEX
  8
0
 62
7
 10
2.75200000
 20
22.84900000
  0
VERTEX
  8
0
 62
7
 10
2.77217188
 20
22.82298438
  0
VERTEX
  8
0
 62
7
 10
2.78962500
 20
22.80062500
  0
VERTEX
  8
0
 62
7
 10
2.80726563
 20
22.78220313
  0
VERTEX
  8
0
 62
7
 10
2.82800000
 20
22.76800000
  0
VERTEX
  8
0
 62
7
 10
2.80625000
 20
22.64137500
  0
VERTEX
  8
0
 62
7
 10
2.79200000
 20
22.51400000
  0
VERTEX
  8
0
 62
7
 10
2.78670313
 20
22.44632813
  0
VERTEX
  8
0
 62
7
 10
2.78337500
 20
22.37837500
  0
VERTEX
  8
0
 62
7
 10
2.78285938
 20
22.31023438
  0
VERTEX
  8
0
 62
7
 10
2.78600000
 20
22.24200000
  0
VERTEX
  8
0
 62
7
 10
2.79518750
 20
22.15915625
  0
VERTEX
  8
0
 62
7
 10
2.80925000
 20
22.07725000
  0
VERTEX
  8
0
 62
7
 10
2.82818750
 20
21.99646875
  0
VERTEX
  8
0
 62
7
 10
2.85200000
 20
21.91700000
  0
VERTEX
  8
0
 62
7
 10
2.94350000
 20
21.92825000
  0
VERTEX
  8
0
 62
7
 10
3.03500000
 20
21.93500000
  0
VERTEX
  8
0
 62
7
 10
3.20700000
 20
21.93500000
  0
VERTEX
  8
0
 62
7
 10
3.25439063
 20
21.93481250
  0
VERTEX
  8
0
 62
7
 10
3.30187500
 20
21.93425000
  0
VERTEX
  8
0
 62
7
 10
3.34917188
 20
21.93556250
  0
VERTEX
  8
0
 62
7
 10
3.39600000
 20
21.94100000
  0
VERTEX
  8
0
 62
7
 10
3.43853125
 20
21.94998438
  0
VERTEX
  8
0
 62
7
 10
3.48050000
 20
21.96187500
  0
VERTEX
  8
0
 62
7
 10
3.52171875
 20
21.97657813
  0
VERTEX
  8
0
 62
7
 10
3.56200000
 20
21.99400000
  0
VERTEX
  8
0
 62
7
 10
3.58765625
 20
21.96870313
  0
VERTEX
  8
0
 62
7
 10
3.61500000
 20
21.94537500
  0
VERTEX
  8
0
 62
7
 10
3.64384375
 20
21.92410938
  0
VERTEX
  8
0
 62
7
 10
3.67400000
 20
21.90500000
  0
VERTEX
  8
0
 62
7
 10
3.70612500
 20
21.88826172
  0
VERTEX
  8
0
 62
7
 10
3.73937500
 20
21.87459375
  0
VERTEX
  8
0
 62
7
 10
3.77356250
 20
21.86369141
  0
VERTEX
  8
0
 62
7
 10
3.80850000
 20
21.85525000
  0
VERTEX
  8
0
 62
7
 10
3.84400000
 20
21.84896484
  0
VERTEX
  8
0
 62
7
 10
3.87987500
 20
21.84453125
  0
VERTEX
  8
0
 62
7
 10
3.91593750
 20
21.84164453
  0
VERTEX
  8
0
 62
7
 10
3.95200000
 20
21.84000000
  0
VERTEX
  8
0
 62
7
 10
4.00325391
 20
21.83989844
  0
VERTEX
  8
0
 62
7
 10
4.05415625
 20
21.84331250
  0
VERTEX
  8
0
 62
7
 10
4.10454297
 20
21.85019531
  0
VERTEX
  8
0
 62
7
 10
4.15425000
 20
21.86050000
  0
VERTEX
  8
0
 62
7
 10
4.20311328
 20
21.87417969
  0
VERTEX
  8
0
 62
7
 10
4.25096875
 20
21.89118750
  0
VERTEX
  8
0
 62
7
 10
4.29765234
 20
21.91147656
  0
VERTEX
  8
0
 62
7
 10
4.34300000
 20
21.93500000
  0
VERTEX
  8
0
 62
7
 10
4.30495313
 20
21.97845313
  0
VERTEX
  8
0
 62
7
 10
4.27037500
 20
22.02462500
  0
VERTEX
  8
0
 62
7
 10
4.23935938
 20
22.07323438
  0
VERTEX
  8
0
 62
7
 10
4.21200000
 20
22.12400000
  0
VERTEX
  8
0
 62
7
 10
4.19371875
 20
22.16676563
  0
VERTEX
  8
0
 62
7
 10
4.17750000
 20
22.21337500
  0
VERTEX
  8
0
 62
7
 10
4.16278125
 20
22.26054688
  0
VERTEX
  8
0
 62
7
 10
4.14900000
 20
22.30500000
  0
VERTEX
  8
0
 62
7
 10
4.11362500
 20
22.41812500
  0
VERTEX
  8
0
 62
7
 10
4.08200000
 20
22.53200000
  0
VERTEX
  8
0
 62
7
 10
4.09550000
 20
22.61462500
  0
VERTEX
  8
0
 62
7
 10
4.10600000
 20
22.69800000
  0
VERTEX
  8
0
 62
7
 10
4.10766406
 20
22.72437695
  0
VERTEX
  8
0
 62
7
 10
4.10787500
 20
22.75095313
  0
VERTEX
  8
0
 62
7
 10
4.10733594
 20
22.77764648
  0
VERTEX
  8
0
 62
7
 10
4.10675000
 20
22.80437500
  0
VERTEX
  8
0
 62
7
 10
4.10682031
 20
22.83105664
  0
VERTEX
  8
0
 62
7
 10
4.10825000
 20
22.85760938
  0
VERTEX
  8
0
 62
7
 10
4.11174219
 20
22.88395117
  0
VERTEX
  8
0
 62
7
 10
4.11800000
 20
22.91000000
  0
VERTEX
  8
0
 62
7
 10
4.13985938
 20
22.96671875
  0
VERTEX
  8
0
 62
7
 10
4.16912500
 20
23.01950000
  0
VERTEX
  8
0
 62
7
 10
4.20532813
 20
23.06778125
  0
VERTEX
  8
0
 62
7
 10
4.24800000
 20
23.11100000
  0
VERTEX
  8
0
 62
7
 10
4.20510938
 20
23.14881250
  0
VERTEX
  8
0
 62
7
 10
4.15912500
 20
23.18250000
  0
VERTEX
  8
0
 62
7
 10
4.11032813
 20
23.21168750
  0
VERTEX
  8
0
 62
7
 10
4.05900000
 20
23.23600000
  0
VERTEX
  8
0
 62
7
 10
4.02055469
 20
23.24991992
  0
VERTEX
  8
0
 62
7
 10
3.98112500
 20
23.26054688
  0
VERTEX
  8
0
 62
7
 10
3.94094531
 20
23.26843164
  0
VERTEX
  8
0
 62
7
 10
3.90025000
 20
23.27412500
  0
VERTEX
  8
0
 62
7
 10
3.85927344
 20
23.27817773
  0
VERTEX
  8
0
 62
7
 10
3.81825000
 20
23.28114063
  0
VERTEX
  8
0
 62
7
 10
3.77741406
 20
23.28356445
  0
VERTEX
  8
0
 62
7
 10
3.73700000
 20
23.28600000
  0
VERTEX
  8
0
 62
7
 10
3.64865625
 20
23.28909375
  0
VERTEX
  8
0
 62
7
 10
3.56050000
 20
23.28750000
  0
VERTEX
  8
0
 62
7
 10
3.47234375
 20
23.28290625
  0
VERTEX
  8
0
 62
7
 10
3.38400000
 20
23.27700000
  0
VERTEX
  8
0
 62
7
 10
3.30812500
 20
23.32337500
  0
VERTEX
  8
0
 62
7
 10
3.23000000
 20
23.36600000
  0
VERTEX
  8
0
 62
7
 10
3.16575000
 20
23.39700000
  0
VERTEX
  8
0
 62
7
 10
3.10000000
 20
23.42500000
  0
VERTEX
  8
0
 62
7
 10
3.07064063
 20
23.41193750
  0
VERTEX
  8
0
 62
7
 10
3.04287500
 20
23.39550000
  0
VERTEX
  8
0
 62
7
 10
3.01717188
 20
23.37606250
  0
VERTEX
  8
0
 62
7
 10
2.99400000
 20
23.35400000
  0
VERTEX
  8
0
 62
7
 10
2.96926563
 20
23.32389063
  0
VERTEX
  8
0
 62
7
 10
2.94912500
 20
23.29087500
  0
VERTEX
  8
0
 62
7
 10
2.93367188
 20
23.25542188
  0
VERTEX
  8
0
 62
7
 10
2.92300000
 20
23.21800000
  0
VERTEX
  8
0
 62
7
 10
2.87934375
 20
23.24740625
  0
VERTEX
  8
0
 62
7
 10
2.83400000
 20
23.27400000
  0
VERTEX
  8
0
 62
7
 10
2.78715625
 20
23.29759375
  0
VERTEX
  8
0
 62
7
 10
2.73900000
 20
23.31800000
  0
VERTEX
  8
0
 62
7
 10
2.69851563
 20
23.33266602
  0
VERTEX
  8
0
 62
7
 10
2.65737500
 20
23.34514063
  0
VERTEX
  8
0
 62
7
 10
2.61567188
 20
23.35538867
  0
VERTEX
  8
0
 62
7
 10
2.57350000
 20
23.36337500
  0
VERTEX
  8
0
 62
7
 10
2.53095313
 20
23.36906445
  0
VERTEX
  8
0
 62
7
 10
2.48812500
 20
23.37242188
  0
VERTEX
  8
0
 62
7
 10
2.44510938
 20
23.37341211
  0
VERTEX
  8
0
 62
7
 10
2.40200000
 20
23.37200000
  0
VERTEX
  8
0
 62
7
 10
2.35691821
 20
23.36753735
  0
VERTEX
  8
0
 62
7
 10
2.31256445
 20
23.35983008
  0
VERTEX
  8
0
 62
7
 10
2.26915112
 20
23.34896167
  0
VERTEX
  8
0
 62
7
 10
2.22689063
 20
23.33501563
  0
VERTEX
  8
0
 62
7
 10
2.18599536
 20
23.31807544
  0
VERTEX
  8
0
 62
7
 10
2.14667773
 20
23.29822461
  0
VERTEX
  8
0
 62
7
 10
2.10915015
 20
23.27554663
  0
VERTEX
  8
0
 62
7
 10
2.07362500
 20
23.25012500
  0
VERTEX
  8
0
 62
7
 10
2.04031470
 20
23.22204321
  0
VERTEX
  8
0
 62
7
 10
2.00943164
 20
23.19138477
  0
VERTEX
  8
0
 62
7
 10
1.98118823
 20
23.15823315
  0
VERTEX
  8
0
 62
7
 10
1.95579688
 20
23.12267188
  0
VERTEX
  8
0
 62
7
 10
1.93346997
 20
23.08478442
  0
VERTEX
  8
0
 62
7
 10
1.91441992
 20
23.04465430
  0
VERTEX
  8
0
 62
7
 10
1.89885913
 20
23.00236499
  0
VERTEX
  8
0
 62
7
 10
1.88700000
 20
22.95800000
  0
VERTEX
  8
0
 62
7
 10
1.88005078
 20
22.92033203
  0
VERTEX
  8
0
 62
7
 10
1.87565625
 20
22.88240625
  0
VERTEX
  8
0
 62
7
 10
1.87374609
 20
22.84433984
  0
VERTEX
  8
0
 62
7
 10
1.87425000
 20
22.80625000
  0
VERTEX
  8
0
 62
7
 10
1.87709766
 20
22.76825391
  0
VERTEX
  8
0
 62
7
 10
1.88221875
 20
22.73046875
  0
VERTEX
  8
0
 62
7
 10
1.88954297
 20
22.69301172
  0
VERTEX
  8
0
 62
7
 10
1.89900000
 20
22.65600000
  0
VERTEX
  8
0
 62
7
 10
1.91205078
 20
22.61607031
  0
VERTEX
  8
0
 62
7
 10
1.92784375
 20
22.57731250
  0
VERTEX
  8
0
 62
7
 10
1.94621484
 20
22.53977344
  0
VERTEX
  8
0
 62
7
 10
1.96700000
 20
22.50350000
  0
VERTEX
  8
0
 62
7
 10
1.99003516
 20
22.46853906
  0
VERTEX
  8
0
 62
7
 10
2.01515625
 20
22.43493750
  0
VERTEX
  8
0
 62
7
 10
2.04219922
 20
22.40274219
  0
VERTEX
  8
0
 62
7
 10
2.07100000
 20
22.37200000
  0
VERTEX
  8
0
 62
7
 10
2.10828125
 20
22.33657813
  0
VERTEX
  8
0
 62
7
 10
2.14800000
 20
22.30387500
  0
VERTEX
  8
0
 62
7
 10
2.18996875
 20
22.27398438
  0
VERTEX
  8
0
 62
7
 10
2.23400000
 20
22.24700000
  0
VERTEX
  8
0
 62
7
 10
2.23400000
 20
22.36600000
  0
SEQEND
  0
POLYLINE
  8
0
 62
7
 66
1
 70
1
  0
VERTEX
  8
0
 62
7
 10
3.01400000
 20
22.99000000
  0
VERTEX
  8
0
 62
7
 10
3.00792188
 20
23.00285938
  0
VERTEX
  8
0
 62
7
 10
3.00737500
 20
23.01637500
  0
VERTEX
  8
0
 62
7
 10
3.01189063
 20
23.02895313
  0
VERTEX
  8
0
 62
7
 10
3.02100000
 20
23.03900000
  0
VERTEX
  8
0
 62
7
 10
3.03385938
 20
23.04507813
  0
VERTEX
  8
0
 62
7
 10
3.04737500
 20
23.04562500
  0
VERTEX
  8
0
 62
7
 10
3.05995313
 20
23.04110938
  0
VERTEX
  8
0
 62
7
 10
3.07000000
 20
23.03200000
  0
VERTEX
  8
0
 62
7
 10
3.10657227
 20
22.98933789
  0
VERTEX
  8
0
 62
7
 10
3.14826563
 20
22.95339063
  0
VERTEX
  8
0
 62
7
 10
3.19429492
 20
22.92384180
  0
VERTEX
  8
0
 62
7
 10
3.24387500
 20
22.90037500
  0
VERTEX
  8
0
 62
7
 10
3.29622070
 20
22.88267383
  0
VERTEX
  8
0
 62
7
 10
3.35054688
 20
22.87042188
  0
VERTEX
  8
0
 62
7
 10
3.40606836
 20
22.86330273
  0
VERTEX
  8
0
 62
7
 10
3.46200000
 20
22.86100000
  0
VERTEX
  8
0
 62
7
 10
3.49000000
 20
22.86200000
  0
VERTEX
  8
0
 62
7
 10
3.49700000
 20
22.86200000
  0
VERTEX
  8
0
 62
7
 10
3.54506641
 20
22.86535156
  0
VERTEX
  8
0
 62
7
 10
3.59053125
 20
22.87175000
  0
VERTEX
  8
0
 62
7
 10
3.63379297
 20
22.88133594
  0
VERTEX
  8
0
 62
7
 10
3.67525000
 20
22.89425000
  0
VERTEX
  8
0
 62
7
 10
3.71530078
 20
22.91063281
  0
VERTEX
  8
0
 62
7
 10
3.75434375
 20
22.93062500
  0
VERTEX
  8
0
 62
7
 10
3.79277734
 20
22.95436719
  0
VERTEX
  8
0
 62
7
 10
3.83100000
 20
22.98200000
  0
VERTEX
  8
0
 62
7
 10
3.85300000
 20
22.96900000
  0
VERTEX
  8
0
 62
7
 10
3.84064209
 20
22.94613818
  0
VERTEX
  8
0
 62
7
 10
3.82585547
 20
22.92513672
  0
VERTEX
  8
0
 62
7
 10
3.80888330
 20
22.90593408
  0
VERTEX
  8
0
 62
7
 10
3.78996875
 20
22.88846875
  0
VERTEX
  8
0
 62
7
 10
3.76935498
 20
22.87267920
  0
VERTEX
  8
0
 62
7
 10
3.74728516
 20
22.85850391
  0
VERTEX
  8
0
 62
7
 10
3.72400244
 20
22.84588135
  0
VERTEX
  8
0
 62
7
 10
3.69975000
 20
22.83475000
  0
VERTEX
  8
0
 62
7
 10
3.67477100
 20
22.82504834
  0
VERTEX
  8
0
 62
7
 10
3.64930859
 20
22.81671484
  0
VERTEX
  8
0
 62
7
 10
3.62360596
 20
22.80968799
  0
VERTEX
  8
0
 62
7
 10
3.59790625
 20
22.80390625
  0
VERTEX
  8
0
 62
7
 10
3.57245264
 20
22.79930811
  0
VERTEX
  8
0
 62
7
 10
3.54748828
 20
22.79583203
  0
VERTEX
  8
0
 62
7
 10
3.52325635
 20
22.79341650
  0
VERTEX
  8
0
 62
7
 10
3.50000000
 20
22.79200000
  0
VERTEX
  8
0
 62
7
 10
3.49200000
 20
22.79200000
  0
VERTEX
  8
0
 62
7
 10
3.46200000
 20
22.79100000
  0
VERTEX
  8
0
 62
7
 10
3.40671875
 20
22.79304688
  0
VERTEX
  8
0
 62
7
 10
3.35200000
 20
22.79912500
  0
VERTEX
  8
0
 62
7
 10
3.29803125
 20
22.80914063
  0
VERTEX
  8
0
 62
7
 10
3.24500000
 20
22.82300000
  0
VERTEX
  8
0
 62
7
 10
3.28500000
 20
22.78200000
  0
VERTEX
  8
0
 62
7
 10
3.35875000
 20
22.71450000
  0
VERTEX
  8
0
 62
7
 10
3.43700000
 20
22.65000000
  0
VERTEX
  8
0
 62
7
 10
3.52600000
 20
22.57700000
  0
VERTEX
  8
0
 62
7
 10
3.59600000
 20
22.51700000
  0
VERTEX
  8
0
 62
7
 10
3.64360156
 20
22.47608984
  0
VERTEX
  8
0
 62
7
 10
3.69012500
 20
22.43290625
  0
VERTEX
  8
0
 62
7
 10
3.73514844
 20
22.38751953
  0
VERTEX
  8
0
 62
7
 10
3.77825000
 20
22.34000000
  0
VERTEX
  8
0
 62
7
 10
3.81900781
 20
22.29041797
  0
VERTEX
  8
0
 62
7
 10
3.85700000
 20
22.23884375
  0
VERTEX
  8
0
 62
7
 10
3.89180469
 20
22.18534766
  0
VERTEX
  8
0
 62
7
 10
3.92300000
 20
22.13000000
  0
VERTEX
  8
0
 62
7
 10
3.90200000
 20
22.11400000
  0
VERTEX
  8
0
 62
7
 10
3.82212500
 20
22.20650000
  0
VERTEX
  8
0
 62
7
 10
3.73700000
 20
22.29525000
  0
VERTEX
  8
0
 62
7
 10
3.64662500
 20
22.38062500
  0
VERTEX
  8
0
 62
7
 10
3.55100000
 20
22.46300000
  0
VERTEX
  8
0
 62
7
 10
3.48000000
 20
22.52300000
  0
VERTEX
  8
0
 62
7
 10
3.39300000
 20
22.59600000
  0
VERTEX
  8
0
 62
7
 10
3.31287500
 20
22.66100000
  0
VERTEX
  8
0
 62
7
 10
3.23500000
 20
22.73200000
  0
VERTEX
  8
0
 62
7
 10
3.22600000
 20
22.74100000
  0
VERTEX
  8
0
 62
7
 10
3.22900000
 20
22.72900000
  0
VERTEX
  8
0
 62
7
 10
3.23760938
 20
22.68907813
  0
VERTEX
  8
0
 62
7
 10
3.24387500
 20
22.64887500
  0
VERTEX
  8
0
 62
7
 10
3.24770313
 20
22.60848438
  0
VERTEX
  8
0
 62
7
 10
3.24900000
 20
22.56800000
  0
VERTEX
  8
0
 62
7
 10
3.24700195
 20
22.51883789
  0
VERTEX
  8
0
 62
7
 10
3.24107813
 20
22.46982813
  0
VERTEX
  8
0
 62
7
 10
3.23133398
 20
22.42131055
  0
VERTEX
  8
0
 62
7
 10
3.21787500
 20
22.37362500
  0
VERTEX
  8
0
 62
7
 10
3.20080664
 20
22.32711133
  0
VERTEX
  8
0
 62
7
 10
3.18023438
 20
22.28210938
  0
VERTEX
  8
0
 62
7
 10
3.15626367
 20
22.23895898
  0
VERTEX
  8
0
 62
7
 10
3.12900000
 20
22.19800000
  0
VERTEX
  8
0
 62
7
 10
3.11500000
 20
22.21100000
  0
VERTEX
  8
0
 62
7
 10
3.13038281
 20
22.25287695
  0
VERTEX
  8
0
 62
7
 10
3.14356250
 20
22.29645313
  0
VERTEX
  8
0
 62
7
 10
3.15458594
 20
22.34127148
  0
VERTEX
  8
0
 62
7
 10
3.16350000
 20
22.38687500
  0
VERTEX
  8
0
 62
7
 10
3.17035156
 20
22.43280664
  0
VERTEX
  8
0
 62
7
 10
3.17518750
 20
22.47860938
  0
VERTEX
  8
0
 62
7
 10
3.17805469
 20
22.52382617
  0
VERTEX
  8
0
 62
7
 10
3.17900000
 20
22.56800000
  0
VERTEX
  8
0
 62
7
 10
3.17773438
 20
22.60457813
  0
VERTEX
  8
0
 62
7
 10
3.17412500
 20
22.64087500
  0
VERTEX
  8
0
 62
7
 10
3.16845313
 20
22.67698438
  0
VERTEX
  8
0
 62
7
 10
3.16100000
 20
22.71300000
  0
VERTEX
  8
0
 62
7
 10
3.15037695
 20
22.75131641
  0
VERTEX
  8
0
 62
7
 10
3.13676563
 20
22.78834375
  0
VERTEX
  8
0
 62
7
 10
3.12055273
 20
22.82419922
  0
VERTEX
  8
0
 62
7
 10
3.10212500
 20
22.85900000
  0
VERTEX
  8
0
 62
7
 10
3.08186914
 20
22.89286328
  0
VERTEX
  8
0
 62
7
 10
3.06017188
 20
22.92590625
  0
VERTEX
  8
0
 62
7
 10
3.03741992
 20
22.95824609
  0
VERTEX
  8
0
 62
7
 10
3.01400000
 20
22.99000000
  0
SEQEND
  0
POLYLINE
  8
0
 62
7
 66
1
 70
1
  0
VERTEX
  8
0
 62
7
 10
6.13000000
 20
22.64600000
  0
VERTEX
  8
0
 62
7
 10
6.05975000
 20
22.61662500
  0
VERTEX
  8
0
 62
7
 10
5.98800000
 20
22.59100000
  0
VERTEX
  8
0
 62
7
 10
5.92281250
 20
22.57168750
  0
VERTEX
  8
0
 62
7
 10
5.85650000
 20
22.55575000
  0
VERTEX
  8
0
 62
7
 10
5.78943750
 20
22.54318750
  0
VERTEX
  8
0
 62
7
 10
5.72200000
 20
22.53400000
  0
VERTEX
  8
0
 62
7
 10
5.71500000
 20
22.49500000
  0
VERTEX
  8
0
 62
7
 10
5.70612500
 20
22.44500000
  0
VERTEX
  8
0
 62
7
 10
5.70100000
 20
22.39800000
  0
VERTEX
  8
0
 62
7
 10
5.70000000
 20
22.38400000
  0
VERTEX
  8
0
 62
7
 10
5.79137500
 20
22.39225000
  0
VERTEX
  8
0
 62
7
 10
5.88200000
 20
22.40800000
  0
VERTEX
  8
0
 62
7
 10
5.95771875
 20
22.42676563
  0
VERTEX
  8
0
 62
7
 10
6.03175000
 20
22.45012500
  0
VERTEX
  8
0
 62
7
 10
6.10390625
 20
22.47817188
  0
VERTEX
  8
0
 62
7
 10
6.17400000
 20
22.51100000
  0
VERTEX
  8
0
 62
7
 10
6.15012500
 20
22.57775000
  0
VERTEX
  8
0
 62
7
 10
6.13000000
 20
22.64600000
  0
SEQEND
  0
POLYLINE
  8
0
 62
7
 66
1
 70
1
  0
VERTEX
  8
0
 62
7
 10
7.39900000
 20
23.62500000
  0
VERTEX
  8
0
 62
7
 10
7.40300000
 20
23.61300000
  0
VERTEX
  8
0
 62
7
 10
7.42700000
 20
23.53900000
  0
VERTEX
  8
0
 62
7
 10
7.45200000
 20
23.46500000
  0
VERTEX
  8
0
 62
7
 10
7.49712500
 20
23.50375000
  0
VERTEX
  8
0
 62
7
 10
7.54600000
 20
23.53800000
  0
VERTEX
  8
0
 62
7
 10
7.57535938
 20
23.55607813
  0
VERTEX
  8
0
 62
7
 10
7.60537500
 20
23.57312500
  0
VERTEX
  8
0
 62
7
 10
7.63670313
 20
23.58735938
  0
VERTEX
  8
0
 62
7
 10
7.67000000
 20
23.59700000
  0
VERTEX
  8
0
 62
7
 10
7.70270313
 20
23.60234375
  0
VERTEX
  8
0
 62
7
 10
7.73587500
 20
23.60525000
  0
VERTEX
  8
0
 62
7
 10
7.76885938
 20
23.60403125
  0
VERTEX
  8
0
 62
7
 10
7.80100000
 20
23.59700000
  0
VERTEX
  8
0
 62
7
 10
7.82543750
 20
23.58693750
  0
VERTEX
  8
0
 62
7
 10
7.84875000
 20
23.57350000
  0
VERTEX
  8
0
 62
7
 10
7.87018750
 20
23.55706250
  0
VERTEX
  8
0
 62
7
 10
7.88900000
 20
23.53800000
  0
VERTEX
  8
0
 62
7
 10
7.90515625
 20
23.51410938
  0
VERTEX
  8
0
 62
7
 10
7.91625000
 20
23.48787500
  0
VERTEX
  8
0
 62
7
 10
7.92246875
 20
23.45995313
  0
VERTEX
  8
0
 62
7
 10
7.92400000
 20
23.43100000
  0
VERTEX
  8
0
 62
7
 10
7.92143750
 20
23.40869922
  0
VERTEX
  8
0
 62
7
 10
7.91550000
 20
23.38759375
  0
VERTEX
  8
0
 62
7
 10
7.90656250
 20
23.36775391
  0
VERTEX
  8
0
 62
7
 10
7.89500000
 20
23.34925000
  0
VERTEX
  8
0
 62
7
 10
7.88118750
 20
23.33215234
  0
VERTEX
  8
0
 62
7
 10
7.86550000
 20
23.31653125
  0
VERTEX
  8
0
 62
7
 10
7.84831250
 20
23.30245703
  0
VERTEX
  8
0
 62
7
 10
7.83000000
 20
23.29000000
  0
VERTEX
  8
0
 62
7
 10
7.80512500
 20
23.27659375
  0
VERTEX
  8
0
 62
7
 10
7.77875000
 20
23.26675000
  0
VERTEX
  8
0
 62
7
 10
7.75125000
 20
23.26103125
  0
VERTEX
  8
0
 62
7
 10
7.72300000
 20
23.26000000
  0
VERTEX
  8
0
 62
7
 10
7.69570313
 20
23.26387500
  0
VERTEX
  8
0
 62
7
 10
7.66962500
 20
23.27225000
  0
VERTEX
  8
0
 62
7
 10
7.64523438
 20
23.28475000
  0
VERTEX
  8
0
 62
7
 10
7.62300000
 20
23.30100000
  0
VERTEX
  8
0
 62
7
 10
7.61850000
 20
23.28012500
  0
VERTEX
  8
0
 62
7
 10
7.61775000
 20
23.25775000
  0
VERTEX
  8
0
 62
7
 10
7.61962500
 20
23.23800000
  0
VERTEX
  8
0
 62
7
 10
7.62300000
 20
23.22500000
  0
VERTEX
  8
0
 62
7
 10
7.63290088
 20
23.20768506
  0
VERTEX
  8
0
 62
7
 10
7.64483203
 20
23.19279297
  0
VERTEX
  8
0
 62
7
 10
7.65857373
 20
23.18021533
  0
VERTEX
  8
0
 62
7
 10
7.67390625
 20
23.16984375
  0
VERTEX
  8
0
 62
7
 10
7.69060986
 20
23.16156982
  0
VERTEX
  8
0
 62
7
 10
7.70846484
 20
23.15528516
  0
VERTEX
  8
0
 62
7
 10
7.72725146
 20
23.15088135
  0
VERTEX
  8
0
 62
7
 10
7.74675000
 20
23.14825000
  0
VERTEX
  8
0
 62
7
 10
7.76674072
 20
23.14728271
  0
VERTEX
  8
0
 62
7
 10
7.78700391
 20
23.14787109
  0
VERTEX
  8
0
 62
7
 10
7.80731982
 20
23.14990674
  0
VERTEX
  8
0
 62
7
 10
7.82746875
 20
23.15328125
  0
VERTEX
  8
0
 62
7
 10
7.84723096
 20
23.15788623
  0
VERTEX
  8
0
 62
7
 10
7.86638672
 20
23.16361328
  0
VERTEX
  8
0
 62
7
 10
7.88471631
 20
23.17035400
  0
VERTEX
  8
0
 62
7
 10
7.90200000
 20
23.17800000
  0
VERTEX
  8
0
 62
7
 10
7.93340625
 20
23.19632813
  0
VERTEX
  8
0
 62
7
 10
7.95900000
 20
23.21737500
  0
VERTEX
  8
0
 62
7
 10
7.98159375
 20
23.24198438
  0
VERTEX
  8
0
 62
7
 10
8.00400000
 20
23.27100000
  0
VERTEX
  8
0
 62
7
 10
8.02189111
 20
23.29795752
  0
VERTEX
  8
0
 62
7
 10
8.03692578
 20
23.32616016
  0
VERTEX
  8
0
 62
7
 10
8.04908350
 20
23.35535303
  0
VERTEX
  8
0
 62
7
 10
8.05834375
 20
23.38528125
  0
VERTEX
  8
0
 62
7
 10
8.06468604
 20
23.41568994
  0
VERTEX
  8
0
 62
7
 10
8.06808984
 20
23.44632422
  0
VERTEX
  8
0
 62
7
 10
8.06853467
 20
23.47692920
  0
VERTEX
  8
0
 62
7
 10
8.06600000
 20
23.50725000
  0
VERTEX
  8
0
 62
7
 10
8.06046533
 20
23.53703174
  0
VERTEX
  8
0
 62
7
 10
8.05191016
 20
23.56601953
  0
VERTEX
  8
0
 62
7
 10
8.04031396
 20
23.59395850
  0
VERTEX
  8
0
 62
7
 10
8.02565625
 20
23.62059375
  0
VERTEX
  8
0
 62
7
 10
8.00791650
 20
23.64567041
  0
VERTEX
  8
0
 62
7
 10
7.98707422
 20
23.66893359
  0
VERTEX
  8
0
 62
7
 10
7.96310889
 20
23.69012842
  0
VERTEX
  8
0
 62
7
 10
7.93600000
 20
23.70900000
  0
VERTEX
  8
0
 62
7
 10
7.91300781
 20
23.72168555
  0
VERTEX
  8
0
 62
7
 10
7.88912500
 20
23.73210938
  0
VERTEX
  8
0
 62
7
 10
7.86449219
 20
23.74044727
  0
VERTEX
  8
0
 62
7
 10
7.83925000
 20
23.74687500
  0
VERTEX
  8
0
 62
7
 10
7.81353906
 20
23.75156836
  0
VERTEX
  8
0
 62
7
 10
7.78750000
 20
23.75470313
  0
VERTEX
  8
0
 62
7
 10
7.76127344
 20
23.75645508
  0
VERTEX
  8
0
 62
7
 10
7.73500000
 20
23.75700000
  0
VERTEX
  8
0
 62
7
 10
7.70373438
 20
23.75546680
  0
VERTEX
  8
0
 62
7
 10
7.67293750
 20
23.75110938
  0
VERTEX
  8
0
 62
7
 10
7.64260938
 20
23.74429102
  0
VERTEX
  8
0
 62
7
 10
7.61275000
 20
23.73537500
  0
VERTEX
  8
0
 62
7
 10
7.58335938
 20
23.72472461
  0
VERTEX
  8
0
 62
7
 10
7.55443750
 20
23.71270313
  0
VERTEX
  8
0
 62
7
 10
7.52598438
 20
23.69967383
  0
VERTEX
  8
0
 62
7
 10
7.49800000
 20
23.68600000
  0
VERTEX
  8
0
 62
7
 10
7.44700000
 20
23.65775000
  0
VERTEX
  8
0
 62
7
 10
7.39900000
 20
23.62500000
  0
SEQEND
  0
POLYLINE
  8
0
 62
7
 66
1
 70
1
  0
VERTEX
  8
0
 62
7
 10
5.87300000
 20
23.25400000
  0
VERTEX
  8
0
 62
7
 10
5.90837500
 20
23.25137500
  0
VERTEX
  8
0
 62
7
 10
5.94375000
 20
23.24650000
  0
VERTEX
  8
0
 62
7
 10
5.97875000
 20
23.23937500
  0
VERTEX
  8
0
 62
7
 10
6.01300000
 20
23.23000000
  0
VERTEX
  8
0
 62
7
 10
5.98209375
 20
23.20809375
  0
VERTEX
  8
0
 62
7
 10
5.95400000
 20
23.18300000
  0
VERTEX
  8
0
 62
7
 10
5.92890625
 20
23.15490625
  0
VERTEX
  8
0
 62
7
 10
5.90700000
 20
23.12400000
  0
VERTEX
  8
0
 62
7
 10
5.88993750
 20
23.09328125
  0
VERTEX
  8
0
 62
7
 10
5.87625000
 20
23.06125000
  0
VERTEX
  8
0
 62
7
 10
5.86593750
 20
23.02809375
  0
VERTEX
  8
0
 62
7
 10
5.85900000
 20
22.99400000
  0
VERTEX
  8
0
 62
7
 10
5.88560938
 20
22.96028125
  0
VERTEX
  8
0
 62
7
 10
5.91437500
 20
22.92825000
  0
VERTEX
  8
0
 62
7
 10
5.94520313
 20
22.89809375
  0
VERTEX
  8
0
 62
7
 10
5.97800000
 20
22.87000000
  0
VERTEX
  8
0
 62
7
 10
6.02201563
 20
22.83739063
  0
VERTEX
  8
0
 62
7
 10
6.06837500
 20
22.80862500
  0
VERTEX
  8
0
 62
7
 10
6.11679688
 20
22.78379688
  0
VERTEX
  8
0
 62
7
 10
6.16700000
 20
22.76300000
  0
VERTEX
  8
0
 62
7
 10
6.17569922
 20
22.71381738
  0
VERTEX
  8
0
 62
7
 10
6.18676563
 20
22.66532031
  0
VERTEX
  8
0
 62
7
 10
6.20015234
 20
22.61758496
  0
VERTEX
  8
0
 62
7
 10
6.21581250
 20
22.57068750
  0
VERTEX
  8
0
 62
7
 10
6.23369922
 20
22.52470410
  0
VERTEX
  8
0
 62
7
 10
6.25376563
 20
22.47971094
  0
VERTEX
  8
0
 62
7
 10
6.27596484
 20
22.43578418
  0
VERTEX
  8
0
 62
7
 10
6.30025000
 20
22.39300000
  0
VERTEX
  8
0
 62
7
 10
6.32657422
 20
22.35143457
  0
VERTEX
  8
0
 62
7
 10
6.35489063
 20
22.31116406
  0
VERTEX
  8
0
 62
7
 10
6.38515234
 20
22.27226465
  0
VERTEX
  8
0
 62
7
 10
6.41731250
 20
22.23481250
  0
VERTEX
  8
0
 62
7
 10
6.45132422
 20
22.19888379
  0
VERTEX
  8
0
 62
7
 10
6.48714063
 20
22.16455469
  0
VERTEX
  8
0
 62
7
 10
6.52471484
 20
22.13190137
  0
VERTEX
  8
0
 62
7
 10
6.56400000
 20
22.10100000
  0
VERTEX
  8
0
 62
7
 10
6.60356250
 20
22.07285938
  0
VERTEX
  8
0
 62
7
 10
6.64425000
 20
22.04687500
  0
VERTEX
  8
0
 62
7
 10
6.68606250
 20
22.02295313
  0
VERTEX
  8
0
 62
7
 10
6.72900000
 20
22.00100000
  0
VERTEX
  8
0
 62
7
 10
6.75630859
 20
22.04696289
  0
VERTEX
  8
0
 62
7
 10
6.78640625
 20
22.09101563
  0
VERTEX
  8
0
 62
7
 10
6.81917578
 20
22.13302930
  0
VERTEX
  8
0
 62
7
 10
6.85450000
 20
22.17287500
  0
VERTEX
  8
0
 62
7
 10
6.89226172
 20
22.21042383
  0
VERTEX
  8
0
 62
7
 10
6.93234375
 20
22.24554688
  0
VERTEX
  8
0
 62
7
 10
6.97462891
 20
22.27811523
  0
VERTEX
  8
0
 62
7
 10
7.01900000
 20
22.30800000
  0
VERTEX
  8
0
 62
7
 10
7.05628125
 20
22.32987500
  0
VERTEX
  8
0
 62
7
 10
7.09450000
 20
22.34950000
  0
VERTEX
  8
0
 62
7
 10
7.13346875
 20
22.36762500
  0
VERTEX
  8
0
 62
7
 10
7.17300000
 20
22.38500000
  0
VERTEX
  8
0
 62
7
 10
7.21247656
 20
22.40015625
  0
VERTEX
  8
0
 62
7
 10
7.25275000
 20
22.41306250
  0
VERTEX
  8
0
 62
7
 10
7.29358594
 20
22.42437500
  0
VERTEX
  8
0
 62
7
 10
7.33475000
 20
22.43475000
  0
VERTEX
  8
0
 62
7
 10
7.37600781
 20
22.44484375
  0
VERTEX
  8
0
 62
7
 10
7.41712500
 20
22.45531250
  0
VERTEX
  8
0
 62
7
 10
7.45786719
 20
22.46681250
  0
VERTEX
  8
0
 62
7
 10
7.49800000
 20
22.48000000
  0
VERTEX
  8
0
 62
7
 10
7.53452539
 20
22.49249414
  0
VERTEX
  8
0
 62
7
 10
7.57120313
 20
22.50476563
  0
VERTEX
  8
0
 62
7
 10
7.60781055
 20
22.51724805
  0
VERTEX
  8
0
 62
7
 10
7.64412500
 20
22.53037500
  0
VERTEX
  8
0
 62
7
 10
7.67992383
 20
22.54458008
  0
VERTEX
  8
0
 62
7
 10
7.71498438
 20
22.56029688
  0
VERTEX
  8
0
 62
7
 10
7.74908398
 20
22.57795898
  0
VERTEX
  8
0
 62
7
 10
7.78200000
 20
22.59800000
  0
VERTEX
  8
0
 62
7
 10
7.84420313
 20
22.64351563
  0
VERTEX
  8
0
 62
7
 10
7.90162500
 20
22.69437500
  0
VERTEX
  8
0
 62
7
 10
7.95398438
 20
22.75029688
  0
VERTEX
  8
0
 62
7
 10
8.00100000
 20
22.81100000
  0
VERTEX
  8
0
 62
7
 10
7.95976563
 20
22.82229102
  0
VERTEX
  8
0
 62
7
 10
7.91937500
 20
22.83589063
  0
VERTEX
  8
0
 62
7
 10
7.87992188
 20
22.85176367
  0
VERTEX
  8
0
 62
7
 10
7.84150000
 20
22.86987500
  0
VERTEX
  8
0
 62
7
 10
7.80420313
 20
22.89018945
  0
VERTEX
  8
0
 62
7
 10
7.76812500
 20
22.91267188
  0
VERTEX
  8
0
 62
7
 10
7.73335938
 20
22.93728711
  0
VERTEX
  8
0
 62
7
 10
7.70000000
 20
22.96400000
  0
VERTEX
  8
0
 62
7
 10
7.66668750
 20
22.99593750
  0
VERTEX
  8
0
 62
7
 10
7.63600000
 20
23.03050000
  0
VERTEX
  8
0
 62
7
 10
7.60606250
 20
23.06581250
  0
VERTEX
  8
0
 62
7
 10
7.57500000
 20
23.10000000
  0
VERTEX
  8
0
 62
7
 10
7.44500000
 20
23.23000000
  0
VERTEX
  8
0
 62
7
 10
7.42412500
 20
23.33425000
  0
VERTEX
  8
0
 62
7
 10
7.39800000
 20
23.43700000
  0
VERTEX
  8
0
 62
7
 10
7.34500000
 20
23.59700000
  0
VERTEX
  8
0
 62
7
 10
7.33140625
 20
23.64054688
  0
VERTEX
  8
0
 62
7
 10
7.31800000
 20
23.68437500
  0
VERTEX
  8
0
 62
7
 10
7.30759375
 20
23.72876563
  0
VERTEX
  8
0
 62
7
 10
7.30300000
 20
23.77400000
  0
VERTEX
  8
0
 62
7
 10
7.30450000
 20
23.80996875
  0
VERTEX
  8
0
 62
7
 10
7.30900000
 20
23.84575000
  0
VERTEX
  8
0
 62
7
 10
7.31650000
 20
23.88115625
  0
VERTEX
  8
0
 62
7
 10
7.32700000
 20
23.91600000
  0
VERTEX
  8
0
 62
7
 10
7.25937305
 20
23.90498438
  0
VERTEX
  8
0
 62
7
 10
7.19229688
 20
23.89143750
  0
VERTEX
  8
0
 62
7
 10
7.12585352
 20
23.87535938
  0
VERTEX
  8
0
 62
7
 10
7.06012500
 20
23.85675000
  0
VERTEX
  8
0
 62
7
 10
6.99519336
 20
23.83560938
  0
VERTEX
  8
0
 62
7
 10
6.93114063
 20
23.81193750
  0
VERTEX
  8
0
 62
7
 10
6.86804883
 20
23.78573438
  0
VERTEX
  8
0
 62
7
 10
6.80600000
 20
23.75700000
  0
VERTEX
  8
0
 62
7
 10
6.72539063
 20
23.71535938
  0
VERTEX
  8
0
 62
7
 10
6.64712500
 20
23.66987500
  0
VERTEX
  8
0
 62
7
 10
6.57129688
 20
23.62045313
  0
VERTEX
  8
0
 62
7
 10
6.49800000
 20
23.56700000
  0
VERTEX
  8
0
 62
7
 10
6.46671875
 20
23.58237500
  0
VERTEX
  8
0
 62
7
 10
6.43450000
 20
23.59550000
  0
VERTEX
  8
0
 62
7
 10
6.40153125
 20
23.60637500
  0
VERTEX
  8
0
 62
7
 10
6.36800000
 20
23.61500000
  0
VERTEX
  8
0
 62
7
 10
6.34459375
 20
23.61856250
  0
VERTEX
  8
0
 62
7
 10
6.32100000
 20
23.62025000
  0
VERTEX
  8
0
 62
7
 10
6.29740625
 20
23.62231250
  0
VERTEX
  8
0
 62
7
 10
6.27400000
 20
23.62700000
  0
VERTEX
  8
0
 62
7
 10
6.23437500
 20
23.64187500
  0
VERTEX
  8
0
 62
7
 10
6.19700000
 20
23.66200000
  0
VERTEX
  8
0
 62
7
 10
6.16406250
 20
23.62701563
  0
VERTEX
  8
0
 62
7
 10
6.13600000
 20
23.58837500
  0
VERTEX
  8
0
 62
7
 10
6.11318750
 20
23.54654688
  0
VERTEX
  8
0
 62
7
 10
6.09600000
 20
23.50200000
  0
VERTEX
  8
0
 62
7
 10
6.08568750
 20
23.46159375
  0
VERTEX
  8
0
 62
7
 10
6.08025000
 20
23.42025000
  0
VERTEX
  8
0
 62
7
 10
6.07968750
 20
23.37853125
  0
VERTEX
  8
0
 62
7
 10
6.08400000
 20
23.33700000
  0
VERTEX
  8
0
 62
7
 10
5.92500000
 20
23.36600000
  0
VERTEX
  8
0
 62
7
 10
5.88400000
 20
23.37300000
  0
VERTEX
  8
0
 62
7
 10
5.87962500
 20
23.31312500
  0
VERTEX
  8
0
 62
7
 10
5.87300000
 20
23.25400000
  0
SEQEND
  0
POLYLINE
  8
0
 62
7
 66
1
 70
1
  0
VERTEX
  8
0
 62
7
 10
6.24500000
 20
23.15600000
  0
VERTEX
  8
0
 62
7
 10
6.23270313
 20
23.16287500
  0
VERTEX
  8
0
 62
7
 10
6.22462500
 20
23.17350000
  0
VERTEX
  8
0
 62
7
 10
6.22123438
 20
23.18637500
  0
VERTEX
  8
0
 62
7
 10
6.22300000
 20
23.20000000
  0
VERTEX
  8
0
 62
7
 10
6.22987500
 20
23.21229688
  0
VERTEX
  8
0
 62
7
 10
6.24050000
 20
23.22037500
  0
VERTEX
  8
0
 62
7
 10
6.25337500
 20
23.22376563
  0
VERTEX
  8
0
 62
7
 10
6.26700000
 20
23.22200000
  0
VERTEX
  8
0
 62
7
 10
6.29856665
 20
23.21204443
  0
VERTEX
  8
0
 62
7
 10
6.33058008
 20
23.20324609
  0
VERTEX
  8
0
 62
7
 10
6.36294800
 20
23.19570752
  0
VERTEX
  8
0
 62
7
 10
6.39557813
 20
23.18953125
  0
VERTEX
  8
0
 62
7
 10
6.42837817
 20
23.18481982
  0
VERTEX
  8
0
 62
7
 10
6.46125586
 20
23.18167578
  0
VERTEX
  8
0
 62
7
 10
6.49411890
 20
23.18020166
  0
VERTEX
  8
0
 62
7
 10
6.52687500
 20
23.18050000
  0
VERTEX
  8
0
 62
7
 10
6.55943188
 20
23.18267334
  0
VERTEX
  8
0
 62
7
 10
6.59169727
 20
23.18682422
  0
VERTEX
  8
0
 62
7
 10
6.62357886
 20
23.19305518
  0
VERTEX
  8
0
 62
7
 10
6.65498438
 20
23.20146875
  0
VERTEX
  8
0
 62
7
 10
6.68582153
 20
23.21216748
  0
VERTEX
  8
0
 62
7
 10
6.71599805
 20
23.22525391
  0
VERTEX
  8
0
 62
7
 10
6.74542163
 20
23.24083057
  0
VERTEX
  8
0
 62
7
 10
6.77400000
 20
23.25900000
  0
VERTEX
  8
0
 62
7
 10
6.84531250
 20
23.31346875
  0
VERTEX
  8
0
 62
7
 10
6.91100000
 20
23.37525000
  0
VERTEX
  8
0
 62
7
 10
6.97368750
 20
23.44715625
  0
VERTEX
  8
0
 62
7
 10
7.03600000
 20
23.53200000
  0
VERTEX
  8
0
 62
7
 10
7.05800000
 20
23.52000000
  0
VERTEX
  8
0
 62
7
 10
7.03865625
 20
23.47335742
  0
VERTEX
  8
0
 62
7
 10
7.01593750
 20
23.42810938
  0
VERTEX
  8
0
 62
7
 10
6.98993750
 20
23.38452539
  0
VERTEX
  8
0
 62
7
 10
6.96075000
 20
23.34287500
  0
VERTEX
  8
0
 62
7
 10
6.92846875
 20
23.30342773
  0
VERTEX
  8
0
 62
7
 10
6.89318750
 20
23.26645313
  0
VERTEX
  8
0
 62
7
 10
6.85500000
 20
23.23222070
  0
VERTEX
  8
0
 62
7
 10
6.81400000
 20
23.20100000
  0
VERTEX
  8
0
 62
7
 10
6.76456250
 20
23.16970313
  0
VERTEX
  8
0
 62
7
 10
6.71250000
 20
23.14337500
  0
VERTEX
  8
0
 62
7
 10
6.65818750
 20
23.12210938
  0
VERTEX
  8
0
 62
7
 10
6.60200000
 20
23.10600000
  0
VERTEX
  8
0
 62
7
 10
6.91300000
 20
22.99700000
  0
VERTEX
  8
0
 62
7
 10
7.02700000
 20
22.95400000
  0
VERTEX
  8
0
 62
7
 10
7.13257813
 20
22.91410938
  0
VERTEX
  8
0
 62
7
 10
7.23637500
 20
22.87562500
  0
VERTEX
  8
0
 62
7
 10
7.34073438
 20
22.83432813
  0
VERTEX
  8
0
 62
7
 10
7.44800000
 20
22.78600000
  0
VERTEX
  8
0
 62
7
 10
7.44500000
 20
22.76400000
  0
VERTEX
  8
0
 62
7
 10
7.33078125
 20
22.78718750
  0
VERTEX
  8
0
 62
7
 10
7.21825000
 20
22.81600000
  0
VERTEX
  8
0
 62
7
 10
7.10834375
 20
22.85006250
  0
VERTEX
  8
0
 62
7
 10
7.00200000
 20
22.88900000
  0
VERTEX
  8
0
 62
7
 10
6.88900000
 20
22.93100000
  0
VERTEX
  8
0
 62
7
 10
6.57600000
 20
23.04100000
  0
VERTEX
  8
0
 62
7
 10
6.61553125
 20
22.98967188
  0
VERTEX
  8
0
 62
7
 10
6.65000000
 20
22.93487500
  0
VERTEX
  8
0
 62
7
 10
6.67921875
 20
22.87689063
  0
VERTEX
  8
0
 62
7
 10
6.70300000
 20
22.81600000
  0
VERTEX
  8
0
 62
7
 10
6.71677930
 20
22.77207813
  0
VERTEX
  8
0
 62
7
 10
6.72773438
 20
22.72618750
  0
VERTEX
  8
0
 62
7
 10
6.73529102
 20
22.67889063
  0
VERTEX
  8
0
 62
7
 10
6.73887500
 20
22.63075000
  0
VERTEX
  8
0
 62
7
 10
6.73791211
 20
22.58232813
  0
VERTEX
  8
0
 62
7
 10
6.73182813
 20
22.53418750
  0
VERTEX
  8
0
 62
7
 10
6.72004883
 20
22.48689063
  0
VERTEX
  8
0
 62
7
 10
6.70200000
 20
22.44100000
  0
VERTEX
  8
0
 62
7
 10
6.68400000
 20
22.44900000
  0
VERTEX
  8
0
 62
7
 10
6.68784570
 20
22.50110742
  0
VERTEX
  8
0
 62
7
 10
6.68832813
 20
22.54860938
  0
VERTEX
  8
0
 62
7
 10
6.68574023
 20
22.59252539
  0
VERTEX
  8
0
 62
7
 10
6.68037500
 20
22.63387500
  0
VERTEX
  8
0
 62
7
 10
6.67252539
 20
22.67367773
  0
VERTEX
  8
0
 62
7
 10
6.66248438
 20
22.71295313
  0
VERTEX
  8
0
 62
7
 10
6.65054492
 20
22.75272070
  0
VERTEX
  8
0
 62
7
 10
6.63700000
 20
22.79400000
  0
VERTEX
  8
0
 62
7
 10
6.62450073
 20
22.82694849
  0
VERTEX
  8
0
 62
7
 10
6.60994336
 20
22.85865039
  0
VERTEX
  8
0
 62
7
 10
6.59342603
 20
22.88907788
  0
VERTEX
  8
0
 62
7
 10
6.57504688
 20
22.91820313
  0
VERTEX
  8
0
 62
7
 10
6.55490405
 20
22.94599829
  0
VERTEX
  8
0
 62
7
 10
6.53309570
 20
22.97243555
  0
VERTEX
  8
0
 62
7
 10
6.50971997
 20
22.99748706
  0
VERTEX
  8
0
 62
7
 10
6.48487500
 20
23.02112500
  0
VERTEX
  8
0
 62
7
 10
6.45865894
 20
23.04332153
  0
VERTEX
  8
0
 62
7
 10
6.43116992
 20
23.06404883
  0
VERTEX
  8
0
 62
7
 10
6.40250610
 20
23.08327905
  0
VERTEX
  8
0
 62
7
 10
6.37276563
 20
23.10098438
  0
VERTEX
  8
0
 62
7
 10
6.34204663
 20
23.11713696
  0
VERTEX
  8
0
 62
7
 10
6.31044727
 20
23.13170898
  0
VERTEX
  8
0
 62
7
 10
6.27806567
 20
23.14467261
  0
VERTEX
  8
0
 62
7
 10
6.24500000
 20
23.15600000
  0
SEQEND
  0
POLYLINE
  8
0
 62
7
 66
1
 70
1
  0
VERTEX
  8
0
 62
7
 10
4.54400000
 20
22.46600000
  0
VERTEX
  8
0
 62
7
 10
4.53075000
 20
22.46215625
  0
VERTEX
  8
0
 62
7
 10
4.51750000
 20
22.46375000
  0
VERTEX
  8
0
 62
7
 10
4.50575000
 20
22.47021875
  0
VERTEX
  8
0
 62
7
 10
4.49700000
 20
22.48100000
  0
VERTEX
  8
0
 62
7
 10
4.49315625
 20
22.49425000
  0
VERTEX
  8
0
 62
7
 10
4.49475000
 20
22.50750000
  0
VERTEX
  8
0
 62
7
 10
4.50121875
 20
22.51925000
  0
VERTEX
  8
0
 62
7
 10
4.51200000
 20
22.52800000
  0
VERTEX
  8
0
 62
7
 10
4.54230078
 20
22.54570117
  0
VERTEX
  8
0
 62
7
 10
4.57084375
 20
22.56573438
  0
VERTEX
  8
0
 62
7
 10
4.59746484
 20
22.58799414
  0
VERTEX
  8
0
 62
7
 10
4.62200000
 20
22.61237500
  0
VERTEX
  8
0
 62
7
 10
4.64428516
 20
22.63877148
  0
VERTEX
  8
0
 62
7
 10
4.66415625
 20
22.66707813
  0
VERTEX
  8
0
 62
7
 10
4.68144922
 20
22.69718945
  0
VERTEX
  8
0
 62
7
 10
4.69600000
 20
22.72900000
  0
VERTEX
  8
0
 62
7
 10
4.71159375
 20
22.77396875
  0
VERTEX
  8
0
 62
7
 10
4.72250000
 20
22.82025000
  0
VERTEX
  8
0
 62
7
 10
4.72890625
 20
22.86765625
  0
VERTEX
  8
0
 62
7
 10
4.73100000
 20
22.91600000
  0
VERTEX
  8
0
 62
7
 10
4.72959375
 20
22.97875000
  0
VERTEX
  8
0
 62
7
 10
4.72350000
 20
23.04000000
  0
VERTEX
  8
0
 62
7
 10
4.70990625
 20
23.11625000
  0
VERTEX
  8
0
 62
7
 10
4.68600000
 20
23.22400000
  0
VERTEX
  8
0
 62
7
 10
4.70500000
 20
23.23800000
  0
VERTEX
  8
0
 62
7
 10
4.72692578
 20
23.20127734
  0
VERTEX
  8
0
 62
7
 10
4.74615625
 20
23.16321875
  0
VERTEX
  8
0
 62
7
 10
4.76262109
 20
23.12398828
  0
VERTEX
  8
0
 62
7
 10
4.77625000
 20
23.08375000
  0
VERTEX
  8
0
 62
7
 10
4.78697266
 20
23.04266797
  0
VERTEX
  8
0
 62
7
 10
4.79471875
 20
23.00090625
  0
VERTEX
  8
0
 62
7
 10
4.79941797
 20
22.95862891
  0
VERTEX
  8
0
 62
7
 10
4.80100000
 20
22.91600000
  0
VERTEX
  8
0
 62
7
 10
4.79870313
 20
22.86148438
  0
VERTEX
  8
0
 62
7
 10
4.79162500
 20
22.80762500
  0
VERTEX
  8
0
 62
7
 10
4.77948438
 20
22.75470313
  0
VERTEX
  8
0
 62
7
 10
4.76200000
 20
22.70300000
  0
VERTEX
  8
0
 62
7
 10
4.74300000
 20
22.66000000
  0
VERTEX
  8
0
 62
7
 10
4.86725000
 20
22.74612500
  0
VERTEX
  8
0
 62
7
 10
4.99000000
 20
22.83900000
  0
VERTEX
  8
0
 62
7
 10
5.10600000
 20
22.93007813
  0
VERTEX
  8
0
 62
7
 10
5.22875000
 20
23.01787500
  0
VERTEX
  8
0
 62
7
 10
5.35787500
 20
23.10548438
  0
VERTEX
  8
0
 62
7
 10
5.49300000
 20
23.19600000
  0
VERTEX
  8
0
 62
7
 10
5.51000000
 20
23.17500000
  0
VERTEX
  8
0
 62
7
 10
5.39635938
 20
23.07521875
  0
VERTEX
  8
0
 62
7
 10
5.28112500
 20
22.97900000
  0
VERTEX
  8
0
 62
7
 10
5.16082813
 20
22.88278125
  0
VERTEX
  8
0
 62
7
 10
5.03200000
 20
22.78300000
  0
VERTEX
  8
0
 62
7
 10
4.93250000
 20
22.70700000
  0
VERTEX
  8
0
 62
7
 10
4.83000000
 20
22.63400000
  0
VERTEX
  8
0
 62
7
 10
4.85100000
 20
22.63400000
  0
VERTEX
  8
0
 62
7
 10
4.88982813
 20
22.63270313
  0
VERTEX
  8
0
 62
7
 10
4.92837500
 20
22.62887500
  0
VERTEX
  8
0
 62
7
 10
4.96673438
 20
22.62260938
  0
VERTEX
  8
0
 62
7
 10
5.00500000
 20
22.61400000
  0
VERTEX
  8
0
 62
7
 10
5.05263281
 20
22.59915820
  0
VERTEX
  8
0
 62
7
 10
5.09918750
 20
22.58020313
  0
VERTEX
  8
0
 62
7
 10
5.14414844
 20
22.55724023
  0
VERTEX
  8
0
 62
7
 10
5.18700000
 20
22.53037500
  0
VERTEX
  8
0
 62
7
 10
5.22722656
 20
22.49971289
  0
VERTEX
  8
0
 62
7
 10
5.26431250
 20
22.46535938
  0
VERTEX
  8
0
 62
7
 10
5.29774219
 20
22.42741992
  0
VERTEX
  8
0
 62
7
 10
5.32700000
 20
22.38600000
  0
VERTEX
  8
0
 62
7
 10
5.30500000
 20
22.37600000
  0
VERTEX
  8
0
 62
7
 10
5.26159961
 20
22.40963672
  0
VERTEX
  8
0
 62
7
 10
5.22085938
 20
22.43884375
  0
VERTEX
  8
0
 62
7
 10
5.18197070
 20
22.46406641
  0
VERTEX
  8
0
 62
7
 10
5.14412500
 20
22.48575000
  0
VERTEX
  8
0
 62
7
 10
5.10651367
 20
22.50433984
  0
VERTEX
  8
0
 62
7
 10
5.06832813
 20
22.52028125
  0
VERTEX
  8
0
 62
7
 10
5.02875977
 20
22.53401953
  0
VERTEX
  8
0
 62
7
 10
4.98700000
 20
22.54600000
  0
VERTEX
  8
0
 62
7
 10
4.95323438
 20
22.55387500
  0
VERTEX
  8
0
 62
7
 10
4.91937500
 20
22.55950000
  0
VERTEX
  8
0
 62
7
 10
4.88532813
 20
22.56287500
  0
VERTEX
  8
0
 62
7
 10
4.85100000
 20
22.56400000
  0
VERTEX
  8
0
 62
7
 10
4.81016406
 20
22.56188086
  0
VERTEX
  8
0
 62
7
 10
4.77012500
 20
22.55585938
  0
VERTEX
  8
0
 62
7
 10
4.73083594
 20
22.54643945
  0
VERTEX
  8
0
 62
7
 10
4.69225000
 20
22.53412500
  0
VERTEX
  8
0
 62
7
 10
4.65432031
 20
22.51941992
  0
VERTEX
  8
0
 62
7
 10
4.61700000
 20
22.50282813
  0
VERTEX
  8
0
 62
7
 10
4.58024219
 20
22.48485352
  0
VERTEX
  8
0
 62
7
 10
4.54400000
 20
22.46600000
  0
SEQEND
  0
ENDSEC
  0
EOF
