  0
SECTION
  2
ENTITIES
  0
POLYLINE
  8
0
 62
7
 66
1
 70
1
  0
VERTEX
  8
0
 62
7
 10
31.75100000
 20
54.10366544
  0
VERTEX
  8
0
 62
7
 10
31.75100000
 20
67.75000000
  0
VERTEX
  8
0
 62
7
 10
4.25100000
 20
67.75000000
  0
VERTEX
  8
0
 62
7
 10
4.25100000
 20
54.10366544
  0
VERTEX
  8
0
 62
7
 10
4.19452960
 20
54.05498188
  0
VERTEX
  8
0
 62
7
 10
4.14191456
 20
54.00173587
  0
VERTEX
  8
0
 62
7
 10
4.09350968
 20
53.94382292
  0
VERTEX
  8
0
 62
7
 10
4.04966972
 20
53.88113855
  0
VERTEX
  8
0
 62
7
 10
4.01074950
 20
53.81357828
  0
VERTEX
  8
0
 62
7
 10
3.97710378
 20
53.74103763
  0
VERTEX
  8
0
 62
7
 10
3.94908737
 20
53.66341210
  0
VERTEX
  8
0
 62
7
 10
3.92705505
 20
53.58059723
  0
VERTEX
  8
0
 62
7
 10
3.91587529
 20
53.52474880
  0
VERTEX
  8
0
 62
7
 10
3.90800688
 20
53.46890037
  0
VERTEX
  8
0
 62
7
 10
3.90335522
 20
53.41342344
  0
VERTEX
  8
0
 62
7
 10
3.90182569
 20
53.35868950
  0
VERTEX
  8
0
 62
7
 10
3.90381669
 20
53.29683254
  0
VERTEX
  8
0
 62
7
 10
3.90971183
 20
53.23612054
  0
VERTEX
  8
0
 62
7
 10
3.91939434
 20
53.17660720
  0
VERTEX
  8
0
 62
7
 10
3.93274742
 20
53.11834622
  0
VERTEX
  8
0
 62
7
 10
3.94965429
 20
53.06139128
  0
VERTEX
  8
0
 62
7
 10
3.96999817
 20
53.00579608
  0
VERTEX
  8
0
 62
7
 10
3.99366228
 20
52.95161431
  0
VERTEX
  8
0
 62
7
 10
4.02052982
 20
52.89889966
  0
VERTEX
  8
0
 62
7
 10
4.05048401
 20
52.84770583
  0
VERTEX
  8
0
 62
7
 10
4.08340808
 20
52.79808651
  0
VERTEX
  8
0
 62
7
 10
4.11918523
 20
52.75009540
  0
VERTEX
  8
0
 62
7
 10
4.15769868
 20
52.70378618
  0
VERTEX
  8
0
 62
7
 10
4.19883165
 20
52.65921255
  0
VERTEX
  8
0
 62
7
 10
4.24246735
 20
52.61642820
  0
VERTEX
  8
0
 62
7
 10
4.28848900
 20
52.57548682
  0
VERTEX
  8
0
 62
7
 10
4.33677982
 20
52.53644212
  0
VERTEX
  8
0
 62
7
 10
4.37481504
 20
52.50791083
  0
VERTEX
  8
0
 62
7
 10
4.41395011
 20
52.48103097
  0
VERTEX
  8
0
 62
7
 10
4.45412590
 20
52.45582865
  0
VERTEX
  8
0
 62
7
 10
4.49528326
 20
52.43233000
  0
VERTEX
  8
0
 62
7
 10
4.53736307
 20
52.41056112
  0
VERTEX
  8
0
 62
7
 10
4.58030619
 20
52.39054816
  0
VERTEX
  8
0
 62
7
 10
4.62405350
 20
52.37231722
  0
VERTEX
  8
0
 62
7
 10
4.66854587
 20
52.35589442
  0
VERTEX
  8
0
 62
7
 10
4.71372416
 20
52.34130590
  0
VERTEX
  8
0
 62
7
 10
4.75952924
 20
52.32857776
  0
VERTEX
  8
0
 62
7
 10
4.80590199
 20
52.31773614
  0
VERTEX
  8
0
 62
7
 10
4.85278326
 20
52.30880714
  0
VERTEX
  8
0
 62
7
 10
4.90011393
 20
52.30181690
  0
VERTEX
  8
0
 62
7
 10
4.94783486
 20
52.29679152
  0
VERTEX
  8
0
 62
7
 10
4.99588693
 20
52.29375715
  0
VERTEX
  8
0
 62
7
 10
5.04421101
 20
52.29273988
  0
VERTEX
  8
0
 62
7
 10
5.19054128
 20
52.29273988
  0
VERTEX
  8
0
 62
7
 10
5.13705505
 20
52.43044155
  0
VERTEX
  8
0
 62
7
 10
5.12396535
 20
52.46617495
  0
VERTEX
  8
0
 62
7
 10
5.11143148
 20
52.50659850
  0
VERTEX
  8
0
 62
7
 10
5.09982006
 20
52.55073702
  0
VERTEX
  8
0
 62
7
 10
5.08949771
 20
52.59761534
  0
VERTEX
  8
0
 62
7
 10
5.08083103
 20
52.64625827
  0
VERTEX
  8
0
 62
7
 10
5.07418664
 20
52.69569063
  0
VERTEX
  8
0
 62
7
 10
5.06993116
 20
52.74493724
  0
VERTEX
  8
0
 62
7
 10
5.06843119
 20
52.79302293
  0
VERTEX
  8
0
 62
7
 10
5.07043377
 20
52.84373231
  0
VERTEX
  8
0
 62
7
 10
5.07612615
 20
52.88589725
  0
VERTEX
  8
0
 62
7
 10
5.08503526
 20
52.91951776
  0
VERTEX
  8
0
 62
7
 10
5.09668807
 20
52.94459383
  0
VERTEX
  8
0
 62
7
 10
5.13030422
 20
52.99798109
  0
VERTEX
  8
0
 62
7
 10
5.16239478
 20
53.04328828
  0
VERTEX
  8
0
 62
7
 10
5.19427247
 20
53.08097978
  0
VERTEX
  8
0
 62
7
 10
5.22725000
 20
53.11151995
  0
VERTEX
  8
0
 62
7
 10
5.26264009
 20
53.13537318
  0
VERTEX
  8
0
 62
7
 10
5.30175545
 20
53.15300382
  0
VERTEX
  8
0
 62
7
 10
5.34590879
 20
53.16487626
  0
VERTEX
  8
0
 62
7
 10
5.39641284
 20
53.17145485
  0
VERTEX
  8
0
 62
7
 10
5.44182569
 20
53.17343617
  0
VERTEX
  8
0
 62
7
 10
5.52679984
 20
53.16935188
  0
VERTEX
  8
0
 62
7
 10
5.61744173
 20
53.15752564
  0
VERTEX
  8
0
 62
7
 10
5.71312752
 20
53.13859742
  0
VERTEX
  8
0
 62
7
 10
5.81323337
 20
53.11320717
  0
VERTEX
  8
0
 62
7
 10
5.91713546
 20
53.08199487
  0
VERTEX
  8
0
 62
7
 10
6.02420993
 20
53.04560047
  0
VERTEX
  8
0
 62
7
 10
6.13383297
 20
53.00466393
  0
VERTEX
  8
0
 62
7
 10
6.24538073
 20
52.95982522
  0
VERTEX
  8
0
 62
7
 10
6.35822938
 20
52.91172430
  0
VERTEX
  8
0
 62
7
 10
6.47175509
 20
52.86100113
  0
VERTEX
  8
0
 62
7
 10
6.58533401
 20
52.80829567
  0
VERTEX
  8
0
 62
7
 10
6.69834232
 20
52.75424789
  0
VERTEX
  8
0
 62
7
 10
6.81015617
 20
52.69949775
  0
VERTEX
  8
0
 62
7
 10
6.92015173
 20
52.64468521
  0
VERTEX
  8
0
 62
7
 10
7.02770518
 20
52.59045023
  0
VERTEX
  8
0
 62
7
 10
7.13219266
 20
52.53743278
  0
VERTEX
  8
0
 62
7
 10
7.29265138
 20
52.45520804
  0
VERTEX
  8
0
 62
7
 10
7.44667661
 20
52.37347863
  0
VERTEX
  8
0
 62
7
 10
7.59237615
 20
52.29174922
  0
VERTEX
  8
0
 62
7
 10
7.67848710
 20
52.24349327
  0
VERTEX
  8
0
 62
7
 10
7.76412500
 20
52.19658399
  0
VERTEX
  8
0
 62
7
 10
7.85023595
 20
52.15181083
  0
VERTEX
  8
0
 62
7
 10
7.93776606
 20
52.10996320
  0
VERTEX
  8
0
 62
7
 10
8.02766141
 20
52.07183055
  0
VERTEX
  8
0
 62
7
 10
8.12086812
 20
52.03820231
  0
VERTEX
  8
0
 62
7
 10
8.21833228
 20
52.00986790
  0
VERTEX
  8
0
 62
7
 10
8.32100000
 20
51.98761676
  0
VERTEX
  8
0
 62
7
 10
8.38167661
 20
51.97510968
  0
VERTEX
  8
0
 62
7
 10
8.43100000
 20
51.96185961
  0
VERTEX
  8
0
 62
7
 10
8.47094123
 20
51.95167439
  0
VERTEX
  8
0
 62
7
 10
8.51286927
 20
51.94278941
  0
VERTEX
  8
0
 62
7
 10
8.56028469
 20
51.93650492
  0
VERTEX
  8
0
 62
7
 10
8.61668807
 20
51.93412114
  0
VERTEX
  8
0
 62
7
 10
8.67421101
 20
51.93412114
  0
VERTEX
  8
0
 62
7
 10
8.72461577
 20
51.88048622
  0
VERTEX
  8
0
 62
7
 10
8.77867041
 20
51.83233088
  0
VERTEX
  8
0
 62
7
 10
8.83595657
 20
51.78937650
  0
VERTEX
  8
0
 62
7
 10
8.89605591
 20
51.75134447
  0
VERTEX
  8
0
 62
7
 10
8.95855006
 20
51.71795615
  0
VERTEX
  8
0
 62
7
 10
9.02302068
 20
51.68893292
  0
VERTEX
  8
0
 62
7
 10
9.08904941
 20
51.66399616
  0
VERTEX
  8
0
 62
7
 10
9.15621789
 20
51.64286725
  0
VERTEX
  8
0
 62
7
 10
9.22410778
 20
51.62526757
  0
VERTEX
  8
0
 62
7
 10
9.29230071
 20
51.61091848
  0
VERTEX
  8
0
 62
7
 10
9.36037834
 20
51.59954138
  0
VERTEX
  8
0
 62
7
 10
9.42792231
 20
51.59085763
  0
VERTEX
  8
0
 62
7
 10
9.49451426
 20
51.58458861
  0
VERTEX
  8
0
 62
7
 10
9.55973584
 20
51.58045570
  0
VERTEX
  8
0
 62
7
 10
9.62316871
 20
51.57818028
  0
VERTEX
  8
0
 62
7
 10
9.68439450
 20
51.57748372
  0
VERTEX
  8
0
 62
7
 10
9.81861468
 20
51.58045570
  0
VERTEX
  8
0
 62
7
 10
10.07186421
 20
51.59519370
  0
VERTEX
  8
0
 62
7
 10
10.32706508
 20
51.61681600
  0
VERTEX
  8
0
 62
7
 10
10.58351953
 20
51.64486985
  0
VERTEX
  8
0
 62
7
 10
10.84052982
 20
51.67890249
  0
VERTEX
  8
0
 62
7
 10
11.09739819
 20
51.71846115
  0
VERTEX
  8
0
 62
7
 10
11.35342689
 20
51.76309307
  0
VERTEX
  8
0
 62
7
 10
11.60791818
 20
51.81234549
  0
VERTEX
  8
0
 62
7
 10
11.86017431
 20
51.86576564
  0
VERTEX
  8
0
 62
7
 10
12.13109031
 20
51.92958772
  0
VERTEX
  8
0
 62
7
 10
12.39018005
 20
51.99852949
  0
VERTEX
  8
0
 62
7
 10
12.63914650
 20
52.07269545
  0
VERTEX
  8
0
 62
7
 10
12.87969266
 20
52.15219007
  0
VERTEX
  8
0
 62
7
 10
13.11352150
 20
52.23711783
  0
VERTEX
  8
0
 62
7
 10
13.34233601
 20
52.32758323
  0
VERTEX
  8
0
 62
7
 10
13.56783916
 20
52.42369075
  0
VERTEX
  8
0
 62
7
 10
13.79173394
 20
52.52554486
  0
VERTEX
  8
0
 62
7
 10
13.76745438
 20
52.49210962
  0
VERTEX
  8
0
 62
7
 10
13.74423771
 20
52.45760342
  0
VERTEX
  8
0
 62
7
 10
13.72215340
 20
52.42209302
  0
VERTEX
  8
0
 62
7
 10
13.70127093
 20
52.38564517
  0
VERTEX
  8
0
 62
7
 10
13.68165978
 20
52.34832662
  0
VERTEX
  8
0
 62
7
 10
13.66338944
 20
52.31020412
  0
VERTEX
  8
0
 62
7
 10
13.64652938
 20
52.27134444
  0
VERTEX
  8
0
 62
7
 10
13.63114908
 20
52.23181432
  0
VERTEX
  8
0
 62
7
 10
13.61731802
 20
52.19168052
  0
VERTEX
  8
0
 62
7
 10
13.60510568
 20
52.15100979
  0
VERTEX
  8
0
 62
7
 10
13.59458154
 20
52.10986888
  0
VERTEX
  8
0
 62
7
 10
13.58581508
 20
52.06832455
  0
VERTEX
  8
0
 62
7
 10
13.57887577
 20
52.02644355
  0
VERTEX
  8
0
 62
7
 10
13.57383311
 20
51.98429263
  0
VERTEX
  8
0
 62
7
 10
13.57075655
 20
51.94193855
  0
VERTEX
  8
0
 62
7
 10
13.56971560
 20
51.89944806
  0
VERTEX
  8
0
 62
7
 10
13.57299541
 20
51.82519504
  0
VERTEX
  8
0
 62
7
 10
13.58308716
 20
51.75122063
  0
VERTEX
  8
0
 62
7
 10
13.60036927
 20
51.67780348
  0
VERTEX
  8
0
 62
7
 10
13.62522018
 20
51.60522219
  0
VERTEX
  8
0
 62
7
 10
13.64740083
 20
51.55350957
  0
VERTEX
  8
0
 62
7
 10
13.67191421
 20
51.50534359
  0
VERTEX
  8
0
 62
7
 10
13.69872779
 20
51.46069523
  0
VERTEX
  8
0
 62
7
 10
13.72780906
 20
51.41953545
  0
VERTEX
  8
0
 62
7
 10
13.75912549
 20
51.38183525
  0
VERTEX
  8
0
 62
7
 10
13.79264457
 20
51.34756559
  0
VERTEX
  8
0
 62
7
 10
13.82833376
 20
51.31669745
  0
VERTEX
  8
0
 62
7
 10
13.86616055
 20
51.28920181
  0
VERTEX
  8
0
 62
7
 10
13.90609242
 20
51.26504965
  0
VERTEX
  8
0
 62
7
 10
13.94809683
 20
51.24421194
  0
VERTEX
  8
0
 62
7
 10
13.99214128
 20
51.22665966
  0
VERTEX
  8
0
 62
7
 10
14.03819323
 20
51.21236378
  0
VERTEX
  8
0
 62
7
 10
14.08622017
 20
51.20129529
  0
VERTEX
  8
0
 62
7
 10
14.13618958
 20
51.19342516
  0
VERTEX
  8
0
 62
7
 10
14.18806892
 20
51.18872437
  0
VERTEX
  8
0
 62
7
 10
14.24182569
 20
51.18716388
  0
VERTEX
  8
0
 62
7
 10
14.29430275
 20
51.18815454
  0
VERTEX
  8
0
 62
7
 10
14.39320183
 20
51.19310784
  0
VERTEX
  8
0
 62
7
 10
14.38916514
 20
51.29217379
  0
VERTEX
  8
0
 62
7
 10
14.38815596
 20
51.32387489
  0
VERTEX
  8
0
 62
7
 10
14.39168019
 20
51.39967582
  0
VERTEX
  8
0
 62
7
 10
14.40215826
 20
51.47445514
  0
VERTEX
  8
0
 62
7
 10
14.41944825
 20
51.54774846
  0
VERTEX
  8
0
 62
7
 10
14.44340826
 20
51.61909142
  0
VERTEX
  8
0
 62
7
 10
14.47389636
 20
51.68801965
  0
VERTEX
  8
0
 62
7
 10
14.51077064
 20
51.75406878
  0
VERTEX
  8
0
 62
7
 10
14.55388919
 20
51.81677443
  0
VERTEX
  8
0
 62
7
 10
14.60311009
 20
51.87567223
  0
VERTEX
  8
0
 62
7
 10
14.64480358
 20
51.91630088
  0
VERTEX
  8
0
 62
7
 10
14.68953641
 20
51.95068373
  0
VERTEX
  8
0
 62
7
 10
14.73713120
 20
51.97907619
  0
VERTEX
  8
0
 62
7
 10
14.78741055
 20
52.00173365
  0
VERTEX
  8
0
 62
7
 10
14.84019707
 20
52.01891153
  0
VERTEX
  8
0
 62
7
 10
14.89531336
 20
52.03086523
  0
VERTEX
  8
0
 62
7
 10
14.95258203
 20
52.03785016
  0
VERTEX
  8
0
 62
7
 10
15.01182569
 20
52.04012171
  0
VERTEX
  8
0
 62
7
 10
15.05510315
 20
52.03900141
  0
VERTEX
  8
0
 62
7
 10
15.09895567
 20
52.03571018
  0
VERTEX
  8
0
 62
7
 10
15.14327237
 20
52.03035249
  0
VERTEX
  8
0
 62
7
 10
15.18794237
 20
52.02303283
  0
VERTEX
  8
0
 62
7
 10
15.23285482
 20
52.01385569
  0
VERTEX
  8
0
 62
7
 10
15.27789883
 20
52.00292554
  0
VERTEX
  8
0
 62
7
 10
15.32296354
 20
51.99034687
  0
VERTEX
  8
0
 62
7
 10
15.36793807
 20
51.97622417
  0
VERTEX
  8
0
 62
7
 10
15.41271156
 20
51.96066192
  0
VERTEX
  8
0
 62
7
 10
15.45717313
 20
51.94376459
  0
VERTEX
  8
0
 62
7
 10
15.50121191
 20
51.92563669
  0
VERTEX
  8
0
 62
7
 10
15.54471703
 20
51.90638268
  0
VERTEX
  8
0
 62
7
 10
15.58757762
 20
51.88610705
  0
VERTEX
  8
0
 62
7
 10
15.62968281
 20
51.86491429
  0
VERTEX
  8
0
 62
7
 10
15.67092172
 20
51.84290888
  0
VERTEX
  8
0
 62
7
 10
15.71118349
 20
51.82019530
  0
VERTEX
  8
0
 62
7
 10
15.76723553
 20
51.78581971
  0
VERTEX
  8
0
 62
7
 10
15.83087708
 20
51.74347724
  0
VERTEX
  8
0
 62
7
 10
15.90087524
 20
51.69407051
  0
VERTEX
  8
0
 62
7
 10
15.97599713
 20
51.63850216
  0
VERTEX
  8
0
 62
7
 10
16.05500986
 20
51.57767479
  0
VERTEX
  8
0
 62
7
 10
16.13668055
 20
51.51249104
  0
VERTEX
  8
0
 62
7
 10
16.21977630
 20
51.44385353
  0
VERTEX
  8
0
 62
7
 10
16.30306422
 20
51.37266487
  0
VERTEX
  8
0
 62
7
 10
16.38531143
 20
51.29982770
  0
VERTEX
  8
0
 62
7
 10
16.46528505
 20
51.22624463
  0
VERTEX
  8
0
 62
7
 10
16.54175218
 20
51.15281828
  0
VERTEX
  8
0
 62
7
 10
16.61347993
 20
51.08045128
  0
VERTEX
  8
0
 62
7
 10
16.67923542
 20
51.01004625
  0
VERTEX
  8
0
 62
7
 10
16.73778577
 20
50.94250582
  0
VERTEX
  8
0
 62
7
 10
16.78789807
 20
50.87873259
  0
VERTEX
  8
0
 62
7
 10
16.82833945
 20
50.81962921
  0
VERTEX
  8
0
 62
7
 10
16.86804711
 20
50.75388265
  0
VERTEX
  8
0
 62
7
 10
16.90540725
 20
50.68786182
  0
VERTEX
  8
0
 62
7
 10
16.94039032
 20
50.62168717
  0
VERTEX
  8
0
 62
7
 10
16.97296674
 20
50.55547914
  0
VERTEX
  8
0
 62
7
 10
17.00310696
 20
50.48935818
  0
VERTEX
  8
0
 62
7
 10
17.03078139
 20
50.42344474
  0
VERTEX
  8
0
 62
7
 10
17.05596049
 20
50.35785926
  0
VERTEX
  8
0
 62
7
 10
17.07861468
 20
50.29272219
  0
VERTEX
  8
0
 62
7
 10
17.09871440
 20
50.22815397
  0
VERTEX
  8
0
 62
7
 10
17.11623007
 20
50.16427506
  0
VERTEX
  8
0
 62
7
 10
17.13113215
 20
50.10120589
  0
VERTEX
  8
0
 62
7
 10
17.14339106
 20
50.03906692
  0
VERTEX
  8
0
 62
7
 10
17.15297723
 20
49.97797859
  0
VERTEX
  8
0
 62
7
 10
17.15986110
 20
49.91806135
  0
VERTEX
  8
0
 62
7
 10
17.16401310
 20
49.85943564
  0
VERTEX
  8
0
 62
7
 10
17.16540367
 20
49.80222191
  0
VERTEX
  8
0
 62
7
 10
17.16313303
 20
49.73108017
  0
VERTEX
  8
0
 62
7
 10
17.15632110
 20
49.66328191
  0
VERTEX
  8
0
 62
7
 10
17.14496789
 20
49.59882713
  0
VERTEX
  8
0
 62
7
 10
17.12907339
 20
49.53771582
  0
VERTEX
  8
0
 62
7
 10
17.11899126
 20
49.51034595
  0
VERTEX
  8
0
 62
7
 10
17.10627039
 20
49.48402672
  0
VERTEX
  8
0
 62
7
 10
17.09108670
 20
49.45885681
  0
VERTEX
  8
0
 62
7
 10
17.07361611
 20
49.43493490
  0
VERTEX
  8
0
 62
7
 10
17.05403453
 20
49.41235967
  0
VERTEX
  8
0
 62
7
 10
17.03251788
 20
49.39122979
  0
VERTEX
  8
0
 62
7
 10
17.00924208
 20
49.37164395
  0
VERTEX
  8
0
 62
7
 10
16.98438303
 20
49.35370082
  0
VERTEX
  8
0
 62
7
 10
16.95811665
 20
49.33749909
  0
VERTEX
  8
0
 62
7
 10
16.93061887
 20
49.32313743
  0
VERTEX
  8
0
 62
7
 10
16.90206560
 20
49.31071452
  0
VERTEX
  8
0
 62
7
 10
16.87263274
 20
49.30032904
  0
VERTEX
  8
0
 62
7
 10
16.84249622
 20
49.29207967
  0
VERTEX
  8
0
 62
7
 10
16.81183196
 20
49.28606509
  0
VERTEX
  8
0
 62
7
 10
16.78081586
 20
49.28238398
  0
VERTEX
  8
0
 62
7
 10
16.74962385
 20
49.28113501
  0
VERTEX
  8
0
 62
7
 10
16.71934862
 20
49.28311633
  0
VERTEX
  8
0
 62
7
 10
16.69815596
 20
49.28410699
  0
VERTEX
  8
0
 62
7
 10
16.67476510
 20
49.28609411
  0
VERTEX
  8
0
 62
7
 10
16.65015317
 20
49.28853400
  0
VERTEX
  8
0
 62
7
 10
16.62454192
 20
49.29171688
  0
VERTEX
  8
0
 62
7
 10
16.59815310
 20
49.29593299
  0
VERTEX
  8
0
 62
7
 10
16.57120844
 20
49.30147256
  0
VERTEX
  8
0
 62
7
 10
16.54392969
 20
49.30862581
  0
VERTEX
  8
0
 62
7
 10
16.51653859
 20
49.31768300
  0
VERTEX
  8
0
 62
7
 10
16.48925688
 20
49.32893433
  0
VERTEX
  8
0
 62
7
 10
16.46230631
 20
49.34267006
  0
VERTEX
  8
0
 62
7
 10
16.43590862
 20
49.35918041
  0
VERTEX
  8
0
 62
7
 10
16.41028554
 20
49.37875561
  0
VERTEX
  8
0
 62
7
 10
16.38565883
 20
49.40168589
  0
VERTEX
  8
0
 62
7
 10
16.36225022
 20
49.42826149
  0
VERTEX
  8
0
 62
7
 10
16.34028147
 20
49.45877264
  0
VERTEX
  8
0
 62
7
 10
16.31997430
 20
49.49350958
  0
VERTEX
  8
0
 62
7
 10
16.30155046
 20
49.53276252
  0
VERTEX
  8
0
 62
7
 10
16.29650459
 20
49.54465044
  0
VERTEX
  8
0
 62
7
 10
16.29044954
 20
49.55455703
  0
VERTEX
  8
0
 62
7
 10
16.27610034
 20
49.56968007
  0
VERTEX
  8
0
 62
7
 10
16.25739908
 20
49.58266700
  0
VERTEX
  8
0
 62
7
 10
16.23453498
 20
49.59175320
  0
VERTEX
  8
0
 62
7
 10
16.20769725
 20
49.59517407
  0
VERTEX
  8
0
 62
7
 10
16.18279903
 20
49.59214018
  0
VERTEX
  8
0
 62
7
 10
16.16291514
 20
49.58501981
  0
VERTEX
  8
0
 62
7
 10
16.14851864
 20
49.57678496
  0
VERTEX
  8
0
 62
7
 10
16.14008257
 20
49.57040759
  0
VERTEX
  8
0
 62
7
 10
16.12090826
 20
49.54762242
  0
VERTEX
  8
0
 62
7
 10
16.10375229
 20
49.51889329
  0
VERTEX
  8
0
 62
7
 10
16.09538324
 20
49.49815329
  0
VERTEX
  8
0
 62
7
 10
16.08713245
 20
49.47333843
  0
VERTEX
  8
0
 62
7
 10
16.07930741
 20
49.44483182
  0
VERTEX
  8
0
 62
7
 10
16.07221560
 20
49.41301656
  0
VERTEX
  8
0
 62
7
 10
16.06616449
 20
49.37827575
  0
VERTEX
  8
0
 62
7
 10
16.06146158
 20
49.34099252
  0
VERTEX
  8
0
 62
7
 10
16.05841435
 20
49.30154995
  0
VERTEX
  8
0
 62
7
 10
16.05733028
 20
49.26033116
  0
VERTEX
  8
0
 62
7
 10
16.05838675
 20
49.21957868
  0
VERTEX
  8
0
 62
7
 10
16.06180849
 20
49.17708481
  0
VERTEX
  8
0
 62
7
 10
16.06797391
 20
49.13324426
  0
VERTEX
  8
0
 62
7
 10
16.07726147
 20
49.08845174
  0
VERTEX
  8
0
 62
7
 10
16.09004960
 20
49.04310198
  0
VERTEX
  8
0
 62
7
 10
16.10671674
 20
48.99758969
  0
VERTEX
  8
0
 62
7
 10
16.12764134
 20
48.95230959
  0
VERTEX
  8
0
 62
7
 10
16.15320183
 20
48.90765638
  0
VERTEX
  8
0
 62
7
 10
16.18455941
 20
48.86255187
  0
VERTEX
  8
0
 62
7
 10
16.22042428
 20
48.81945286
  0
VERTEX
  8
0
 62
7
 10
16.26033668
 20
48.77848416
  0
VERTEX
  8
0
 62
7
 10
16.30383687
 20
48.73977056
  0
VERTEX
  8
0
 62
7
 10
16.35046511
 20
48.70343686
  0
VERTEX
  8
0
 62
7
 10
16.39976165
 20
48.66960787
  0
VERTEX
  8
0
 62
7
 10
16.45126674
 20
48.63840839
  0
VERTEX
  8
0
 62
7
 10
16.50452064
 20
48.60996320
  0
VERTEX
  8
0
 62
7
 10
16.55906361
 20
48.58439713
  0
VERTEX
  8
0
 62
7
 10
16.61443589
 20
48.56183495
  0
VERTEX
  8
0
 62
7
 10
16.67017774
 20
48.54240148
  0
VERTEX
  8
0
 62
7
 10
16.72582942
 20
48.52622152
  0
VERTEX
  8
0
 62
7
 10
16.78093117
 20
48.51341986
  0
VERTEX
  8
0
 62
7
 10
16.83502326
 20
48.50412130
  0
VERTEX
  8
0
 62
7
 10
16.88764593
 20
48.49845064
  0
VERTEX
  8
0
 62
7
 10
16.93833945
 20
48.49653269
  0
VERTEX
  8
0
 62
7
 10
16.98362615
 20
48.49826635
  0
VERTEX
  8
0
 62
7
 10
17.02815596
 20
48.50445797
  0
VERTEX
  8
0
 62
7
 10
17.09529956
 20
48.51736363
  0
VERTEX
  8
0
 62
7
 10
17.16321187
 20
48.53451829
  0
VERTEX
  8
0
 62
7
 10
17.23143166
 20
48.55589874
  0
VERTEX
  8
0
 62
7
 10
17.29949771
 20
48.58148174
  0
VERTEX
  8
0
 62
7
 10
17.36694879
 20
48.61124410
  0
VERTEX
  8
0
 62
7
 10
17.43332368
 20
48.64516257
  0
VERTEX
  8
0
 62
7
 10
17.49816116
 20
48.68321396
  0
VERTEX
  8
0
 62
7
 10
17.56100000
 20
48.72537504
  0
VERTEX
  8
0
 62
7
 10
17.57714679
 20
48.71051514
  0
VERTEX
  8
0
 62
7
 10
17.62475143
 20
48.66783939
  0
VERTEX
  8
0
 62
7
 10
17.66204358
 20
48.63064322
  0
VERTEX
  8
0
 62
7
 10
17.69422678
 20
48.59474729
  0
VERTEX
  8
0
 62
7
 10
17.72650459
 20
48.55597226
  0
VERTEX
  8
0
 62
7
 10
17.78866342
 20
48.47492393
  0
VERTEX
  8
0
 62
7
 10
17.83852294
 20
48.40019106
  0
VERTEX
  8
0
 62
7
 10
17.87778612
 20
48.33028765
  0
VERTEX
  8
0
 62
7
 10
17.90815596
 20
48.26372771
  0
VERTEX
  8
0
 62
7
 10
18.00100000
 20
48.03686669
  0
VERTEX
  8
0
 62
7
 10
18.09384404
 20
48.26372771
  0
VERTEX
  8
0
 62
7
 10
18.12421388
 20
48.33027217
  0
VERTEX
  8
0
 62
7
 10
18.16347706
 20
48.40006722
  0
VERTEX
  8
0
 62
7
 10
18.21333658
 20
48.47450600
  0
VERTEX
  8
0
 62
7
 10
18.27549541
 20
48.55498160
  0
VERTEX
  8
0
 62
7
 10
18.30777322
 20
48.59432936
  0
VERTEX
  8
0
 62
7
 10
18.33995642
 20
48.63051939
  0
VERTEX
  8
0
 62
7
 10
18.37724857
 20
48.66782391
  0
VERTEX
  8
0
 62
7
 10
18.42485321
 20
48.71051514
  0
VERTEX
  8
0
 62
7
 10
18.44100000
 20
48.72537504
  0
VERTEX
  8
0
 62
7
 10
18.50412858
 20
48.68321396
  0
VERTEX
  8
0
 62
7
 10
18.56910206
 20
48.64516257
  0
VERTEX
  8
0
 62
7
 10
18.63549470
 20
48.61124410
  0
VERTEX
  8
0
 62
7
 10
18.70288073
 20
48.58148174
  0
VERTEX
  8
0
 62
7
 10
18.77083443
 20
48.55589874
  0
VERTEX
  8
0
 62
7
 10
18.83893005
 20
48.53451829
  0
VERTEX
  8
0
 62
7
 10
18.90674183
 20
48.51736363
  0
VERTEX
  8
0
 62
7
 10
18.97384404
 20
48.50445797
  0
VERTEX
  8
0
 62
7
 10
19.01837385
 20
48.49826635
  0
VERTEX
  8
0
 62
7
 10
19.06366055
 20
48.49653269
  0
VERTEX
  8
0
 62
7
 10
19.11435407
 20
48.49845064
  0
VERTEX
  8
0
 62
7
 10
19.16697674
 20
48.50412130
  0
VERTEX
  8
0
 62
7
 10
19.22106883
 20
48.51341986
  0
VERTEX
  8
0
 62
7
 10
19.27617058
 20
48.52622152
  0
VERTEX
  8
0
 62
7
 10
19.33182226
 20
48.54240148
  0
VERTEX
  8
0
 62
7
 10
19.38756411
 20
48.56183495
  0
VERTEX
  8
0
 62
7
 10
19.44293639
 20
48.58439713
  0
VERTEX
  8
0
 62
7
 10
19.49747936
 20
48.60996320
  0
VERTEX
  8
0
 62
7
 10
19.55073326
 20
48.63840839
  0
VERTEX
  8
0
 62
7
 10
19.60223835
 20
48.66960787
  0
VERTEX
  8
0
 62
7
 10
19.65153489
 20
48.70343686
  0
VERTEX
  8
0
 62
7
 10
19.69816313
 20
48.73977056
  0
VERTEX
  8
0
 62
7
 10
19.74166332
 20
48.77848416
  0
VERTEX
  8
0
 62
7
 10
19.78157572
 20
48.81945286
  0
VERTEX
  8
0
 62
7
 10
19.81744059
 20
48.86255187
  0
VERTEX
  8
0
 62
7
 10
19.84879817
 20
48.90765638
  0
VERTEX
  8
0
 62
7
 10
19.87435866
 20
48.95230959
  0
VERTEX
  8
0
 62
7
 10
19.89528326
 20
48.99758969
  0
VERTEX
  8
0
 62
7
 10
19.91195040
 20
49.04310198
  0
VERTEX
  8
0
 62
7
 10
19.92473853
 20
49.08845174
  0
VERTEX
  8
0
 62
7
 10
19.93402609
 20
49.13324426
  0
VERTEX
  8
0
 62
7
 10
19.94019151
 20
49.17708481
  0
VERTEX
  8
0
 62
7
 10
19.94361325
 20
49.21957868
  0
VERTEX
  8
0
 62
7
 10
19.94466972
 20
49.26033116
  0
VERTEX
  8
0
 62
7
 10
19.94358565
 20
49.30154995
  0
VERTEX
  8
0
 62
7
 10
19.94053842
 20
49.34099252
  0
VERTEX
  8
0
 62
7
 10
19.93583551
 20
49.37827575
  0
VERTEX
  8
0
 62
7
 10
19.92978440
 20
49.41301656
  0
VERTEX
  8
0
 62
7
 10
19.92269259
 20
49.44483182
  0
VERTEX
  8
0
 62
7
 10
19.91486755
 20
49.47333843
  0
VERTEX
  8
0
 62
7
 10
19.90661676
 20
49.49815329
  0
VERTEX
  8
0
 62
7
 10
19.89824771
 20
49.51889329
  0
VERTEX
  8
0
 62
7
 10
19.88109174
 20
49.54762242
  0
VERTEX
  8
0
 62
7
 10
19.86191743
 20
49.57040759
  0
VERTEX
  8
0
 62
7
 10
19.85348136
 20
49.57678496
  0
VERTEX
  8
0
 62
7
 10
19.83908486
 20
49.58501981
  0
VERTEX
  8
0
 62
7
 10
19.81920097
 20
49.59214018
  0
VERTEX
  8
0
 62
7
 10
19.79430275
 20
49.59517407
  0
VERTEX
  8
0
 62
7
 10
19.76746502
 20
49.59175320
  0
VERTEX
  8
0
 62
7
 10
19.74460092
 20
49.58266700
  0
VERTEX
  8
0
 62
7
 10
19.72589966
 20
49.56968007
  0
VERTEX
  8
0
 62
7
 10
19.71155046
 20
49.55455703
  0
VERTEX
  8
0
 62
7
 10
19.70549541
 20
49.54465044
  0
VERTEX
  8
0
 62
7
 10
19.70044954
 20
49.53276252
  0
VERTEX
  8
0
 62
7
 10
19.68202570
 20
49.49350958
  0
VERTEX
  8
0
 62
7
 10
19.66171853
 20
49.45877264
  0
VERTEX
  8
0
 62
7
 10
19.63974978
 20
49.42826149
  0
VERTEX
  8
0
 62
7
 10
19.61634117
 20
49.40168589
  0
VERTEX
  8
0
 62
7
 10
19.59171446
 20
49.37875561
  0
VERTEX
  8
0
 62
7
 10
19.56609138
 20
49.35918041
  0
VERTEX
  8
0
 62
7
 10
19.53969369
 20
49.34267006
  0
VERTEX
  8
0
 62
7
 10
19.51274312
 20
49.32893433
  0
VERTEX
  8
0
 62
7
 10
19.48546141
 20
49.31768300
  0
VERTEX
  8
0
 62
7
 10
19.45807031
 20
49.30862581
  0
VERTEX
  8
0
 62
7
 10
19.43079156
 20
49.30147256
  0
VERTEX
  8
0
 62
7
 10
19.40384690
 20
49.29593299
  0
VERTEX
  8
0
 62
7
 10
19.37745808
 20
49.29171688
  0
VERTEX
  8
0
 62
7
 10
19.35184683
 20
49.28853400
  0
VERTEX
  8
0
 62
7
 10
19.32723490
 20
49.28609411
  0
VERTEX
  8
0
 62
7
 10
19.30384404
 20
49.28410699
  0
VERTEX
  8
0
 62
7
 10
19.28265138
 20
49.28311633
  0
VERTEX
  8
0
 62
7
 10
19.25237615
 20
49.28113501
  0
VERTEX
  8
0
 62
7
 10
19.22118414
 20
49.28238398
  0
VERTEX
  8
0
 62
7
 10
19.19016804
 20
49.28606509
  0
VERTEX
  8
0
 62
7
 10
19.15950378
 20
49.29207967
  0
VERTEX
  8
0
 62
7
 10
19.12936726
 20
49.30032904
  0
VERTEX
  8
0
 62
7
 10
19.09993440
 20
49.31071452
  0
VERTEX
  8
0
 62
7
 10
19.07138113
 20
49.32313743
  0
VERTEX
  8
0
 62
7
 10
19.04388335
 20
49.33749909
  0
VERTEX
  8
0
 62
7
 10
19.01761697
 20
49.35370082
  0
VERTEX
  8
0
 62
7
 10
18.99275792
 20
49.37164395
  0
VERTEX
  8
0
 62
7
 10
18.96948212
 20
49.39122979
  0
VERTEX
  8
0
 62
7
 10
18.94796547
 20
49.41235967
  0
VERTEX
  8
0
 62
7
 10
18.92838389
 20
49.43493490
  0
VERTEX
  8
0
 62
7
 10
18.91091330
 20
49.45885681
  0
VERTEX
  8
0
 62
7
 10
18.89572961
 20
49.48402672
  0
VERTEX
  8
0
 62
7
 10
18.88300874
 20
49.51034595
  0
VERTEX
  8
0
 62
7
 10
18.87292661
 20
49.53771582
  0
VERTEX
  8
0
 62
7
 10
18.85703211
 20
49.59882713
  0
VERTEX
  8
0
 62
7
 10
18.84567890
 20
49.66328191
  0
VERTEX
  8
0
 62
7
 10
18.83886697
 20
49.73108017
  0
VERTEX
  8
0
 62
7
 10
18.83659633
 20
49.80222191
  0
VERTEX
  8
0
 62
7
 10
18.83798690
 20
49.85943564
  0
VERTEX
  8
0
 62
7
 10
18.84213890
 20
49.91806135
  0
VERTEX
  8
0
 62
7
 10
18.84902277
 20
49.97797859
  0
VERTEX
  8
0
 62
7
 10
18.85860894
 20
50.03906692
  0
VERTEX
  8
0
 62
7
 10
18.87086785
 20
50.10120589
  0
VERTEX
  8
0
 62
7
 10
18.88576993
 20
50.16427506
  0
VERTEX
  8
0
 62
7
 10
18.90328560
 20
50.22815397
  0
VERTEX
  8
0
 62
7
 10
18.92338532
 20
50.29272219
  0
VERTEX
  8
0
 62
7
 10
18.94603951
 20
50.35785926
  0
VERTEX
  8
0
 62
7
 10
18.97121861
 20
50.42344474
  0
VERTEX
  8
0
 62
7
 10
18.99889304
 20
50.48935818
  0
VERTEX
  8
0
 62
7
 10
19.02903326
 20
50.55547914
  0
VERTEX
  8
0
 62
7
 10
19.06160968
 20
50.62168717
  0
VERTEX
  8
0
 62
7
 10
19.09659275
 20
50.68786182
  0
VERTEX
  8
0
 62
7
 10
19.13395289
 20
50.75388265
  0
VERTEX
  8
0
 62
7
 10
19.17366055
 20
50.81962921
  0
VERTEX
  8
0
 62
7
 10
19.21410193
 20
50.87873259
  0
VERTEX
  8
0
 62
7
 10
19.26421423
 20
50.94250582
  0
VERTEX
  8
0
 62
7
 10
19.32276458
 20
51.01004625
  0
VERTEX
  8
0
 62
7
 10
19.38852007
 20
51.08045128
  0
VERTEX
  8
0
 62
7
 10
19.46024782
 20
51.15281828
  0
VERTEX
  8
0
 62
7
 10
19.53671495
 20
51.22624463
  0
VERTEX
  8
0
 62
7
 10
19.61668857
 20
51.29982770
  0
VERTEX
  8
0
 62
7
 10
19.69893578
 20
51.37266487
  0
VERTEX
  8
0
 62
7
 10
19.78222370
 20
51.44385353
  0
VERTEX
  8
0
 62
7
 10
19.86531945
 20
51.51249104
  0
VERTEX
  8
0
 62
7
 10
19.94699014
 20
51.57767479
  0
VERTEX
  8
0
 62
7
 10
20.02600287
 20
51.63850216
  0
VERTEX
  8
0
 62
7
 10
20.10112476
 20
51.69407051
  0
VERTEX
  8
0
 62
7
 10
20.17112292
 20
51.74347724
  0
VERTEX
  8
0
 62
7
 10
20.23476447
 20
51.78581971
  0
VERTEX
  8
0
 62
7
 10
20.29081651
 20
51.82019530
  0
VERTEX
  8
0
 62
7
 10
20.33107828
 20
51.84290888
  0
VERTEX
  8
0
 62
7
 10
20.37231719
 20
51.86491429
  0
VERTEX
  8
0
 62
7
 10
20.41442238
 20
51.88610705
  0
VERTEX
  8
0
 62
7
 10
20.45728297
 20
51.90638268
  0
VERTEX
  8
0
 62
7
 10
20.50078809
 20
51.92563669
  0
VERTEX
  8
0
 62
7
 10
20.54482687
 20
51.94376459
  0
VERTEX
  8
0
 62
7
 10
20.58928844
 20
51.96066192
  0
VERTEX
  8
0
 62
7
 10
20.63406193
 20
51.97622417
  0
VERTEX
  8
0
 62
7
 10
20.67903646
 20
51.99034687
  0
VERTEX
  8
0
 62
7
 10
20.72410117
 20
52.00292554
  0
VERTEX
  8
0
 62
7
 10
20.76914518
 20
52.01385569
  0
VERTEX
  8
0
 62
7
 10
20.81405763
 20
52.02303283
  0
VERTEX
  8
0
 62
7
 10
20.85872763
 20
52.03035249
  0
VERTEX
  8
0
 62
7
 10
20.90304433
 20
52.03571018
  0
VERTEX
  8
0
 62
7
 10
20.94689685
 20
52.03900141
  0
VERTEX
  8
0
 62
7
 10
20.99017431
 20
52.04012171
  0
VERTEX
  8
0
 62
7
 10
21.04941797
 20
52.03785016
  0
VERTEX
  8
0
 62
7
 10
21.10668664
 20
52.03086523
  0
VERTEX
  8
0
 62
7
 10
21.16180293
 20
52.01891153
  0
VERTEX
  8
0
 62
7
 10
21.21458945
 20
52.00173365
  0
VERTEX
  8
0
 62
7
 10
21.26486880
 20
51.97907619
  0
VERTEX
  8
0
 62
7
 10
21.31246359
 20
51.95068373
  0
VERTEX
  8
0
 62
7
 10
21.35719642
 20
51.91630088
  0
VERTEX
  8
0
 62
7
 10
21.39888991
 20
51.87567223
  0
VERTEX
  8
0
 62
7
 10
21.44811081
 20
51.81677443
  0
VERTEX
  8
0
 62
7
 10
21.49122936
 20
51.75406878
  0
VERTEX
  8
0
 62
7
 10
21.52810364
 20
51.68801965
  0
VERTEX
  8
0
 62
7
 10
21.55859174
 20
51.61909142
  0
VERTEX
  8
0
 62
7
 10
21.58255175
 20
51.54774846
  0
VERTEX
  8
0
 62
7
 10
21.59984174
 20
51.47445514
  0
VERTEX
  8
0
 62
7
 10
21.61031981
 20
51.39967582
  0
VERTEX
  8
0
 62
7
 10
21.61384404
 20
51.32387489
  0
VERTEX
  8
0
 62
7
 10
21.61283486
 20
51.29217379
  0
VERTEX
  8
0
 62
7
 10
21.60879817
 20
51.19310784
  0
VERTEX
  8
0
 62
7
 10
21.70769725
 20
51.18815454
  0
VERTEX
  8
0
 62
7
 10
21.76017431
 20
51.18716388
  0
VERTEX
  8
0
 62
7
 10
21.81393108
 20
51.18872437
  0
VERTEX
  8
0
 62
7
 10
21.86581042
 20
51.19342516
  0
VERTEX
  8
0
 62
7
 10
21.91577983
 20
51.20129529
  0
VERTEX
  8
0
 62
7
 10
21.96380677
 20
51.21236378
  0
VERTEX
  8
0
 62
7
 10
22.00985872
 20
51.22665966
  0
VERTEX
  8
0
 62
7
 10
22.05390317
 20
51.24421194
  0
VERTEX
  8
0
 62
7
 10
22.09590758
 20
51.26504965
  0
VERTEX
  8
0
 62
7
 10
22.13583945
 20
51.28920181
  0
VERTEX
  8
0
 62
7
 10
22.17366624
 20
51.31669745
  0
VERTEX
  8
0
 62
7
 10
22.20935543
 20
51.34756559
  0
VERTEX
  8
0
 62
7
 10
22.24287451
 20
51.38183525
  0
VERTEX
  8
0
 62
7
 10
22.27419094
 20
51.41953545
  0
VERTEX
  8
0
 62
7
 10
22.30327221
 20
51.46069523
  0
VERTEX
  8
0
 62
7
 10
22.33008579
 20
51.50534359
  0
VERTEX
  8
0
 62
7
 10
22.35459917
 20
51.55350957
  0
VERTEX
  8
0
 62
7
 10
22.37677982
 20
51.60522219
  0
VERTEX
  8
0
 62
7
 10
22.40163073
 20
51.67780348
  0
VERTEX
  8
0
 62
7
 10
22.41891284
 20
51.75122063
  0
VERTEX
  8
0
 62
7
 10
22.42900459
 20
51.82519504
  0
VERTEX
  8
0
 62
7
 10
22.43228440
 20
51.89944806
  0
VERTEX
  8
0
 62
7
 10
22.43124345
 20
51.94193855
  0
VERTEX
  8
0
 62
7
 10
22.42816689
 20
51.98429263
  0
VERTEX
  8
0
 62
7
 10
22.42312423
 20
52.02644355
  0
VERTEX
  8
0
 62
7
 10
22.41618492
 20
52.06832455
  0
VERTEX
  8
0
 62
7
 10
22.40741846
 20
52.10986888
  0
VERTEX
  8
0
 62
7
 10
22.39689432
 20
52.15100979
  0
VERTEX
  8
0
 62
7
 10
22.38468198
 20
52.19168052
  0
VERTEX
  8
0
 62
7
 10
22.37085092
 20
52.23181432
  0
VERTEX
  8
0
 62
7
 10
22.35547062
 20
52.27134444
  0
VERTEX
  8
0
 62
7
 10
22.33861056
 20
52.31020412
  0
VERTEX
  8
0
 62
7
 10
22.32034022
 20
52.34832662
  0
VERTEX
  8
0
 62
7
 10
22.30072907
 20
52.38564517
  0
VERTEX
  8
0
 62
7
 10
22.27984660
 20
52.42209302
  0
VERTEX
  8
0
 62
7
 10
22.25776229
 20
52.45760342
  0
VERTEX
  8
0
 62
7
 10
22.23454562
 20
52.49210962
  0
VERTEX
  8
0
 62
7
 10
22.21026606
 20
52.52554486
  0
VERTEX
  8
0
 62
7
 10
22.43416084
 20
52.42369075
  0
VERTEX
  8
0
 62
7
 10
22.65966399
 20
52.32758323
  0
VERTEX
  8
0
 62
7
 10
22.88847850
 20
52.23711783
  0
VERTEX
  8
0
 62
7
 10
23.12230734
 20
52.15219007
  0
VERTEX
  8
0
 62
7
 10
23.36285350
 20
52.07269545
  0
VERTEX
  8
0
 62
7
 10
23.61181995
 20
51.99852949
  0
VERTEX
  8
0
 62
7
 10
23.87090969
 20
51.92958772
  0
VERTEX
  8
0
 62
7
 10
24.14182569
 20
51.86576564
  0
VERTEX
  8
0
 62
7
 10
24.39408182
 20
51.81234549
  0
VERTEX
  8
0
 62
7
 10
24.64857311
 20
51.76309307
  0
VERTEX
  8
0
 62
7
 10
24.90460181
 20
51.71846115
  0
VERTEX
  8
0
 62
7
 10
25.16147018
 20
51.67890249
  0
VERTEX
  8
0
 62
7
 10
25.41848047
 20
51.64486985
  0
VERTEX
  8
0
 62
7
 10
25.67493492
 20
51.61681600
  0
VERTEX
  8
0
 62
7
 10
25.93013579
 20
51.59519370
  0
VERTEX
  8
0
 62
7
 10
26.18338532
 20
51.58045570
  0
VERTEX
  8
0
 62
7
 10
26.31760550
 20
51.57748372
  0
VERTEX
  8
0
 62
7
 10
26.37883129
 20
51.57818028
  0
VERTEX
  8
0
 62
7
 10
26.44226416
 20
51.58045570
  0
VERTEX
  8
0
 62
7
 10
26.50748574
 20
51.58458861
  0
VERTEX
  8
0
 62
7
 10
26.57407769
 20
51.59085763
  0
VERTEX
  8
0
 62
7
 10
26.64162166
 20
51.59954138
  0
VERTEX
  8
0
 62
7
 10
26.70969929
 20
51.61091848
  0
VERTEX
  8
0
 62
7
 10
26.77789222
 20
51.62526757
  0
VERTEX
  8
0
 62
7
 10
26.84578211
 20
51.64286725
  0
VERTEX
  8
0
 62
7
 10
26.91295059
 20
51.66399616
  0
VERTEX
  8
0
 62
7
 10
26.97897932
 20
51.68893292
  0
VERTEX
  8
0
 62
7
 10
27.04344994
 20
51.71795615
  0
VERTEX
  8
0
 62
7
 10
27.10594409
 20
51.75134447
  0
VERTEX
  8
0
 62
7
 10
27.16604343
 20
51.78937650
  0
VERTEX
  8
0
 62
7
 10
27.22332959
 20
51.83233088
  0
VERTEX
  8
0
 62
7
 10
27.27738423
 20
51.88048622
  0
VERTEX
  8
0
 62
7
 10
27.32778899
 20
51.93412114
  0
VERTEX
  8
0
 62
7
 10
27.38531193
 20
51.93412114
  0
VERTEX
  8
0
 62
7
 10
27.44171531
 20
51.93650492
  0
VERTEX
  8
0
 62
7
 10
27.48913073
 20
51.94278941
  0
VERTEX
  8
0
 62
7
 10
27.53105877
 20
51.95167439
  0
VERTEX
  8
0
 62
7
 10
27.57100000
 20
51.96185961
  0
VERTEX
  8
0
 62
7
 10
27.62032339
 20
51.97510968
  0
VERTEX
  8
0
 62
7
 10
27.68100000
 20
51.98761676
  0
VERTEX
  8
0
 62
7
 10
27.78366772
 20
52.00986790
  0
VERTEX
  8
0
 62
7
 10
27.88113188
 20
52.03820231
  0
VERTEX
  8
0
 62
7
 10
27.97433859
 20
52.07183055
  0
VERTEX
  8
0
 62
7
 10
28.06423394
 20
52.10996320
  0
VERTEX
  8
0
 62
7
 10
28.15176405
 20
52.15181083
  0
VERTEX
  8
0
 62
7
 10
28.23787500
 20
52.19658399
  0
VERTEX
  8
0
 62
7
 10
28.32351290
 20
52.24349327
  0
VERTEX
  8
0
 62
7
 10
28.40962385
 20
52.29174922
  0
VERTEX
  8
0
 62
7
 10
28.55532339
 20
52.37347863
  0
VERTEX
  8
0
 62
7
 10
28.70934862
 20
52.45520804
  0
VERTEX
  8
0
 62
7
 10
28.86980734
 20
52.53743278
  0
VERTEX
  8
0
 62
7
 10
28.97429482
 20
52.59045023
  0
VERTEX
  8
0
 62
7
 10
29.08184827
 20
52.64468521
  0
VERTEX
  8
0
 62
7
 10
29.19184383
 20
52.69949775
  0
VERTEX
  8
0
 62
7
 10
29.30365768
 20
52.75424789
  0
VERTEX
  8
0
 62
7
 10
29.41666599
 20
52.80829567
  0
VERTEX
  8
0
 62
7
 10
29.53024491
 20
52.86100113
  0
VERTEX
  8
0
 62
7
 10
29.64377062
 20
52.91172430
  0
VERTEX
  8
0
 62
7
 10
29.75661927
 20
52.95982522
  0
VERTEX
  8
0
 62
7
 10
29.86816703
 20
53.00466393
  0
VERTEX
  8
0
 62
7
 10
29.97779007
 20
53.04560047
  0
VERTEX
  8
0
 62
7
 10
30.08486454
 20
53.08199487
  0
VERTEX
  8
0
 62
7
 10
30.18876663
 20
53.11320717
  0
VERTEX
  8
0
 62
7
 10
30.28887248
 20
53.13859742
  0
VERTEX
  8
0
 62
7
 10
30.38455827
 20
53.15752564
  0
VERTEX
  8
0
 62
7
 10
30.47520016
 20
53.16935188
  0
VERTEX
  8
0
 62
7
 10
30.56017431
 20
53.17343617
  0
VERTEX
  8
0
 62
7
 10
30.60558716
 20
53.17145485
  0
VERTEX
  8
0
 62
7
 10
30.65609121
 20
53.16487626
  0
VERTEX
  8
0
 62
7
 10
30.70024455
 20
53.15300382
  0
VERTEX
  8
0
 62
7
 10
30.73935991
 20
53.13537318
  0
VERTEX
  8
0
 62
7
 10
30.77475000
 20
53.11151995
  0
VERTEX
  8
0
 62
7
 10
30.80772753
 20
53.08097978
  0
VERTEX
  8
0
 62
7
 10
30.83960522
 20
53.04328828
  0
VERTEX
  8
0
 62
7
 10
30.87169578
 20
52.99798109
  0
VERTEX
  8
0
 62
7
 10
30.90531193
 20
52.94459383
  0
VERTEX
  8
0
 62
7
 10
30.91696474
 20
52.91951776
  0
VERTEX
  8
0
 62
7
 10
30.92587385
 20
52.88589725
  0
VERTEX
  8
0
 62
7
 10
30.93156623
 20
52.84373231
  0
VERTEX
  8
0
 62
7
 10
30.93356881
 20
52.79302293
  0
VERTEX
  8
0
 62
7
 10
30.93206884
 20
52.74493724
  0
VERTEX
  8
0
 62
7
 10
30.92781336
 20
52.69569063
  0
VERTEX
  8
0
 62
7
 10
30.92116897
 20
52.64625827
  0
VERTEX
  8
0
 62
7
 10
30.91250229
 20
52.59761534
  0
VERTEX
  8
0
 62
7
 10
30.90217994
 20
52.55073702
  0
VERTEX
  8
0
 62
7
 10
30.89056852
 20
52.50659850
  0
VERTEX
  8
0
 62
7
 10
30.87803465
 20
52.46617495
  0
VERTEX
  8
0
 62
7
 10
30.86494495
 20
52.43044155
  0
VERTEX
  8
0
 62
7
 10
30.81145872
 20
52.29273988
  0
VERTEX
  8
0
 62
7
 10
30.95778899
 20
52.29273988
  0
VERTEX
  8
0
 62
7
 10
31.00611307
 20
52.29375715
  0
VERTEX
  8
0
 62
7
 10
31.05416514
 20
52.29679152
  0
VERTEX
  8
0
 62
7
 10
31.10188607
 20
52.30181690
  0
VERTEX
  8
0
 62
7
 10
31.14921674
 20
52.30880714
  0
VERTEX
  8
0
 62
7
 10
31.19609801
 20
52.31773614
  0
VERTEX
  8
0
 62
7
 10
31.24247076
 20
52.32857776
  0
VERTEX
  8
0
 62
7
 10
31.28827584
 20
52.34130590
  0
VERTEX
  8
0
 62
7
 10
31.33345413
 20
52.35589442
  0
VERTEX
  8
0
 62
7
 10
31.37794650
 20
52.37231722
  0
VERTEX
  8
0
 62
7
 10
31.42169381
 20
52.39054816
  0
VERTEX
  8
0
 62
7
 10
31.46463693
 20
52.41056112
  0
VERTEX
  8
0
 62
7
 10
31.50671674
 20
52.43233000
  0
VERTEX
  8
0
 62
7
 10
31.54787410
 20
52.45582865
  0
VERTEX
  8
0
 62
7
 10
31.58804989
 20
52.48103097
  0
VERTEX
  8
0
 62
7
 10
31.62718496
 20
52.50791083
  0
VERTEX
  8
0
 62
7
 10
31.66522018
 20
52.53644212
  0
VERTEX
  8
0
 62
7
 10
31.71351100
 20
52.57548682
  0
VERTEX
  8
0
 62
7
 10
31.75953265
 20
52.61642820
  0
VERTEX
  8
0
 62
7
 10
31.80316835
 20
52.65921255
  0
VERTEX
  8
0
 62
7
 10
31.84430132
 20
52.70378618
  0
VERTEX
  8
0
 62
7
 10
31.88281477
 20
52.75009540
  0
VERTEX
  8
0
 62
7
 10
31.91859192
 20
52.79808651
  0
VERTEX
  8
0
 62
7
 10
31.95151599
 20
52.84770583
  0
VERTEX
  8
0
 62
7
 10
31.98147018
 20
52.89889966
  0
VERTEX
  8
0
 62
7
 10
32.00833772
 20
52.95161431
  0
VERTEX
  8
0
 62
7
 10
32.03200183
 20
53.00579608
  0
VERTEX
  8
0
 62
7
 10
32.05234571
 20
53.06139128
  0
VERTEX
  8
0
 62
7
 10
32.06925258
 20
53.11834622
  0
VERTEX
  8
0
 62
7
 10
32.08260566
 20
53.17660720
  0
VERTEX
  8
0
 62
7
 10
32.09228817
 20
53.23612054
  0
VERTEX
  8
0
 62
7
 10
32.09818331
 20
53.29683254
  0
VERTEX
  8
0
 62
7
 10
32.10017431
 20
53.35868950
  0
VERTEX
  8
0
 62
7
 10
32.09864478
 20
53.41342344
  0
VERTEX
  8
0
 62
7
 10
32.09399312
 20
53.46890037
  0
VERTEX
  8
0
 62
7
 10
32.08612471
 20
53.52474880
  0
VERTEX
  8
0
 62
7
 10
32.07494495
 20
53.58059723
  0
VERTEX
  8
0
 62
7
 10
32.05291263
 20
53.66341210
  0
VERTEX
  8
0
 62
7
 10
32.02489622
 20
53.74103763
  0
VERTEX
  8
0
 62
7
 10
31.99125050
 20
53.81357828
  0
VERTEX
  8
0
 62
7
 10
31.95233028
 20
53.88113855
  0
VERTEX
  8
0
 62
7
 10
31.90849032
 20
53.94382292
  0
VERTEX
  8
0
 62
7
 10
31.86008544
 20
54.00173587
  0
VERTEX
  8
0
 62
7
 10
31.80747040
 20
54.05498188
  0
VERTEX
  8
0
 62
7
 10
31.75100000
 20
54.10366544
  0
SEQEND
  0
POLYLINE
  8
0
 62
7
 66
1
 70
1
  0
VERTEX
  8
0
 62
7
 10
31.65100000
 20
54.17400000
  0
VERTEX
  8
0
 62
7
 10
31.65100000
 20
67.65000000
  0
VERTEX
  8
0
 62
7
 10
4.35100000
 20
67.65000000
  0
VERTEX
  8
0
 62
7
 10
4.35100000
 20
54.17400000
  0
VERTEX
  8
0
 62
7
 10
4.39438867
 20
54.19922266
  0
VERTEX
  8
0
 62
7
 10
4.43898438
 20
54.22240625
  0
VERTEX
  8
0
 62
7
 10
4.48468164
 20
54.24357422
  0
VERTEX
  8
0
 62
7
 10
4.53137500
 20
54.26275000
  0
VERTEX
  8
0
 62
7
 10
4.57895898
 20
54.27995703
  0
VERTEX
  8
0
 62
7
 10
4.62732813
 20
54.29521875
  0
VERTEX
  8
0
 62
7
 10
4.67637695
 20
54.30855859
  0
VERTEX
  8
0
 62
7
 10
4.72600000
 20
54.32000000
  0
VERTEX
  8
0
 62
7
 10
4.72600000
 20
67.27500000
  0
VERTEX
  8
0
 62
7
 10
31.27600000
 20
67.27500000
  0
VERTEX
  8
0
 62
7
 10
31.27600000
 20
54.32000000
  0
VERTEX
  8
0
 62
7
 10
31.32562305
 20
54.30855859
  0
VERTEX
  8
0
 62
7
 10
31.37467188
 20
54.29521875
  0
VERTEX
  8
0
 62
7
 10
31.42304102
 20
54.27995703
  0
VERTEX
  8
0
 62
7
 10
31.47062500
 20
54.26275000
  0
VERTEX
  8
0
 62
7
 10
31.51731836
 20
54.24357422
  0
VERTEX
  8
0
 62
7
 10
31.56301563
 20
54.22240625
  0
VERTEX
  8
0
 62
7
 10
31.60761133
 20
54.19922266
  0
VERTEX
  8
0
 62
7
 10
31.65100000
 20
54.17400000
  0
SEQEND
  0
POLYLINE
  8
0
 62
7
 66
1
 70
1
  0
VERTEX
  8
0
 62
7
 10
31.17577064
 20
54.33845174
  0
VERTEX
  8
0
 62
7
 10
31.07939450
 20
54.34823450
  0
VERTEX
  8
0
 62
7
 10
30.98301835
 20
54.35133031
  0
VERTEX
  8
0
 62
7
 10
30.88285780
 20
54.34773917
  0
VERTEX
  8
0
 62
7
 10
30.78421101
 20
54.33746108
  0
VERTEX
  8
0
 62
7
 10
30.64588539
 20
54.31522953
  0
VERTEX
  8
0
 62
7
 10
30.51116826
 20
54.28670720
  0
VERTEX
  8
0
 62
7
 10
30.37981274
 20
54.25231346
  0
VERTEX
  8
0
 62
7
 10
30.25157196
 20
54.21246772
  0
VERTEX
  8
0
 62
7
 10
30.12619905
 20
54.16758934
  0
VERTEX
  8
0
 62
7
 10
30.00344714
 20
54.11809772
  0
VERTEX
  8
0
 62
7
 10
29.88306935
 20
54.06441225
  0
VERTEX
  8
0
 62
7
 10
29.76481881
 20
54.00695231
  0
VERTEX
  8
0
 62
7
 10
29.64844864
 20
53.94613728
  0
VERTEX
  8
0
 62
7
 10
29.53371198
 20
53.88238655
  0
VERTEX
  8
0
 62
7
 10
29.42036194
 20
53.81611951
  0
VERTEX
  8
0
 62
7
 10
29.30815166
 20
53.74775554
  0
VERTEX
  8
0
 62
7
 10
29.19683427
 20
53.67771402
  0
VERTEX
  8
0
 62
7
 10
29.08616288
 20
53.60641435
  0
VERTEX
  8
0
 62
7
 10
28.97589063
 20
53.53427591
  0
VERTEX
  8
0
 62
7
 10
28.86577064
 20
53.46171809
  0
VERTEX
  8
0
 62
7
 10
28.70430275
 20
53.35472686
  0
VERTEX
  8
0
 62
7
 10
28.54577369
 20
53.24602713
  0
VERTEX
  8
0
 62
7
 10
28.39844409
 20
53.13562084
  0
VERTEX
  8
0
 62
7
 10
28.26083569
 20
53.02384465
  0
VERTEX
  8
0
 62
7
 10
28.13147018
 20
52.91103524
  0
VERTEX
  8
0
 62
7
 10
28.00886930
 20
52.79752927
  0
VERTEX
  8
0
 62
7
 10
27.89155476
 20
52.68366341
  0
VERTEX
  8
0
 62
7
 10
27.77804827
 20
52.56977433
  0
VERTEX
  8
0
 62
7
 10
27.66687156
 20
52.45619870
  0
VERTEX
  8
0
 62
7
 10
27.51246789
 20
52.29769318
  0
VERTEX
  8
0
 62
7
 10
27.52041514
 20
52.34321708
  0
VERTEX
  8
0
 62
7
 10
27.52609174
 20
52.38920535
  0
VERTEX
  8
0
 62
7
 10
27.52949771
 20
52.43575087
  0
VERTEX
  8
0
 62
7
 10
27.53063303
 20
52.48294650
  0
VERTEX
  8
0
 62
7
 10
27.52690776
 20
52.56793038
  0
VERTEX
  8
0
 62
7
 10
27.51577924
 20
52.65405197
  0
VERTEX
  8
0
 62
7
 10
27.49731845
 20
52.73994138
  0
VERTEX
  8
0
 62
7
 10
27.47159633
 20
52.82422870
  0
VERTEX
  8
0
 62
7
 10
27.43868384
 20
52.90554404
  0
VERTEX
  8
0
 62
7
 10
27.39865195
 20
52.98251751
  0
VERTEX
  8
0
 62
7
 10
27.35157160
 20
53.05377921
  0
VERTEX
  8
0
 62
7
 10
27.29751376
 20
53.11795924
  0
VERTEX
  8
0
 62
7
 10
27.26682560
 20
53.14807858
  0
VERTEX
  8
0
 62
7
 10
27.23427480
 20
53.17604439
  0
VERTEX
  8
0
 62
7
 10
27.20000919
 20
53.20188571
  0
VERTEX
  8
0
 62
7
 10
27.16417661
 20
53.22563155
  0
VERTEX
  8
0
 62
7
 10
27.12692487
 20
53.24731093
  0
VERTEX
  8
0
 62
7
 10
27.08840181
 20
53.26695288
  0
VERTEX
  8
0
 62
7
 10
27.04875525
 20
53.28458643
  0
VERTEX
  8
0
 62
7
 10
27.00813303
 20
53.30024059
  0
VERTEX
  8
0
 62
7
 10
26.96668297
 20
53.31394439
  0
VERTEX
  8
0
 62
7
 10
26.92455290
 20
53.32572685
  0
VERTEX
  8
0
 62
7
 10
26.88189064
 20
53.33561700
  0
VERTEX
  8
0
 62
7
 10
26.83884404
 20
53.34364386
  0
VERTEX
  8
0
 62
7
 10
26.79556091
 20
53.34983645
  0
VERTEX
  8
0
 62
7
 10
26.75218908
 20
53.35422379
  0
VERTEX
  8
0
 62
7
 10
26.70887638
 20
53.35683491
  0
VERTEX
  8
0
 62
7
 10
26.66577064
 20
53.35769884
  0
VERTEX
  8
0
 62
7
 10
26.61551297
 20
53.35653598
  0
VERTEX
  8
0
 62
7
 10
26.56551548
 20
53.35303964
  0
VERTEX
  8
0
 62
7
 10
26.51594374
 20
53.34719824
  0
VERTEX
  8
0
 62
7
 10
26.46696330
 20
53.33900014
  0
VERTEX
  8
0
 62
7
 10
26.41873975
 20
53.32843375
  0
VERTEX
  8
0
 62
7
 10
26.37143865
 20
53.31548746
  0
VERTEX
  8
0
 62
7
 10
26.32522556
 20
53.30014965
  0
VERTEX
  8
0
 62
7
 10
26.28026606
 20
53.28240872
  0
VERTEX
  8
0
 62
7
 10
26.09962385
 20
53.20414662
  0
VERTEX
  8
0
 62
7
 10
26.26916514
 20
53.10409001
  0
VERTEX
  8
0
 62
7
 10
26.29927086
 20
53.08409881
  0
VERTEX
  8
0
 62
7
 10
26.33100860
 20
53.05932458
  0
VERTEX
  8
0
 62
7
 10
26.36279365
 20
53.03129975
  0
VERTEX
  8
0
 62
7
 10
26.39304128
 20
53.00155675
  0
VERTEX
  8
0
 62
7
 10
26.42016679
 20
52.97162800
  0
VERTEX
  8
0
 62
7
 10
26.44258544
 20
52.94304592
  0
VERTEX
  8
0
 62
7
 10
26.45871251
 20
52.91734295
  0
VERTEX
  8
0
 62
7
 10
26.46696330
 20
52.89605151
  0
VERTEX
  8
0
 62
7
 10
26.47011697
 20
52.87611449
  0
VERTEX
  8
0
 62
7
 10
26.47100000
 20
52.85543447
  0
VERTEX
  8
0
 62
7
 10
26.46976218
 20
52.83110721
  0
VERTEX
  8
0
 62
7
 10
26.46620642
 20
52.80662902
  0
VERTEX
  8
0
 62
7
 10
26.46056924
 20
52.78231336
  0
VERTEX
  8
0
 62
7
 10
26.45308716
 20
52.75847368
  0
VERTEX
  8
0
 62
7
 10
26.44399670
 20
52.73542343
  0
VERTEX
  8
0
 62
7
 10
26.43353440
 20
52.71347606
  0
VERTEX
  8
0
 62
7
 10
26.42193678
 20
52.69294503
  0
VERTEX
  8
0
 62
7
 10
26.40944037
 20
52.67414379
  0
VERTEX
  8
0
 62
7
 10
26.39318320
 20
52.66038484
  0
VERTEX
  8
0
 62
7
 10
26.36491055
 20
52.64691613
  0
VERTEX
  8
0
 62
7
 10
26.32471703
 20
52.63421363
  0
VERTEX
  8
0
 62
7
 10
26.27269725
 20
52.62275333
  0
VERTEX
  8
0
 62
7
 10
26.20894581
 20
52.61301120
  0
VERTEX
  8
0
 62
7
 10
26.13355734
 20
52.60546322
  0
VERTEX
  8
0
 62
7
 10
26.04662643
 20
52.60058538
  0
VERTEX
  8
0
 62
7
 10
25.94824771
 20
52.59885367
  0
VERTEX
  8
0
 62
7
 10
25.80786210
 20
52.60148510
  0
VERTEX
  8
0
 62
7
 10
25.66530046
 20
52.60876026
  0
VERTEX
  8
0
 62
7
 10
25.52519868
 20
52.61975039
  0
VERTEX
  8
0
 62
7
 10
25.39219266
 20
52.63352675
  0
VERTEX
  8
0
 62
7
 10
24.91283486
 20
52.69160416
  0
VERTEX
  8
0
 62
7
 10
24.43650459
 20
52.75339655
  0
VERTEX
  8
0
 62
7
 10
24.19918897
 20
52.78379935
  0
VERTEX
  8
0
 62
7
 10
23.96356451
 20
52.81365651
  0
VERTEX
  8
0
 62
7
 10
23.72999781
 20
52.84232952
  0
VERTEX
  8
0
 62
7
 10
23.49885550
 20
52.86917988
  0
VERTEX
  8
0
 62
7
 10
23.27050419
 20
52.89356906
  0
VERTEX
  8
0
 62
7
 10
23.04531049
 20
52.91485857
  0
VERTEX
  8
0
 62
7
 10
22.82364102
 20
52.93240988
  0
VERTEX
  8
0
 62
7
 10
22.60586239
 20
52.94558449
  0
VERTEX
  8
0
 62
7
 10
22.42534633
 20
52.95313827
  0
VERTEX
  8
0
 62
7
 10
22.27888991
 20
52.95549108
  0
VERTEX
  8
0
 62
7
 10
22.03870642
 20
52.95053779
  0
VERTEX
  8
0
 62
7
 10
21.78843119
 20
52.94558449
  0
VERTEX
  8
0
 62
7
 10
21.49274312
 20
52.94162185
  0
VERTEX
  8
0
 62
7
 10
21.40637987
 20
52.95634243
  0
VERTEX
  8
0
 62
7
 10
21.31878670
 20
52.96651217
  0
VERTEX
  8
0
 62
7
 10
21.23062586
 20
52.97240969
  0
VERTEX
  8
0
 62
7
 10
21.14255963
 20
52.97431361
  0
VERTEX
  8
0
 62
7
 10
21.06430132
 20
52.97281215
  0
VERTEX
  8
0
 62
7
 10
20.98575917
 20
52.96824583
  0
VERTEX
  8
0
 62
7
 10
20.90740625
 20
52.96052178
  0
VERTEX
  8
0
 62
7
 10
20.82971560
 20
52.94954713
  0
VERTEX
  8
0
 62
7
 10
20.89070757
 20
53.00195921
  0
VERTEX
  8
0
 62
7
 10
20.94602294
 20
53.05752901
  0
VERTEX
  8
0
 62
7
 10
20.99490482
 20
53.11532780
  0
VERTEX
  8
0
 62
7
 10
21.03659633
 20
53.17442683
  0
VERTEX
  8
0
 62
7
 10
21.06179809
 20
53.21561708
  0
VERTEX
  8
0
 62
7
 10
21.08588819
 20
53.25917853
  0
VERTEX
  8
0
 62
7
 10
21.10879566
 20
53.30490511
  0
VERTEX
  8
0
 62
7
 10
21.13044954
 20
53.35259075
  0
VERTEX
  8
0
 62
7
 10
21.15077888
 20
53.40202940
  0
VERTEX
  8
0
 62
7
 10
21.16971273
 20
53.45301499
  0
VERTEX
  8
0
 62
7
 10
21.18718012
 20
53.50534145
  0
VERTEX
  8
0
 62
7
 10
21.20311009
 20
53.55880272
  0
VERTEX
  8
0
 62
7
 10
21.21743169
 20
53.61319273
  0
VERTEX
  8
0
 62
7
 10
21.23007397
 20
53.66830542
  0
VERTEX
  8
0
 62
7
 10
21.24096595
 20
53.72393472
  0
VERTEX
  8
0
 62
7
 10
21.25003670
 20
53.77987458
  0
VERTEX
  8
0
 62
7
 10
21.25721524
 20
53.83591891
  0
VERTEX
  8
0
 62
7
 10
21.26243062
 20
53.89186167
  0
VERTEX
  8
0
 62
7
 10
21.26561188
 20
53.94749677
  0
VERTEX
  8
0
 62
7
 10
21.26668807
 20
54.00261817
  0
VERTEX
  8
0
 62
7
 10
21.26523147
 20
54.06570499
  0
VERTEX
  8
0
 62
7
 10
21.26071187
 20
54.12838549
  0
VERTEX
  8
0
 62
7
 10
21.25290457
 20
54.19025334
  0
VERTEX
  8
0
 62
7
 10
21.24158486
 20
54.25090221
  0
VERTEX
  8
0
 62
7
 10
21.22652806
 20
54.30992578
  0
VERTEX
  8
0
 62
7
 10
21.20750946
 20
54.36691772
  0
VERTEX
  8
0
 62
7
 10
21.18430436
 20
54.42147172
  0
VERTEX
  8
0
 62
7
 10
21.15668807
 20
54.47318143
  0
VERTEX
  8
0
 62
7
 10
21.08402752
 20
54.59701387
  0
VERTEX
  8
0
 62
7
 10
20.99320183
 20
54.48506935
  0
VERTEX
  8
0
 62
7
 10
20.95597276
 20
54.43928424
  0
VERTEX
  8
0
 62
7
 10
20.91959518
 20
54.39648272
  0
VERTEX
  8
0
 62
7
 10
20.88350143
 20
54.35695502
  0
VERTEX
  8
0
 62
7
 10
20.84712385
 20
54.32099137
  0
VERTEX
  8
0
 62
7
 10
20.80989478
 20
54.28888200
  0
VERTEX
  8
0
 62
7
 10
20.77124656
 20
54.26091716
  0
VERTEX
  8
0
 62
7
 10
20.73061153
 20
54.23738706
  0
VERTEX
  8
0
 62
7
 10
20.68742202
 20
54.21858194
  0
VERTEX
  8
0
 62
7
 10
20.62409633
 20
54.19850561
  0
VERTEX
  8
0
 62
7
 10
20.56077064
 20
54.18205137
  0
VERTEX
  8
0
 62
7
 10
20.49668807
 20
54.16801187
  0
VERTEX
  8
0
 62
7
 10
20.43109174
 20
54.15517973
  0
VERTEX
  8
0
 62
7
 10
20.35057856
 20
54.13922083
  0
VERTEX
  8
0
 62
7
 10
20.26684862
 20
54.11963982
  0
VERTEX
  8
0
 62
7
 10
20.18046961
 20
54.09430061
  0
VERTEX
  8
0
 62
7
 10
20.09200917
 20
54.06106708
  0
VERTEX
  8
0
 62
7
 10
20.06805952
 20
54.05055148
  0
VERTEX
  8
0
 62
7
 10
20.04289471
 20
54.03935384
  0
VERTEX
  8
0
 62
7
 10
20.01671876
 20
54.02734935
  0
VERTEX
  8
0
 62
7
 10
19.98973567
 20
54.01441321
  0
VERTEX
  8
0
 62
7
 10
19.96214943
 20
54.00042063
  0
VERTEX
  8
0
 62
7
 10
19.93416406
 20
53.98524680
  0
VERTEX
  8
0
 62
7
 10
19.90598356
 20
53.96876693
  0
VERTEX
  8
0
 62
7
 10
19.87781193
 20
53.95085621
  0
VERTEX
  8
0
 62
7
 10
19.84985317
 20
53.93138985
  0
VERTEX
  8
0
 62
7
 10
19.82231128
 20
53.91024304
  0
VERTEX
  8
0
 62
7
 10
19.79539028
 20
53.88729099
  0
VERTEX
  8
0
 62
7
 10
19.76929415
 20
53.86240889
  0
VERTEX
  8
0
 62
7
 10
19.74422691
 20
53.83547195
  0
VERTEX
  8
0
 62
7
 10
19.72039256
 20
53.80635537
  0
VERTEX
  8
0
 62
7
 10
19.69799510
 20
53.77493434
  0
VERTEX
  8
0
 62
7
 10
19.67723853
 20
53.74108406
  0
VERTEX
  8
0
 62
7
 10
19.57026606
 20
53.79259836
  0
VERTEX
  8
0
 62
7
 10
19.52997201
 20
53.80807935
  0
VERTEX
  8
0
 62
7
 10
19.48935866
 20
53.82115721
  0
VERTEX
  8
0
 62
7
 10
19.44848513
 20
53.83193644
  0
VERTEX
  8
0
 62
7
 10
19.40741055
 20
53.84052151
  0
VERTEX
  8
0
 62
7
 10
19.36619406
 20
53.84701691
  0
VERTEX
  8
0
 62
7
 10
19.32489478
 20
53.85152712
  0
VERTEX
  8
0
 62
7
 10
19.28357185
 20
53.85415662
  0
VERTEX
  8
0
 62
7
 10
19.24228440
 20
53.85500991
  0
VERTEX
  8
0
 62
7
 10
19.16495642
 20
53.85211532
  0
VERTEX
  8
0
 62
7
 10
19.08762844
 20
53.84374115
  0
VERTEX
  8
0
 62
7
 10
19.01067890
 20
53.83035177
  0
VERTEX
  8
0
 62
7
 10
18.93448624
 20
53.81241155
  0
VERTEX
  8
0
 62
7
 10
18.94449914
 20
53.86904941
  0
VERTEX
  8
0
 62
7
 10
18.95176835
 20
53.92596589
  0
VERTEX
  8
0
 62
7
 10
18.95619925
 20
53.98306813
  0
VERTEX
  8
0
 62
7
 10
18.95769725
 20
54.04026323
  0
VERTEX
  8
0
 62
7
 10
18.95477616
 20
54.12151086
  0
VERTEX
  8
0
 62
7
 10
18.94606021
 20
54.20228250
  0
VERTEX
  8
0
 62
7
 10
18.93162034
 20
54.28219505
  0
VERTEX
  8
0
 62
7
 10
18.91152752
 20
54.36086541
  0
VERTEX
  8
0
 62
7
 10
18.88585271
 20
54.43791047
  0
VERTEX
  8
0
 62
7
 10
18.85466686
 20
54.51294712
  0
VERTEX
  8
0
 62
7
 10
18.81804093
 20
54.58559226
  0
VERTEX
  8
0
 62
7
 10
18.77604587
 20
54.65546278
  0
VERTEX
  8
0
 62
7
 10
18.73466972
 20
54.71787433
  0
VERTEX
  8
0
 62
7
 10
18.59641284
 20
54.67725729
  0
VERTEX
  8
0
 62
7
 10
18.59433931
 20
54.72678059
  0
VERTEX
  8
0
 62
7
 10
18.58966399
 20
54.78200405
  0
VERTEX
  8
0
 62
7
 10
18.58129888
 20
54.84221951
  0
VERTEX
  8
0
 62
7
 10
18.56815596
 20
54.90671879
  0
VERTEX
  8
0
 62
7
 10
18.54914722
 20
54.97479374
  0
VERTEX
  8
0
 62
7
 10
18.52318463
 20
55.04573618
  0
VERTEX
  8
0
 62
7
 10
18.48918019
 20
55.11883795
  0
VERTEX
  8
0
 62
7
 10
18.44604587
 20
55.19339089
  0
VERTEX
  8
0
 62
7
 10
18.42395540
 20
55.22767288
  0
VERTEX
  8
0
 62
7
 10
18.40116127
 20
55.26206952
  0
VERTEX
  8
0
 62
7
 10
18.37759843
 20
55.29644003
  0
VERTEX
  8
0
 62
7
 10
18.35320183
 20
55.33064366
  0
VERTEX
  8
0
 62
7
 10
18.32790645
 20
55.36453965
  0
VERTEX
  8
0
 62
7
 10
18.30164722
 20
55.39798723
  0
VERTEX
  8
0
 62
7
 10
18.27435911
 20
55.43084563
  0
VERTEX
  8
0
 62
7
 10
18.24597706
 20
55.46297410
  0
VERTEX
  8
0
 62
7
 10
18.21643605
 20
55.49423188
  0
VERTEX
  8
0
 62
7
 10
18.18567101
 20
55.52447819
  0
VERTEX
  8
0
 62
7
 10
18.15361692
 20
55.55357228
  0
VERTEX
  8
0
 62
7
 10
18.12020872
 20
55.58137339
  0
VERTEX
  8
0
 62
7
 10
18.08538136
 20
55.60774075
  0
VERTEX
  8
0
 62
7
 10
18.04906981
 20
55.63253360
  0
VERTEX
  8
0
 62
7
 10
18.01120902
 20
55.65561118
  0
VERTEX
  8
0
 62
7
 10
17.97173394
 20
55.67683272
  0
VERTEX
  8
0
 62
7
 10
17.82742202
 20
55.75014152
  0
VERTEX
  8
0
 62
7
 10
17.82742202
 20
55.58767337
  0
VERTEX
  8
0
 62
7
 10
17.82398452
 20
55.52433307
  0
VERTEX
  8
0
 62
7
 10
17.81430275
 20
55.45987829
  0
VERTEX
  8
0
 62
7
 10
17.79932282
 20
55.39319452
  0
VERTEX
  8
0
 62
7
 10
17.77999083
 20
55.32316728
  0
VERTEX
  8
0
 62
7
 10
17.76433877
 20
55.27887397
  0
VERTEX
  8
0
 62
7
 10
17.74427552
 20
55.23518433
  0
VERTEX
  8
0
 62
7
 10
17.72040421
 20
55.19214482
  0
VERTEX
  8
0
 62
7
 10
17.69332798
 20
55.14980187
  0
VERTEX
  8
0
 62
7
 10
17.66364998
 20
55.10820191
  0
VERTEX
  8
0
 62
7
 10
17.63197334
 20
55.06739138
  0
VERTEX
  8
0
 62
7
 10
17.59890120
 20
55.02741672
  0
VERTEX
  8
0
 62
7
 10
17.56503670
 20
54.98832437
  0
VERTEX
  8
0
 62
7
 10
17.53674237
 20
54.95239555
  0
VERTEX
  8
0
 62
7
 10
17.51219696
 20
54.91431901
  0
VERTEX
  8
0
 62
7
 10
17.49108117
 20
54.87501189
  0
VERTEX
  8
0
 62
7
 10
17.47307569
 20
54.83539131
  0
VERTEX
  8
0
 62
7
 10
17.45786120
 20
54.79637442
  0
VERTEX
  8
0
 62
7
 10
17.44511841
 20
54.75887834
  0
VERTEX
  8
0
 62
7
 10
17.43452799
 20
54.72382022
  0
VERTEX
  8
0
 62
7
 10
17.42577064
 20
54.69211718
  0
VERTEX
  8
0
 62
7
 10
17.25723853
 20
54.74363147
  0
VERTEX
  8
0
 62
7
 10
17.21687156
 20
54.67428531
  0
VERTEX
  8
0
 62
7
 10
17.18779670
 20
54.61955911
  0
VERTEX
  8
0
 62
7
 10
17.16119352
 20
54.56320761
  0
VERTEX
  8
0
 62
7
 10
17.13716847
 20
54.50537013
  0
VERTEX
  8
0
 62
7
 10
17.11582798
 20
54.44618596
  0
VERTEX
  8
0
 62
7
 10
17.09727849
 20
54.38579443
  0
VERTEX
  8
0
 62
7
 10
17.08162643
 20
54.32433484
  0
VERTEX
  8
0
 62
7
 10
17.06897825
 20
54.26194651
  0
VERTEX
  8
0
 62
7
 10
17.05944037
 20
54.19876875
  0
VERTEX
  8
0
 62
7
 10
17.05262844
 20
54.12756510
  0
VERTEX
  8
0
 62
7
 10
17.05035780
 20
54.05710444
  0
VERTEX
  8
0
 62
7
 10
17.05198194
 20
53.99490960
  0
VERTEX
  8
0
 62
7
 10
17.05653899
 20
53.93327201
  0
VERTEX
  8
0
 62
7
 10
17.06355591
 20
53.87237741
  0
VERTEX
  8
0
 62
7
 10
17.07255963
 20
53.81241155
  0
VERTEX
  8
0
 62
7
 10
16.99635120
 20
53.83035177
  0
VERTEX
  8
0
 62
7
 10
16.91929128
 20
53.84374115
  0
VERTEX
  8
0
 62
7
 10
16.84166370
 20
53.85211532
  0
VERTEX
  8
0
 62
7
 10
16.76375229
 20
53.85500991
  0
VERTEX
  8
0
 62
7
 10
16.72250821
 20
53.85411599
  0
VERTEX
  8
0
 62
7
 10
16.68129960
 20
53.85138781
  0
VERTEX
  8
0
 62
7
 10
16.64016195
 20
53.84675570
  0
VERTEX
  8
0
 62
7
 10
16.59913073
 20
53.84015001
  0
VERTEX
  8
0
 62
7
 10
16.55824143
 20
53.83150109
  0
VERTEX
  8
0
 62
7
 10
16.51752953
 20
53.82073928
  0
VERTEX
  8
0
 62
7
 10
16.47703050
 20
53.80779492
  0
VERTEX
  8
0
 62
7
 10
16.43677982
 20
53.79259836
  0
VERTEX
  8
0
 62
7
 10
16.38695183
 20
53.77006085
  0
VERTEX
  8
0
 62
7
 10
16.32879817
 20
53.74009341
  0
VERTEX
  8
0
 62
7
 10
16.30814385
 20
53.77423681
  0
VERTEX
  8
0
 62
7
 10
16.28603637
 20
53.80580586
  0
VERTEX
  8
0
 62
7
 10
16.26265462
 20
53.83494276
  0
VERTEX
  8
0
 62
7
 10
16.23817747
 20
53.86178973
  0
VERTEX
  8
0
 62
7
 10
16.21278377
 20
53.88648898
  0
VERTEX
  8
0
 62
7
 10
16.18665242
 20
53.90918273
  0
VERTEX
  8
0
 62
7
 10
16.15996227
 20
53.93001318
  0
VERTEX
  8
0
 62
7
 10
16.13289220
 20
53.94912256
  0
VERTEX
  8
0
 62
7
 10
16.10562109
 20
53.96665307
  0
VERTEX
  8
0
 62
7
 10
16.07832780
 20
53.98274694
  0
VERTEX
  8
0
 62
7
 10
16.05119121
 20
53.99754636
  0
VERTEX
  8
0
 62
7
 10
16.02439019
 20
54.01119357
  0
VERTEX
  8
0
 62
7
 10
15.99810362
 20
54.02383076
  0
VERTEX
  8
0
 62
7
 10
15.97251036
 20
54.03560017
  0
VERTEX
  8
0
 62
7
 10
15.94778928
 20
54.04664399
  0
VERTEX
  8
0
 62
7
 10
15.92411927
 20
54.05710444
  0
VERTEX
  8
0
 62
7
 10
15.83466542
 20
54.09081782
  0
VERTEX
  8
0
 62
7
 10
15.74511697
 20
54.11728701
  0
VERTEX
  8
0
 62
7
 10
15.65802838
 20
54.13818373
  0
VERTEX
  8
0
 62
7
 10
15.57595413
 20
54.15517973
  0
VERTEX
  8
0
 62
7
 10
15.50975860
 20
54.16787256
  0
VERTEX
  8
0
 62
7
 10
15.44526606
 20
54.18167988
  0
VERTEX
  8
0
 62
7
 10
15.38153039
 20
54.19808767
  0
VERTEX
  8
0
 62
7
 10
15.31760550
 20
54.21858194
  0
VERTEX
  8
0
 62
7
 10
15.27421101
 20
54.23738706
  0
VERTEX
  8
0
 62
7
 10
15.23365482
 20
54.26091716
  0
VERTEX
  8
0
 62
7
 10
15.19527466
 20
54.28888200
  0
VERTEX
  8
0
 62
7
 10
15.15840826
 20
54.32099137
  0
VERTEX
  8
0
 62
7
 10
15.12239335
 20
54.35695502
  0
VERTEX
  8
0
 62
7
 10
15.08656766
 20
54.39648272
  0
VERTEX
  8
0
 62
7
 10
15.05026892
 20
54.43928424
  0
VERTEX
  8
0
 62
7
 10
15.01283486
 20
54.48506935
  0
VERTEX
  8
0
 62
7
 10
14.92301835
 20
54.59701387
  0
VERTEX
  8
0
 62
7
 10
14.84934862
 20
54.47318143
  0
VERTEX
  8
0
 62
7
 10
14.82173233
 20
54.42142915
  0
VERTEX
  8
0
 62
7
 10
14.79852724
 20
54.36676293
  0
VERTEX
  8
0
 62
7
 10
14.77950864
 20
54.30961233
  0
VERTEX
  8
0
 62
7
 10
14.76445183
 20
54.25040688
  0
VERTEX
  8
0
 62
7
 10
14.75313213
 20
54.18957613
  0
VERTEX
  8
0
 62
7
 10
14.74532483
 20
54.12754962
  0
VERTEX
  8
0
 62
7
 10
14.74080523
 20
54.06475690
  0
VERTEX
  8
0
 62
7
 10
14.73934862
 20
54.00162751
  0
VERTEX
  8
0
 62
7
 10
14.74042481
 20
53.94668050
  0
VERTEX
  8
0
 62
7
 10
14.74360608
 20
53.89119800
  0
VERTEX
  8
0
 62
7
 10
14.74882146
 20
53.83538754
  0
VERTEX
  8
0
 62
7
 10
14.75600000
 20
53.77945664
  0
VERTEX
  8
0
 62
7
 10
14.76507074
 20
53.72361281
  0
VERTEX
  8
0
 62
7
 10
14.77596273
 20
53.66806356
  0
VERTEX
  8
0
 62
7
 10
14.78860500
 20
53.61301641
  0
VERTEX
  8
0
 62
7
 10
14.80292661
 20
53.55867888
  0
VERTEX
  8
0
 62
7
 10
14.81885658
 20
53.50525849
  0
VERTEX
  8
0
 62
7
 10
14.83632397
 20
53.45296275
  0
VERTEX
  8
0
 62
7
 10
14.85525781
 20
53.40199917
  0
VERTEX
  8
0
 62
7
 10
14.87558716
 20
53.35257527
  0
VERTEX
  8
0
 62
7
 10
14.89724104
 20
53.30489857
  0
VERTEX
  8
0
 62
7
 10
14.92014851
 20
53.25917659
  0
VERTEX
  8
0
 62
7
 10
14.94423860
 20
53.21561684
  0
VERTEX
  8
0
 62
7
 10
14.96944037
 20
53.17442683
  0
VERTEX
  8
0
 62
7
 10
15.00991772
 20
53.11686023
  0
VERTEX
  8
0
 62
7
 10
15.05786927
 20
53.05938650
  0
VERTEX
  8
0
 62
7
 10
15.11206508
 20
53.00321301
  0
VERTEX
  8
0
 62
7
 10
15.17127523
 20
52.94954713
  0
VERTEX
  8
0
 62
7
 10
15.09374226
 20
52.96052178
  0
VERTEX
  8
0
 62
7
 10
15.01573624
 20
52.96824583
  0
VERTEX
  8
0
 62
7
 10
14.93754100
 20
52.97281215
  0
VERTEX
  8
0
 62
7
 10
14.85944037
 20
52.97431361
  0
VERTEX
  8
0
 62
7
 10
14.77137414
 20
52.97240969
  0
VERTEX
  8
0
 62
7
 10
14.68321330
 20
52.96651217
  0
VERTEX
  8
0
 62
7
 10
14.59562013
 20
52.95634243
  0
VERTEX
  8
0
 62
7
 10
14.50925688
 20
52.94162185
  0
VERTEX
  8
0
 62
7
 10
14.21356881
 20
52.94558449
  0
VERTEX
  8
0
 62
7
 10
13.96329358
 20
52.95053779
  0
VERTEX
  8
0
 62
7
 10
13.72311009
 20
52.95549108
  0
VERTEX
  8
0
 62
7
 10
13.57665367
 20
52.95313827
  0
VERTEX
  8
0
 62
7
 10
13.39613761
 20
52.94558449
  0
VERTEX
  8
0
 62
7
 10
13.17836095
 20
52.93240988
  0
VERTEX
  8
0
 62
7
 10
12.95670528
 20
52.91485857
  0
VERTEX
  8
0
 62
7
 10
12.73154903
 20
52.89356906
  0
VERTEX
  8
0
 62
7
 10
12.50327064
 20
52.86917988
  0
VERTEX
  8
0
 62
7
 10
12.27224857
 20
52.84232952
  0
VERTEX
  8
0
 62
7
 10
12.03886124
 20
52.81365651
  0
VERTEX
  8
0
 62
7
 10
11.80348710
 20
52.78379935
  0
VERTEX
  8
0
 62
7
 10
11.56650459
 20
52.75339655
  0
VERTEX
  8
0
 62
7
 10
11.08929128
 20
52.69160416
  0
VERTEX
  8
0
 62
7
 10
10.60980734
 20
52.63352675
  0
VERTEX
  8
0
 62
7
 10
10.47680132
 20
52.61975039
  0
VERTEX
  8
0
 62
7
 10
10.33669954
 20
52.60876026
  0
VERTEX
  8
0
 62
7
 10
10.19413790
 20
52.60148510
  0
VERTEX
  8
0
 62
7
 10
10.05375229
 20
52.59885367
  0
VERTEX
  8
0
 62
7
 10
9.95537357
 20
52.60058538
  0
VERTEX
  8
0
 62
7
 10
9.86844266
 20
52.60546322
  0
VERTEX
  8
0
 62
7
 10
9.79305419
 20
52.61301120
  0
VERTEX
  8
0
 62
7
 10
9.72930275
 20
52.62275333
  0
VERTEX
  8
0
 62
7
 10
9.67728297
 20
52.63421363
  0
VERTEX
  8
0
 62
7
 10
9.63708945
 20
52.64691613
  0
VERTEX
  8
0
 62
7
 10
9.60881680
 20
52.66038484
  0
VERTEX
  8
0
 62
7
 10
9.59255963
 20
52.67414379
  0
VERTEX
  8
0
 62
7
 10
9.58006322
 20
52.69294503
  0
VERTEX
  8
0
 62
7
 10
9.56846560
 20
52.71347606
  0
VERTEX
  8
0
 62
7
 10
9.55800330
 20
52.73542343
  0
VERTEX
  8
0
 62
7
 10
9.54891284
 20
52.75847368
  0
VERTEX
  8
0
 62
7
 10
9.54143076
 20
52.78231336
  0
VERTEX
  8
0
 62
7
 10
9.53579358
 20
52.80662902
  0
VERTEX
  8
0
 62
7
 10
9.53223782
 20
52.83110721
  0
VERTEX
  8
0
 62
7
 10
9.53100000
 20
52.85543447
  0
VERTEX
  8
0
 62
7
 10
9.53188303
 20
52.87611449
  0
VERTEX
  8
0
 62
7
 10
9.53503670
 20
52.89605151
  0
VERTEX
  8
0
 62
7
 10
9.54328749
 20
52.91734295
  0
VERTEX
  8
0
 62
7
 10
9.55941456
 20
52.94304592
  0
VERTEX
  8
0
 62
7
 10
9.58183321
 20
52.97162800
  0
VERTEX
  8
0
 62
7
 10
9.60895872
 20
53.00155675
  0
VERTEX
  8
0
 62
7
 10
9.63920635
 20
53.03129975
  0
VERTEX
  8
0
 62
7
 10
9.67099140
 20
53.05932458
  0
VERTEX
  8
0
 62
7
 10
9.70272914
 20
53.08409881
  0
VERTEX
  8
0
 62
7
 10
9.73283486
 20
53.10409001
  0
VERTEX
  8
0
 62
7
 10
9.90237615
 20
53.20414662
  0
VERTEX
  8
0
 62
7
 10
9.72173394
 20
53.28240872
  0
VERTEX
  8
0
 62
7
 10
9.67677444
 20
53.30014965
  0
VERTEX
  8
0
 62
7
 10
9.63056135
 20
53.31548746
  0
VERTEX
  8
0
 62
7
 10
9.58326025
 20
53.32843375
  0
VERTEX
  8
0
 62
7
 10
9.53503670
 20
53.33900014
  0
VERTEX
  8
0
 62
7
 10
9.48605626
 20
53.34719824
  0
VERTEX
  8
0
 62
7
 10
9.43648452
 20
53.35303964
  0
VERTEX
  8
0
 62
7
 10
9.38648703
 20
53.35653598
  0
VERTEX
  8
0
 62
7
 10
9.33622936
 20
53.35769884
  0
VERTEX
  8
0
 62
7
 10
9.29312362
 20
53.35683491
  0
VERTEX
  8
0
 62
7
 10
9.24981092
 20
53.35422379
  0
VERTEX
  8
0
 62
7
 10
9.20643909
 20
53.34983645
  0
VERTEX
  8
0
 62
7
 10
9.16315596
 20
53.34364386
  0
VERTEX
  8
0
 62
7
 10
9.12010936
 20
53.33561700
  0
VERTEX
  8
0
 62
7
 10
9.07744710
 20
53.32572685
  0
VERTEX
  8
0
 62
7
 10
9.03531703
 20
53.31394439
  0
VERTEX
  8
0
 62
7
 10
8.99386697
 20
53.30024059
  0
VERTEX
  8
0
 62
7
 10
8.95324475
 20
53.28458643
  0
VERTEX
  8
0
 62
7
 10
8.91359819
 20
53.26695288
  0
VERTEX
  8
0
 62
7
 10
8.87507513
 20
53.24731093
  0
VERTEX
  8
0
 62
7
 10
8.83782339
 20
53.22563155
  0
VERTEX
  8
0
 62
7
 10
8.80199081
 20
53.20188571
  0
VERTEX
  8
0
 62
7
 10
8.76772520
 20
53.17604439
  0
VERTEX
  8
0
 62
7
 10
8.73517440
 20
53.14807858
  0
VERTEX
  8
0
 62
7
 10
8.70448624
 20
53.11795924
  0
VERTEX
  8
0
 62
7
 10
8.65042840
 20
53.05377921
  0
VERTEX
  8
0
 62
7
 10
8.60334805
 20
52.98251751
  0
VERTEX
  8
0
 62
7
 10
8.56331616
 20
52.90554404
  0
VERTEX
  8
0
 62
7
 10
8.53040367
 20
52.82422870
  0
VERTEX
  8
0
 62
7
 10
8.50468155
 20
52.73994138
  0
VERTEX
  8
0
 62
7
 10
8.48622076
 20
52.65405197
  0
VERTEX
  8
0
 62
7
 10
8.47509224
 20
52.56793038
  0
VERTEX
  8
0
 62
7
 10
8.47136697
 20
52.48294650
  0
VERTEX
  8
0
 62
7
 10
8.47250229
 20
52.43575087
  0
VERTEX
  8
0
 62
7
 10
8.47590826
 20
52.38920535
  0
VERTEX
  8
0
 62
7
 10
8.48158486
 20
52.34321708
  0
VERTEX
  8
0
 62
7
 10
8.48953211
 20
52.29769318
  0
VERTEX
  8
0
 62
7
 10
8.33512844
 20
52.45619870
  0
VERTEX
  8
0
 62
7
 10
8.22395173
 20
52.56977433
  0
VERTEX
  8
0
 62
7
 10
8.11044524
 20
52.68366341
  0
VERTEX
  8
0
 62
7
 10
7.99313070
 20
52.79752927
  0
VERTEX
  8
0
 62
7
 10
7.87052982
 20
52.91103524
  0
VERTEX
  8
0
 62
7
 10
7.74116431
 20
53.02384465
  0
VERTEX
  8
0
 62
7
 10
7.60355591
 20
53.13562084
  0
VERTEX
  8
0
 62
7
 10
7.45622631
 20
53.24602713
  0
VERTEX
  8
0
 62
7
 10
7.29769725
 20
53.35472686
  0
VERTEX
  8
0
 62
7
 10
7.13622936
 20
53.46171809
  0
VERTEX
  8
0
 62
7
 10
7.02610937
 20
53.53427591
  0
VERTEX
  8
0
 62
7
 10
6.91583712
 20
53.60641435
  0
VERTEX
  8
0
 62
7
 10
6.80516573
 20
53.67771402
  0
VERTEX
  8
0
 62
7
 10
6.69384834
 20
53.74775554
  0
VERTEX
  8
0
 62
7
 10
6.58163806
 20
53.81611951
  0
VERTEX
  8
0
 62
7
 10
6.46828802
 20
53.88238655
  0
VERTEX
  8
0
 62
7
 10
6.35355136
 20
53.94613728
  0
VERTEX
  8
0
 62
7
 10
6.23718119
 20
54.00695231
  0
VERTEX
  8
0
 62
7
 10
6.11893065
 20
54.06441225
  0
VERTEX
  8
0
 62
7
 10
5.99855286
 20
54.11809772
  0
VERTEX
  8
0
 62
7
 10
5.87580095
 20
54.16758934
  0
VERTEX
  8
0
 62
7
 10
5.75042804
 20
54.21246772
  0
VERTEX
  8
0
 62
7
 10
5.62218726
 20
54.25231346
  0
VERTEX
  8
0
 62
7
 10
5.49083174
 20
54.28670720
  0
VERTEX
  8
0
 62
7
 10
5.35611461
 20
54.31522953
  0
VERTEX
  8
0
 62
7
 10
5.21778899
 20
54.33746108
  0
VERTEX
  8
0
 62
7
 10
5.11914220
 20
54.34773917
  0
VERTEX
  8
0
 62
7
 10
5.01898165
 20
54.35133031
  0
VERTEX
  8
0
 62
7
 10
4.92260550
 20
54.34823450
  0
VERTEX
  8
0
 62
7
 10
4.82622936
 20
54.33845174
  0
VERTEX
  8
0
 62
7
 10
4.82622936
 20
67.17541749
  0
VERTEX
  8
0
 62
7
 10
31.17577064
 20
67.17541749
  0
VERTEX
  8
0
 62
7
 10
31.17577064
 20
54.33845174
  0
SEQEND
  0
POLYLINE
  8
0
 62
7
 66
1
 70
1
  0
VERTEX
  8
0
 62
7
 10
18.36000000
 20
48.78700000
  0
VERTEX
  8
0
 62
7
 10
18.29400000
 20
48.84700000
  0
VERTEX
  8
0
 62
7
 10
18.24700000
 20
48.89562500
  0
VERTEX
  8
0
 62
7
 10
18.20300000
 20
48.94800000
  0
VERTEX
  8
0
 62
7
 10
18.16950586
 20
48.99177734
  0
VERTEX
  8
0
 62
7
 10
18.13810938
 20
49.03759375
  0
VERTEX
  8
0
 62
7
 10
18.10893945
 20
49.08542578
  0
VERTEX
  8
0
 62
7
 10
18.08212500
 20
49.13525000
  0
VERTEX
  8
0
 62
7
 10
18.05779492
 20
49.18704297
  0
VERTEX
  8
0
 62
7
 10
18.03607813
 20
49.24078125
  0
VERTEX
  8
0
 62
7
 10
18.01710352
 20
49.29644141
  0
VERTEX
  8
0
 62
7
 10
18.00100000
 20
49.35400000
  0
VERTEX
  8
0
 62
7
 10
17.98489648
 20
49.29644141
  0
VERTEX
  8
0
 62
7
 10
17.96592188
 20
49.24078125
  0
VERTEX
  8
0
 62
7
 10
17.94420508
 20
49.18704297
  0
VERTEX
  8
0
 62
7
 10
17.91987500
 20
49.13525000
  0
VERTEX
  8
0
 62
7
 10
17.89306055
 20
49.08542578
  0
VERTEX
  8
0
 62
7
 10
17.86389063
 20
49.03759375
  0
VERTEX
  8
0
 62
7
 10
17.83249414
 20
48.99177734
  0
VERTEX
  8
0
 62
7
 10
17.79900000
 20
48.94800000
  0
VERTEX
  8
0
 62
7
 10
17.75500000
 20
48.89562500
  0
VERTEX
  8
0
 62
7
 10
17.70800000
 20
48.84700000
  0
VERTEX
  8
0
 62
7
 10
17.64200000
 20
48.78700000
  0
VERTEX
  8
0
 62
7
 10
17.69431250
 20
48.73935938
  0
VERTEX
  8
0
 62
7
 10
17.73500000
 20
48.69762500
  0
VERTEX
  8
0
 62
7
 10
17.76968750
 20
48.65832813
  0
VERTEX
  8
0
 62
7
 10
17.80400000
 20
48.61800000
  0
VERTEX
  8
0
 62
7
 10
17.86923438
 20
48.53262500
  0
VERTEX
  8
0
 62
7
 10
17.92312500
 20
48.45250000
  0
VERTEX
  8
0
 62
7
 10
17.96670313
 20
48.37612500
  0
VERTEX
  8
0
 62
7
 10
18.00100000
 20
48.30200000
  0
VERTEX
  8
0
 62
7
 10
18.03529688
 20
48.37612500
  0
VERTEX
  8
0
 62
7
 10
18.07887500
 20
48.45250000
  0
VERTEX
  8
0
 62
7
 10
18.13276563
 20
48.53262500
  0
VERTEX
  8
0
 62
7
 10
18.19800000
 20
48.61800000
  0
VERTEX
  8
0
 62
7
 10
18.23231250
 20
48.65832813
  0
VERTEX
  8
0
 62
7
 10
18.26700000
 20
48.69762500
  0
VERTEX
  8
0
 62
7
 10
18.30768750
 20
48.73935938
  0
VERTEX
  8
0
 62
7
 10
18.36000000
 20
48.78700000
  0
SEQEND
  0
POLYLINE
  8
0
 62
7
 66
1
 70
1
  0
VERTEX
  8
0
 62
7
 10
8.61692887
 20
52.03440317
  0
VERTEX
  8
0
 62
7
 10
8.45629529
 20
52.19070452
  0
VERTEX
  8
0
 62
7
 10
8.30080507
 20
52.34772484
  0
VERTEX
  8
0
 62
7
 10
8.14631035
 20
52.50485577
  0
VERTEX
  8
0
 62
7
 10
7.98866324
 20
52.66148896
  0
VERTEX
  8
0
 62
7
 10
7.82371586
 20
52.81701604
  0
VERTEX
  8
0
 62
7
 10
7.64732033
 20
52.97082867
  0
VERTEX
  8
0
 62
7
 10
7.45532876
 20
53.12231848
  0
VERTEX
  8
0
 62
7
 10
7.24359329
 20
53.27087713
  0
VERTEX
  8
0
 62
7
 10
7.00132942
 20
53.42994374
  0
VERTEX
  8
0
 62
7
 10
6.76111183
 20
53.58596857
  0
VERTEX
  8
0
 62
7
 10
6.52011998
 20
53.73502496
  0
VERTEX
  8
0
 62
7
 10
6.27553329
 20
53.87318625
  0
VERTEX
  8
0
 62
7
 10
6.02453121
 20
53.99652578
  0
VERTEX
  8
0
 62
7
 10
5.76429319
 20
54.10111689
  0
VERTEX
  8
0
 62
7
 10
5.49199866
 20
54.18303292
  0
VERTEX
  8
0
 62
7
 10
5.20482707
 20
54.23834721
  0
VERTEX
  8
0
 62
7
 10
5.11048583
 20
54.24756587
  0
VERTEX
  8
0
 62
7
 10
5.01553624
 20
54.25037606
  0
VERTEX
  8
0
 62
7
 10
4.92069725
 20
54.24667408
  0
VERTEX
  8
0
 62
7
 10
4.82668785
 20
54.23635623
  0
VERTEX
  8
0
 62
7
 10
4.73422698
 20
54.21931881
  0
VERTEX
  8
0
 62
7
 10
4.64403363
 20
54.19545813
  0
VERTEX
  8
0
 62
7
 10
4.55682674
 20
54.16467048
  0
VERTEX
  8
0
 62
7
 10
4.47332530
 20
54.12685218
  0
VERTEX
  8
0
 62
7
 10
4.39424826
 20
54.08189953
  0
VERTEX
  8
0
 62
7
 10
4.32031460
 20
54.02970882
  0
VERTEX
  8
0
 62
7
 10
4.25224327
 20
53.97017637
  0
VERTEX
  8
0
 62
7
 10
4.19075324
 20
53.90319847
  0
VERTEX
  8
0
 62
7
 10
4.13656349
 20
53.82867142
  0
VERTEX
  8
0
 62
7
 10
4.09039297
 20
53.74649154
  0
VERTEX
  8
0
 62
7
 10
4.05296065
 20
53.65655512
  0
VERTEX
  8
0
 62
7
 10
4.02498550
 20
53.55875847
  0
VERTEX
  8
0
 62
7
 10
4.00442124
 20
53.41928829
  0
VERTEX
  8
0
 62
7
 10
4.00559186
 20
53.28451905
  0
VERTEX
  8
0
 62
7
 10
4.02722536
 20
53.15516970
  0
VERTEX
  8
0
 62
7
 10
4.06804972
 20
53.03195921
  0
VERTEX
  8
0
 62
7
 10
4.12679293
 20
52.91560655
  0
VERTEX
  8
0
 62
7
 10
4.20218296
 20
52.80683069
  0
VERTEX
  8
0
 62
7
 10
4.29294780
 20
52.70635059
  0
VERTEX
  8
0
 62
7
 10
4.39781544
 20
52.61488522
  0
VERTEX
  8
0
 62
7
 10
4.54330465
 20
52.52049789
  0
VERTEX
  8
0
 62
7
 10
4.70162464
 20
52.45088724
  0
VERTEX
  8
0
 62
7
 10
4.86967832
 20
52.40782302
  0
VERTEX
  8
0
 62
7
 10
5.04436862
 20
52.39307500
  0
VERTEX
  8
0
 62
7
 10
5.02185023
 20
52.45793864
  0
VERTEX
  8
0
 62
7
 10
5.00137814
 20
52.53325493
  0
VERTEX
  8
0
 62
7
 10
4.98455618
 20
52.61531844
  0
VERTEX
  8
0
 62
7
 10
4.97298820
 20
52.70042373
  0
VERTEX
  8
0
 62
7
 10
4.96827805
 20
52.78486536
  0
VERTEX
  8
0
 62
7
 10
4.97202958
 20
52.86493789
  0
VERTEX
  8
0
 62
7
 10
4.98584663
 20
52.93693588
  0
VERTEX
  8
0
 62
7
 10
5.01133305
 20
52.99715389
  0
VERTEX
  8
0
 62
7
 10
5.08492567
 20
53.10562557
  0
VERTEX
  8
0
 62
7
 10
5.16471246
 20
53.18887814
  0
VERTEX
  8
0
 62
7
 10
5.26219686
 20
53.24469939
  0
VERTEX
  8
0
 62
7
 10
5.38888235
 20
53.27087713
  0
VERTEX
  8
0
 62
7
 10
5.48859625
 20
53.27127002
  0
VERTEX
  8
0
 62
7
 10
5.59593533
 20
53.26074708
  0
VERTEX
  8
0
 62
7
 10
5.70989719
 20
53.24033836
  0
VERTEX
  8
0
 62
7
 10
5.82947944
 20
53.21107391
  0
VERTEX
  8
0
 62
7
 10
5.95367965
 20
53.17398379
  0
VERTEX
  8
0
 62
7
 10
6.08149544
 20
53.13009806
  0
VERTEX
  8
0
 62
7
 10
6.21192439
 20
53.08044678
  0
VERTEX
  8
0
 62
7
 10
6.34396410
 20
53.02606000
  0
VERTEX
  8
0
 62
7
 10
6.47661217
 20
52.96796778
  0
VERTEX
  8
0
 62
7
 10
6.60886618
 20
52.90720018
  0
VERTEX
  8
0
 62
7
 10
6.73972375
 20
52.84478726
  0
VERTEX
  8
0
 62
7
 10
6.86818245
 20
52.78175906
  0
VERTEX
  8
0
 62
7
 10
6.99323990
 20
52.71914565
  0
VERTEX
  8
0
 62
7
 10
7.11389368
 20
52.65797709
  0
VERTEX
  8
0
 62
7
 10
7.22914138
 20
52.59928343
  0
VERTEX
  8
0
 62
7
 10
7.33798062
 20
52.54409472
  0
VERTEX
  8
0
 62
7
 10
7.47562573
 20
52.47158056
  0
VERTEX
  8
0
 62
7
 10
7.60381367
 20
52.40022779
  0
VERTEX
  8
0
 62
7
 10
7.72547561
 20
52.33164029
  0
VERTEX
  8
0
 62
7
 10
7.84354273
 20
52.26742188
  0
VERTEX
  8
0
 62
7
 10
7.96094618
 20
52.20917642
  0
VERTEX
  8
0
 62
7
 10
8.08061714
 20
52.15850775
  0
VERTEX
  8
0
 62
7
 10
8.20548678
 20
52.11701973
  0
VERTEX
  8
0
 62
7
 10
8.33848626
 20
52.08631620
  0
VERTEX
  8
0
 62
7
 10
8.48478662
 20
52.05151087
  0
VERTEX
  8
0
 62
7
 10
8.61692887
 20
52.03440317
  0
SEQEND
  0
POLYLINE
  8
0
 62
7
 66
1
 70
1
  0
VERTEX
  8
0
 62
7
 10
14.21277077
 20
52.84584190
  0
VERTEX
  8
0
 62
7
 10
13.80690528
 20
52.85469071
  0
VERTEX
  8
0
 62
7
 10
13.40103978
 20
52.84584190
  0
VERTEX
  8
0
 62
7
 10
12.74239322
 20
52.79451879
  0
VERTEX
  8
0
 62
7
 10
12.05366071
 20
52.71487949
  0
VERTEX
  8
0
 62
7
 10
11.34369105
 20
52.62285185
  0
VERTEX
  8
0
 62
7
 10
10.62133305
 20
52.53436373
  0
VERTEX
  8
0
 62
7
 10
10.46024781
 20
52.51806717
  0
VERTEX
  8
0
 62
7
 10
10.29009253
 20
52.50575257
  0
VERTEX
  8
0
 62
7
 10
10.11860994
 20
52.49918970
  0
VERTEX
  8
0
 62
7
 10
9.95354273
 20
52.50014832
  0
VERTEX
  8
0
 62
7
 10
9.80263362
 20
52.51039820
  0
VERTEX
  8
0
 62
7
 10
9.67362532
 20
52.53170908
  0
VERTEX
  8
0
 62
7
 10
9.57426053
 20
52.56585075
  0
VERTEX
  8
0
 62
7
 10
9.51228198
 20
52.61459295
  0
VERTEX
  8
0
 62
7
 10
9.47327347
 20
52.67837814
  0
VERTEX
  8
0
 62
7
 10
9.44444109
 20
52.75322434
  0
VERTEX
  8
0
 62
7
 10
9.43065169
 20
52.83426471
  0
VERTEX
  8
0
 62
7
 10
9.43677212
 20
52.91663240
  0
VERTEX
  8
0
 62
7
 10
9.47179867
 20
52.99258470
  0
VERTEX
  8
0
 62
7
 10
9.53646873
 20
53.07119164
  0
VERTEX
  8
0
 62
7
 10
9.61264226
 20
53.14094977
  0
VERTEX
  8
0
 62
7
 10
9.68217917
 20
53.19035564
  0
VERTEX
  8
0
 62
7
 10
9.57065649
 20
53.22859910
  0
VERTEX
  8
0
 62
7
 10
9.45100396
 20
53.25119122
  0
VERTEX
  8
0
 62
7
 10
9.32703764
 20
53.25796609
  0
VERTEX
  8
0
 62
7
 10
9.20257357
 20
53.24875780
  0
VERTEX
  8
0
 62
7
 10
9.08142781
 20
53.22340042
  0
VERTEX
  8
0
 62
7
 10
8.96741640
 20
53.18172805
  0
VERTEX
  8
0
 62
7
 10
8.86435540
 20
53.12357476
  0
VERTEX
  8
0
 62
7
 10
8.77606085
 20
53.04877465
  0
VERTEX
  8
0
 62
7
 10
8.71377812
 20
52.97098806
  0
VERTEX
  8
0
 62
7
 10
8.66183743
 20
52.88131089
  0
VERTEX
  8
0
 62
7
 10
8.62084716
 20
52.78289551
  0
VERTEX
  8
0
 62
7
 10
8.59141564
 20
52.67889432
  0
VERTEX
  8
0
 62
7
 10
8.57415124
 20
52.57245971
  0
VERTEX
  8
0
 62
7
 10
8.56966231
 20
52.46674406
  0
VERTEX
  8
0
 62
7
 10
8.57855721
 20
52.36489977
  0
VERTEX
  8
0
 62
7
 10
8.60144429
 20
52.27007922
  0
VERTEX
  8
0
 62
7
 10
8.63922688
 20
52.17147488
  0
VERTEX
  8
0
 62
7
 10
8.68646663
 20
52.08406982
  0
VERTEX
  8
0
 62
7
 10
8.74222336
 20
52.00722803
  0
VERTEX
  8
0
 62
7
 10
8.80555689
 20
51.94031350
  0
VERTEX
  8
0
 62
7
 10
8.87552702
 20
51.88269022
  0
VERTEX
  8
0
 62
7
 10
8.95119358
 20
51.83372219
  0
VERTEX
  8
0
 62
7
 10
9.03161637
 20
51.79277339
  0
VERTEX
  8
0
 62
7
 10
9.11585522
 20
51.75920782
  0
VERTEX
  8
0
 62
7
 10
9.20296992
 20
51.73238947
  0
VERTEX
  8
0
 62
7
 10
9.29202031
 20
51.71168233
  0
VERTEX
  8
0
 62
7
 10
9.38206619
 20
51.69645039
  0
VERTEX
  8
0
 62
7
 10
9.47216737
 20
51.68605764
  0
VERTEX
  8
0
 62
7
 10
9.56138367
 20
51.67986808
  0
VERTEX
  8
0
 62
7
 10
9.64877490
 20
51.67724570
  0
VERTEX
  8
0
 62
7
 10
9.73340088
 20
51.67755449
  0
VERTEX
  8
0
 62
7
 10
9.81432142
 20
51.68015844
  0
VERTEX
  8
0
 62
7
 10
10.31781881
 20
51.71577490
  0
VERTEX
  8
0
 62
7
 10
10.82662548
 20
51.77749536
  0
VERTEX
  8
0
 62
7
 10
11.33543216
 20
51.86133786
  0
VERTEX
  8
0
 62
7
 10
11.83892955
 20
51.96332041
  0
VERTEX
  8
0
 62
7
 10
12.17398612
 20
52.04343903
  0
VERTEX
  8
0
 62
7
 10
12.49123445
 20
52.13174279
  0
VERTEX
  8
0
 62
7
 10
12.79410347
 20
52.22845293
  0
VERTEX
  8
0
 62
7
 10
13.08602208
 20
52.33379066
  0
VERTEX
  8
0
 62
7
 10
13.37041920
 20
52.44797720
  0
VERTEX
  8
0
 62
7
 10
13.65072375
 20
52.57123378
  0
VERTEX
  8
0
 62
7
 10
13.93036463
 20
52.70378160
  0
VERTEX
  8
0
 62
7
 10
14.21277077
 20
52.84584190
  0
SEQEND
  0
POLYLINE
  8
0
 62
7
 66
1
 70
1
  0
VERTEX
  8
0
 62
7
 10
14.28900000
 20
51.28800000
  0
VERTEX
  8
0
 62
7
 10
14.29939735
 20
51.46681974
  0
VERTEX
  8
0
 62
7
 10
14.34386263
 20
51.63900287
  0
VERTEX
  8
0
 62
7
 10
14.42106852
 20
51.79968254
  0
VERTEX
  8
0
 62
7
 10
14.52968768
 20
51.94399191
  0
VERTEX
  8
0
 62
7
 10
14.59070300
 20
52.00194932
  0
VERTEX
  8
0
 62
7
 10
14.65655752
 20
52.04883189
  0
VERTEX
  8
0
 62
7
 10
14.72667052
 20
52.08528946
  0
VERTEX
  8
0
 62
7
 10
14.80046132
 20
52.11197185
  0
VERTEX
  8
0
 62
7
 10
14.87734920
 20
52.12952891
  0
VERTEX
  8
0
 62
7
 10
14.95675346
 20
52.13861046
  0
VERTEX
  8
0
 62
7
 10
15.03809339
 20
52.13986635
  0
VERTEX
  8
0
 62
7
 10
15.12078830
 20
52.13394640
  0
VERTEX
  8
0
 62
7
 10
15.20425748
 20
52.12150046
  0
VERTEX
  8
0
 62
7
 10
15.28792023
 20
52.10317835
  0
VERTEX
  8
0
 62
7
 10
15.37119585
 20
52.07962991
  0
VERTEX
  8
0
 62
7
 10
15.45350362
 20
52.05150497
  0
VERTEX
  8
0
 62
7
 10
15.53426286
 20
52.01945338
  0
VERTEX
  8
0
 62
7
 10
15.61289285
 20
51.98412496
  0
VERTEX
  8
0
 62
7
 10
15.68881288
 20
51.94616955
  0
VERTEX
  8
0
 62
7
 10
15.76144227
 20
51.90623698
  0
VERTEX
  8
0
 62
7
 10
15.88409049
 20
51.82756551
  0
VERTEX
  8
0
 62
7
 10
16.03295331
 20
51.72019071
  0
VERTEX
  8
0
 62
7
 10
16.19796522
 20
51.59124693
  0
VERTEX
  8
0
 62
7
 10
16.36906068
 20
51.44786853
  0
VERTEX
  8
0
 62
7
 10
16.53617417
 20
51.29718986
  0
VERTEX
  8
0
 62
7
 10
16.68924018
 20
51.14634527
  0
VERTEX
  8
0
 62
7
 10
16.81819318
 20
51.00246912
  0
VERTEX
  8
0
 62
7
 10
16.91296764
 20
50.87269577
  0
VERTEX
  8
0
 62
7
 10
17.01636047
 20
50.69233671
  0
VERTEX
  8
0
 62
7
 10
17.10299587
 20
50.51026319
  0
VERTEX
  8
0
 62
7
 10
17.17204425
 20
50.32874272
  0
VERTEX
  8
0
 62
7
 10
17.22267605
 20
50.15004281
  0
VERTEX
  8
0
 62
7
 10
17.25406168
 20
49.97643097
  0
VERTEX
  8
0
 62
7
 10
17.26537157
 20
49.81017470
  0
VERTEX
  8
0
 62
7
 10
17.25577614
 20
49.65354152
  0
VERTEX
  8
0
 62
7
 10
17.22444581
 20
49.50879892
  0
VERTEX
  8
0
 62
7
 10
17.19208313
 20
49.43305862
  0
VERTEX
  8
0
 62
7
 10
17.14606009
 20
49.36566939
  0
VERTEX
  8
0
 62
7
 10
17.08864420
 20
49.30746080
  0
VERTEX
  8
0
 62
7
 10
17.02210298
 20
49.25926243
  0
VERTEX
  8
0
 62
7
 10
16.94870393
 20
49.22190385
  0
VERTEX
  8
0
 62
7
 10
16.87071456
 20
49.19621465
  0
VERTEX
  8
0
 62
7
 10
16.79040238
 20
49.18302439
  0
VERTEX
  8
0
 62
7
 10
16.71003489
 20
49.18316265
  0
VERTEX
  8
0
 62
7
 10
16.66105303
 20
49.18706166
  0
VERTEX
  8
0
 62
7
 10
16.60134199
 20
49.19400244
  0
VERTEX
  8
0
 62
7
 10
16.53433067
 20
49.20746923
  0
VERTEX
  8
0
 62
7
 10
16.46344800
 20
49.23094623
  0
VERTEX
  8
0
 62
7
 10
16.39212289
 20
49.26791767
  0
VERTEX
  8
0
 62
7
 10
16.32378426
 20
49.32186777
  0
VERTEX
  8
0
 62
7
 10
16.26186101
 20
49.39628075
  0
VERTEX
  8
0
 62
7
 10
16.20978207
 20
49.49464082
  0
VERTEX
  8
0
 62
7
 10
16.20054612
 20
49.48721151
  0
VERTEX
  8
0
 62
7
 10
16.18633272
 20
49.45378881
  0
VERTEX
  8
0
 62
7
 10
16.17145565
 20
49.39890774
  0
VERTEX
  8
0
 62
7
 10
16.16022872
 20
49.32710332
  0
VERTEX
  8
0
 62
7
 10
16.15696572
 20
49.24291056
  0
VERTEX
  8
0
 62
7
 10
16.16598045
 20
49.15086449
  0
VERTEX
  8
0
 62
7
 10
16.19158670
 20
49.05550011
  0
VERTEX
  8
0
 62
7
 10
16.23809826
 20
48.96135244
  0
VERTEX
  8
0
 62
7
 10
16.30368086
 20
48.87664350
  0
VERTEX
  8
0
 62
7
 10
16.38756944
 20
48.80045154
  0
VERTEX
  8
0
 62
7
 10
16.48506307
 20
48.73421450
  0
VERTEX
  8
0
 62
7
 10
16.59146081
 20
48.67937030
  0
VERTEX
  8
0
 62
7
 10
16.70206174
 20
48.63735688
  0
VERTEX
  8
0
 62
7
 10
16.81216492
 20
48.60961217
  0
VERTEX
  8
0
 62
7
 10
16.91706943
 20
48.59757410
  0
VERTEX
  8
0
 62
7
 10
17.01207433
 20
48.60268060
  0
VERTEX
  8
0
 62
7
 10
17.16561965
 20
48.63910821
  0
VERTEX
  8
0
 62
7
 10
17.31839070
 20
48.69854273
  0
VERTEX
  8
0
 62
7
 10
17.46518880
 20
48.78054172
  0
VERTEX
  8
0
 62
7
 10
17.60081527
 20
48.88466273
  0
VERTEX
  8
0
 62
7
 10
17.72007144
 20
49.01046334
  0
VERTEX
  8
0
 62
7
 10
17.81775864
 20
49.15750110
  0
VERTEX
  8
0
 62
7
 10
17.88867818
 20
49.32533356
  0
VERTEX
  8
0
 62
7
 10
17.92763138
 20
49.51351829
  0
VERTEX
  8
0
 62
7
 10
17.93661846
 20
49.76556194
  0
VERTEX
  8
0
 62
7
 10
17.91280962
 20
50.00344750
  0
VERTEX
  8
0
 62
7
 10
17.85968910
 20
50.23027204
  0
VERTEX
  8
0
 62
7
 10
17.78074111
 20
50.44913265
  0
VERTEX
  8
0
 62
7
 10
17.67944987
 20
50.66312641
  0
VERTEX
  8
0
 62
7
 10
17.55929960
 20
50.87535041
  0
VERTEX
  8
0
 62
7
 10
17.42377451
 20
51.08890174
  0
VERTEX
  8
0
 62
7
 10
17.27635884
 20
51.30687747
  0
VERTEX
  8
0
 62
7
 10
17.13012301
 20
51.49559681
  0
VERTEX
  8
0
 62
7
 10
16.95418835
 20
51.68752385
  0
VERTEX
  8
0
 62
7
 10
16.75513618
 20
51.87878723
  0
VERTEX
  8
0
 62
7
 10
16.53954778
 20
52.06551559
  0
VERTEX
  8
0
 62
7
 10
16.31400448
 20
52.24383758
  0
VERTEX
  8
0
 62
7
 10
16.08508756
 20
52.40988185
  0
VERTEX
  8
0
 62
7
 10
15.85937834
 20
52.55977703
  0
VERTEX
  8
0
 62
7
 10
15.64345812
 20
52.68965178
  0
VERTEX
  8
0
 62
7
 10
15.45364189
 20
52.77562351
  0
VERTEX
  8
0
 62
7
 10
15.24076344
 20
52.83499351
  0
VERTEX
  8
0
 62
7
 10
15.01405873
 20
52.86726402
  0
VERTEX
  8
0
 62
7
 10
14.78276369
 20
52.87193730
  0
VERTEX
  8
0
 62
7
 10
14.55611429
 20
52.84851560
  0
VERTEX
  8
0
 62
7
 10
14.34334645
 20
52.79650118
  0
VERTEX
  8
0
 62
7
 10
14.15369614
 20
52.71539629
  0
VERTEX
  8
0
 62
7
 10
13.99639929
 20
52.60470319
  0
VERTEX
  8
0
 62
7
 10
13.90855640
 20
52.51223310
  0
VERTEX
  8
0
 62
7
 10
13.83077903
 20
52.40648980
  0
VERTEX
  8
0
 62
7
 10
13.76561122
 20
52.29012793
  0
VERTEX
  8
0
 62
7
 10
13.71559700
 20
52.16580212
  0
VERTEX
  8
0
 62
7
 10
13.68328040
 20
52.03616703
  0
VERTEX
  8
0
 62
7
 10
13.67120546
 20
51.90387730
  0
VERTEX
  8
0
 62
7
 10
13.68191621
 20
51.77158756
  0
VERTEX
  8
0
 62
7
 10
13.71795668
 20
51.64195247
  0
VERTEX
  8
0
 62
7
 10
13.76088264
 20
51.55163928
  0
VERTEX
  8
0
 62
7
 10
13.81182783
 20
51.47515237
  0
VERTEX
  8
0
 62
7
 10
13.87084756
 20
51.41215989
  0
VERTEX
  8
0
 62
7
 10
13.93799713
 20
51.36233002
  0
VERTEX
  8
0
 62
7
 10
14.01333186
 20
51.32533092
  0
VERTEX
  8
0
 62
7
 10
14.09690705
 20
51.30083078
  0
VERTEX
  8
0
 62
7
 10
14.18877799
 20
51.28849775
  0
VERTEX
  8
0
 62
7
 10
14.28900000
 20
51.28800000
  0
SEQEND
  0
POLYLINE
  8
0
 62
7
 66
1
 70
1
  0
VERTEX
  8
0
 62
7
 10
17.77600000
 20
53.29400000
  0
VERTEX
  8
0
 62
7
 10
17.82623438
 20
53.31732813
  0
VERTEX
  8
0
 62
7
 10
17.87937500
 20
53.33512500
  0
VERTEX
  8
0
 62
7
 10
17.93532813
 20
53.34785938
  0
VERTEX
  8
0
 62
7
 10
17.99400000
 20
53.35600000
  0
VERTEX
  8
0
 62
7
 10
18.03200000
 20
53.35800000
  0
VERTEX
  8
0
 62
7
 10
18.06102344
 20
53.35690039
  0
VERTEX
  8
0
 62
7
 10
18.08887500
 20
53.35370313
  0
VERTEX
  8
0
 62
7
 10
18.11560156
 20
53.34856055
  0
VERTEX
  8
0
 62
7
 10
18.14125000
 20
53.34162500
  0
VERTEX
  8
0
 62
7
 10
18.16586719
 20
53.33304883
  0
VERTEX
  8
0
 62
7
 10
18.18950000
 20
53.32298438
  0
VERTEX
  8
0
 62
7
 10
18.21219531
 20
53.31158398
  0
VERTEX
  8
0
 62
7
 10
18.23400000
 20
53.29900000
  0
VERTEX
  8
0
 62
7
 10
18.25978613
 20
53.33840454
  0
VERTEX
  8
0
 62
7
 10
18.28757031
 20
53.37704883
  0
VERTEX
  8
0
 62
7
 10
18.31724121
 20
53.41482886
  0
VERTEX
  8
0
 62
7
 10
18.34868750
 20
53.45164063
  0
VERTEX
  8
0
 62
7
 10
18.38179785
 20
53.48738013
  0
VERTEX
  8
0
 62
7
 10
18.41646094
 20
53.52194336
  0
VERTEX
  8
0
 62
7
 10
18.45256543
 20
53.55522632
  0
VERTEX
  8
0
 62
7
 10
18.49000000
 20
53.58712500
  0
VERTEX
  8
0
 62
7
 10
18.52865332
 20
53.61753540
  0
VERTEX
  8
0
 62
7
 10
18.56841406
 20
53.64635352
  0
VERTEX
  8
0
 62
7
 10
18.60917090
 20
53.67347534
  0
VERTEX
  8
0
 62
7
 10
18.65081250
 20
53.69879688
  0
VERTEX
  8
0
 62
7
 10
18.69322754
 20
53.72221411
  0
VERTEX
  8
0
 62
7
 10
18.73630469
 20
53.74362305
  0
VERTEX
  8
0
 62
7
 10
18.77993262
 20
53.76291968
  0
VERTEX
  8
0
 62
7
 10
18.82400000
 20
53.78000000
  0
VERTEX
  8
0
 62
7
 10
18.83675586
 20
53.83256128
  0
VERTEX
  8
0
 62
7
 10
18.84654688
 20
53.88553711
  0
VERTEX
  8
0
 62
7
 10
18.85340820
 20
53.93880298
  0
VERTEX
  8
0
 62
7
 10
18.85737500
 20
53.99223438
  0
VERTEX
  8
0
 62
7
 10
18.85848242
 20
54.04570679
  0
VERTEX
  8
0
 62
7
 10
18.85676563
 20
54.09909570
  0
VERTEX
  8
0
 62
7
 10
18.85225977
 20
54.15227661
  0
VERTEX
  8
0
 62
7
 10
18.84500000
 20
54.20512500
  0
VERTEX
  8
0
 62
7
 10
18.83502148
 20
54.25751636
  0
VERTEX
  8
0
 62
7
 10
18.82235938
 20
54.30932617
  0
VERTEX
  8
0
 62
7
 10
18.80704883
 20
54.36042993
  0
VERTEX
  8
0
 62
7
 10
18.78912500
 20
54.41070313
  0
VERTEX
  8
0
 62
7
 10
18.76862305
 20
54.46002124
  0
VERTEX
  8
0
 62
7
 10
18.74557813
 20
54.50825977
  0
VERTEX
  8
0
 62
7
 10
18.72002539
 20
54.55529419
  0
VERTEX
  8
0
 62
7
 10
18.69200000
 20
54.60100000
  0
VERTEX
  8
0
 62
7
 10
18.49800000
 20
54.54500000
  0
VERTEX
  8
0
 62
7
 10
18.49838428
 20
54.54861670
  0
VERTEX
  8
0
 62
7
 10
18.49929297
 20
54.55912109
  0
VERTEX
  8
0
 62
7
 10
18.50035986
 20
54.57599463
  0
VERTEX
  8
0
 62
7
 10
18.50121875
 20
54.59871875
  0
VERTEX
  8
0
 62
7
 10
18.50150342
 20
54.62677490
  0
VERTEX
  8
0
 62
7
 10
18.50084766
 20
54.65964453
  0
VERTEX
  8
0
 62
7
 10
18.49888525
 20
54.69680908
  0
VERTEX
  8
0
 62
7
 10
18.49525000
 20
54.73775000
  0
VERTEX
  8
0
 62
7
 10
18.48957568
 20
54.78194873
  0
VERTEX
  8
0
 62
7
 10
18.48149609
 20
54.82888672
  0
VERTEX
  8
0
 62
7
 10
18.47064502
 20
54.87804541
  0
VERTEX
  8
0
 62
7
 10
18.45665625
 20
54.92890625
  0
VERTEX
  8
0
 62
7
 10
18.43916357
 20
54.98095068
  0
VERTEX
  8
0
 62
7
 10
18.41780078
 20
55.03366016
  0
VERTEX
  8
0
 62
7
 10
18.39220166
 20
55.08651611
  0
VERTEX
  8
0
 62
7
 10
18.36200000
 20
55.13900000
  0
VERTEX
  8
0
 62
7
 10
18.31718164
 20
55.20607617
  0
VERTEX
  8
0
 62
7
 10
18.27082813
 20
55.27173438
  0
VERTEX
  8
0
 62
7
 10
18.22234180
 20
55.33511914
  0
VERTEX
  8
0
 62
7
 10
18.17112500
 20
55.39537500
  0
VERTEX
  8
0
 62
7
 10
18.11658008
 20
55.45164648
  0
VERTEX
  8
0
 62
7
 10
18.05810938
 20
55.50307813
  0
VERTEX
  8
0
 62
7
 10
17.99511523
 20
55.54881445
  0
VERTEX
  8
0
 62
7
 10
17.92700000
 20
55.58800000
  0
VERTEX
  8
0
 62
7
 10
17.92296875
 20
55.51437500
  0
VERTEX
  8
0
 62
7
 10
17.91200000
 20
55.44150000
  0
VERTEX
  8
0
 62
7
 10
17.89578125
 20
55.36862500
  0
VERTEX
  8
0
 62
7
 10
17.87600000
 20
55.29500000
  0
VERTEX
  8
0
 62
7
 10
17.85716406
 20
55.24246875
  0
VERTEX
  8
0
 62
7
 10
17.83350000
 20
55.19143750
  0
VERTEX
  8
0
 62
7
 10
17.80589844
 20
55.14200000
  0
VERTEX
  8
0
 62
7
 10
17.77525000
 20
55.09425000
  0
VERTEX
  8
0
 62
7
 10
17.74244531
 20
55.04828125
  0
VERTEX
  8
0
 62
7
 10
17.70837500
 20
55.00418750
  0
VERTEX
  8
0
 62
7
 10
17.67392969
 20
54.96206250
  0
VERTEX
  8
0
 62
7
 10
17.64000000
 20
54.92200000
  0
VERTEX
  8
0
 62
7
 10
17.61911108
 20
54.89611768
  0
VERTEX
  8
0
 62
7
 10
17.60057617
 20
54.86831641
  0
VERTEX
  8
0
 62
7
 10
17.58421802
 20
54.83911475
  0
VERTEX
  8
0
 62
7
 10
17.56985938
 20
54.80903125
  0
VERTEX
  8
0
 62
7
 10
17.55732300
 20
54.77858447
  0
VERTEX
  8
0
 62
7
 10
17.54643164
 20
54.74829297
  0
VERTEX
  8
0
 62
7
 10
17.53700806
 20
54.71867529
  0
VERTEX
  8
0
 62
7
 10
17.52887500
 20
54.69025000
  0
VERTEX
  8
0
 62
7
 10
17.52185522
 20
54.66353564
  0
VERTEX
  8
0
 62
7
 10
17.51577148
 20
54.63905078
  0
VERTEX
  8
0
 62
7
 10
17.51044653
 20
54.61731396
  0
VERTEX
  8
0
 62
7
 10
17.50570313
 20
54.59884375
  0
VERTEX
  8
0
 62
7
 10
17.50136401
 20
54.58415869
  0
VERTEX
  8
0
 62
7
 10
17.49725195
 20
54.57377734
  0
VERTEX
  8
0
 62
7
 10
17.49318970
 20
54.56821826
  0
VERTEX
  8
0
 62
7
 10
17.48900000
 20
54.56800000
  0
VERTEX
  8
0
 62
7
 10
17.30400000
 20
54.62500000
  0
VERTEX
  8
0
 62
7
 10
17.27717773
 20
54.57463672
  0
VERTEX
  8
0
 62
7
 10
17.25292188
 20
54.52265625
  0
VERTEX
  8
0
 62
7
 10
17.23117383
 20
54.46922266
  0
VERTEX
  8
0
 62
7
 10
17.21187500
 20
54.41450000
  0
VERTEX
  8
0
 62
7
 10
17.19496680
 20
54.35865234
  0
VERTEX
  8
0
 62
7
 10
17.18039063
 20
54.30184375
  0
VERTEX
  8
0
 62
7
 10
17.16808789
 20
54.24423828
  0
VERTEX
  8
0
 62
7
 10
17.15800000
 20
54.18600000
  0
VERTEX
  8
0
 62
7
 10
17.15382227
 20
54.13463477
  0
VERTEX
  8
0
 62
7
 10
17.15176563
 20
54.08332813
  0
VERTEX
  8
0
 62
7
 10
17.15179492
 20
54.03213867
  0
VERTEX
  8
0
 62
7
 10
17.15387500
 20
53.98112500
  0
VERTEX
  8
0
 62
7
 10
17.15797070
 20
53.93034570
  0
VERTEX
  8
0
 62
7
 10
17.16404688
 20
53.87985938
  0
VERTEX
  8
0
 62
7
 10
17.17206836
 20
53.82972461
  0
VERTEX
  8
0
 62
7
 10
17.18200000
 20
53.78000000
  0
VERTEX
  8
0
 62
7
 10
17.22677148
 20
53.76291846
  0
VERTEX
  8
0
 62
7
 10
17.27101563
 20
53.74361328
  0
VERTEX
  8
0
 62
7
 10
17.31462695
 20
53.72218115
  0
VERTEX
  8
0
 62
7
 10
17.35750000
 20
53.69871875
  0
VERTEX
  8
0
 62
7
 10
17.39952930
 20
53.67332275
  0
VERTEX
  8
0
 62
7
 10
17.44060938
 20
53.64608984
  0
VERTEX
  8
0
 62
7
 10
17.48063477
 20
53.61711670
  0
VERTEX
  8
0
 62
7
 10
17.51950000
 20
53.58650000
  0
VERTEX
  8
0
 62
7
 10
17.55709961
 20
53.55433643
  0
VERTEX
  8
0
 62
7
 10
17.59332813
 20
53.52072266
  0
VERTEX
  8
0
 62
7
 10
17.62808008
 20
53.48575537
  0
VERTEX
  8
0
 62
7
 10
17.66125000
 20
53.44953125
  0
VERTEX
  8
0
 62
7
 10
17.69273242
 20
53.41214697
  0
VERTEX
  8
0
 62
7
 10
17.72242188
 20
53.37369922
  0
VERTEX
  8
0
 62
7
 10
17.75021289
 20
53.33428467
  0
VERTEX
  8
0
 62
7
 10
17.77600000
 20
53.29400000
  0
SEQEND
  0
POLYLINE
  8
0
 62
7
 66
1
 70
1
  0
VERTEX
  8
0
 62
7
 10
18.27226867
 20
52.52997253
  0
VERTEX
  8
0
 62
7
 10
18.21578375
 20
52.49406110
  0
VERTEX
  8
0
 62
7
 10
18.15310467
 20
52.46567116
  0
VERTEX
  8
0
 62
7
 10
18.08511630
 20
52.44701492
  0
VERTEX
  8
0
 62
7
 10
18.01270352
 20
52.44030457
  0
VERTEX
  8
0
 62
7
 10
17.99854542
 20
52.44030457
  0
VERTEX
  8
0
 62
7
 10
17.92480533
 20
52.44738362
  0
VERTEX
  8
0
 62
7
 10
17.84752570
 20
52.46862077
  0
VERTEX
  8
0
 62
7
 10
17.72954155
 20
52.52997253
  0
VERTEX
  8
0
 62
7
 10
17.68234788
 20
52.47805950
  0
VERTEX
  8
0
 62
7
 10
17.58464226
 20
52.37519206
  0
VERTEX
  8
0
 62
7
 10
17.47764537
 20
52.27807635
  0
VERTEX
  8
0
 62
7
 10
17.35383575
 20
52.19600362
  0
VERTEX
  8
0
 62
7
 10
17.20569189
 20
52.13826513
  0
VERTEX
  8
0
 62
7
 10
17.18032530
 20
51.95597961
  0
VERTEX
  8
0
 62
7
 10
17.18681443
 20
51.78431266
  0
VERTEX
  8
0
 62
7
 10
17.21358208
 20
51.65593115
  0
VERTEX
  8
0
 62
7
 10
17.25937468
 20
51.50763981
  0
VERTEX
  8
0
 62
7
 10
17.30428240
 20
51.38677979
  0
VERTEX
  8
0
 62
7
 10
17.32839542
 20
51.34069223
  0
VERTEX
  8
0
 62
7
 10
17.50773133
 20
51.40204399
  0
VERTEX
  8
0
 62
7
 10
17.50411807
 20
51.29984022
  0
VERTEX
  8
0
 62
7
 10
17.51422046
 20
51.20737013
  0
VERTEX
  8
0
 62
7
 10
17.53759607
 20
51.11666981
  0
VERTEX
  8
0
 62
7
 10
17.57380246
 20
51.01977532
  0
VERTEX
  8
0
 62
7
 10
17.63544918
 20
50.89589196
  0
VERTEX
  8
0
 62
7
 10
17.69886567
 20
50.81448289
  0
VERTEX
  8
0
 62
7
 10
17.76228215
 20
50.74369240
  0
VERTEX
  8
0
 62
7
 10
17.82392887
 20
50.65166476
  0
VERTEX
  8
0
 62
7
 10
17.84863181
 20
50.60439735
  0
VERTEX
  8
0
 62
7
 10
17.86935277
 20
50.54606894
  0
VERTEX
  8
0
 62
7
 10
17.88034005
 20
50.48508588
  0
VERTEX
  8
0
 62
7
 10
17.87584190
 20
50.42985454
  0
VERTEX
  8
0
 62
7
 10
17.97327101
 20
50.44962611
  0
VERTEX
  8
0
 62
7
 10
18.06063459
 20
50.49157500
  0
VERTEX
  8
0
 62
7
 10
18.13848569
 20
50.55088970
  0
VERTEX
  8
0
 62
7
 10
18.20737738
 20
50.62275864
  0
VERTEX
  8
0
 62
7
 10
18.26786270
 20
50.70237029
  0
VERTEX
  8
0
 62
7
 10
18.32049469
 20
50.78491311
  0
VERTEX
  8
0
 62
7
 10
18.36582642
 20
50.86557556
  0
VERTEX
  8
0
 62
7
 10
18.40441092
 20
50.93954610
  0
VERTEX
  8
0
 62
7
 10
18.46288682
 20
51.07685016
  0
VERTEX
  8
0
 62
7
 10
18.50764706
 20
51.22742744
  0
VERTEX
  8
0
 62
7
 10
18.53382479
 20
51.34968852
  0
VERTEX
  8
0
 62
7
 10
18.53655318
 20
51.40204399
  0
VERTEX
  8
0
 62
7
 10
18.66869543
 20
51.34069223
  0
VERTEX
  8
0
 62
7
 10
18.67513847
 20
51.35941300
  0
VERTEX
  8
0
 62
7
 10
18.69723285
 20
51.41170394
  0
VERTEX
  8
0
 62
7
 10
18.72850787
 20
51.49175804
  0
VERTEX
  8
0
 62
7
 10
18.76249284
 20
51.59376825
  0
VERTEX
  8
0
 62
7
 10
18.79271706
 20
51.71192753
  0
VERTEX
  8
0
 62
7
 10
18.81270984
 20
51.84042887
  0
VERTEX
  8
0
 62
7
 10
18.81600050
 20
51.97346523
  0
VERTEX
  8
0
 62
7
 10
18.79611832
 20
52.10522956
  0
VERTEX
  8
0
 62
7
 10
18.78196022
 20
52.14770386
  0
VERTEX
  8
0
 62
7
 10
18.62799090
 20
52.22402486
  0
VERTEX
  8
0
 62
7
 10
18.49879825
 20
52.31583128
  0
VERTEX
  8
0
 62
7
 10
18.38376369
 20
52.41914116
  0
VERTEX
  8
0
 62
7
 10
18.27226867
 20
52.52997253
  0
SEQEND
  0
POLYLINE
  8
0
 62
7
 66
1
 70
1
  0
VERTEX
  8
0
 62
7
 10
15.50637991
 20
52.85516585
  0
VERTEX
  8
0
 62
7
 10
15.45033743
 20
52.95132294
  0
VERTEX
  8
0
 62
7
 10
15.41199258
 20
53.05809860
  0
VERTEX
  8
0
 62
7
 10
15.37423765
 20
53.21855705
  0
VERTEX
  8
0
 62
7
 10
15.53469611
 20
53.18080212
  0
VERTEX
  8
0
 62
7
 10
15.60548660
 20
53.17136339
  0
VERTEX
  8
0
 62
7
 10
15.75591640
 20
53.18847109
  0
VERTEX
  8
0
 62
7
 10
15.90280667
 20
53.22327642
  0
VERTEX
  8
0
 62
7
 10
15.98893511
 20
53.26929024
  0
VERTEX
  8
0
 62
7
 10
16.08214259
 20
53.33654121
  0
VERTEX
  8
0
 62
7
 10
16.02079083
 20
53.42620917
  0
VERTEX
  8
0
 62
7
 10
15.96415844
 20
53.50643840
  0
VERTEX
  8
0
 62
7
 10
16.04438766
 20
53.56307079
  0
VERTEX
  8
0
 62
7
 10
16.24260105
 20
53.69049368
  0
VERTEX
  8
0
 62
7
 10
16.16517394
 20
53.79372982
  0
VERTEX
  8
0
 62
7
 10
16.07270386
 20
53.86864976
  0
VERTEX
  8
0
 62
7
 10
15.97315473
 20
53.92410231
  0
VERTEX
  8
0
 62
7
 10
15.87449048
 20
53.96893629
  0
VERTEX
  8
0
 62
7
 10
15.72723150
 20
54.01848963
  0
VERTEX
  8
0
 62
7
 10
15.58129985
 20
54.05034536
  0
VERTEX
  8
0
 62
7
 10
15.43448331
 20
54.08043132
  0
VERTEX
  8
0
 62
7
 10
15.28456969
 20
54.12467538
  0
VERTEX
  8
0
 62
7
 10
15.18022746
 20
54.17577726
  0
VERTEX
  8
0
 62
7
 10
15.09048576
 20
54.24678898
  0
VERTEX
  8
0
 62
7
 10
15.01047775
 20
54.33107391
  0
VERTEX
  8
0
 62
7
 10
14.93533659
 20
54.42199545
  0
VERTEX
  8
0
 62
7
 10
14.87943238
 20
54.29384438
  0
VERTEX
  8
0
 62
7
 10
14.84824954
 20
54.14716610
  0
VERTEX
  8
0
 62
7
 10
14.83952055
 20
53.98821011
  0
VERTEX
  8
0
 62
7
 10
14.85097792
 20
53.82322586
  0
VERTEX
  8
0
 62
7
 10
14.88035413
 20
53.65846282
  0
VERTEX
  8
0
 62
7
 10
14.92538168
 20
53.50017049
  0
VERTEX
  8
0
 62
7
 10
14.98379305
 20
53.35459832
  0
VERTEX
  8
0
 62
7
 10
15.05332075
 20
53.22799579
  0
VERTEX
  8
0
 62
7
 10
15.14070276
 20
53.11731190
  0
VERTEX
  8
0
 62
7
 10
15.25330389
 20
53.01149486
  0
VERTEX
  8
0
 62
7
 10
15.37917824
 20
52.92072080
  0
VERTEX
  8
0
 62
7
 10
15.50637991
 20
52.85516585
  0
SEQEND
  0
POLYLINE
  8
0
 62
7
 66
1
 70
1
  0
VERTEX
  8
0
 62
7
 10
17.65403169
 20
52.59604365
  0
VERTEX
  8
0
 62
7
 10
17.61118869
 20
52.65356093
  0
VERTEX
  8
0
 62
7
 10
17.57675206
 20
52.71992702
  0
VERTEX
  8
0
 62
7
 10
17.55381889
 20
52.79514192
  0
VERTEX
  8
0
 62
7
 10
17.54548626
 20
52.87920563
  0
VERTEX
  8
0
 62
7
 10
17.55020563
 20
52.94527676
  0
VERTEX
  8
0
 62
7
 10
17.56967302
 20
53.03472350
  0
VERTEX
  8
0
 62
7
 10
17.59975898
 20
53.11222434
  0
VERTEX
  8
0
 62
7
 10
17.64046351
 20
53.17822173
  0
VERTEX
  8
0
 62
7
 10
17.69178662
 20
53.23315810
  0
VERTEX
  8
0
 62
7
 10
17.58877170
 20
53.38167066
  0
VERTEX
  8
0
 62
7
 10
17.45522838
 20
53.51160071
  0
VERTEX
  8
0
 62
7
 10
17.29956304
 20
53.61675409
  0
VERTEX
  8
0
 62
7
 10
17.13018203
 20
53.69093663
  0
VERTEX
  8
0
 62
7
 10
16.96330819
 20
53.73422206
  0
VERTEX
  8
0
 62
7
 10
16.79687679
 20
53.75405815
  0
VERTEX
  8
0
 62
7
 10
16.63310003
 20
53.74469316
  0
VERTEX
  8
0
 62
7
 10
16.47419012
 20
53.70037536
  0
VERTEX
  8
0
 62
7
 10
16.28246587
 20
53.59890898
  0
VERTEX
  8
0
 62
7
 10
16.10136019
 20
53.48328451
  0
VERTEX
  8
0
 62
7
 10
16.21934435
 20
53.31810669
  0
VERTEX
  8
0
 62
7
 10
16.15777136
 20
53.26670984
  0
VERTEX
  8
0
 62
7
 10
16.08425249
 20
53.21133103
  0
VERTEX
  8
0
 62
7
 10
16.00630920
 20
53.16214638
  0
VERTEX
  8
0
 62
7
 10
15.93146300
 20
53.12933204
  0
VERTEX
  8
0
 62
7
 10
15.83066029
 20
53.10204820
  0
VERTEX
  8
0
 62
7
 10
15.71968144
 20
53.08095854
  0
VERTEX
  8
0
 62
7
 10
15.60958748
 20
53.07225721
  0
VERTEX
  8
0
 62
7
 10
15.51143941
 20
53.08213838
  0
VERTEX
  8
0
 62
7
 10
15.53484267
 20
53.01198389
  0
VERTEX
  8
0
 62
7
 10
15.56858798
 20
52.94653034
  0
VERTEX
  8
0
 62
7
 10
15.61107150
 20
52.88561180
  0
VERTEX
  8
0
 62
7
 10
15.66068936
 20
52.82906236
  0
VERTEX
  8
0
 62
7
 10
15.71583774
 20
52.77671611
  0
VERTEX
  8
0
 62
7
 10
15.77491278
 20
52.72840713
  0
VERTEX
  8
0
 62
7
 10
15.83631062
 20
52.68396950
  0
VERTEX
  8
0
 62
7
 10
15.89842744
 20
52.64323732
  0
VERTEX
  8
0
 62
7
 10
16.00439196
 20
52.59302031
  0
VERTEX
  8
0
 62
7
 10
16.14088488
 20
52.54590039
  0
VERTEX
  8
0
 62
7
 10
16.28003245
 20
52.50851416
  0
VERTEX
  8
0
 62
7
 10
16.39396090
 20
52.48749823
  0
VERTEX
  8
0
 62
7
 10
16.29485421
 20
52.35535598
  0
VERTEX
  8
0
 62
7
 10
16.31009997
 20
52.34505080
  0
VERTEX
  8
0
 62
7
 10
16.35487864
 20
52.31892837
  0
VERTEX
  8
0
 62
7
 10
16.42775230
 20
52.28417835
  0
VERTEX
  8
0
 62
7
 10
16.52728299
 20
52.24799039
  0
VERTEX
  8
0
 62
7
 10
16.65203280
 20
52.21755417
  0
VERTEX
  8
0
 62
7
 10
16.80056380
 20
52.20005933
  0
VERTEX
  8
0
 62
7
 10
16.97143804
 20
52.20269554
  0
VERTEX
  8
0
 62
7
 10
17.16321760
 20
52.23265245
  0
VERTEX
  8
0
 62
7
 10
17.24044191
 20
52.25388038
  0
VERTEX
  8
0
 62
7
 10
17.31025535
 20
52.28478670
  0
VERTEX
  8
0
 62
7
 10
17.37409584
 20
52.32398878
  0
VERTEX
  8
0
 62
7
 10
17.43340131
 20
52.37010399
  0
VERTEX
  8
0
 62
7
 10
17.48960970
 20
52.42174972
  0
VERTEX
  8
0
 62
7
 10
17.54415894
 20
52.47754332
  0
VERTEX
  8
0
 62
7
 10
17.59848696
 20
52.53610217
  0
VERTEX
  8
0
 62
7
 10
17.65403169
 20
52.59604365
  0
SEQEND
  0
POLYLINE
  8
0
 62
7
 66
1
 70
1
  0
VERTEX
  8
0
 62
7
 10
20.51400000
 20
52.87900000
  0
VERTEX
  8
0
 62
7
 10
20.57912891
 20
52.90712109
  0
VERTEX
  8
0
 62
7
 10
20.64334375
 20
52.94140625
  0
VERTEX
  8
0
 62
7
 10
20.70563672
 20
52.98098828
  0
VERTEX
  8
0
 62
7
 10
20.76500000
 20
53.02500000
  0
VERTEX
  8
0
 62
7
 10
20.82042578
 20
53.07257422
  0
VERTEX
  8
0
 62
7
 10
20.87090625
 20
53.12284375
  0
VERTEX
  8
0
 62
7
 10
20.91543359
 20
53.17494141
  0
VERTEX
  8
0
 62
7
 10
20.95300000
 20
53.22800000
  0
VERTEX
  8
0
 62
7
 10
20.98897607
 20
53.28857349
  0
VERTEX
  8
0
 62
7
 10
21.02246484
 20
53.35465039
  0
VERTEX
  8
0
 62
7
 10
21.05318213
 20
53.42545288
  0
VERTEX
  8
0
 62
7
 10
21.08084375
 20
53.50020313
  0
VERTEX
  8
0
 62
7
 10
21.10516553
 20
53.57812329
  0
VERTEX
  8
0
 62
7
 10
21.12586328
 20
53.65843555
  0
VERTEX
  8
0
 62
7
 10
21.14265283
 20
53.74036206
  0
VERTEX
  8
0
 62
7
 10
21.15525000
 20
53.82312500
  0
VERTEX
  8
0
 62
7
 10
21.16337061
 20
53.90594653
  0
VERTEX
  8
0
 62
7
 10
21.16673047
 20
53.98804883
  0
VERTEX
  8
0
 62
7
 10
21.16504541
 20
54.06865405
  0
VERTEX
  8
0
 62
7
 10
21.15803125
 20
54.14698438
  0
VERTEX
  8
0
 62
7
 10
21.14540381
 20
54.22226196
  0
VERTEX
  8
0
 62
7
 10
21.12687891
 20
54.29370898
  0
VERTEX
  8
0
 62
7
 10
21.10217236
 20
54.36054761
  0
VERTEX
  8
0
 62
7
 10
21.07100000
 20
54.42200000
  0
VERTEX
  8
0
 62
7
 10
21.03373047
 20
54.37601563
  0
VERTEX
  8
0
 62
7
 10
20.99578125
 20
54.33087500
  0
VERTEX
  8
0
 62
7
 10
20.95656641
 20
54.28742188
  0
VERTEX
  8
0
 62
7
 10
20.91550000
 20
54.24650000
  0
VERTEX
  8
0
 62
7
 10
20.87199609
 20
54.20895313
  0
VERTEX
  8
0
 62
7
 10
20.82546875
 20
54.17562500
  0
VERTEX
  8
0
 62
7
 10
20.77533203
 20
54.14735938
  0
VERTEX
  8
0
 62
7
 10
20.72100000
 20
54.12500000
  0
VERTEX
  8
0
 62
7
 10
20.64581641
 20
54.09996289
  0
VERTEX
  8
0
 62
7
 10
20.57159375
 20
54.08051563
  0
VERTEX
  8
0
 62
7
 10
20.49807422
 20
54.06465430
  0
VERTEX
  8
0
 62
7
 10
20.42500000
 20
54.05037500
  0
VERTEX
  8
0
 62
7
 10
20.35211328
 20
54.03567383
  0
VERTEX
  8
0
 62
7
 10
20.27915625
 20
54.01854688
  0
VERTEX
  8
0
 62
7
 10
20.20587109
 20
53.99699023
  0
VERTEX
  8
0
 62
7
 10
20.13200000
 20
53.96900000
  0
VERTEX
  8
0
 62
7
 10
20.08308594
 20
53.94725000
  0
VERTEX
  8
0
 62
7
 10
20.03300000
 20
53.92400000
  0
VERTEX
  8
0
 62
7
 10
19.98272656
 20
53.89812500
  0
VERTEX
  8
0
 62
7
 10
19.93325000
 20
53.86850000
  0
VERTEX
  8
0
 62
7
 10
19.88555469
 20
53.83400000
  0
VERTEX
  8
0
 62
7
 10
19.84062500
 20
53.79350000
  0
VERTEX
  8
0
 62
7
 10
19.79944531
 20
53.74587500
  0
VERTEX
  8
0
 62
7
 10
19.76300000
 20
53.69000000
  0
VERTEX
  8
0
 62
7
 10
19.87612500
 20
53.62150000
  0
VERTEX
  8
0
 62
7
 10
19.96300000
 20
53.56500000
  0
VERTEX
  8
0
 62
7
 10
20.04500000
 20
53.50700000
  0
VERTEX
  8
0
 62
7
 10
19.98700000
 20
53.42500000
  0
VERTEX
  8
0
 62
7
 10
19.92300000
 20
53.33600000
  0
VERTEX
  8
0
 62
7
 10
19.97040625
 20
53.30009375
  0
VERTEX
  8
0
 62
7
 10
20.01800000
 20
53.26775000
  0
VERTEX
  8
0
 62
7
 10
20.06334375
 20
53.24178125
  0
VERTEX
  8
0
 62
7
 10
20.10400000
 20
53.22500000
  0
VERTEX
  8
0
 62
7
 10
20.13878516
 20
53.21497070
  0
VERTEX
  8
0
 62
7
 10
20.17528125
 20
53.20532813
  0
VERTEX
  8
0
 62
7
 10
20.21294922
 20
53.19636523
  0
VERTEX
  8
0
 62
7
 10
20.25125000
 20
53.18837500
  0
VERTEX
  8
0
 62
7
 10
20.28964453
 20
53.18165039
  0
VERTEX
  8
0
 62
7
 10
20.32759375
 20
53.17648438
  0
VERTEX
  8
0
 62
7
 10
20.36455859
 20
53.17316992
  0
VERTEX
  8
0
 62
7
 10
20.40000000
 20
53.17200000
  0
VERTEX
  8
0
 62
7
 10
20.43975000
 20
53.17400000
  0
VERTEX
  8
0
 62
7
 10
20.47200000
 20
53.17900000
  0
VERTEX
  8
0
 62
7
 10
20.63100000
 20
53.21800000
  0
VERTEX
  8
0
 62
7
 10
20.59200000
 20
53.05800000
  0
VERTEX
  8
0
 62
7
 10
20.57798438
 20
53.00978125
  0
VERTEX
  8
0
 62
7
 10
20.56012500
 20
52.96400000
  0
VERTEX
  8
0
 62
7
 10
20.53870313
 20
52.92046875
  0
VERTEX
  8
0
 62
7
 10
20.51400000
 20
52.87900000
  0
SEQEND
  0
POLYLINE
  8
0
 62
7
 66
1
 70
1
  0
VERTEX
  8
0
 62
7
 10
18.34305916
 20
52.60076302
  0
VERTEX
  8
0
 62
7
 10
18.45352183
 20
52.49022661
  0
VERTEX
  8
0
 62
7
 10
18.56486937
 20
52.39252098
  0
VERTEX
  8
0
 62
7
 10
18.68683550
 20
52.30808857
  0
VERTEX
  8
0
 62
7
 10
18.82915389
 20
52.23737182
  0
VERTEX
  8
0
 62
7
 10
18.95975682
 20
52.20423486
  0
VERTEX
  8
0
 62
7
 10
19.10147607
 20
52.19615110
  0
VERTEX
  8
0
 62
7
 10
19.24551813
 20
52.20676046
  0
VERTEX
  8
0
 62
7
 10
19.38308950
 20
52.22970285
  0
VERTEX
  8
0
 62
7
 10
19.50539667
 20
52.25861818
  0
VERTEX
  8
0
 62
7
 10
19.60364613
 20
52.28714638
  0
VERTEX
  8
0
 62
7
 10
19.66904438
 20
52.30892737
  0
VERTEX
  8
0
 62
7
 10
19.69279791
 20
52.31760105
  0
VERTEX
  8
0
 62
7
 10
19.65504298
 20
52.46390140
  0
VERTEX
  8
0
 62
7
 10
19.76521069
 20
52.48941547
  0
VERTEX
  8
0
 62
7
 10
19.89573066
 20
52.53705158
  0
VERTEX
  8
0
 62
7
 10
20.02271111
 20
52.59530625
  0
VERTEX
  8
0
 62
7
 10
20.12226024
 20
52.65267605
  0
VERTEX
  8
0
 62
7
 10
20.18376870
 20
52.69164769
  0
VERTEX
  8
0
 62
7
 10
20.24356270
 20
52.73438008
  0
VERTEX
  8
0
 62
7
 10
20.30037023
 20
52.78109443
  0
VERTEX
  8
0
 62
7
 10
20.35291927
 20
52.83201197
  0
VERTEX
  8
0
 62
7
 10
20.39993779
 20
52.88735391
  0
VERTEX
  8
0
 62
7
 10
20.44015380
 20
52.94734148
  0
VERTEX
  8
0
 62
7
 10
20.47229527
 20
53.01219590
  0
VERTEX
  8
0
 62
7
 10
20.49509017
 20
53.08213838
  0
VERTEX
  8
0
 62
7
 10
20.39694210
 20
53.07225721
  0
VERTEX
  8
0
 62
7
 10
20.28684814
 20
53.08095854
  0
VERTEX
  8
0
 62
7
 10
20.17586929
 20
53.10204820
  0
VERTEX
  8
0
 62
7
 10
20.07506658
 20
53.12933204
  0
VERTEX
  8
0
 62
7
 10
20.00022038
 20
53.16214638
  0
VERTEX
  8
0
 62
7
 10
19.92227709
 20
53.21133103
  0
VERTEX
  8
0
 62
7
 10
19.84875822
 20
53.26670984
  0
VERTEX
  8
0
 62
7
 10
19.78718524
 20
53.31810669
  0
VERTEX
  8
0
 62
7
 10
19.90516939
 20
53.48328451
  0
VERTEX
  8
0
 62
7
 10
19.72406371
 20
53.59890898
  0
VERTEX
  8
0
 62
7
 10
19.53233946
 20
53.70037536
  0
VERTEX
  8
0
 62
7
 10
19.37342955
 20
53.74469316
  0
VERTEX
  8
0
 62
7
 10
19.20965279
 20
53.75405815
  0
VERTEX
  8
0
 62
7
 10
19.04322139
 20
53.73422206
  0
VERTEX
  8
0
 62
7
 10
18.87634755
 20
53.69093663
  0
VERTEX
  8
0
 62
7
 10
18.70962119
 20
53.61682783
  0
VERTEX
  8
0
 62
7
 10
18.55484072
 20
53.51219063
  0
VERTEX
  8
0
 62
7
 10
18.42041252
 20
53.38366164
  0
VERTEX
  8
0
 62
7
 10
18.31474296
 20
53.23787747
  0
VERTEX
  8
0
 62
7
 10
18.37786449
 20
53.16177768
  0
VERTEX
  8
0
 62
7
 10
18.42328839
 20
53.08213838
  0
VERTEX
  8
0
 62
7
 10
18.46104332
 20
52.94527676
  0
VERTEX
  8
0
 62
7
 10
18.46104332
 20
52.90280246
  0
VERTEX
  8
0
 62
7
 10
18.45322687
 20
52.82640772
  0
VERTEX
  8
0
 62
7
 10
18.43036744
 20
52.74824322
  0
VERTEX
  8
0
 62
7
 10
18.39334991
 20
52.67184847
  0
VERTEX
  8
0
 62
7
 10
18.34305916
 20
52.60076302
  0
SEQEND
  0
POLYLINE
  8
0
 62
7
 66
1
 70
1
  0
VERTEX
  8
0
 62
7
 10
17.64900000
 20
52.93100000
  0
VERTEX
  8
0
 62
7
 10
17.65201413
 20
52.84119378
  0
VERTEX
  8
0
 62
7
 10
17.67311301
 20
52.76294632
  0
VERTEX
  8
0
 62
7
 10
17.70914427
 20
52.69631292
  0
VERTEX
  8
0
 62
7
 10
17.75695550
 20
52.64134890
  0
VERTEX
  8
0
 62
7
 10
17.81339433
 20
52.59810955
  0
VERTEX
  8
0
 62
7
 10
17.87530836
 20
52.56665018
  0
VERTEX
  8
0
 62
7
 10
17.93954520
 20
52.54702609
  0
VERTEX
  8
0
 62
7
 10
18.00295247
 20
52.53929260
  0
VERTEX
  8
0
 62
7
 10
18.08166081
 20
52.54663896
  0
VERTEX
  8
0
 62
7
 10
18.15389845
 20
52.57328679
  0
VERTEX
  8
0
 62
7
 10
18.21806155
 20
52.61553064
  0
VERTEX
  8
0
 62
7
 10
18.27254627
 20
52.66966509
  0
VERTEX
  8
0
 62
7
 10
18.31574875
 20
52.73198469
  0
VERTEX
  8
0
 62
7
 10
18.34606514
 20
52.79878400
  0
VERTEX
  8
0
 62
7
 10
18.36189161
 20
52.86635759
  0
VERTEX
  8
0
 62
7
 10
18.36162430
 20
52.93100000
  0
VERTEX
  8
0
 62
7
 10
18.35085825
 20
52.98641568
  0
VERTEX
  8
0
 62
7
 10
18.32947362
 20
53.04426479
  0
VERTEX
  8
0
 62
7
 10
18.29791286
 20
53.10122902
  0
VERTEX
  8
0
 62
7
 10
18.25661841
 20
53.15399006
  0
VERTEX
  8
0
 62
7
 10
18.20603270
 20
53.19922961
  0
VERTEX
  8
0
 62
7
 10
18.14659818
 20
53.23362936
  0
VERTEX
  8
0
 62
7
 10
18.07875729
 20
53.25387102
  0
VERTEX
  8
0
 62
7
 10
18.00295247
 20
53.25663627
  0
VERTEX
  8
0
 62
7
 10
17.93528671
 20
53.24574117
  0
VERTEX
  8
0
 62
7
 10
17.87398104
 20
53.22699275
  0
VERTEX
  8
0
 62
7
 10
17.81920136
 20
53.20005918
  0
VERTEX
  8
0
 62
7
 10
17.77111360
 20
53.16460863
  0
VERTEX
  8
0
 62
7
 10
17.72988367
 20
53.12030927
  0
VERTEX
  8
0
 62
7
 10
17.69567748
 20
53.06682926
  0
VERTEX
  8
0
 62
7
 10
17.66866095
 20
53.00383678
  0
VERTEX
  8
0
 62
7
 10
17.64900000
 20
52.93100000
  0
SEQEND
  0
POLYLINE
  8
0
 62
7
 66
1
 70
1
  0
VERTEX
  8
0
 62
7
 10
.00000000
 20
.00000000
  0
VERTEX
  8
0
 62
7
 10
36.00000000
 20
.00000000
  0
VERTEX
  8
0
 62
7
 10
36.00000000
 20
72.00000000
  0
VERTEX
  8
0
 62
7
 10
.00000000
 20
72.00000000
  0
VERTEX
  8
0
 62
7
 10
.00000000
 20
.00000000
  0
SEQEND
  0
POLYLINE
  8
0
 62
7
 66
1
 70
1
  0
VERTEX
  8
0
 62
7
 10
27.38507113
 20
52.03440317
  0
VERTEX
  8
0
 62
7
 10
27.51721338
 20
52.05151087
  0
VERTEX
  8
0
 62
7
 10
27.66351374
 20
52.08631620
  0
VERTEX
  8
0
 62
7
 10
27.79651322
 20
52.11701973
  0
VERTEX
  8
0
 62
7
 10
27.92138286
 20
52.15850775
  0
VERTEX
  8
0
 62
7
 10
28.04105382
 20
52.20917642
  0
VERTEX
  8
0
 62
7
 10
28.15845727
 20
52.26742188
  0
VERTEX
  8
0
 62
7
 10
28.27652439
 20
52.33164029
  0
VERTEX
  8
0
 62
7
 10
28.39818633
 20
52.40022779
  0
VERTEX
  8
0
 62
7
 10
28.52637427
 20
52.47158056
  0
VERTEX
  8
0
 62
7
 10
28.66401938
 20
52.54409472
  0
VERTEX
  8
0
 62
7
 10
28.77285862
 20
52.59928343
  0
VERTEX
  8
0
 62
7
 10
28.88810632
 20
52.65797709
  0
VERTEX
  8
0
 62
7
 10
29.00876010
 20
52.71914565
  0
VERTEX
  8
0
 62
7
 10
29.13381755
 20
52.78175906
  0
VERTEX
  8
0
 62
7
 10
29.26227625
 20
52.84478726
  0
VERTEX
  8
0
 62
7
 10
29.39313382
 20
52.90720018
  0
VERTEX
  8
0
 62
7
 10
29.52538783
 20
52.96796778
  0
VERTEX
  8
0
 62
7
 10
29.65803590
 20
53.02606000
  0
VERTEX
  8
0
 62
7
 10
29.79007561
 20
53.08044678
  0
VERTEX
  8
0
 62
7
 10
29.92050456
 20
53.13009806
  0
VERTEX
  8
0
 62
7
 10
30.04832035
 20
53.17398379
  0
VERTEX
  8
0
 62
7
 10
30.17252056
 20
53.21107391
  0
VERTEX
  8
0
 62
7
 10
30.29210281
 20
53.24033836
  0
VERTEX
  8
0
 62
7
 10
30.40606467
 20
53.26074708
  0
VERTEX
  8
0
 62
7
 10
30.51340375
 20
53.27127002
  0
VERTEX
  8
0
 62
7
 10
30.61311765
 20
53.27087713
  0
VERTEX
  8
0
 62
7
 10
30.73980314
 20
53.24469939
  0
VERTEX
  8
0
 62
7
 10
30.83728754
 20
53.18887814
  0
VERTEX
  8
0
 62
7
 10
30.91707433
 20
53.10562557
  0
VERTEX
  8
0
 62
7
 10
30.99066695
 20
52.99715389
  0
VERTEX
  8
0
 62
7
 10
31.01615337
 20
52.93693588
  0
VERTEX
  8
0
 62
7
 10
31.02997042
 20
52.86493789
  0
VERTEX
  8
0
 62
7
 10
31.03372195
 20
52.78486536
  0
VERTEX
  8
0
 62
7
 10
31.02901180
 20
52.70042373
  0
VERTEX
  8
0
 62
7
 10
31.01744382
 20
52.61531844
  0
VERTEX
  8
0
 62
7
 10
31.00062186
 20
52.53325493
  0
VERTEX
  8
0
 62
7
 10
30.98014977
 20
52.45793864
  0
VERTEX
  8
0
 62
7
 10
30.95763138
 20
52.39307500
  0
VERTEX
  8
0
 62
7
 10
31.13232168
 20
52.40782302
  0
VERTEX
  8
0
 62
7
 10
31.30037536
 20
52.45088724
  0
VERTEX
  8
0
 62
7
 10
31.45869535
 20
52.52049789
  0
VERTEX
  8
0
 62
7
 10
31.60418456
 20
52.61488522
  0
VERTEX
  8
0
 62
7
 10
31.70905220
 20
52.70635059
  0
VERTEX
  8
0
 62
7
 10
31.79981704
 20
52.80683069
  0
VERTEX
  8
0
 62
7
 10
31.87520707
 20
52.91560655
  0
VERTEX
  8
0
 62
7
 10
31.93395028
 20
53.03195921
  0
VERTEX
  8
0
 62
7
 10
31.97477464
 20
53.15516970
  0
VERTEX
  8
0
 62
7
 10
31.99640814
 20
53.28451905
  0
VERTEX
  8
0
 62
7
 10
31.99757876
 20
53.41928829
  0
VERTEX
  8
0
 62
7
 10
31.97701450
 20
53.55875847
  0
VERTEX
  8
0
 62
7
 10
31.94903935
 20
53.65655512
  0
VERTEX
  8
0
 62
7
 10
31.91160703
 20
53.74649154
  0
VERTEX
  8
0
 62
7
 10
31.86543651
 20
53.82867142
  0
VERTEX
  8
0
 62
7
 10
31.81124676
 20
53.90319847
  0
VERTEX
  8
0
 62
7
 10
31.74975673
 20
53.97017637
  0
VERTEX
  8
0
 62
7
 10
31.68168540
 20
54.02970882
  0
VERTEX
  8
0
 62
7
 10
31.60775174
 20
54.08189953
  0
VERTEX
  8
0
 62
7
 10
31.52867470
 20
54.12685218
  0
VERTEX
  8
0
 62
7
 10
31.44517326
 20
54.16467048
  0
VERTEX
  8
0
 62
7
 10
31.35796637
 20
54.19545813
  0
VERTEX
  8
0
 62
7
 10
31.26777302
 20
54.21931881
  0
VERTEX
  8
0
 62
7
 10
31.17531215
 20
54.23635623
  0
VERTEX
  8
0
 62
7
 10
31.08130275
 20
54.24667408
  0
VERTEX
  8
0
 62
7
 10
30.98646376
 20
54.25037606
  0
VERTEX
  8
0
 62
7
 10
30.89151417
 20
54.24756587
  0
VERTEX
  8
0
 62
7
 10
30.79717293
 20
54.23834721
  0
VERTEX
  8
0
 62
7
 10
30.51000134
 20
54.18303292
  0
VERTEX
  8
0
 62
7
 10
30.23770681
 20
54.10111689
  0
VERTEX
  8
0
 62
7
 10
29.97746879
 20
53.99652578
  0
VERTEX
  8
0
 62
7
 10
29.72646671
 20
53.87318625
  0
VERTEX
  8
0
 62
7
 10
29.48188002
 20
53.73502496
  0
VERTEX
  8
0
 62
7
 10
29.24088817
 20
53.58596857
  0
VERTEX
  8
0
 62
7
 10
29.00067058
 20
53.42994374
  0
VERTEX
  8
0
 62
7
 10
28.75840671
 20
53.27087713
  0
VERTEX
  8
0
 62
7
 10
28.54667124
 20
53.12231848
  0
VERTEX
  8
0
 62
7
 10
28.35467967
 20
52.97082867
  0
VERTEX
  8
0
 62
7
 10
28.17828414
 20
52.81701604
  0
VERTEX
  8
0
 62
7
 10
28.01333676
 20
52.66148896
  0
VERTEX
  8
0
 62
7
 10
27.85568965
 20
52.50485577
  0
VERTEX
  8
0
 62
7
 10
27.70119493
 20
52.34772484
  0
VERTEX
  8
0
 62
7
 10
27.54570471
 20
52.19070452
  0
VERTEX
  8
0
 62
7
 10
27.38507113
 20
52.03440317
  0
SEQEND
  0
POLYLINE
  8
0
 62
7
 66
1
 70
1
  0
VERTEX
  8
0
 62
7
 10
21.78922923
 20
52.84584190
  0
VERTEX
  8
0
 62
7
 10
22.07163537
 20
52.70378160
  0
VERTEX
  8
0
 62
7
 10
22.35127625
 20
52.57123378
  0
VERTEX
  8
0
 62
7
 10
22.63158080
 20
52.44797720
  0
VERTEX
  8
0
 62
7
 10
22.91597792
 20
52.33379066
  0
VERTEX
  8
0
 62
7
 10
23.20789653
 20
52.22845293
  0
VERTEX
  8
0
 62
7
 10
23.51076555
 20
52.13174279
  0
VERTEX
  8
0
 62
7
 10
23.82801388
 20
52.04343903
  0
VERTEX
  8
0
 62
7
 10
24.16307045
 20
51.96332041
  0
VERTEX
  8
0
 62
7
 10
24.66656784
 20
51.86133786
  0
VERTEX
  8
0
 62
7
 10
25.17537452
 20
51.77749536
  0
VERTEX
  8
0
 62
7
 10
25.68418119
 20
51.71577490
  0
VERTEX
  8
0
 62
7
 10
26.18767858
 20
51.68015844
  0
VERTEX
  8
0
 62
7
 10
26.26859912
 20
51.67755449
  0
VERTEX
  8
0
 62
7
 10
26.35322510
 20
51.67724570
  0
VERTEX
  8
0
 62
7
 10
26.44061633
 20
51.67986808
  0
VERTEX
  8
0
 62
7
 10
26.52983263
 20
51.68605764
  0
VERTEX
  8
0
 62
7
 10
26.61993381
 20
51.69645039
  0
VERTEX
  8
0
 62
7
 10
26.70997969
 20
51.71168233
  0
VERTEX
  8
0
 62
7
 10
26.79903008
 20
51.73238947
  0
VERTEX
  8
0
 62
7
 10
26.88614478
 20
51.75920782
  0
VERTEX
  8
0
 62
7
 10
26.97038363
 20
51.79277339
  0
VERTEX
  8
0
 62
7
 10
27.05080642
 20
51.83372219
  0
VERTEX
  8
0
 62
7
 10
27.12647298
 20
51.88269022
  0
VERTEX
  8
0
 62
7
 10
27.19644311
 20
51.94031350
  0
VERTEX
  8
0
 62
7
 10
27.25977664
 20
52.00722803
  0
VERTEX
  8
0
 62
7
 10
27.31553337
 20
52.08406982
  0
VERTEX
  8
0
 62
7
 10
27.36277312
 20
52.17147488
  0
VERTEX
  8
0
 62
7
 10
27.40055571
 20
52.27007922
  0
VERTEX
  8
0
 62
7
 10
27.42344279
 20
52.36489977
  0
VERTEX
  8
0
 62
7
 10
27.43233769
 20
52.46674406
  0
VERTEX
  8
0
 62
7
 10
27.42784876
 20
52.57245971
  0
VERTEX
  8
0
 62
7
 10
27.41058436
 20
52.67889432
  0
VERTEX
  8
0
 62
7
 10
27.38115284
 20
52.78289551
  0
VERTEX
  8
0
 62
7
 10
27.34016257
 20
52.88131089
  0
VERTEX
  8
0
 62
7
 10
27.28822188
 20
52.97098806
  0
VERTEX
  8
0
 62
7
 10
27.22593915
 20
53.04877465
  0
VERTEX
  8
0
 62
7
 10
27.13764460
 20
53.12357476
  0
VERTEX
  8
0
 62
7
 10
27.03458360
 20
53.18172805
  0
VERTEX
  8
0
 62
7
 10
26.92057219
 20
53.22340042
  0
VERTEX
  8
0
 62
7
 10
26.79942643
 20
53.24875780
  0
VERTEX
  8
0
 62
7
 10
26.67496236
 20
53.25796609
  0
VERTEX
  8
0
 62
7
 10
26.55099604
 20
53.25119122
  0
VERTEX
  8
0
 62
7
 10
26.43134351
 20
53.22859910
  0
VERTEX
  8
0
 62
7
 10
26.31982083
 20
53.19035564
  0
VERTEX
  8
0
 62
7
 10
26.38935774
 20
53.14094977
  0
VERTEX
  8
0
 62
7
 10
26.46553127
 20
53.07119164
  0
VERTEX
  8
0
 62
7
 10
26.53020133
 20
52.99258470
  0
VERTEX
  8
0
 62
7
 10
26.56522788
 20
52.91663240
  0
VERTEX
  8
0
 62
7
 10
26.57134831
 20
52.83426471
  0
VERTEX
  8
0
 62
7
 10
26.55755891
 20
52.75322434
  0
VERTEX
  8
0
 62
7
 10
26.52872653
 20
52.67837814
  0
VERTEX
  8
0
 62
7
 10
26.48971802
 20
52.61459295
  0
VERTEX
  8
0
 62
7
 10
26.42773947
 20
52.56585075
  0
VERTEX
  8
0
 62
7
 10
26.32837468
 20
52.53170908
  0
VERTEX
  8
0
 62
7
 10
26.19936638
 20
52.51039820
  0
VERTEX
  8
0
 62
7
 10
26.04845727
 20
52.50014832
  0
VERTEX
  8
0
 62
7
 10
25.88339006
 20
52.49918970
  0
VERTEX
  8
0
 62
7
 10
25.71190747
 20
52.50575257
  0
VERTEX
  8
0
 62
7
 10
25.54175219
 20
52.51806717
  0
VERTEX
  8
0
 62
7
 10
25.38066695
 20
52.53436373
  0
VERTEX
  8
0
 62
7
 10
24.65830895
 20
52.62285185
  0
VERTEX
  8
0
 62
7
 10
23.94833929
 20
52.71487949
  0
VERTEX
  8
0
 62
7
 10
23.25960678
 20
52.79451879
  0
VERTEX
  8
0
 62
7
 10
22.60096022
 20
52.84584190
  0
VERTEX
  8
0
 62
7
 10
22.19509472
 20
52.85469071
  0
VERTEX
  8
0
 62
7
 10
21.78922923
 20
52.84584190
  0
SEQEND
  0
POLYLINE
  8
0
 62
7
 66
1
 70
1
  0
VERTEX
  8
0
 62
7
 10
21.71300000
 20
51.28800000
  0
VERTEX
  8
0
 62
7
 10
21.81322201
 20
51.28849775
  0
VERTEX
  8
0
 62
7
 10
21.90509295
 20
51.30083078
  0
VERTEX
  8
0
 62
7
 10
21.98866814
 20
51.32533092
  0
VERTEX
  8
0
 62
7
 10
22.06400287
 20
51.36233002
  0
VERTEX
  8
0
 62
7
 10
22.13115244
 20
51.41215989
  0
VERTEX
  8
0
 62
7
 10
22.19017217
 20
51.47515237
  0
VERTEX
  8
0
 62
7
 10
22.24111736
 20
51.55163928
  0
VERTEX
  8
0
 62
7
 10
22.28404332
 20
51.64195247
  0
VERTEX
  8
0
 62
7
 10
22.32008379
 20
51.77158756
  0
VERTEX
  8
0
 62
7
 10
22.33079454
 20
51.90387730
  0
VERTEX
  8
0
 62
7
 10
22.31871960
 20
52.03616703
  0
VERTEX
  8
0
 62
7
 10
22.28640300
 20
52.16580212
  0
VERTEX
  8
0
 62
7
 10
22.23638878
 20
52.29012793
  0
VERTEX
  8
0
 62
7
 10
22.17122097
 20
52.40648980
  0
VERTEX
  8
0
 62
7
 10
22.09344360
 20
52.51223310
  0
VERTEX
  8
0
 62
7
 10
22.00560071
 20
52.60470319
  0
VERTEX
  8
0
 62
7
 10
21.84830386
 20
52.71539629
  0
VERTEX
  8
0
 62
7
 10
21.65865355
 20
52.79650118
  0
VERTEX
  8
0
 62
7
 10
21.44588571
 20
52.84851560
  0
VERTEX
  8
0
 62
7
 10
21.21923631
 20
52.87193730
  0
VERTEX
  8
0
 62
7
 10
20.98794127
 20
52.86726402
  0
VERTEX
  8
0
 62
7
 10
20.76123656
 20
52.83499351
  0
VERTEX
  8
0
 62
7
 10
20.54835811
 20
52.77562351
  0
VERTEX
  8
0
 62
7
 10
20.35854188
 20
52.68965178
  0
VERTEX
  8
0
 62
7
 10
20.14262166
 20
52.55977703
  0
VERTEX
  8
0
 62
7
 10
19.91691244
 20
52.40988185
  0
VERTEX
  8
0
 62
7
 10
19.68799552
 20
52.24383758
  0
VERTEX
  8
0
 62
7
 10
19.46245222
 20
52.06551559
  0
VERTEX
  8
0
 62
7
 10
19.24686382
 20
51.87878723
  0
VERTEX
  8
0
 62
7
 10
19.04781165
 20
51.68752385
  0
VERTEX
  8
0
 62
7
 10
18.87187699
 20
51.49559681
  0
VERTEX
  8
0
 62
7
 10
18.72564116
 20
51.30687747
  0
VERTEX
  8
0
 62
7
 10
18.57822549
 20
51.08890174
  0
VERTEX
  8
0
 62
7
 10
18.44270040
 20
50.87535041
  0
VERTEX
  8
0
 62
7
 10
18.32255013
 20
50.66312641
  0
VERTEX
  8
0
 62
7
 10
18.22125889
 20
50.44913265
  0
VERTEX
  8
0
 62
7
 10
18.14231090
 20
50.23027204
  0
VERTEX
  8
0
 62
7
 10
18.08919038
 20
50.00344750
  0
VERTEX
  8
0
 62
7
 10
18.06538154
 20
49.76556194
  0
VERTEX
  8
0
 62
7
 10
18.07436862
 20
49.51351829
  0
VERTEX
  8
0
 62
7
 10
18.11332182
 20
49.32533356
  0
VERTEX
  8
0
 62
7
 10
18.18424136
 20
49.15750110
  0
VERTEX
  8
0
 62
7
 10
18.28192856
 20
49.01046334
  0
VERTEX
  8
0
 62
7
 10
18.40118473
 20
48.88466273
  0
VERTEX
  8
0
 62
7
 10
18.53681120
 20
48.78054172
  0
VERTEX
  8
0
 62
7
 10
18.68360930
 20
48.69854273
  0
VERTEX
  8
0
 62
7
 10
18.83638035
 20
48.63910821
  0
VERTEX
  8
0
 62
7
 10
18.98992567
 20
48.60268060
  0
VERTEX
  8
0
 62
7
 10
19.08493057
 20
48.59757410
  0
VERTEX
  8
0
 62
7
 10
19.18983508
 20
48.60961217
  0
VERTEX
  8
0
 62
7
 10
19.29993826
 20
48.63735688
  0
VERTEX
  8
0
 62
7
 10
19.41053919
 20
48.67937030
  0
VERTEX
  8
0
 62
7
 10
19.51693693
 20
48.73421450
  0
VERTEX
  8
0
 62
7
 10
19.61443056
 20
48.80045154
  0
VERTEX
  8
0
 62
7
 10
19.69831914
 20
48.87664350
  0
VERTEX
  8
0
 62
7
 10
19.76390174
 20
48.96135244
  0
VERTEX
  8
0
 62
7
 10
19.81041330
 20
49.05550011
  0
VERTEX
  8
0
 62
7
 10
19.83601955
 20
49.15086449
  0
VERTEX
  8
0
 62
7
 10
19.84503428
 20
49.24291056
  0
VERTEX
  8
0
 62
7
 10
19.84177128
 20
49.32710332
  0
VERTEX
  8
0
 62
7
 10
19.83054435
 20
49.39890774
  0
VERTEX
  8
0
 62
7
 10
19.81566728
 20
49.45378881
  0
VERTEX
  8
0
 62
7
 10
19.80145388
 20
49.48721151
  0
VERTEX
  8
0
 62
7
 10
19.79221793
 20
49.49464082
  0
VERTEX
  8
0
 62
7
 10
19.74013899
 20
49.39628075
  0
VERTEX
  8
0
 62
7
 10
19.67821574
 20
49.32186777
  0
VERTEX
  8
0
 62
7
 10
19.60987711
 20
49.26791767
  0
VERTEX
  8
0
 62
7
 10
19.53855200
 20
49.23094623
  0
VERTEX
  8
0
 62
7
 10
19.46766933
 20
49.20746923
  0
VERTEX
  8
0
 62
7
 10
19.40065801
 20
49.19400244
  0
VERTEX
  8
0
 62
7
 10
19.34094697
 20
49.18706166
  0
VERTEX
  8
0
 62
7
 10
19.29196511
 20
49.18316265
  0
VERTEX
  8
0
 62
7
 10
19.21159762
 20
49.18302439
  0
VERTEX
  8
0
 62
7
 10
19.13128544
 20
49.19621465
  0
VERTEX
  8
0
 62
7
 10
19.05329607
 20
49.22190385
  0
VERTEX
  8
0
 62
7
 10
18.97989702
 20
49.25926243
  0
VERTEX
  8
0
 62
7
 10
18.91335580
 20
49.30746080
  0
VERTEX
  8
0
 62
7
 10
18.85593991
 20
49.36566939
  0
VERTEX
  8
0
 62
7
 10
18.80991687
 20
49.43305862
  0
VERTEX
  8
0
 62
7
 10
18.77755419
 20
49.50879892
  0
VERTEX
  8
0
 62
7
 10
18.74622386
 20
49.65354152
  0
VERTEX
  8
0
 62
7
 10
18.73662843
 20
49.81017470
  0
VERTEX
  8
0
 62
7
 10
18.74793832
 20
49.97643097
  0
VERTEX
  8
0
 62
7
 10
18.77932395
 20
50.15004281
  0
VERTEX
  8
0
 62
7
 10
18.82995575
 20
50.32874272
  0
VERTEX
  8
0
 62
7
 10
18.89900413
 20
50.51026319
  0
VERTEX
  8
0
 62
7
 10
18.98563953
 20
50.69233671
  0
VERTEX
  8
0
 62
7
 10
19.08903236
 20
50.87269577
  0
VERTEX
  8
0
 62
7
 10
19.18380682
 20
51.00246912
  0
VERTEX
  8
0
 62
7
 10
19.31275982
 20
51.14634527
  0
VERTEX
  8
0
 62
7
 10
19.46582583
 20
51.29718986
  0
VERTEX
  8
0
 62
7
 10
19.63293932
 20
51.44786853
  0
VERTEX
  8
0
 62
7
 10
19.80403478
 20
51.59124693
  0
VERTEX
  8
0
 62
7
 10
19.96904669
 20
51.72019071
  0
VERTEX
  8
0
 62
7
 10
20.11790951
 20
51.82756551
  0
VERTEX
  8
0
 62
7
 10
20.24055773
 20
51.90623698
  0
VERTEX
  8
0
 62
7
 10
20.31318712
 20
51.94616955
  0
VERTEX
  8
0
 62
7
 10
20.38910715
 20
51.98412496
  0
VERTEX
  8
0
 62
7
 10
20.46773714
 20
52.01945338
  0
VERTEX
  8
0
 62
7
 10
20.54849638
 20
52.05150497
  0
VERTEX
  8
0
 62
7
 10
20.63080415
 20
52.07962991
  0
VERTEX
  8
0
 62
7
 10
20.71407977
 20
52.10317835
  0
VERTEX
  8
0
 62
7
 10
20.79774252
 20
52.12150046
  0
VERTEX
  8
0
 62
7
 10
20.88121170
 20
52.13394640
  0
VERTEX
  8
0
 62
7
 10
20.96390661
 20
52.13986635
  0
VERTEX
  8
0
 62
7
 10
21.04524654
 20
52.13861046
  0
VERTEX
  8
0
 62
7
 10
21.12465080
 20
52.12952891
  0
VERTEX
  8
0
 62
7
 10
21.20153868
 20
52.11197185
  0
VERTEX
  8
0
 62
7
 10
21.27532948
 20
52.08528946
  0
VERTEX
  8
0
 62
7
 10
21.34544248
 20
52.04883189
  0
VERTEX
  8
0
 62
7
 10
21.41129700
 20
52.00194932
  0
VERTEX
  8
0
 62
7
 10
21.47231232
 20
51.94399191
  0
VERTEX
  8
0
 62
7
 10
21.58093148
 20
51.79968254
  0
VERTEX
  8
0
 62
7
 10
21.65813737
 20
51.63900287
  0
VERTEX
  8
0
 62
7
 10
21.70260265
 20
51.46681974
  0
VERTEX
  8
0
 62
7
 10
21.71300000
 20
51.28800000
  0
SEQEND
  0
ENDSEC
  0
EOF
