  0
SECTION
  2
ENTITIES
  0
POLYLINE
  8
0
 62
7
 66
1
 70
1
  0
VERTEX
  8
0
 62
7
 10
23.99941774
 20
-.00059085
  0
VERTEX
  8
0
 62
7
 10
47.99955664
 20
-.00059085
  0
VERTEX
  8
0
 62
7
 10
47.99845198
 20
.69657904
  0
VERTEX
  8
0
 62
7
 10
47.99502848
 20
1.38185485
  0
VERTEX
  8
0
 62
7
 10
47.98912183
 20
2.05551093
  0
VERTEX
  8
0
 62
7
 10
47.98056775
 20
2.71782163
  0
VERTEX
  8
0
 62
7
 10
47.96920193
 20
3.36906132
  0
VERTEX
  8
0
 62
7
 10
47.95486009
 20
4.00950435
  0
VERTEX
  8
0
 62
7
 10
47.93737792
 20
4.63942507
  0
VERTEX
  8
0
 62
7
 10
47.91659112
 20
5.25909784
  0
VERTEX
  8
0
 62
7
 10
47.89233541
 20
5.86879702
  0
VERTEX
  8
0
 62
7
 10
47.86444649
 20
6.46879695
  0
VERTEX
  8
0
 62
7
 10
47.83276005
 20
7.05937201
  0
VERTEX
  8
0
 62
7
 10
47.79711182
 20
7.64079654
  0
VERTEX
  8
0
 62
7
 10
47.75733748
 20
8.21334489
  0
VERTEX
  8
0
 62
7
 10
47.71327274
 20
8.77729144
  0
VERTEX
  8
0
 62
7
 10
47.66475331
 20
9.33291052
  0
VERTEX
  8
0
 62
7
 10
47.61161489
 20
9.88047649
  0
VERTEX
  8
0
 62
7
 10
47.55369319
 20
10.42026372
  0
VERTEX
  8
0
 62
7
 10
47.49082390
 20
10.95254656
  0
VERTEX
  8
0
 62
7
 10
47.42284274
 20
11.47759936
  0
VERTEX
  8
0
 62
7
 10
47.34958541
 20
11.99569647
  0
VERTEX
  8
0
 62
7
 10
47.27088761
 20
12.50711227
  0
VERTEX
  8
0
 62
7
 10
47.18658504
 20
13.01212109
  0
VERTEX
  8
0
 62
7
 10
47.09651341
 20
13.51099730
  0
VERTEX
  8
0
 62
7
 10
47.00050843
 20
14.00401525
  0
VERTEX
  8
0
 62
7
 10
46.89840579
 20
14.49144930
  0
VERTEX
  8
0
 62
7
 10
46.79004121
 20
14.97357380
  0
VERTEX
  8
0
 62
7
 10
46.67525038
 20
15.45066311
  0
VERTEX
  8
0
 62
7
 10
46.55386901
 20
15.92299158
  0
VERTEX
  8
0
 62
7
 10
46.42573280
 20
16.39083358
  0
VERTEX
  8
0
 62
7
 10
46.29067747
 20
16.85446345
  0
VERTEX
  8
0
 62
7
 10
46.14853870
 20
17.31415555
  0
VERTEX
  8
0
 62
7
 10
45.99915221
 20
17.77018424
  0
VERTEX
  8
0
 62
7
 10
45.64500186
 20
17.77226121
  0
VERTEX
  8
0
 62
7
 10
45.29173514
 20
17.77838985
  0
VERTEX
  8
0
 62
7
 10
44.93933335
 20
17.78841680
  0
VERTEX
  8
0
 62
7
 10
44.58777778
 20
17.80218869
  0
VERTEX
  8
0
 62
7
 10
44.23704974
 20
17.81955215
  0
VERTEX
  8
0
 62
7
 10
43.88713051
 20
17.84035380
  0
VERTEX
  8
0
 62
7
 10
43.53800140
 20
17.86444027
  0
VERTEX
  8
0
 62
7
 10
43.18964371
 20
17.89165820
  0
VERTEX
  8
0
 62
7
 10
42.84203873
 20
17.92185420
  0
VERTEX
  8
0
 62
7
 10
42.49516775
 20
17.95487492
  0
VERTEX
  8
0
 62
7
 10
42.14901208
 20
17.99056698
  0
VERTEX
  8
0
 62
7
 10
41.80355302
 20
18.02877700
  0
VERTEX
  8
0
 62
7
 10
41.45877185
 20
18.06935162
  0
VERTEX
  8
0
 62
7
 10
41.11464989
 20
18.11213747
  0
VERTEX
  8
0
 62
7
 10
40.77116841
 20
18.15698117
  0
VERTEX
  8
0
 62
7
 10
40.42830873
 20
18.20372935
  0
VERTEX
  8
0
 62
7
 10
40.08605214
 20
18.25222865
  0
VERTEX
  8
0
 62
7
 10
39.74437994
 20
18.30232568
  0
VERTEX
  8
0
 62
7
 10
39.40327342
 20
18.35386709
  0
VERTEX
  8
0
 62
7
 10
39.06271389
 20
18.40669949
  0
VERTEX
  8
0
 62
7
 10
38.72268263
 20
18.46066952
  0
VERTEX
  8
0
 62
7
 10
38.38316095
 20
18.51562381
  0
VERTEX
  8
0
 62
7
 10
38.04413014
 20
18.57140898
  0
VERTEX
  8
0
 62
7
 10
37.70557151
 20
18.62787166
  0
VERTEX
  8
0
 62
7
 10
37.36746634
 20
18.68485849
  0
VERTEX
  8
0
 62
7
 10
37.02979594
 20
18.74221609
  0
VERTEX
  8
0
 62
7
 10
36.69254160
 20
18.79979109
  0
VERTEX
  8
0
 62
7
 10
36.35568462
 20
18.85743011
  0
VERTEX
  8
0
 62
7
 10
36.01920630
 20
18.91497980
  0
VERTEX
  8
0
 62
7
 10
35.68308793
 20
18.97228677
  0
VERTEX
  8
0
 62
7
 10
35.34731082
 20
19.02919766
  0
VERTEX
  8
0
 62
7
 10
35.01185625
 20
19.08555909
  0
VERTEX
  8
0
 62
7
 10
34.32760136
 20
19.19633229
  0
VERTEX
  8
0
 62
7
 10
33.64258455
 20
19.29993726
  0
VERTEX
  8
0
 62
7
 10
32.95685416
 20
19.39637697
  0
VERTEX
  8
0
 62
7
 10
32.27045854
 20
19.48565438
  0
VERTEX
  8
0
 62
7
 10
31.58344601
 20
19.56777249
  0
VERTEX
  8
0
 62
7
 10
30.89586491
 20
19.64273428
  0
VERTEX
  8
0
 62
7
 10
30.20776360
 20
19.71054271
  0
VERTEX
  8
0
 62
7
 10
29.51919040
 20
19.77120076
  0
VERTEX
  8
0
 62
7
 10
28.83019366
 20
19.82471142
  0
VERTEX
  8
0
 62
7
 10
28.14082172
 20
19.87107767
  0
VERTEX
  8
0
 62
7
 10
27.45112290
 20
19.91030247
  0
VERTEX
  8
0
 62
7
 10
26.76114557
 20
19.94238882
  0
VERTEX
  8
0
 62
7
 10
26.07093804
 20
19.96733968
  0
VERTEX
  8
0
 62
7
 10
25.38054867
 20
19.98515804
  0
VERTEX
  8
0
 62
7
 10
24.69002579
 20
19.99584687
  0
VERTEX
  8
0
 62
7
 10
23.99941774
 20
19.99940915
  0
VERTEX
  8
0
 62
7
 10
23.30882734
 20
19.99584687
  0
VERTEX
  8
0
 62
7
 10
22.61835433
 20
19.98515804
  0
VERTEX
  8
0
 62
7
 10
21.92804245
 20
19.96733968
  0
VERTEX
  8
0
 62
7
 10
21.23793544
 20
19.94238882
  0
VERTEX
  8
0
 62
7
 10
20.54807704
 20
19.91030247
  0
VERTEX
  8
0
 62
7
 10
19.85851096
 20
19.87107767
  0
VERTEX
  8
0
 62
7
 10
19.16928097
 20
19.82471142
  0
VERTEX
  8
0
 62
7
 10
18.48043078
 20
19.77120076
  0
VERTEX
  8
0
 62
7
 10
17.79200413
 20
19.71054271
  0
VERTEX
  8
0
 62
7
 10
17.10404477
 20
19.64273428
  0
VERTEX
  8
0
 62
7
 10
16.41659642
 20
19.56777249
  0
VERTEX
  8
0
 62
7
 10
15.72970282
 20
19.48565438
  0
VERTEX
  8
0
 62
7
 10
15.04340770
 20
19.39637697
  0
VERTEX
  8
0
 62
7
 10
14.35775481
 20
19.29993726
  0
VERTEX
  8
0
 62
7
 10
13.67278788
 20
19.19633229
  0
VERTEX
  8
0
 62
7
 10
12.98855063
 20
19.08555909
  0
VERTEX
  8
0
 62
7
 10
12.65309607
 20
19.02919766
  0
VERTEX
  8
0
 62
7
 10
12.31731895
 20
18.97228677
  0
VERTEX
  8
0
 62
7
 10
11.98120059
 20
18.91497980
  0
VERTEX
  8
0
 62
7
 10
11.64472227
 20
18.85743011
  0
VERTEX
  8
0
 62
7
 10
11.30786529
 20
18.79979109
  0
VERTEX
  8
0
 62
7
 10
10.97061095
 20
18.74221609
  0
VERTEX
  8
0
 62
7
 10
10.63294055
 20
18.68485849
  0
VERTEX
  8
0
 62
7
 10
10.29483538
 20
18.62787166
  0
VERTEX
  8
0
 62
7
 10
9.95627674
 20
18.57140898
  0
VERTEX
  8
0
 62
7
 10
9.61724594
 20
18.51562381
  0
VERTEX
  8
0
 62
7
 10
9.27772425
 20
18.46066952
  0
VERTEX
  8
0
 62
7
 10
8.93769300
 20
18.40669949
  0
VERTEX
  8
0
 62
7
 10
8.59713346
 20
18.35386709
  0
VERTEX
  8
0
 62
7
 10
8.25602694
 20
18.30232568
  0
VERTEX
  8
0
 62
7
 10
7.91435474
 20
18.25222865
  0
VERTEX
  8
0
 62
7
 10
7.57209815
 20
18.20372935
  0
VERTEX
  8
0
 62
7
 10
7.22923847
 20
18.15698117
  0
VERTEX
  8
0
 62
7
 10
6.88575700
 20
18.11213747
  0
VERTEX
  8
0
 62
7
 10
6.54163503
 20
18.06935162
  0
VERTEX
  8
0
 62
7
 10
6.19685387
 20
18.02877700
  0
VERTEX
  8
0
 62
7
 10
5.85139480
 20
17.99056698
  0
VERTEX
  8
0
 62
7
 10
5.50523913
 20
17.95487492
  0
VERTEX
  8
0
 62
7
 10
5.15836816
 20
17.92185420
  0
VERTEX
  8
0
 62
7
 10
4.81076318
 20
17.89165820
  0
VERTEX
  8
0
 62
7
 10
4.46240548
 20
17.86444027
  0
VERTEX
  8
0
 62
7
 10
4.11327637
 20
17.84035380
  0
VERTEX
  8
0
 62
7
 10
3.76335715
 20
17.81955215
  0
VERTEX
  8
0
 62
7
 10
3.41262910
 20
17.80218869
  0
VERTEX
  8
0
 62
7
 10
3.06107353
 20
17.78841680
  0
VERTEX
  8
0
 62
7
 10
2.70867174
 20
17.77838985
  0
VERTEX
  8
0
 62
7
 10
2.35540502
 20
17.77226121
  0
VERTEX
  8
0
 62
7
 10
2.00125467
 20
17.77018424
  0
VERTEX
  8
0
 62
7
 10
1.85186818
 20
17.31415555
  0
VERTEX
  8
0
 62
7
 10
1.70972942
 20
16.85446345
  0
VERTEX
  8
0
 62
7
 10
1.57467408
 20
16.39083358
  0
VERTEX
  8
0
 62
7
 10
1.44653788
 20
15.92299158
  0
VERTEX
  8
0
 62
7
 10
1.32515651
 20
15.45066311
  0
VERTEX
  8
0
 62
7
 10
1.21036568
 20
14.97357380
  0
VERTEX
  8
0
 62
7
 10
1.10200109
 20
14.49144930
  0
VERTEX
  8
0
 62
7
 10
.99989846
 20
14.00401525
  0
VERTEX
  8
0
 62
7
 10
.90389347
 20
13.51099730
  0
VERTEX
  8
0
 62
7
 10
.81382185
 20
13.01212109
  0
VERTEX
  8
0
 62
7
 10
.72951928
 20
12.50711227
  0
VERTEX
  8
0
 62
7
 10
.65082148
 20
11.99569647
  0
VERTEX
  8
0
 62
7
 10
.57756414
 20
11.47759936
  0
VERTEX
  8
0
 62
7
 10
.50958298
 20
10.95254656
  0
VERTEX
  8
0
 62
7
 10
.44671370
 20
10.42026372
  0
VERTEX
  8
0
 62
7
 10
.38879199
 20
9.88047649
  0
VERTEX
  8
0
 62
7
 10
.33565357
 20
9.33291052
  0
VERTEX
  8
0
 62
7
 10
.28713415
 20
8.77729144
  0
VERTEX
  8
0
 62
7
 10
.24306941
 20
8.21334489
  0
VERTEX
  8
0
 62
7
 10
.20329507
 20
7.64079654
  0
VERTEX
  8
0
 62
7
 10
.16764683
 20
7.05937201
  0
VERTEX
  8
0
 62
7
 10
.13596040
 20
6.46879695
  0
VERTEX
  8
0
 62
7
 10
.10807147
 20
5.86879702
  0
VERTEX
  8
0
 62
7
 10
.08381576
 20
5.25909784
  0
VERTEX
  8
0
 62
7
 10
.06302897
 20
4.63942507
  0
VERTEX
  8
0
 62
7
 10
.04554680
 20
4.00950435
  0
VERTEX
  8
0
 62
7
 10
.03120495
 20
3.36906132
  0
VERTEX
  8
0
 62
7
 10
.01983914
 20
2.71782163
  0
VERTEX
  8
0
 62
7
 10
.01128505
 20
2.05551093
  0
VERTEX
  8
0
 62
7
 10
.00537841
 20
1.38185485
  0
VERTEX
  8
0
 62
7
 10
.00195490
 20
.69657904
  0
VERTEX
  8
0
 62
7
 10
.00085025
 20
-.00059085
  0
VERTEX
  8
0
 62
7
 10
23.99941774
 20
-.00059085
  0
SEQEND
  0
POLYLINE
  8
0
 62
7
 66
1
 70
1
  0
VERTEX
  8
0
 62
7
 10
35.51400000
 20
15.63900000
  0
VERTEX
  8
0
 62
7
 10
35.11200000
 20
15.70700000
  0
VERTEX
  8
0
 62
7
 10
34.53400000
 20
15.80600000
  0
VERTEX
  8
0
 62
7
 10
33.87927930
 20
15.91187964
  0
VERTEX
  8
0
 62
7
 10
33.22389063
 20
16.01089648
  0
VERTEX
  8
0
 62
7
 10
32.56786914
 20
16.10305493
  0
VERTEX
  8
0
 62
7
 10
31.91125000
 20
16.18835938
  0
VERTEX
  8
0
 62
7
 10
31.25406836
 20
16.26681421
  0
VERTEX
  8
0
 62
7
 10
30.59635938
 20
16.33842383
  0
VERTEX
  8
0
 62
7
 10
29.93815820
 20
16.40319263
  0
VERTEX
  8
0
 62
7
 10
29.27950000
 20
16.46112500
  0
VERTEX
  8
0
 62
7
 10
28.62041992
 20
16.51222534
  0
VERTEX
  8
0
 62
7
 10
27.96095313
 20
16.55649805
  0
VERTEX
  8
0
 62
7
 10
27.30113477
 20
16.59394751
  0
VERTEX
  8
0
 62
7
 10
26.64100000
 20
16.62457813
  0
VERTEX
  8
0
 62
7
 10
25.98058398
 20
16.64839429
  0
VERTEX
  8
0
 62
7
 10
25.31992188
 20
16.66540039
  0
VERTEX
  8
0
 62
7
 10
24.65904883
 20
16.67560083
  0
VERTEX
  8
0
 62
7
 10
23.99800000
 20
16.67900000
  0
VERTEX
  8
0
 62
7
 10
23.33800781
 20
16.67560083
  0
VERTEX
  8
0
 62
7
 10
22.67806250
 20
16.66540039
  0
VERTEX
  8
0
 62
7
 10
22.01821094
 20
16.64839429
  0
VERTEX
  8
0
 62
7
 10
21.35850000
 20
16.62457813
  0
VERTEX
  8
0
 62
7
 10
20.69897656
 20
16.59394751
  0
VERTEX
  8
0
 62
7
 10
20.03968750
 20
16.55649805
  0
VERTEX
  8
0
 62
7
 10
19.38067969
 20
16.51222534
  0
VERTEX
  8
0
 62
7
 10
18.72200000
 20
16.46112500
  0
VERTEX
  8
0
 62
7
 10
18.06369531
 20
16.40319263
  0
VERTEX
  8
0
 62
7
 10
17.40581250
 20
16.33842383
  0
VERTEX
  8
0
 62
7
 10
16.74839844
 20
16.26681421
  0
VERTEX
  8
0
 62
7
 10
16.09150000
 20
16.18835938
  0
VERTEX
  8
0
 62
7
 10
15.43516406
 20
16.10305493
  0
VERTEX
  8
0
 62
7
 10
14.77943750
 20
16.01089648
  0
VERTEX
  8
0
 62
7
 10
14.12436719
 20
15.91187964
  0
VERTEX
  8
0
 62
7
 10
13.47000000
 20
15.80600000
  0
VERTEX
  8
0
 62
7
 10
12.73600000
 20
15.68200000
  0
VERTEX
  8
0
 62
7
 10
12.48400000
 20
15.63900000
  0
VERTEX
  8
0
 62
7
 10
12.40800000
 20
15.62600000
  0
VERTEX
  8
0
 62
7
 10
12.40800000
 20
15.55000000
  0
VERTEX
  8
0
 62
7
 10
12.40800000
 20
11.50000000
  0
VERTEX
  8
0
 62
7
 10
35.58800000
 20
11.50000000
  0
VERTEX
  8
0
 62
7
 10
35.58800000
 20
15.55000000
  0
VERTEX
  8
0
 62
7
 10
35.58800000
 20
15.62600000
  0
VERTEX
  8
0
 62
7
 10
35.51400000
 20
15.63900000
  0
SEQEND
  0
POLYLINE
  8
0
 62
7
 66
1
 70
1
  0
VERTEX
  8
0
 62
7
 10
35.49889000
 20
15.55000000
  0
VERTEX
  8
0
 62
7
 10
34.51935000
 20
15.71700000
  0
VERTEX
  8
0
 62
7
 10
33.86549930
 20
15.82270361
  0
VERTEX
  8
0
 62
7
 10
33.21097566
 20
15.92156641
  0
VERTEX
  8
0
 62
7
 10
32.55581800
 20
16.01359131
  0
VERTEX
  8
0
 62
7
 10
31.90006526
 20
16.09878125
  0
VERTEX
  8
0
 62
7
 10
31.24375637
 20
16.17713916
  0
VERTEX
  8
0
 62
7
 10
30.58693025
 20
16.24866797
  0
VERTEX
  8
0
 62
7
 10
29.92962585
 20
16.31337061
  0
VERTEX
  8
0
 62
7
 10
29.27188208
 20
16.37125000
  0
VERTEX
  8
0
 62
7
 10
28.61373789
 20
16.42230908
  0
VERTEX
  8
0
 62
7
 10
27.95523219
 20
16.46655078
  0
VERTEX
  8
0
 62
7
 10
27.29640393
 20
16.50397803
  0
VERTEX
  8
0
 62
7
 10
26.63729203
 20
16.53459375
  0
VERTEX
  8
0
 62
7
 10
25.97793542
 20
16.55840088
  0
VERTEX
  8
0
 62
7
 10
25.31837304
 20
16.57540234
  0
VERTEX
  8
0
 62
7
 10
24.65864381
 20
16.58560107
  0
VERTEX
  8
0
 62
7
 10
23.99878667
 20
16.58900000
  0
VERTEX
  8
0
 62
7
 10
23.33959876
 20
16.58560107
  0
VERTEX
  8
0
 62
7
 10
22.68046090
 20
16.57540234
  0
VERTEX
  8
0
 62
7
 10
22.02142316
 20
16.55840088
  0
VERTEX
  8
0
 62
7
 10
21.36253557
 20
16.53459375
  0
VERTEX
  8
0
 62
7
 10
20.70384820
 20
16.50397803
  0
VERTEX
  8
0
 62
7
 10
20.04541110
 20
16.46655078
  0
VERTEX
  8
0
 62
7
 10
19.38727432
 20
16.42230908
  0
VERTEX
  8
0
 62
7
 10
18.72948792
 20
16.37125000
  0
VERTEX
  8
0
 62
7
 10
18.07210194
 20
16.31337061
  0
VERTEX
  8
0
 62
7
 10
17.41516645
 20
16.24866797
  0
VERTEX
  8
0
 62
7
 10
16.75873150
 20
16.17713916
  0
VERTEX
  8
0
 62
7
 10
16.10284714
 20
16.09878125
  0
VERTEX
  8
0
 62
7
 10
15.44756342
 20
16.01359131
  0
VERTEX
  8
0
 62
7
 10
14.79293040
 20
15.92156641
  0
VERTEX
  8
0
 62
7
 10
14.13899813
 20
15.82270361
  0
VERTEX
  8
0
 62
7
 10
13.48581667
 20
15.71700000
  0
VERTEX
  8
0
 62
7
 10
12.49868333
 20
15.55000000
  0
VERTEX
  8
0
 62
7
 10
12.49868333
 20
11.59000000
  0
VERTEX
  8
0
 62
7
 10
35.49889000
 20
11.59000000
  0
VERTEX
  8
0
 62
7
 10
35.49889000
 20
15.55000000
  0
SEQEND
  0
POLYLINE
  8
0
 62
7
 66
1
 70
1
  0
VERTEX
  8
0
 62
7
 10
26.31596133
 20
.03900000
  0
VERTEX
  8
0
 62
7
 10
26.31355267
 20
.73900000
  0
VERTEX
  8
0
 62
7
 10
25.93057467
 20
.73900000
  0
VERTEX
  8
0
 62
7
 10
25.93057467
 20
.93200000
  0
VERTEX
  8
0
 62
7
 10
25.94743533
 20
.93200000
  0
VERTEX
  8
0
 62
7
 10
25.98444506
 20
.93331250
  0
VERTEX
  8
0
 62
7
 10
26.02131366
 20
.93725000
  0
VERTEX
  8
0
 62
7
 10
26.05789999
 20
.94381250
  0
VERTEX
  8
0
 62
7
 10
26.09406292
 20
.95300000
  0
VERTEX
  8
0
 62
7
 10
26.12966132
 20
.96481250
  0
VERTEX
  8
0
 62
7
 10
26.16455405
 20
.97925000
  0
VERTEX
  8
0
 62
7
 10
26.19859999
 20
.99631250
  0
VERTEX
  8
0
 62
7
 10
26.23165800
 20
1.01600000
  0
VERTEX
  8
0
 62
7
 10
26.31535917
 20
.96700000
  0
VERTEX
  8
0
 62
7
 10
26.40267333
 20
.92700000
  0
VERTEX
  8
0
 62
7
 10
26.44327724
 20
.91178516
  0
VERTEX
  8
0
 62
7
 10
26.48543361
 20
.89715625
  0
VERTEX
  8
0
 62
7
 10
26.52888841
 20
.88351172
  0
VERTEX
  8
0
 62
7
 10
26.57338758
 20
.87125000
  0
VERTEX
  8
0
 62
7
 10
26.61867710
 20
.86076953
  0
VERTEX
  8
0
 62
7
 10
26.66450293
 20
.85246875
  0
VERTEX
  8
0
 62
7
 10
26.71061102
 20
.84674609
  0
VERTEX
  8
0
 62
7
 10
26.75674733
 20
.84400000
  0
VERTEX
  8
0
 62
7
 10
26.81214667
 20
.84400000
  0
VERTEX
  8
0
 62
7
 10
26.85092526
 20
.84444531
  0
VERTEX
  8
0
 62
7
 10
26.89114341
 20
.84606250
  0
VERTEX
  8
0
 62
7
 10
26.93243416
 20
.84927344
  0
VERTEX
  8
0
 62
7
 10
26.97443058
 20
.85450000
  0
VERTEX
  8
0
 62
7
 10
27.01676572
 20
.86216406
  0
VERTEX
  8
0
 62
7
 10
27.05907264
 20
.87268750
  0
VERTEX
  8
0
 62
7
 10
27.10098438
 20
.88649219
  0
VERTEX
  8
0
 62
7
 10
27.14213400
 20
.90400000
  0
VERTEX
  8
0
 62
7
 10
27.18326010
 20
.92549609
  0
VERTEX
  8
0
 62
7
 10
27.22173291
 20
.94973438
  0
VERTEX
  8
0
 62
7
 10
27.25755241
 20
.97652734
  0
VERTEX
  8
0
 62
7
 10
27.29071863
 20
1.00568750
  0
VERTEX
  8
0
 62
7
 10
27.32123154
 20
1.03702734
  0
VERTEX
  8
0
 62
7
 10
27.34909116
 20
1.07035938
  0
VERTEX
  8
0
 62
7
 10
27.37429748
 20
1.10549609
  0
VERTEX
  8
0
 62
7
 10
27.39685050
 20
1.14225000
  0
VERTEX
  8
0
 62
7
 10
27.41675023
 20
1.18043359
  0
VERTEX
  8
0
 62
7
 10
27.43399666
 20
1.21985938
  0
VERTEX
  8
0
 62
7
 10
27.44858979
 20
1.26033984
  0
VERTEX
  8
0
 62
7
 10
27.46052963
 20
1.30168750
  0
VERTEX
  8
0
 62
7
 10
27.46981616
 20
1.34371484
  0
VERTEX
  8
0
 62
7
 10
27.47644941
 20
1.38623438
  0
VERTEX
  8
0
 62
7
 10
27.48042935
 20
1.42905859
  0
VERTEX
  8
0
 62
7
 10
27.48175600
 20
1.47200000
  0
VERTEX
  8
0
 62
7
 10
27.48175600
 20
1.49100000
  0
VERTEX
  8
0
 62
7
 10
27.51878925
 20
1.55757813
  0
VERTEX
  8
0
 62
7
 10
27.54679000
 20
1.62762500
  0
VERTEX
  8
0
 62
7
 10
27.56575825
 20
1.70010938
  0
VERTEX
  8
0
 62
7
 10
27.57569400
 20
1.77400000
  0
VERTEX
  8
0
 62
7
 10
27.57810267
 20
1.82000000
  0
VERTEX
  8
0
 62
7
 10
27.57215627
 20
1.90448438
  0
VERTEX
  8
0
 62
7
 10
27.55401600
 20
1.98737500
  0
VERTEX
  8
0
 62
7
 10
27.52323023
 20
2.06707813
  0
VERTEX
  8
0
 62
7
 10
27.47934733
 20
2.14200000
  0
VERTEX
  8
0
 62
7
 10
27.44037586
 20
2.19242383
  0
VERTEX
  8
0
 62
7
 10
27.39609779
 20
2.23770313
  0
VERTEX
  8
0
 62
7
 10
27.34707766
 20
2.27747461
  0
VERTEX
  8
0
 62
7
 10
27.29388000
 20
2.31137500
  0
VERTEX
  8
0
 62
7
 10
27.23706934
 20
2.33904102
  0
VERTEX
  8
0
 62
7
 10
27.17721021
 20
2.36010938
  0
VERTEX
  8
0
 62
7
 10
27.11486714
 20
2.37421680
  0
VERTEX
  8
0
 62
7
 10
27.05060467
 20
2.38100000
  0
VERTEX
  8
0
 62
7
 10
27.00333458
 20
2.41462500
  0
VERTEX
  8
0
 62
7
 10
26.95425800
 20
2.44000000
  0
VERTEX
  8
0
 62
7
 10
26.92309588
 20
2.45123438
  0
VERTEX
  8
0
 62
7
 10
26.89103050
 20
2.45937500
  0
VERTEX
  8
0
 62
7
 10
26.85806188
 20
2.46432813
  0
VERTEX
  8
0
 62
7
 10
26.82419000
 20
2.46600000
  0
VERTEX
  8
0
 62
7
 10
26.83171708
 20
2.50650000
  0
VERTEX
  8
0
 62
7
 10
26.83382467
 20
2.54700000
  0
VERTEX
  8
0
 62
7
 10
26.82900733
 20
2.59700000
  0
VERTEX
  8
0
 62
7
 10
26.81301228
 20
2.67195313
  0
VERTEX
  8
0
 62
7
 10
26.78414592
 20
2.74137500
  0
VERTEX
  8
0
 62
7
 10
26.74398893
 20
2.80385938
  0
VERTEX
  8
0
 62
7
 10
26.69412200
 20
2.85800000
  0
VERTEX
  8
0
 62
7
 10
26.64354000
 20
2.89700000
  0
VERTEX
  8
0
 62
7
 10
26.77601667
 20
2.93250000
  0
VERTEX
  8
0
 62
7
 10
26.90849333
 20
2.97100000
  0
VERTEX
  8
0
 62
7
 10
27.05935961
 20
3.02028516
  0
VERTEX
  8
0
 62
7
 10
27.20946376
 20
3.07578125
  0
VERTEX
  8
0
 62
7
 10
27.35759206
 20
3.13844922
  0
VERTEX
  8
0
 62
7
 10
27.50253075
 20
3.20925000
  0
VERTEX
  8
0
 62
7
 10
27.64306610
 20
3.28914453
  0
VERTEX
  8
0
 62
7
 10
27.77798436
 20
3.37909375
  0
VERTEX
  8
0
 62
7
 10
27.90607180
 20
3.48005859
  0
VERTEX
  8
0
 62
7
 10
28.02611467
 20
3.59300000
  0
VERTEX
  8
0
 62
7
 10
28.10514904
 20
3.67939063
  0
VERTEX
  8
0
 62
7
 10
28.17966717
 20
3.77037500
  0
VERTEX
  8
0
 62
7
 10
28.24966904
 20
3.86567188
  0
VERTEX
  8
0
 62
7
 10
28.31515467
 20
3.96500000
  0
VERTEX
  8
0
 62
7
 10
28.32566906
 20
3.98840039
  0
VERTEX
  8
0
 62
7
 10
28.32881632
 20
4.01214063
  0
VERTEX
  8
0
 62
7
 10
28.32535857
 20
4.03515430
  0
VERTEX
  8
0
 62
7
 10
28.31605792
 20
4.05637500
  0
VERTEX
  8
0
 62
7
 10
28.30167648
 20
4.07473633
  0
VERTEX
  8
0
 62
7
 10
28.28297639
 20
4.08917188
  0
VERTEX
  8
0
 62
7
 10
28.26071974
 20
4.09861523
  0
VERTEX
  8
0
 62
7
 10
28.23566867
 20
4.10200000
  0
VERTEX
  8
0
 62
7
 10
27.93699400
 20
4.10200000
  0
VERTEX
  8
0
 62
7
 10
27.93699400
 20
4.11300000
  0
VERTEX
  8
0
 62
7
 10
27.58773733
 20
4.16400000
  0
VERTEX
  8
0
 62
7
 10
27.20475933
 20
4.21837500
  0
VERTEX
  8
0
 62
7
 10
26.82178133
 20
4.26900000
  0
VERTEX
  8
0
 62
7
 10
26.61704467
 20
4.29300000
  0
VERTEX
  8
0
 62
7
 10
26.65821781
 20
4.32570313
  0
VERTEX
  8
0
 62
7
 10
26.69532633
 20
4.36187500
  0
VERTEX
  8
0
 62
7
 10
26.72882185
 20
4.40085938
  0
VERTEX
  8
0
 62
7
 10
26.75915600
 20
4.44200000
  0
VERTEX
  8
0
 62
7
 10
26.81448006
 20
4.47695313
  0
VERTEX
  8
0
 62
7
 10
26.86393300
 20
4.51987500
  0
VERTEX
  8
0
 62
7
 10
26.90615994
 20
4.57010938
  0
VERTEX
  8
0
 62
7
 10
26.93980600
 20
4.62700000
  0
VERTEX
  8
0
 62
7
 10
26.96016676
 20
4.67193750
  0
VERTEX
  8
0
 62
7
 10
26.97443058
 20
4.71800000
  0
VERTEX
  8
0
 62
7
 10
26.98282328
 20
4.76481250
  0
VERTEX
  8
0
 62
7
 10
26.98557067
 20
4.81200000
  0
VERTEX
  8
0
 62
7
 10
26.98045225
 20
4.87325000
  0
VERTEX
  8
0
 62
7
 10
26.96630133
 20
4.93300000
  0
VERTEX
  8
0
 62
7
 10
27.02136195
 20
4.94248438
  0
VERTEX
  8
0
 62
7
 10
27.07439025
 20
4.95712500
  0
VERTEX
  8
0
 62
7
 10
27.12516043
 20
4.97645313
  0
VERTEX
  8
0
 62
7
 10
27.17344667
 20
5.00000000
  0
VERTEX
  8
0
 62
7
 10
27.22129539
 20
5.02966016
  0
VERTEX
  8
0
 62
7
 10
27.26538999
 20
5.06365625
  0
VERTEX
  8
0
 62
7
 10
27.30558932
 20
5.10163672
  0
VERTEX
  8
0
 62
7
 10
27.34175225
 20
5.14325000
  0
VERTEX
  8
0
 62
7
 10
27.37373765
 20
5.18814453
  0
VERTEX
  8
0
 62
7
 10
27.40140439
 20
5.23596875
  0
VERTEX
  8
0
 62
7
 10
27.42461132
 20
5.28637109
  0
VERTEX
  8
0
 62
7
 10
27.44321733
 20
5.33900000
  0
VERTEX
  8
0
 62
7
 10
27.47803009
 20
5.32403125
  0
VERTEX
  8
0
 62
7
 10
27.51397192
 20
5.31225000
  0
VERTEX
  8
0
 62
7
 10
27.55126861
 20
5.30384375
  0
VERTEX
  8
0
 62
7
 10
27.59014600
 20
5.29900000
  0
VERTEX
  8
0
 62
7
 10
27.63655047
 20
5.27668750
  0
VERTEX
  8
0
 62
7
 10
27.68498725
 20
5.25775000
  0
VERTEX
  8
0
 62
7
 10
27.73477891
 20
5.24218750
  0
VERTEX
  8
0
 62
7
 10
27.78524800
 20
5.23000000
  0
VERTEX
  8
0
 62
7
 10
27.85058308
 20
5.22012500
  0
VERTEX
  8
0
 62
7
 10
27.91772467
 20
5.21700000
  0
VERTEX
  8
0
 62
7
 10
27.96326352
 20
5.21868750
  0
VERTEX
  8
0
 62
7
 10
28.00925400
 20
5.22375000
  0
VERTEX
  8
0
 62
7
 10
28.05524448
 20
5.23218750
  0
VERTEX
  8
0
 62
7
 10
28.10078333
 20
5.24400000
  0
VERTEX
  8
0
 62
7
 10
28.13208659
 20
5.25417773
  0
VERTEX
  8
0
 62
7
 10
28.16423665
 20
5.26617188
  0
VERTEX
  8
0
 62
7
 10
28.19672542
 20
5.28029883
  0
VERTEX
  8
0
 62
7
 10
28.22904483
 20
5.29687500
  0
VERTEX
  8
0
 62
7
 10
28.26068681
 20
5.31621680
  0
VERTEX
  8
0
 62
7
 10
28.29114327
 20
5.33864063
  0
VERTEX
  8
0
 62
7
 10
28.31990614
 20
5.36446289
  0
VERTEX
  8
0
 62
7
 10
28.34646733
 20
5.39400000
  0
VERTEX
  8
0
 62
7
 10
28.39464067
 20
5.46600000
  0
VERTEX
  8
0
 62
7
 10
28.42527590
 20
5.41923438
  0
VERTEX
  8
0
 62
7
 10
28.46268550
 20
5.37687500
  0
VERTEX
  8
0
 62
7
 10
28.50641785
 20
5.33957813
  0
VERTEX
  8
0
 62
7
 10
28.55602133
 20
5.30800000
  0
VERTEX
  8
0
 62
7
 10
28.60777003
 20
5.28384375
  0
VERTEX
  8
0
 62
7
 10
28.66109942
 20
5.26775000
  0
VERTEX
  8
0
 62
7
 10
28.71488043
 20
5.25878125
  0
VERTEX
  8
0
 62
7
 10
28.76798400
 20
5.25600000
  0
VERTEX
  8
0
 62
7
 10
28.82037250
 20
5.25862500
  0
VERTEX
  8
0
 62
7
 10
28.86914800
 20
5.26500000
  0
VERTEX
  8
0
 62
7
 10
28.94291342
 20
5.28275000
  0
VERTEX
  8
0
 62
7
 10
29.01125933
 20
5.30800000
  0
VERTEX
  8
0
 62
7
 10
29.04738933
 20
5.30125000
  0
VERTEX
  8
0
 62
7
 10
29.08351933
 20
5.29900000
  0
VERTEX
  8
0
 62
7
 10
29.12326233
 20
5.30175000
  0
VERTEX
  8
0
 62
7
 10
29.16300533
 20
5.30900000
  0
VERTEX
  8
0
 62
7
 10
29.22186713
 20
5.33128125
  0
VERTEX
  8
0
 62
7
 10
29.27440617
 20
5.36425000
  0
VERTEX
  8
0
 62
7
 10
29.31881596
 20
5.40659375
  0
VERTEX
  8
0
 62
7
 10
29.35329000
 20
5.45700000
  0
VERTEX
  8
0
 62
7
 10
29.36125930
 20
5.47842383
  0
VERTEX
  8
0
 62
7
 10
29.36375265
 20
5.50014063
  0
VERTEX
  8
0
 62
7
 10
29.36116521
 20
5.52131836
  0
VERTEX
  8
0
 62
7
 10
29.35389217
 20
5.54112500
  0
VERTEX
  8
0
 62
7
 10
29.34232868
 20
5.55872852
  0
VERTEX
  8
0
 62
7
 10
29.32686994
 20
5.57329688
  0
VERTEX
  8
0
 62
7
 10
29.30791110
 20
5.58399805
  0
VERTEX
  8
0
 62
7
 10
29.28584733
 20
5.59000000
  0
VERTEX
  8
0
 62
7
 10
29.26258865
 20
5.59781250
  0
VERTEX
  8
0
 62
7
 10
29.24429783
 20
5.61275000
  0
VERTEX
  8
0
 62
7
 10
29.23232977
 20
5.63331250
  0
VERTEX
  8
0
 62
7
 10
29.22803933
 20
5.65800000
  0
VERTEX
  8
0
 62
7
 10
29.23044800
 20
5.67500000
  0
VERTEX
  8
0
 62
7
 10
29.24008267
 20
5.69425000
  0
VERTEX
  8
0
 62
7
 10
29.26416933
 20
5.72100000
  0
VERTEX
  8
0
 62
7
 10
29.29668633
 20
5.74000000
  0
VERTEX
  8
0
 62
7
 10
29.35088133
 20
5.75600000
  0
VERTEX
  8
0
 62
7
 10
29.38098967
 20
5.76050000
  0
VERTEX
  8
0
 62
7
 10
29.41109800
 20
5.76200000
  0
VERTEX
  8
0
 62
7
 10
29.44226013
 20
5.76056250
  0
VERTEX
  8
0
 62
7
 10
29.47432550
 20
5.75650000
  0
VERTEX
  8
0
 62
7
 10
29.50729413
 20
5.75018750
  0
VERTEX
  8
0
 62
7
 10
29.54116600
 20
5.74200000
  0
VERTEX
  8
0
 62
7
 10
29.58361875
 20
5.72725000
  0
VERTEX
  8
0
 62
7
 10
29.62787800
 20
5.70800000
  0
VERTEX
  8
0
 62
7
 10
29.63992133
 20
5.70300000
  0
VERTEX
  8
0
 62
7
 10
29.63992133
 20
4.35000000
  0
VERTEX
  8
0
 62
7
 10
33.85990533
 20
4.35000000
  0
VERTEX
  8
0
 62
7
 10
33.94902600
 20
4.29800000
  0
VERTEX
  8
0
 62
7
 10
34.27833590
 20
4.11171875
  0
VERTEX
  8
0
 62
7
 10
34.61261367
 20
3.93425000
  0
VERTEX
  8
0
 62
7
 10
34.95231094
 20
3.76615625
  0
VERTEX
  8
0
 62
7
 10
35.29787933
 20
3.60800000
  0
VERTEX
  8
0
 62
7
 10
35.63372838
 20
3.46554883
  0
VERTEX
  8
0
 62
7
 10
35.97268235
 20
3.33182813
  0
VERTEX
  8
0
 62
7
 10
36.31445898
 20
3.20628711
  0
VERTEX
  8
0
 62
7
 10
36.65877600
 20
3.08837500
  0
VERTEX
  8
0
 62
7
 10
37.00535114
 20
2.97754102
  0
VERTEX
  8
0
 62
7
 10
37.35390215
 20
2.87323438
  0
VERTEX
  8
0
 62
7
 10
37.70414674
 20
2.77490430
  0
VERTEX
  8
0
 62
7
 10
38.05580267
 20
2.68200000
  0
VERTEX
  8
0
 62
7
 10
38.26934602
 20
2.62939063
  0
VERTEX
  8
0
 62
7
 10
38.48334100
 20
2.58062500
  0
VERTEX
  8
0
 62
7
 10
38.69733598
 20
2.53504688
  0
VERTEX
  8
0
 62
7
 10
38.91087933
 20
2.49200000
  0
VERTEX
  8
0
 62
7
 10
39.10466409
 20
2.45475000
  0
VERTEX
  8
0
 62
7
 10
39.29957792
 20
2.41900000
  0
VERTEX
  8
0
 62
7
 10
39.49584661
 20
2.38625000
  0
VERTEX
  8
0
 62
7
 10
39.69369600
 20
2.35800000
  0
VERTEX
  8
0
 62
7
 10
39.90912113
 20
2.33148438
  0
VERTEX
  8
0
 62
7
 10
40.12544950
 20
2.30937500
  0
VERTEX
  8
0
 62
7
 10
40.34268113
 20
2.29232813
  0
VERTEX
  8
0
 62
7
 10
40.56081600
 20
2.28100000
  0
VERTEX
  8
0
 62
7
 10
40.71226092
 20
2.27737500
  0
VERTEX
  8
0
 62
7
 10
40.86189933
 20
2.27600000
  0
VERTEX
  8
0
 62
7
 10
41.02689300
 20
2.27775000
  0
VERTEX
  8
0
 62
7
 10
41.19188667
 20
2.28400000
  0
VERTEX
  8
0
 62
7
 10
41.33825080
 20
2.29156250
  0
VERTEX
  8
0
 62
7
 10
41.48484075
 20
2.30175000
  0
VERTEX
  8
0
 62
7
 10
41.63188232
 20
2.31606250
  0
VERTEX
  8
0
 62
7
 10
41.77960133
 20
2.33600000
  0
VERTEX
  8
0
 62
7
 10
41.95144465
 20
2.36623438
  0
VERTEX
  8
0
 62
7
 10
42.12283633
 20
2.40312500
  0
VERTEX
  8
0
 62
7
 10
42.29242152
 20
2.44695313
  0
VERTEX
  8
0
 62
7
 10
42.45884533
 20
2.49800000
  0
VERTEX
  8
0
 62
7
 10
42.60430622
 20
2.54870313
  0
VERTEX
  8
0
 62
7
 10
42.74818642
 20
2.60512500
  0
VERTEX
  8
0
 62
7
 10
42.89071174
 20
2.66773438
  0
VERTEX
  8
0
 62
7
 10
43.03210800
 20
2.73700000
  0
VERTEX
  8
0
 62
7
 10
43.15502527
 20
2.80612500
  0
VERTEX
  8
0
 62
7
 10
43.27478117
 20
2.87975000
  0
VERTEX
  8
0
 62
7
 10
43.39182731
 20
2.95750000
  0
VERTEX
  8
0
 62
7
 10
43.50661533
 20
3.03900000
  0
VERTEX
  8
0
 62
7
 10
43.67612525
 20
3.16950000
  0
VERTEX
  8
0
 62
7
 10
43.83660267
 20
3.30900000
  0
VERTEX
  8
0
 62
7
 10
43.85557092
 20
3.21662500
  0
VERTEX
  8
0
 62
7
 10
43.88718467
 20
3.12800000
  0
VERTEX
  8
0
 62
7
 10
43.93144392
 20
3.04462500
  0
VERTEX
  8
0
 62
7
 10
43.98834867
 20
2.96800000
  0
VERTEX
  8
0
 62
7
 10
44.01746437
 20
2.93574805
  0
VERTEX
  8
0
 62
7
 10
44.04875351
 20
2.90517188
  0
VERTEX
  8
0
 62
7
 10
44.08213142
 20
2.87654102
  0
VERTEX
  8
0
 62
7
 10
44.11751342
 20
2.85012500
  0
VERTEX
  8
0
 62
7
 10
44.15481482
 20
2.82619336
  0
VERTEX
  8
0
 62
7
 10
44.19395095
 20
2.80501563
  0
VERTEX
  8
0
 62
7
 10
44.23483712
 20
2.78686133
  0
VERTEX
  8
0
 62
7
 10
44.27738867
 20
2.77200000
  0
VERTEX
  8
0
 62
7
 10
44.32518565
 20
2.75871875
  0
VERTEX
  8
0
 62
7
 10
44.37433750
 20
2.74900000
  0
VERTEX
  8
0
 62
7
 10
44.42439260
 20
2.74303125
  0
VERTEX
  8
0
 62
7
 10
44.47489933
 20
2.74100000
  0
VERTEX
  8
0
 62
7
 10
44.52582005
 20
2.74315625
  0
VERTEX
  8
0
 62
7
 10
44.57696658
 20
2.75000000
  0
VERTEX
  8
0
 62
7
 10
44.62766149
 20
2.76209375
  0
VERTEX
  8
0
 62
7
 10
44.67722733
 20
2.78000000
  0
VERTEX
  8
0
 62
7
 10
44.72957820
 20
2.80481250
  0
VERTEX
  8
0
 62
7
 10
44.77809025
 20
2.83375000
  0
VERTEX
  8
0
 62
7
 10
44.82253768
 20
2.86606250
  0
VERTEX
  8
0
 62
7
 10
44.86269467
 20
2.90100000
  0
VERTEX
  8
0
 62
7
 10
44.90605067
 20
2.94537500
  0
VERTEX
  8
0
 62
7
 10
44.94579367
 20
2.99275000
  0
VERTEX
  8
0
 62
7
 10
44.98192367
 20
3.04275000
  0
VERTEX
  8
0
 62
7
 10
45.01444067
 20
3.09500000
  0
VERTEX
  8
0
 62
7
 10
45.04816200
 20
3.15100000
  0
VERTEX
  8
0
 62
7
 10
45.00480600
 20
3.20000000
  0
VERTEX
  8
0
 62
7
 10
44.99276267
 20
3.21200000
  0
VERTEX
  8
0
 62
7
 10
45.03608103
 20
3.26887500
  0
VERTEX
  8
0
 62
7
 10
45.07194758
 20
3.33025000
  0
VERTEX
  8
0
 62
7
 10
45.10013651
 20
3.39650000
  0
VERTEX
  8
0
 62
7
 10
45.12042200
 20
3.46800000
  0
VERTEX
  8
0
 62
7
 10
45.12794908
 20
3.51175000
  0
VERTEX
  8
0
 62
7
 10
45.13005667
 20
3.55700000
  0
VERTEX
  8
0
 62
7
 10
45.12538988
 20
3.62515625
  0
VERTEX
  8
0
 62
7
 10
45.11078733
 20
3.69500000
  0
VERTEX
  8
0
 62
7
 10
45.08534579
 20
3.76259375
  0
VERTEX
  8
0
 62
7
 10
45.04816200
 20
3.82400000
  0
VERTEX
  8
0
 62
7
 10
45.01124166
 20
3.86545313
  0
VERTEX
  8
0
 62
7
 10
44.96957925
 20
3.89987500
  0
VERTEX
  8
0
 62
7
 10
44.92385222
 20
3.92735938
  0
VERTEX
  8
0
 62
7
 10
44.87473800
 20
3.94800000
  0
VERTEX
  8
0
 62
7
 10
44.85227436
 20
3.95278906
  0
VERTEX
  8
0
 62
7
 10
44.83051639
 20
3.95181250
  0
VERTEX
  8
0
 62
7
 10
44.81016974
 20
3.94567969
  0
VERTEX
  8
0
 62
7
 10
44.79194008
 20
3.93500000
  0
VERTEX
  8
0
 62
7
 10
44.77653308
 20
3.92038281
  0
VERTEX
  8
0
 62
7
 10
44.76465441
 20
3.90243750
  0
VERTEX
  8
0
 62
7
 10
44.75700971
 20
3.88177344
  0
VERTEX
  8
0
 62
7
 10
44.75430467
 20
3.85900000
  0
VERTEX
  8
0
 62
7
 10
44.75430467
 20
3.85700000
  0
VERTEX
  8
0
 62
7
 10
44.74798192
 20
3.83300000
  0
VERTEX
  8
0
 62
7
 10
44.73262667
 20
3.81800000
  0
VERTEX
  8
0
 62
7
 10
44.72359417
 20
3.81350000
  0
VERTEX
  8
0
 62
7
 10
44.71094867
 20
3.81200000
  0
VERTEX
  8
0
 62
7
 10
44.69581923
 20
3.81393750
  0
VERTEX
  8
0
 62
7
 10
44.68023817
 20
3.81925000
  0
VERTEX
  8
0
 62
7
 10
44.66556035
 20
3.82718750
  0
VERTEX
  8
0
 62
7
 10
44.65314067
 20
3.83700000
  0
VERTEX
  8
0
 62
7
 10
44.61219333
 20
3.88375000
  0
VERTEX
  8
0
 62
7
 10
44.57847200
 20
3.94400000
  0
VERTEX
  8
0
 62
7
 10
44.56311675
 20
4.00237500
  0
VERTEX
  8
0
 62
7
 10
44.55679400
 20
4.07800000
  0
VERTEX
  8
0
 62
7
 10
44.55679400
 20
4.09600000
  0
VERTEX
  8
0
 62
7
 10
44.55920267
 20
4.17500000
  0
VERTEX
  8
0
 62
7
 10
44.56402000
 20
4.22500000
  0
VERTEX
  8
0
 62
7
 10
44.58328933
 20
4.46937500
  0
VERTEX
  8
0
 62
7
 10
44.60978467
 20
4.71600000
  0
VERTEX
  8
0
 62
7
 10
44.61941933
 20
4.81500000
  0
VERTEX
  8
0
 62
7
 10
44.63477458
 20
4.97200000
  0
VERTEX
  8
0
 62
7
 10
44.64109733
 20
5.13200000
  0
VERTEX
  8
0
 62
7
 10
44.64019408
 20
5.20162500
  0
VERTEX
  8
0
 62
7
 10
44.63387133
 20
5.27200000
  0
VERTEX
  8
0
 62
7
 10
44.62156455
 20
5.37801563
  0
VERTEX
  8
0
 62
7
 10
44.60225758
 20
5.48412500
  0
VERTEX
  8
0
 62
7
 10
44.57527299
 20
5.58967188
  0
VERTEX
  8
0
 62
7
 10
44.53993333
 20
5.69400000
  0
VERTEX
  8
0
 62
7
 10
44.49793221
 20
5.79740625
  0
VERTEX
  8
0
 62
7
 10
44.44780183
 20
5.89725000
  0
VERTEX
  8
0
 62
7
 10
44.38954221
 20
5.99296875
  0
VERTEX
  8
0
 62
7
 10
44.32315333
 20
6.08400000
  0
VERTEX
  8
0
 62
7
 10
44.25721608
 20
6.16212500
  0
VERTEX
  8
0
 62
7
 10
44.18585933
 20
6.23575000
  0
VERTEX
  8
0
 62
7
 10
44.10908308
 20
6.30450000
  0
VERTEX
  8
0
 62
7
 10
44.02688733
 20
6.36800000
  0
VERTEX
  8
0
 62
7
 10
43.93358914
 20
6.43167188
  0
VERTEX
  8
0
 62
7
 10
43.83509725
 20
6.48962500
  0
VERTEX
  8
0
 62
7
 10
43.73254074
 20
6.54026563
  0
VERTEX
  8
0
 62
7
 10
43.62704867
 20
6.58200000
  0
VERTEX
  8
0
 62
7
 10
43.56079152
 20
6.60309375
  0
VERTEX
  8
0
 62
7
 10
43.49396983
 20
6.62137500
  0
VERTEX
  8
0
 62
7
 10
43.42669653
 20
6.63684375
  0
VERTEX
  8
0
 62
7
 10
43.35908450
 20
6.64950000
  0
VERTEX
  8
0
 62
7
 10
43.29124666
 20
6.65934375
  0
VERTEX
  8
0
 62
7
 10
43.22329592
 20
6.66637500
  0
VERTEX
  8
0
 62
7
 10
43.15534517
 20
6.67059375
  0
VERTEX
  8
0
 62
7
 10
43.08750733
 20
6.67200000
  0
VERTEX
  8
0
 62
7
 10
43.02251626
 20
6.67067383
  0
VERTEX
  8
0
 62
7
 10
42.95766985
 20
6.66668750
  0
VERTEX
  8
0
 62
7
 10
42.89305631
 20
6.66002930
  0
VERTEX
  8
0
 62
7
 10
42.82876384
 20
6.65068750
  0
VERTEX
  8
0
 62
7
 10
42.76488066
 20
6.63865039
  0
VERTEX
  8
0
 62
7
 10
42.70149498
 20
6.62390625
  0
VERTEX
  8
0
 62
7
 10
42.63869499
 20
6.60644336
  0
VERTEX
  8
0
 62
7
 10
42.57656892
 20
6.58625000
  0
VERTEX
  8
0
 62
7
 10
42.51520496
 20
6.56331445
  0
VERTEX
  8
0
 62
7
 10
42.45469132
 20
6.53762500
  0
VERTEX
  8
0
 62
7
 10
42.39511622
 20
6.50916992
  0
VERTEX
  8
0
 62
7
 10
42.33656786
 20
6.47793750
  0
VERTEX
  8
0
 62
7
 10
42.27913445
 20
6.44391602
  0
VERTEX
  8
0
 62
7
 10
42.22290420
 20
6.40709375
  0
VERTEX
  8
0
 62
7
 10
42.16796531
 20
6.36745898
  0
VERTEX
  8
0
 62
7
 10
42.11440600
 20
6.32500000
  0
VERTEX
  8
0
 62
7
 10
42.01557540
 20
6.23360938
  0
VERTEX
  8
0
 62
7
 10
41.92893867
 20
6.13387500
  0
VERTEX
  8
0
 62
7
 10
41.85494744
 20
6.02645313
  0
VERTEX
  8
0
 62
7
 10
41.79405333
 20
5.91200000
  0
VERTEX
  8
0
 62
7
 10
41.79405333
 20
9.03600000
  0
VERTEX
  8
0
 62
7
 10
29.63992133
 20
9.03600000
  0
VERTEX
  8
0
 62
7
 10
29.63992133
 20
6.50800000
  0
VERTEX
  8
0
 62
7
 10
29.46980925
 20
6.57762500
  0
VERTEX
  8
0
 62
7
 10
29.29789067
 20
6.63900000
  0
VERTEX
  8
0
 62
7
 10
29.12360105
 20
6.69125000
  0
VERTEX
  8
0
 62
7
 10
28.94773075
 20
6.73600000
  0
VERTEX
  8
0
 62
7
 10
28.77050557
 20
6.77400000
  0
VERTEX
  8
0
 62
7
 10
28.59215133
 20
6.80600000
  0
VERTEX
  8
0
 62
7
 10
28.49438393
 20
6.82113867
  0
VERTEX
  8
0
 62
7
 10
28.39622135
 20
6.83429688
  0
VERTEX
  8
0
 62
7
 10
28.29772006
 20
6.84546289
  0
VERTEX
  8
0
 62
7
 10
28.19893650
 20
6.85462500
  0
VERTEX
  8
0
 62
7
 10
28.09992713
 20
6.86177148
  0
VERTEX
  8
0
 62
7
 10
28.00074840
 20
6.86689063
  0
VERTEX
  8
0
 62
7
 10
27.90145676
 20
6.86997070
  0
VERTEX
  8
0
 62
7
 10
27.80210867
 20
6.87100000
  0
VERTEX
  8
0
 62
7
 10
27.67204067
 20
6.86900000
  0
VERTEX
  8
0
 62
7
 10
27.56626162
 20
6.86506836
  0
VERTEX
  8
0
 62
7
 10
27.46034145
 20
6.85910938
  0
VERTEX
  8
0
 62
7
 10
27.35436482
 20
6.85087695
  0
VERTEX
  8
0
 62
7
 10
27.24841642
 20
6.84012500
  0
VERTEX
  8
0
 62
7
 10
27.14258092
 20
6.82660742
  0
VERTEX
  8
0
 62
7
 10
27.03694301
 20
6.81007813
  0
VERTEX
  8
0
 62
7
 10
26.93158737
 20
6.79029102
  0
VERTEX
  8
0
 62
7
 10
26.82659867
 20
6.76700000
  0
VERTEX
  8
0
 62
7
 10
26.73778849
 20
6.74545508
  0
VERTEX
  8
0
 62
7
 10
26.64858315
 20
6.72251563
  0
VERTEX
  8
0
 62
7
 10
26.55926489
 20
6.69772461
  0
VERTEX
  8
0
 62
7
 10
26.47011600
 20
6.67062500
  0
VERTEX
  8
0
 62
7
 10
26.38141873
 20
6.64075977
  0
VERTEX
  8
0
 62
7
 10
26.29345535
 20
6.60767188
  0
VERTEX
  8
0
 62
7
 10
26.20650813
 20
6.57090430
  0
VERTEX
  8
0
 62
7
 10
26.12085933
 20
6.53000000
  0
VERTEX
  8
0
 62
7
 10
25.97152200
 20
6.44900000
  0
VERTEX
  8
0
 62
7
 10
25.89474575
 20
6.68650000
  0
VERTEX
  8
0
 62
7
 10
25.82700200
 20
6.92400000
  0
VERTEX
  8
0
 62
7
 10
25.77694690
 20
7.11807813
  0
VERTEX
  8
0
 62
7
 10
25.73185967
 20
7.31337500
  0
VERTEX
  8
0
 62
7
 10
25.69219194
 20
7.50998438
  0
VERTEX
  8
0
 62
7
 10
25.65839533
 20
7.70800000
  0
VERTEX
  8
0
 62
7
 10
25.65559620
 20
7.73917188
  0
VERTEX
  8
0
 62
7
 10
25.65497051
 20
7.77193750
  0
VERTEX
  8
0
 62
7
 10
25.65462709
 20
7.80517188
  0
VERTEX
  8
0
 62
7
 10
25.65267475
 20
7.83775000
  0
VERTEX
  8
0
 62
7
 10
25.64722232
 20
7.86854688
  0
VERTEX
  8
0
 62
7
 10
25.63637861
 20
7.89643750
  0
VERTEX
  8
0
 62
7
 10
25.61825246
 20
7.92029688
  0
VERTEX
  8
0
 62
7
 10
25.59095267
 20
7.93900000
  0
VERTEX
  8
0
 62
7
 10
25.42505575
 20
8.02737500
  0
VERTEX
  8
0
 62
7
 10
25.26819133
 20
8.12700000
  0
VERTEX
  8
0
 62
7
 10
25.16196537
 20
8.20343555
  0
VERTEX
  8
0
 62
7
 10
25.05833625
 20
8.28342188
  0
VERTEX
  8
0
 62
7
 10
24.95741688
 20
8.36685352
  0
VERTEX
  8
0
 62
7
 10
24.85932017
 20
8.45362500
  0
VERTEX
  8
0
 62
7
 10
24.76415902
 20
8.54363086
  0
VERTEX
  8
0
 62
7
 10
24.67204633
 20
8.63676563
  0
VERTEX
  8
0
 62
7
 10
24.58309503
 20
8.73292383
  0
VERTEX
  8
0
 62
7
 10
24.49741800
 20
8.83200000
  0
VERTEX
  8
0
 62
7
 10
24.43546070
 20
8.90882422
  0
VERTEX
  8
0
 62
7
 10
24.37480181
 20
8.99021875
  0
VERTEX
  8
0
 62
7
 10
24.31628815
 20
9.07531641
  0
VERTEX
  8
0
 62
7
 10
24.26076650
 20
9.16325000
  0
VERTEX
  8
0
 62
7
 10
24.20908366
 20
9.25315234
  0
VERTEX
  8
0
 62
7
 10
24.16208644
 20
9.34415625
  0
VERTEX
  8
0
 62
7
 10
24.12062162
 20
9.43539453
  0
VERTEX
  8
0
 62
7
 10
24.08553600
 20
9.52600000
  0
VERTEX
  8
0
 62
7
 10
24.07117809
 20
9.55225000
  0
VERTEX
  8
0
 62
7
 10
24.05106196
 20
9.57100000
  0
VERTEX
  8
0
 62
7
 10
24.02710702
 20
9.58225000
  0
VERTEX
  8
0
 62
7
 10
24.00123267
 20
9.58600000
  0
VERTEX
  8
0
 62
7
 10
23.97535832
 20
9.58225000
  0
VERTEX
  8
0
 62
7
 10
23.95140338
 20
9.57100000
  0
VERTEX
  8
0
 62
7
 10
23.93128724
 20
9.55225000
  0
VERTEX
  8
0
 62
7
 10
23.91692933
 20
9.52600000
  0
VERTEX
  8
0
 62
7
 10
23.88174022
 20
9.43539453
  0
VERTEX
  8
0
 62
7
 10
23.84000254
 20
9.34415625
  0
VERTEX
  8
0
 62
7
 10
23.79261955
 20
9.25315234
  0
VERTEX
  8
0
 62
7
 10
23.74049450
 20
9.16325000
  0
VERTEX
  8
0
 62
7
 10
23.68453064
 20
9.07531641
  0
VERTEX
  8
0
 62
7
 10
23.62563121
 20
8.99021875
  0
VERTEX
  8
0
 62
7
 10
23.56469947
 20
8.90882422
  0
VERTEX
  8
0
 62
7
 10
23.50263867
 20
8.83200000
  0
VERTEX
  8
0
 62
7
 10
23.41696164
 20
8.73292383
  0
VERTEX
  8
0
 62
7
 10
23.32801033
 20
8.63676563
  0
VERTEX
  8
0
 62
7
 10
23.23589765
 20
8.54363086
  0
VERTEX
  8
0
 62
7
 10
23.14073650
 20
8.45362500
  0
VERTEX
  8
0
 62
7
 10
23.04263979
 20
8.36685352
  0
VERTEX
  8
0
 62
7
 10
22.94172042
 20
8.28342188
  0
VERTEX
  8
0
 62
7
 10
22.83809130
 20
8.20343555
  0
VERTEX
  8
0
 62
7
 10
22.73186533
 20
8.12700000
  0
VERTEX
  8
0
 62
7
 10
22.57500092
 20
8.02737500
  0
VERTEX
  8
0
 62
7
 10
22.40910400
 20
7.93900000
  0
VERTEX
  8
0
 62
7
 10
22.38180421
 20
7.92029688
  0
VERTEX
  8
0
 62
7
 10
22.36367805
 20
7.89643750
  0
VERTEX
  8
0
 62
7
 10
22.35283435
 20
7.86854688
  0
VERTEX
  8
0
 62
7
 10
22.34738192
 20
7.83775000
  0
VERTEX
  8
0
 62
7
 10
22.34542958
 20
7.80517188
  0
VERTEX
  8
0
 62
7
 10
22.34508616
 20
7.77193750
  0
VERTEX
  8
0
 62
7
 10
22.34446047
 20
7.73917188
  0
VERTEX
  8
0
 62
7
 10
22.34166133
 20
7.70800000
  0
VERTEX
  8
0
 62
7
 10
22.30786473
 20
7.50998438
  0
VERTEX
  8
0
 62
7
 10
22.26819700
 20
7.31337500
  0
VERTEX
  8
0
 62
7
 10
22.22310977
 20
7.11807813
  0
VERTEX
  8
0
 62
7
 10
22.17305467
 20
6.92400000
  0
VERTEX
  8
0
 62
7
 10
22.10531092
 20
6.68650000
  0
VERTEX
  8
0
 62
7
 10
22.02853467
 20
6.44900000
  0
VERTEX
  8
0
 62
7
 10
21.87919733
 20
6.53000000
  0
VERTEX
  8
0
 62
7
 10
21.79354853
 20
6.57090430
  0
VERTEX
  8
0
 62
7
 10
21.70660131
 20
6.60767188
  0
VERTEX
  8
0
 62
7
 10
21.61863793
 20
6.64075977
  0
VERTEX
  8
0
 62
7
 10
21.52994067
 20
6.67062500
  0
VERTEX
  8
0
 62
7
 10
21.44079177
 20
6.69772461
  0
VERTEX
  8
0
 62
7
 10
21.35147352
 20
6.72251563
  0
VERTEX
  8
0
 62
7
 10
21.26226817
 20
6.74545508
  0
VERTEX
  8
0
 62
7
 10
21.17345800
 20
6.76700000
  0
VERTEX
  8
0
 62
7
 10
21.06846930
 20
6.79029102
  0
VERTEX
  8
0
 62
7
 10
20.96311366
 20
6.81007813
  0
VERTEX
  8
0
 62
7
 10
20.85747575
 20
6.82660742
  0
VERTEX
  8
0
 62
7
 10
20.75164025
 20
6.84012500
  0
VERTEX
  8
0
 62
7
 10
20.64569185
 20
6.85087695
  0
VERTEX
  8
0
 62
7
 10
20.53971522
 20
6.85910938
  0
VERTEX
  8
0
 62
7
 10
20.43379504
 20
6.86506836
  0
VERTEX
  8
0
 62
7
 10
20.32801600
 20
6.86900000
  0
VERTEX
  8
0
 62
7
 10
20.19794800
 20
6.87100000
  0
VERTEX
  8
0
 62
7
 10
20.09859991
 20
6.86997070
  0
VERTEX
  8
0
 62
7
 10
19.99930827
 20
6.86689063
  0
VERTEX
  8
0
 62
7
 10
19.90012954
 20
6.86177148
  0
VERTEX
  8
0
 62
7
 10
19.80112017
 20
6.85462500
  0
VERTEX
  8
0
 62
7
 10
19.70233661
 20
6.84546289
  0
VERTEX
  8
0
 62
7
 10
19.60383531
 20
6.83429688
  0
VERTEX
  8
0
 62
7
 10
19.50567274
 20
6.82113867
  0
VERTEX
  8
0
 62
7
 10
19.40790533
 20
6.80600000
  0
VERTEX
  8
0
 62
7
 10
19.22955109
 20
6.77400000
  0
VERTEX
  8
0
 62
7
 10
19.05232592
 20
6.73600000
  0
VERTEX
  8
0
 62
7
 10
18.87645561
 20
6.69125000
  0
VERTEX
  8
0
 62
7
 10
18.70216600
 20
6.63900000
  0
VERTEX
  8
0
 62
7
 10
18.53024742
 20
6.57762500
  0
VERTEX
  8
0
 62
7
 10
18.36013533
 20
6.50800000
  0
VERTEX
  8
0
 62
7
 10
18.36013533
 20
9.03600000
  0
VERTEX
  8
0
 62
7
 10
6.20600333
 20
9.03600000
  0
VERTEX
  8
0
 62
7
 10
6.20600333
 20
5.91200000
  0
VERTEX
  8
0
 62
7
 10
6.14510923
 20
6.02645313
  0
VERTEX
  8
0
 62
7
 10
6.07111800
 20
6.13387500
  0
VERTEX
  8
0
 62
7
 10
5.98448127
 20
6.23360938
  0
VERTEX
  8
0
 62
7
 10
5.88565067
 20
6.32500000
  0
VERTEX
  8
0
 62
7
 10
5.83209135
 20
6.36745898
  0
VERTEX
  8
0
 62
7
 10
5.77715246
 20
6.40709375
  0
VERTEX
  8
0
 62
7
 10
5.72092221
 20
6.44391602
  0
VERTEX
  8
0
 62
7
 10
5.66348880
 20
6.47793750
  0
VERTEX
  8
0
 62
7
 10
5.60494044
 20
6.50916992
  0
VERTEX
  8
0
 62
7
 10
5.54536534
 20
6.53762500
  0
VERTEX
  8
0
 62
7
 10
5.48485171
 20
6.56331445
  0
VERTEX
  8
0
 62
7
 10
5.42348775
 20
6.58625000
  0
VERTEX
  8
0
 62
7
 10
5.36136167
 20
6.60644336
  0
VERTEX
  8
0
 62
7
 10
5.29856169
 20
6.62390625
  0
VERTEX
  8
0
 62
7
 10
5.23517600
 20
6.63865039
  0
VERTEX
  8
0
 62
7
 10
5.17129282
 20
6.65068750
  0
VERTEX
  8
0
 62
7
 10
5.10700036
 20
6.66002930
  0
VERTEX
  8
0
 62
7
 10
5.04238682
 20
6.66668750
  0
VERTEX
  8
0
 62
7
 10
4.97754041
 20
6.67067383
  0
VERTEX
  8
0
 62
7
 10
4.91254933
 20
6.67200000
  0
VERTEX
  8
0
 62
7
 10
4.84471149
 20
6.67059375
  0
VERTEX
  8
0
 62
7
 10
4.77676075
 20
6.66637500
  0
VERTEX
  8
0
 62
7
 10
4.70881001
 20
6.65934375
  0
VERTEX
  8
0
 62
7
 10
4.64097217
 20
6.64950000
  0
VERTEX
  8
0
 62
7
 10
4.57336014
 20
6.63684375
  0
VERTEX
  8
0
 62
7
 10
4.50608683
 20
6.62137500
  0
VERTEX
  8
0
 62
7
 10
4.43926515
 20
6.60309375
  0
VERTEX
  8
0
 62
7
 10
4.37300800
 20
6.58200000
  0
VERTEX
  8
0
 62
7
 10
4.26751593
 20
6.54026563
  0
VERTEX
  8
0
 62
7
 10
4.16495942
 20
6.48962500
  0
VERTEX
  8
0
 62
7
 10
4.06646753
 20
6.43167188
  0
VERTEX
  8
0
 62
7
 10
3.97316933
 20
6.36800000
  0
VERTEX
  8
0
 62
7
 10
3.89097358
 20
6.30450000
  0
VERTEX
  8
0
 62
7
 10
3.81419733
 20
6.23575000
  0
VERTEX
  8
0
 62
7
 10
3.74284058
 20
6.16212500
  0
VERTEX
  8
0
 62
7
 10
3.67690333
 20
6.08400000
  0
VERTEX
  8
0
 62
7
 10
3.61051446
 20
5.99296875
  0
VERTEX
  8
0
 62
7
 10
3.55225483
 20
5.89725000
  0
VERTEX
  8
0
 62
7
 10
3.50212446
 20
5.79740625
  0
VERTEX
  8
0
 62
7
 10
3.46012333
 20
5.69400000
  0
VERTEX
  8
0
 62
7
 10
3.42478368
 20
5.58967188
  0
VERTEX
  8
0
 62
7
 10
3.39779908
 20
5.48412500
  0
VERTEX
  8
0
 62
7
 10
3.37849211
 20
5.37801563
  0
VERTEX
  8
0
 62
7
 10
3.36618533
 20
5.27200000
  0
VERTEX
  8
0
 62
7
 10
3.35986258
 20
5.20162500
  0
VERTEX
  8
0
 62
7
 10
3.35895933
 20
5.13200000
  0
VERTEX
  8
0
 62
7
 10
3.36528208
 20
4.97200000
  0
VERTEX
  8
0
 62
7
 10
3.38063733
 20
4.81500000
  0
VERTEX
  8
0
 62
7
 10
3.39027200
 20
4.71600000
  0
VERTEX
  8
0
 62
7
 10
3.41676733
 20
4.46937500
  0
VERTEX
  8
0
 62
7
 10
3.43603667
 20
4.22500000
  0
VERTEX
  8
0
 62
7
 10
3.44085400
 20
4.17500000
  0
VERTEX
  8
0
 62
7
 10
3.44326267
 20
4.09600000
  0
VERTEX
  8
0
 62
7
 10
3.44326267
 20
4.07800000
  0
VERTEX
  8
0
 62
7
 10
3.43693992
 20
4.00237500
  0
VERTEX
  8
0
 62
7
 10
3.42158467
 20
3.94400000
  0
VERTEX
  8
0
 62
7
 10
3.38786333
 20
3.88375000
  0
VERTEX
  8
0
 62
7
 10
3.34691600
 20
3.83700000
  0
VERTEX
  8
0
 62
7
 10
3.33449631
 20
3.82718750
  0
VERTEX
  8
0
 62
7
 10
3.31981850
 20
3.81925000
  0
VERTEX
  8
0
 62
7
 10
3.30423744
 20
3.81393750
  0
VERTEX
  8
0
 62
7
 10
3.28910800
 20
3.81200000
  0
VERTEX
  8
0
 62
7
 10
3.27646250
 20
3.81350000
  0
VERTEX
  8
0
 62
7
 10
3.26743000
 20
3.81800000
  0
VERTEX
  8
0
 62
7
 10
3.25207475
 20
3.83300000
  0
VERTEX
  8
0
 62
7
 10
3.24575200
 20
3.85700000
  0
VERTEX
  8
0
 62
7
 10
3.24575200
 20
3.85900000
  0
VERTEX
  8
0
 62
7
 10
3.24304695
 20
3.88177344
  0
VERTEX
  8
0
 62
7
 10
3.23540226
 20
3.90243750
  0
VERTEX
  8
0
 62
7
 10
3.22352358
 20
3.92038281
  0
VERTEX
  8
0
 62
7
 10
3.20811658
 20
3.93500000
  0
VERTEX
  8
0
 62
7
 10
3.18988693
 20
3.94567969
  0
VERTEX
  8
0
 62
7
 10
3.16954028
 20
3.95181250
  0
VERTEX
  8
0
 62
7
 10
3.14778231
 20
3.95278906
  0
VERTEX
  8
0
 62
7
 10
3.12531867
 20
3.94800000
  0
VERTEX
  8
0
 62
7
 10
3.07620445
 20
3.92735938
  0
VERTEX
  8
0
 62
7
 10
3.03047742
 20
3.89987500
  0
VERTEX
  8
0
 62
7
 10
2.98881501
 20
3.86545313
  0
VERTEX
  8
0
 62
7
 10
2.95189467
 20
3.82400000
  0
VERTEX
  8
0
 62
7
 10
2.91471088
 20
3.76259375
  0
VERTEX
  8
0
 62
7
 10
2.88926933
 20
3.69500000
  0
VERTEX
  8
0
 62
7
 10
2.87466679
 20
3.62515625
  0
VERTEX
  8
0
 62
7
 10
2.87000000
 20
3.55700000
  0
VERTEX
  8
0
 62
7
 10
2.87210758
 20
3.51175000
  0
VERTEX
  8
0
 62
7
 10
2.87963467
 20
3.46800000
  0
VERTEX
  8
0
 62
7
 10
2.89992016
 20
3.39650000
  0
VERTEX
  8
0
 62
7
 10
2.92810908
 20
3.33025000
  0
VERTEX
  8
0
 62
7
 10
2.96397564
 20
3.26887500
  0
VERTEX
  8
0
 62
7
 10
3.00729400
 20
3.21200000
  0
VERTEX
  8
0
 62
7
 10
2.99525067
 20
3.20000000
  0
VERTEX
  8
0
 62
7
 10
2.95189467
 20
3.15100000
  0
VERTEX
  8
0
 62
7
 10
2.98561600
 20
3.09500000
  0
VERTEX
  8
0
 62
7
 10
3.01813300
 20
3.04275000
  0
VERTEX
  8
0
 62
7
 10
3.05426300
 20
2.99275000
  0
VERTEX
  8
0
 62
7
 10
3.09400600
 20
2.94537500
  0
VERTEX
  8
0
 62
7
 10
3.13736200
 20
2.90100000
  0
VERTEX
  8
0
 62
7
 10
3.17751899
 20
2.86606250
  0
VERTEX
  8
0
 62
7
 10
3.22196642
 20
2.83375000
  0
VERTEX
  8
0
 62
7
 10
3.27047847
 20
2.80481250
  0
VERTEX
  8
0
 62
7
 10
3.32282933
 20
2.78000000
  0
VERTEX
  8
0
 62
7
 10
3.37239518
 20
2.76209375
  0
VERTEX
  8
0
 62
7
 10
3.42309008
 20
2.75000000
  0
VERTEX
  8
0
 62
7
 10
3.47423661
 20
2.74315625
  0
VERTEX
  8
0
 62
7
 10
3.52515733
 20
2.74100000
  0
VERTEX
  8
0
 62
7
 10
3.57566406
 20
2.74303125
  0
VERTEX
  8
0
 62
7
 10
3.62571917
 20
2.74900000
  0
VERTEX
  8
0
 62
7
 10
3.67487102
 20
2.75871875
  0
VERTEX
  8
0
 62
7
 10
3.72266800
 20
2.77200000
  0
VERTEX
  8
0
 62
7
 10
3.76521954
 20
2.78686133
  0
VERTEX
  8
0
 62
7
 10
3.80610572
 20
2.80501563
  0
VERTEX
  8
0
 62
7
 10
3.84524185
 20
2.82619336
  0
VERTEX
  8
0
 62
7
 10
3.88254325
 20
2.85012500
  0
VERTEX
  8
0
 62
7
 10
3.91792525
 20
2.87654102
  0
VERTEX
  8
0
 62
7
 10
3.95130316
 20
2.90517188
  0
VERTEX
  8
0
 62
7
 10
3.98259230
 20
2.93574805
  0
VERTEX
  8
0
 62
7
 10
4.01170800
 20
2.96800000
  0
VERTEX
  8
0
 62
7
 10
4.06861275
 20
3.04462500
  0
VERTEX
  8
0
 62
7
 10
4.11287200
 20
3.12800000
  0
VERTEX
  8
0
 62
7
 10
4.14448575
 20
3.21662500
  0
VERTEX
  8
0
 62
7
 10
4.16345400
 20
3.30900000
  0
VERTEX
  8
0
 62
7
 10
4.32393142
 20
3.16950000
  0
VERTEX
  8
0
 62
7
 10
4.49344133
 20
3.03900000
  0
VERTEX
  8
0
 62
7
 10
4.60822935
 20
2.95750000
  0
VERTEX
  8
0
 62
7
 10
4.72527550
 20
2.87975000
  0
VERTEX
  8
0
 62
7
 10
4.84503140
 20
2.80612500
  0
VERTEX
  8
0
 62
7
 10
4.96794867
 20
2.73700000
  0
VERTEX
  8
0
 62
7
 10
5.10934493
 20
2.66773438
  0
VERTEX
  8
0
 62
7
 10
5.25187025
 20
2.60512500
  0
VERTEX
  8
0
 62
7
 10
5.39575045
 20
2.54870313
  0
VERTEX
  8
0
 62
7
 10
5.54121133
 20
2.49800000
  0
VERTEX
  8
0
 62
7
 10
5.70763515
 20
2.44695313
  0
VERTEX
  8
0
 62
7
 10
5.87722033
 20
2.40312500
  0
VERTEX
  8
0
 62
7
 10
6.04861202
 20
2.36623438
  0
VERTEX
  8
0
 62
7
 10
6.22045533
 20
2.33600000
  0
VERTEX
  8
0
 62
7
 10
6.36817434
 20
2.31606250
  0
VERTEX
  8
0
 62
7
 10
6.51521592
 20
2.30175000
  0
VERTEX
  8
0
 62
7
 10
6.66180586
 20
2.29156250
  0
VERTEX
  8
0
 62
7
 10
6.80817000
 20
2.28400000
  0
VERTEX
  8
0
 62
7
 10
6.97316367
 20
2.27775000
  0
VERTEX
  8
0
 62
7
 10
7.13815733
 20
2.27600000
  0
VERTEX
  8
0
 62
7
 10
7.28749467
 20
2.27737500
  0
VERTEX
  8
0
 62
7
 10
7.43683200
 20
2.28100000
  0
VERTEX
  8
0
 62
7
 10
7.65635939
 20
2.29232813
  0
VERTEX
  8
0
 62
7
 10
7.87430608
 20
2.30937500
  0
VERTEX
  8
0
 62
7
 10
8.09089791
 20
2.33148438
  0
VERTEX
  8
0
 62
7
 10
8.30636067
 20
2.35800000
  0
VERTEX
  8
0
 62
7
 10
8.50421005
 20
2.38625000
  0
VERTEX
  8
0
 62
7
 10
8.70047875
 20
2.41900000
  0
VERTEX
  8
0
 62
7
 10
8.89539257
 20
2.45475000
  0
VERTEX
  8
0
 62
7
 10
9.08917733
 20
2.49200000
  0
VERTEX
  8
0
 62
7
 10
9.30272069
 20
2.53504688
  0
VERTEX
  8
0
 62
7
 10
9.51671567
 20
2.58062500
  0
VERTEX
  8
0
 62
7
 10
9.73071065
 20
2.62939063
  0
VERTEX
  8
0
 62
7
 10
9.94425400
 20
2.68200000
  0
VERTEX
  8
0
 62
7
 10
10.29590992
 20
2.77490430
  0
VERTEX
  8
0
 62
7
 10
10.64615452
 20
2.87323438
  0
VERTEX
  8
0
 62
7
 10
10.99470552
 20
2.97754102
  0
VERTEX
  8
0
 62
7
 10
11.34128067
 20
3.08837500
  0
VERTEX
  8
0
 62
7
 10
11.68559768
 20
3.20628711
  0
VERTEX
  8
0
 62
7
 10
12.02737431
 20
3.33182813
  0
VERTEX
  8
0
 62
7
 10
12.36632828
 20
3.46554883
  0
VERTEX
  8
0
 62
7
 10
12.70217733
 20
3.60800000
  0
VERTEX
  8
0
 62
7
 10
13.04774573
 20
3.76615625
  0
VERTEX
  8
0
 62
7
 10
13.38744300
 20
3.93425000
  0
VERTEX
  8
0
 62
7
 10
13.72172077
 20
4.11171875
  0
VERTEX
  8
0
 62
7
 10
14.05103067
 20
4.29800000
  0
VERTEX
  8
0
 62
7
 10
14.14015133
 20
4.35000000
  0
VERTEX
  8
0
 62
7
 10
18.36013533
 20
4.35000000
  0
VERTEX
  8
0
 62
7
 10
18.36013533
 20
5.70300000
  0
VERTEX
  8
0
 62
7
 10
18.37217867
 20
5.70800000
  0
VERTEX
  8
0
 62
7
 10
18.41643792
 20
5.72725000
  0
VERTEX
  8
0
 62
7
 10
18.45889067
 20
5.74200000
  0
VERTEX
  8
0
 62
7
 10
18.49276254
 20
5.75018750
  0
VERTEX
  8
0
 62
7
 10
18.52573117
 20
5.75650000
  0
VERTEX
  8
0
 62
7
 10
18.55779654
 20
5.76056250
  0
VERTEX
  8
0
 62
7
 10
18.58895867
 20
5.76200000
  0
VERTEX
  8
0
 62
7
 10
18.61906700
 20
5.76050000
  0
VERTEX
  8
0
 62
7
 10
18.64917533
 20
5.75600000
  0
VERTEX
  8
0
 62
7
 10
18.70337033
 20
5.74000000
  0
VERTEX
  8
0
 62
7
 10
18.73588733
 20
5.72100000
  0
VERTEX
  8
0
 62
7
 10
18.75997400
 20
5.69425000
  0
VERTEX
  8
0
 62
7
 10
18.76960867
 20
5.67500000
  0
VERTEX
  8
0
 62
7
 10
18.77201733
 20
5.65800000
  0
VERTEX
  8
0
 62
7
 10
18.76768926
 20
5.63331250
  0
VERTEX
  8
0
 62
7
 10
18.75545775
 20
5.61275000
  0
VERTEX
  8
0
 62
7
 10
18.73645186
 20
5.59781250
  0
VERTEX
  8
0
 62
7
 10
18.71180067
 20
5.59000000
  0
VERTEX
  8
0
 62
7
 10
18.68984040
 20
5.58395703
  0
VERTEX
  8
0
 62
7
 10
18.67115442
 20
5.57315625
  0
VERTEX
  8
0
 62
7
 10
18.65608143
 20
5.55846484
  0
VERTEX
  8
0
 62
7
 10
18.64496017
 20
5.54075000
  0
VERTEX
  8
0
 62
7
 10
18.63812934
 20
5.52087891
  0
VERTEX
  8
0
 62
7
 10
18.63592767
 20
5.49971875
  0
VERTEX
  8
0
 62
7
 10
18.63869387
 20
5.47813672
  0
VERTEX
  8
0
 62
7
 10
18.64676667
 20
5.45700000
  0
VERTEX
  8
0
 62
7
 10
18.68124071
 20
5.40659375
  0
VERTEX
  8
0
 62
7
 10
18.72565050
 20
5.36425000
  0
VERTEX
  8
0
 62
7
 10
18.77818954
 20
5.33128125
  0
VERTEX
  8
0
 62
7
 10
18.83705133
 20
5.30900000
  0
VERTEX
  8
0
 62
7
 10
18.87679433
 20
5.30175000
  0
VERTEX
  8
0
 62
7
 10
18.91653733
 20
5.29900000
  0
VERTEX
  8
0
 62
7
 10
18.95266733
 20
5.30125000
  0
VERTEX
  8
0
 62
7
 10
18.98879733
 20
5.30800000
  0
VERTEX
  8
0
 62
7
 10
19.05714325
 20
5.28275000
  0
VERTEX
  8
0
 62
7
 10
19.13090867
 20
5.26500000
  0
VERTEX
  8
0
 62
7
 10
19.17968417
 20
5.25862500
  0
VERTEX
  8
0
 62
7
 10
19.23207267
 20
5.25600000
  0
VERTEX
  8
0
 62
7
 10
19.28517624
 20
5.25878125
  0
VERTEX
  8
0
 62
7
 10
19.33895725
 20
5.26775000
  0
VERTEX
  8
0
 62
7
 10
19.39228664
 20
5.28384375
  0
VERTEX
  8
0
 62
7
 10
19.44403533
 20
5.30800000
  0
VERTEX
  8
0
 62
7
 10
19.49330009
 20
5.33957813
  0
VERTEX
  8
0
 62
7
 10
19.53646792
 20
5.37687500
  0
VERTEX
  8
0
 62
7
 10
19.57376461
 20
5.41923438
  0
VERTEX
  8
0
 62
7
 10
19.60541600
 20
5.46600000
  0
VERTEX
  8
0
 62
7
 10
19.65358933
 20
5.39400000
  0
VERTEX
  8
0
 62
7
 10
19.68015053
 20
5.36446289
  0
VERTEX
  8
0
 62
7
 10
19.70891340
 20
5.33864063
  0
VERTEX
  8
0
 62
7
 10
19.73936986
 20
5.31621680
  0
VERTEX
  8
0
 62
7
 10
19.77101183
 20
5.29687500
  0
VERTEX
  8
0
 62
7
 10
19.80333125
 20
5.28029883
  0
VERTEX
  8
0
 62
7
 10
19.83582002
 20
5.26617188
  0
VERTEX
  8
0
 62
7
 10
19.86797008
 20
5.25417773
  0
VERTEX
  8
0
 62
7
 10
19.89927333
 20
5.24400000
  0
VERTEX
  8
0
 62
7
 10
19.94481219
 20
5.23218750
  0
VERTEX
  8
0
 62
7
 10
19.99080267
 20
5.22375000
  0
VERTEX
  8
0
 62
7
 10
20.03679315
 20
5.21868750
  0
VERTEX
  8
0
 62
7
 10
20.08233200
 20
5.21700000
  0
VERTEX
  8
0
 62
7
 10
20.14947358
 20
5.22012500
  0
VERTEX
  8
0
 62
7
 10
20.21480867
 20
5.23000000
  0
VERTEX
  8
0
 62
7
 10
20.26527776
 20
5.24218750
  0
VERTEX
  8
0
 62
7
 10
20.31506942
 20
5.25775000
  0
VERTEX
  8
0
 62
7
 10
20.36350620
 20
5.27668750
  0
VERTEX
  8
0
 62
7
 10
20.40991067
 20
5.29900000
  0
VERTEX
  8
0
 62
7
 10
20.44878805
 20
5.30384375
  0
VERTEX
  8
0
 62
7
 10
20.48608475
 20
5.31225000
  0
VERTEX
  8
0
 62
7
 10
20.52202657
 20
5.32403125
  0
VERTEX
  8
0
 62
7
 10
20.55683933
 20
5.33900000
  0
VERTEX
  8
0
 62
7
 10
20.57544534
 20
5.28637109
  0
VERTEX
  8
0
 62
7
 10
20.59865228
 20
5.23596875
  0
VERTEX
  8
0
 62
7
 10
20.62631902
 20
5.18814453
  0
VERTEX
  8
0
 62
7
 10
20.65830442
 20
5.14325000
  0
VERTEX
  8
0
 62
7
 10
20.69446735
 20
5.10163672
  0
VERTEX
  8
0
 62
7
 10
20.73466668
 20
5.06365625
  0
VERTEX
  8
0
 62
7
 10
20.77876127
 20
5.02966016
  0
VERTEX
  8
0
 62
7
 10
20.82661000
 20
5.00000000
  0
VERTEX
  8
0
 62
7
 10
20.87489624
 20
4.97645313
  0
VERTEX
  8
0
 62
7
 10
20.92566642
 20
4.95712500
  0
VERTEX
  8
0
 62
7
 10
20.97869472
 20
4.94248438
  0
VERTEX
  8
0
 62
7
 10
21.03375533
 20
4.93300000
  0
VERTEX
  8
0
 62
7
 10
21.01960442
 20
4.87325000
  0
VERTEX
  8
0
 62
7
 10
21.01448600
 20
4.81200000
  0
VERTEX
  8
0
 62
7
 10
21.01719575
 20
4.76481250
  0
VERTEX
  8
0
 62
7
 10
21.02532500
 20
4.71800000
  0
VERTEX
  8
0
 62
7
 10
21.03887375
 20
4.67193750
  0
VERTEX
  8
0
 62
7
 10
21.05784200
 20
4.62700000
  0
VERTEX
  8
0
 62
7
 10
21.09288057
 20
4.57010938
  0
VERTEX
  8
0
 62
7
 10
21.13582258
 20
4.51987500
  0
VERTEX
  8
0
 62
7
 10
21.18553897
 20
4.47695313
  0
VERTEX
  8
0
 62
7
 10
21.24090067
 20
4.44200000
  0
VERTEX
  8
0
 62
7
 10
21.27123481
 20
4.40085938
  0
VERTEX
  8
0
 62
7
 10
21.30473033
 20
4.36187500
  0
VERTEX
  8
0
 62
7
 10
21.34183885
 20
4.32570313
  0
VERTEX
  8
0
 62
7
 10
21.38301200
 20
4.29300000
  0
VERTEX
  8
0
 62
7
 10
21.17827533
 20
4.26900000
  0
VERTEX
  8
0
 62
7
 10
20.79529733
 20
4.21837500
  0
VERTEX
  8
0
 62
7
 10
20.41231933
 20
4.16400000
  0
VERTEX
  8
0
 62
7
 10
20.06306267
 20
4.11300000
  0
VERTEX
  8
0
 62
7
 10
20.06306267
 20
4.10200000
  0
VERTEX
  8
0
 62
7
 10
19.76438800
 20
4.10200000
  0
VERTEX
  8
0
 62
7
 10
19.73953922
 20
4.09857422
  0
VERTEX
  8
0
 62
7
 10
19.71779535
 20
4.08903125
  0
VERTEX
  8
0
 62
7
 10
19.69977740
 20
4.07447266
  0
VERTEX
  8
0
 62
7
 10
19.68610633
 20
4.05600000
  0
VERTEX
  8
0
 62
7
 10
19.67740314
 20
4.03471484
  0
VERTEX
  8
0
 62
7
 10
19.67428881
 20
4.01171875
  0
VERTEX
  8
0
 62
7
 10
19.67738433
 20
3.98811328
  0
VERTEX
  8
0
 62
7
 10
19.68731067
 20
3.96500000
  0
VERTEX
  8
0
 62
7
 10
19.75072634
 20
3.86567188
  0
VERTEX
  8
0
 62
7
 10
19.82069058
 20
3.77037500
  0
VERTEX
  8
0
 62
7
 10
19.89562270
 20
3.67939063
  0
VERTEX
  8
0
 62
7
 10
19.97394200
 20
3.59300000
  0
VERTEX
  8
0
 62
7
 10
20.09398957
 20
3.48005859
  0
VERTEX
  8
0
 62
7
 10
20.22210994
 20
3.37909375
  0
VERTEX
  8
0
 62
7
 10
20.35711759
 20
3.28914453
  0
VERTEX
  8
0
 62
7
 10
20.49782700
 20
3.20925000
  0
VERTEX
  8
0
 62
7
 10
20.64305266
 20
3.13844922
  0
VERTEX
  8
0
 62
7
 10
20.79160906
 20
3.07578125
  0
VERTEX
  8
0
 62
7
 10
20.94231068
 20
3.02028516
  0
VERTEX
  8
0
 62
7
 10
21.09397200
 20
2.97100000
  0
VERTEX
  8
0
 62
7
 10
21.22434108
 20
2.93250000
  0
VERTEX
  8
0
 62
7
 10
21.35651667
 20
2.89700000
  0
VERTEX
  8
0
 62
7
 10
21.30593467
 20
2.85800000
  0
VERTEX
  8
0
 62
7
 10
21.25606774
 20
2.80385938
  0
VERTEX
  8
0
 62
7
 10
21.21591075
 20
2.74137500
  0
VERTEX
  8
0
 62
7
 10
21.18704439
 20
2.67195313
  0
VERTEX
  8
0
 62
7
 10
21.17104933
 20
2.59700000
  0
VERTEX
  8
0
 62
7
 10
21.16623200
 20
2.54700000
  0
VERTEX
  8
0
 62
7
 10
21.16833958
 20
2.50650000
  0
VERTEX
  8
0
 62
7
 10
21.17586667
 20
2.46600000
  0
VERTEX
  8
0
 62
7
 10
21.14199479
 20
2.46432813
  0
VERTEX
  8
0
 62
7
 10
21.10902617
 20
2.45937500
  0
VERTEX
  8
0
 62
7
 10
21.07696079
 20
2.45123438
  0
VERTEX
  8
0
 62
7
 10
21.04579867
 20
2.44000000
  0
VERTEX
  8
0
 62
7
 10
20.99672208
 20
2.41462500
  0
VERTEX
  8
0
 62
7
 10
20.94945200
 20
2.38100000
  0
VERTEX
  8
0
 62
7
 10
20.88518953
 20
2.37421680
  0
VERTEX
  8
0
 62
7
 10
20.82284646
 20
2.36010938
  0
VERTEX
  8
0
 62
7
 10
20.76298733
 20
2.33904102
  0
VERTEX
  8
0
 62
7
 10
20.70617667
 20
2.31137500
  0
VERTEX
  8
0
 62
7
 10
20.65297901
 20
2.27747461
  0
VERTEX
  8
0
 62
7
 10
20.60395888
 20
2.23770313
  0
VERTEX
  8
0
 62
7
 10
20.55968081
 20
2.19242383
  0
VERTEX
  8
0
 62
7
 10
20.52070933
 20
2.14200000
  0
VERTEX
  8
0
 62
7
 10
20.47682644
 20
2.06707813
  0
VERTEX
  8
0
 62
7
 10
20.44604067
 20
1.98737500
  0
VERTEX
  8
0
 62
7
 10
20.42790040
 20
1.90448438
  0
VERTEX
  8
0
 62
7
 10
20.42195400
 20
1.82000000
  0
VERTEX
  8
0
 62
7
 10
20.42436267
 20
1.77400000
  0
VERTEX
  8
0
 62
7
 10
20.43429842
 20
1.70010938
  0
VERTEX
  8
0
 62
7
 10
20.45326667
 20
1.62762500
  0
VERTEX
  8
0
 62
7
 10
20.48126742
 20
1.55757813
  0
VERTEX
  8
0
 62
7
 10
20.51830067
 20
1.49100000
  0
VERTEX
  8
0
 62
7
 10
20.51830067
 20
1.47200000
  0
VERTEX
  8
0
 62
7
 10
20.51962732
 20
1.42905859
  0
VERTEX
  8
0
 62
7
 10
20.52360726
 20
1.38623438
  0
VERTEX
  8
0
 62
7
 10
20.53024050
 20
1.34371484
  0
VERTEX
  8
0
 62
7
 10
20.53952704
 20
1.30168750
  0
VERTEX
  8
0
 62
7
 10
20.55146688
 20
1.26033984
  0
VERTEX
  8
0
 62
7
 10
20.56606001
 20
1.21985938
  0
VERTEX
  8
0
 62
7
 10
20.58330644
 20
1.18043359
  0
VERTEX
  8
0
 62
7
 10
20.60320617
 20
1.14225000
  0
VERTEX
  8
0
 62
7
 10
20.62575919
 20
1.10549609
  0
VERTEX
  8
0
 62
7
 10
20.65096551
 20
1.07035938
  0
VERTEX
  8
0
 62
7
 10
20.67882513
 20
1.03702734
  0
VERTEX
  8
0
 62
7
 10
20.70933804
 20
1.00568750
  0
VERTEX
  8
0
 62
7
 10
20.74250425
 20
.97652734
  0
VERTEX
  8
0
 62
7
 10
20.77832376
 20
.94973438
  0
VERTEX
  8
0
 62
7
 10
20.81679657
 20
.92549609
  0
VERTEX
  8
0
 62
7
 10
20.85792267
 20
.90400000
  0
VERTEX
  8
0
 62
7
 10
20.89907229
 20
.88649219
  0
VERTEX
  8
0
 62
7
 10
20.94098403
 20
.87268750
  0
VERTEX
  8
0
 62
7
 10
20.98329094
 20
.86216406
  0
VERTEX
  8
0
 62
7
 10
21.02562608
 20
.85450000
  0
VERTEX
  8
0
 62
7
 10
21.06762250
 20
.84927344
  0
VERTEX
  8
0
 62
7
 10
21.10891326
 20
.84606250
  0
VERTEX
  8
0
 62
7
 10
21.14913141
 20
.84444531
  0
VERTEX
  8
0
 62
7
 10
21.18791000
 20
.84400000
  0
VERTEX
  8
0
 62
7
 10
21.24330933
 20
.84400000
  0
VERTEX
  8
0
 62
7
 10
21.28944565
 20
.84674609
  0
VERTEX
  8
0
 62
7
 10
21.33555374
 20
.85246875
  0
VERTEX
  8
0
 62
7
 10
21.38137956
 20
.86076953
  0
VERTEX
  8
0
 62
7
 10
21.42666908
 20
.87125000
  0
VERTEX
  8
0
 62
7
 10
21.47116826
 20
.88351172
  0
VERTEX
  8
0
 62
7
 10
21.51462305
 20
.89715625
  0
VERTEX
  8
0
 62
7
 10
21.55677942
 20
.91178516
  0
VERTEX
  8
0
 62
7
 10
21.59738333
 20
.92700000
  0
VERTEX
  8
0
 62
7
 10
21.68469750
 20
.96700000
  0
VERTEX
  8
0
 62
7
 10
21.76839867
 20
1.01600000
  0
VERTEX
  8
0
 62
7
 10
21.80145668
 20
.99631250
  0
VERTEX
  8
0
 62
7
 10
21.83550261
 20
.97925000
  0
VERTEX
  8
0
 62
7
 10
21.87039535
 20
.96481250
  0
VERTEX
  8
0
 62
7
 10
21.90599375
 20
.95300000
  0
VERTEX
  8
0
 62
7
 10
21.94215668
 20
.94381250
  0
VERTEX
  8
0
 62
7
 10
21.97874301
 20
.93725000
  0
VERTEX
  8
0
 62
7
 10
22.01561161
 20
.93331250
  0
VERTEX
  8
0
 62
7
 10
22.05262133
 20
.93200000
  0
VERTEX
  8
0
 62
7
 10
22.06948200
 20
.93200000
  0
VERTEX
  8
0
 62
7
 10
22.06948200
 20
.73900000
  0
VERTEX
  8
0
 62
7
 10
21.68650400
 20
.73900000
  0
VERTEX
  8
0
 62
7
 10
21.68650400
 20
.03900000
  0
VERTEX
  8
0
 62
7
 10
21.77562467
 20
.03900000
  0
VERTEX
  8
0
 62
7
 10
21.77562467
 20
.64900000
  0
VERTEX
  8
0
 62
7
 10
24.00123267
 20
.64900000
  0
VERTEX
  8
0
 62
7
 10
26.22443200
 20
.64900000
  0
VERTEX
  8
0
 62
7
 10
26.22443200
 20
.03900000
  0
VERTEX
  8
0
 62
7
 10
26.31596133
 20
.03900000
  0
SEQEND
  0
POLYLINE
  8
0
 62
7
 66
1
 70
1
  0
VERTEX
  8
0
 62
7
 10
14.00640928
 20
4.37601774
  0
VERTEX
  8
0
 62
7
 10
13.04461727
 20
4.37601774
  0
VERTEX
  8
0
 62
7
 10
12.84908666
 20
4.25379457
  0
VERTEX
  8
0
 62
7
 10
12.64795804
 20
4.13716940
  0
VERTEX
  8
0
 62
7
 10
12.37818711
 20
3.99322062
  0
VERTEX
  8
0
 62
7
 10
12.37557137
 20
3.96084881
  0
VERTEX
  8
0
 62
7
 10
12.36925694
 20
3.92937667
  0
VERTEX
  8
0
 62
7
 10
12.35914387
 20
3.89890418
  0
VERTEX
  8
0
 62
7
 10
12.34513217
 20
3.86953130
  0
VERTEX
  8
0
 62
7
 10
12.32996464
 20
3.84491298
  0
VERTEX
  8
0
 62
7
 10
12.31256040
 20
3.82233143
  0
VERTEX
  8
0
 62
7
 10
12.29308189
 20
3.80192411
  0
VERTEX
  8
0
 62
7
 10
12.27169157
 20
3.78382847
  0
VERTEX
  8
0
 62
7
 10
12.24855186
 20
3.76818195
  0
VERTEX
  8
0
 62
7
 10
12.22382522
 20
3.75512201
  0
VERTEX
  8
0
 62
7
 10
12.19767408
 20
3.74478611
  0
VERTEX
  8
0
 62
7
 10
12.17026090
 20
3.73731168
  0
VERTEX
  8
0
 62
7
 10
12.14560298
 20
3.75117342
  0
VERTEX
  8
0
 62
7
 10
12.12014535
 20
3.76183629
  0
VERTEX
  8
0
 62
7
 10
12.09518754
 20
3.76596815
  0
VERTEX
  8
0
 62
7
 10
12.07002980
 20
3.76770087
  0
VERTEX
  8
0
 62
7
 10
12.04487206
 20
3.76783416
  0
VERTEX
  8
0
 62
7
 10
12.01991425
 20
3.76716773
  0
VERTEX
  8
0
 62
7
 10
11.96619998
 20
3.76103658
  0
VERTEX
  8
0
 62
7
 10
11.91328542
 20
3.75010713
  0
VERTEX
  8
0
 62
7
 10
11.84264383
 20
3.73144710
  0
VERTEX
  8
0
 62
7
 10
11.77360166
 20
3.70638935
  0
VERTEX
  8
0
 62
7
 10
11.69389661
 20
3.67400088
  0
VERTEX
  8
0
 62
7
 10
11.61579100
 20
3.63921326
  0
VERTEX
  8
0
 62
7
 10
11.40893108
 20
3.54537998
  0
VERTEX
  8
0
 62
7
 10
11.07305027
 20
3.40996150
  0
VERTEX
  8
0
 62
7
 10
10.89254766
 20
3.34225226
  0
VERTEX
  8
0
 62
7
 10
10.71104541
 20
3.27774188
  0
VERTEX
  8
0
 62
7
 10
10.52874344
 20
3.21563065
  0
VERTEX
  8
0
 62
7
 10
10.34584168
 20
3.15511885
  0
VERTEX
  8
0
 62
7
 10
10.11826827
 20
3.08330065
  0
VERTEX
  8
0
 62
7
 10
9.88977020
 20
3.01501870
  0
VERTEX
  8
0
 62
7
 10
9.66032246
 20
2.95031048
  0
VERTEX
  8
0
 62
7
 10
9.42990006
 20
2.88921347
  0
VERTEX
  8
0
 62
7
 10
9.19847802
 20
2.83176516
  0
VERTEX
  8
0
 62
7
 10
8.96603135
 20
2.77800304
  0
VERTEX
  8
0
 62
7
 10
8.73253504
 20
2.72796459
  0
VERTEX
  8
0
 62
7
 10
8.49796412
 20
2.68168731
  0
VERTEX
  8
0
 62
7
 10
8.49796412
 20
2.72327251
  0
VERTEX
  8
0
 62
7
 10
8.67043625
 20
2.75541108
  0
VERTEX
  8
0
 62
7
 10
8.84210866
 20
2.79084847
  0
VERTEX
  8
0
 62
7
 10
9.01258149
 20
2.82928479
  0
VERTEX
  8
0
 62
7
 10
9.18145490
 20
2.87042015
  0
VERTEX
  8
0
 62
7
 10
9.36660586
 20
2.91845306
  0
VERTEX
  8
0
 62
7
 10
9.55105706
 20
2.96918501
  0
VERTEX
  8
0
 62
7
 10
9.73490849
 20
3.02171632
  0
VERTEX
  8
0
 62
7
 10
9.91826009
 20
3.07514730
  0
VERTEX
  8
0
 62
7
 10
10.12841884
 20
3.13955772
  0
VERTEX
  8
0
 62
7
 10
10.33917738
 20
3.20576749
  0
VERTEX
  8
0
 62
7
 10
10.54953606
 20
3.27517613
  0
VERTEX
  8
0
 62
7
 10
10.75849524
 20
3.34918313
  0
VERTEX
  8
0
 62
7
 10
10.94507902
 20
3.42039112
  0
VERTEX
  8
0
 62
7
 10
11.12996341
 20
3.49419819
  0
VERTEX
  8
0
 62
7
 10
11.31464787
 20
3.57200384
  0
VERTEX
  8
0
 62
7
 10
11.50063187
 20
3.65520757
  0
VERTEX
  8
0
 62
7
 10
11.57197322
 20
3.68896222
  0
VERTEX
  8
0
 62
7
 10
11.64511393
 20
3.72291681
  0
VERTEX
  8
0
 62
7
 10
11.71985407
 20
3.75447224
  0
VERTEX
  8
0
 62
7
 10
11.79599372
 20
3.78102946
  0
VERTEX
  8
0
 62
7
 10
11.84420994
 20
3.79595748
  0
VERTEX
  8
0
 62
7
 10
11.89302595
 20
3.80928607
  0
VERTEX
  8
0
 62
7
 10
11.94264167
 20
3.81941580
  0
VERTEX
  8
0
 62
7
 10
11.99325704
 20
3.82474724
  0
VERTEX
  8
0
 62
7
 10
12.04360584
 20
3.82546365
  0
VERTEX
  8
0
 62
7
 10
12.09375471
 20
3.82248138
  0
VERTEX
  8
0
 62
7
 10
12.14350372
 20
3.81530060
  0
VERTEX
  8
0
 62
7
 10
12.19265295
 20
3.80342149
  0
VERTEX
  8
0
 62
7
 10
12.21642785
 20
3.81838284
  0
VERTEX
  8
0
 62
7
 10
12.23810349
 20
3.83594325
  0
VERTEX
  8
0
 62
7
 10
12.25757991
 20
3.85590282
  0
VERTEX
  8
0
 62
7
 10
12.27475715
 20
3.87806160
  0
VERTEX
  8
0
 62
7
 10
12.28741515
 20
3.89946857
  0
VERTEX
  8
0
 62
7
 10
12.29744909
 20
3.92196265
  0
VERTEX
  8
0
 62
7
 10
12.30493394
 20
3.94533141
  0
VERTEX
  8
0
 62
7
 10
12.30994466
 20
3.96936245
  0
VERTEX
  8
0
 62
7
 10
12.31255623
 20
3.99384332
  0
VERTEX
  8
0
 62
7
 10
12.31284363
 20
4.01856161
  0
VERTEX
  8
0
 62
7
 10
12.31088183
 20
4.04330488
  0
VERTEX
  8
0
 62
7
 10
12.30674579
 20
4.06786073
  0
VERTEX
  8
0
 62
7
 10
12.29843416
 20
4.09744812
  0
VERTEX
  8
0
 62
7
 10
12.28723605
 20
4.12542358
  0
VERTEX
  8
0
 62
7
 10
12.27336389
 20
4.15177462
  0
VERTEX
  8
0
 62
7
 10
12.25703010
 20
4.17648874
  0
VERTEX
  8
0
 62
7
 10
12.23844711
 20
4.19955345
  0
VERTEX
  8
0
 62
7
 10
12.21782735
 20
4.22095625
  0
VERTEX
  8
0
 62
7
 10
12.19538323
 20
4.24068465
  0
VERTEX
  8
0
 62
7
 10
12.17132718
 20
4.25872615
  0
VERTEX
  8
0
 62
7
 10
12.12984191
 20
4.28433370
  0
VERTEX
  8
0
 62
7
 10
12.08575755
 20
4.30524293
  0
VERTEX
  8
0
 62
7
 10
12.03967391
 20
4.32155379
  0
VERTEX
  8
0
 62
7
 10
11.99219076
 20
4.33336625
  0
VERTEX
  8
0
 62
7
 10
11.92847587
 20
4.34169871
  0
VERTEX
  8
0
 62
7
 10
11.86413620
 20
4.34224643
  0
VERTEX
  8
0
 62
7
 10
11.79984652
 20
4.33552174
  0
VERTEX
  8
0
 62
7
 10
11.73628157
 20
4.32203695
  0
VERTEX
  8
0
 62
7
 10
11.67411613
 20
4.30230439
  0
VERTEX
  8
0
 62
7
 10
11.61402496
 20
4.27683637
  0
VERTEX
  8
0
 62
7
 10
11.55668281
 20
4.24614521
  0
VERTEX
  8
0
 62
7
 10
11.50276444
 20
4.21074322
  0
VERTEX
  8
0
 62
7
 10
11.43812072
 20
4.24459784
  0
VERTEX
  8
0
 62
7
 10
11.36947841
 20
4.27365417
  0
VERTEX
  8
0
 62
7
 10
11.32925935
 20
4.28789910
  0
VERTEX
  8
0
 62
7
 10
11.28844050
 20
4.29964492
  0
VERTEX
  8
0
 62
7
 10
11.24682194
 20
4.30799195
  0
VERTEX
  8
0
 62
7
 10
11.20420373
 20
4.31204051
  0
VERTEX
  8
0
 62
7
 10
11.15605415
 20
4.30884165
  0
VERTEX
  8
0
 62
7
 10
11.11010379
 20
4.30084449
  0
VERTEX
  8
0
 62
7
 10
11.06535301
 20
4.28804905
  0
VERTEX
  8
0
 62
7
 10
11.02080215
 20
4.27045531
  0
VERTEX
  8
0
 62
7
 10
10.98458167
 20
4.25084562
  0
VERTEX
  8
0
 62
7
 10
10.94936084
 20
4.22713739
  0
VERTEX
  8
0
 62
7
 10
10.91493972
 20
4.20162980
  0
VERTEX
  8
0
 62
7
 10
10.88111839
 20
4.17662203
  0
VERTEX
  8
0
 62
7
 10
10.75664589
 20
4.09603404
  0
VERTEX
  8
0
 62
7
 10
10.62987421
 20
4.01974452
  0
VERTEX
  8
0
 62
7
 10
10.50130318
 20
3.94645393
  0
VERTEX
  8
0
 62
7
 10
10.37143260
 20
3.87486274
  0
VERTEX
  8
0
 62
7
 10
10.11059183
 20
3.73158039
  0
VERTEX
  8
0
 62
7
 10
9.84575248
 20
3.59549548
  0
VERTEX
  8
0
 62
7
 10
9.64390745
 20
3.49857997
  0
VERTEX
  8
0
 62
7
 10
9.44016309
 20
3.40476335
  0
VERTEX
  8
0
 62
7
 10
9.23501922
 20
3.31434552
  0
VERTEX
  8
0
 62
7
 10
9.02897567
 20
3.22762638
  0
VERTEX
  8
0
 62
7
 10
8.82373184
 20
3.14497246
  0
VERTEX
  8
0
 62
7
 10
8.61698855
 20
3.06541743
  0
VERTEX
  8
0
 62
7
 10
8.40804603
 20
2.98966106
  0
VERTEX
  8
0
 62
7
 10
8.19620454
 20
2.91840308
  0
VERTEX
  8
0
 62
7
 10
8.02354915
 20
2.86442229
  0
VERTEX
  8
0
 62
7
 10
7.85059386
 20
2.81444007
  0
VERTEX
  8
0
 62
7
 10
7.67663892
 20
2.76845644
  0
VERTEX
  8
0
 62
7
 10
7.50098459
 20
2.72647138
  0
VERTEX
  8
0
 62
7
 10
7.50098459
 20
2.75952628
  0
VERTEX
  8
0
 62
7
 10
7.70849429
 20
2.81470665
  0
VERTEX
  8
0
 62
7
 10
7.91510430
 20
2.87468530
  0
VERTEX
  8
0
 62
7
 10
8.12071466
 20
2.93946225
  0
VERTEX
  8
0
 62
7
 10
8.32522542
 20
3.00903750
  0
VERTEX
  8
0
 62
7
 10
8.47305629
 20
3.06331818
  0
VERTEX
  8
0
 62
7
 10
8.61938770
 20
3.11939823
  0
VERTEX
  8
0
 62
7
 10
8.76471945
 20
3.17787742
  0
VERTEX
  8
0
 62
7
 10
8.90955139
 20
3.23935554
  0
VERTEX
  8
0
 62
7
 10
9.05115114
 20
3.29998397
  0
VERTEX
  8
0
 62
7
 10
9.19145135
 20
3.35891300
  0
VERTEX
  8
0
 62
7
 10
9.33075191
 20
3.41884167
  0
VERTEX
  8
0
 62
7
 10
9.46935273
 20
3.48246903
  0
VERTEX
  8
0
 62
7
 10
9.76431472
 20
3.62388538
  0
VERTEX
  8
0
 62
7
 10
10.05367869
 20
3.77249916
  0
VERTEX
  8
0
 62
7
 10
10.30212386
 20
3.90791764
  0
VERTEX
  8
0
 62
7
 10
10.34102672
 20
3.92797717
  0
VERTEX
  8
0
 62
7
 10
10.37982962
 20
3.94843656
  0
VERTEX
  8
0
 62
7
 10
10.41923230
 20
3.96729651
  0
VERTEX
  8
0
 62
7
 10
10.45993452
 20
3.98255775
  0
VERTEX
  8
0
 62
7
 10
10.52137938
 20
3.99828549
  0
VERTEX
  8
0
 62
7
 10
10.58362396
 20
4.00921493
  0
VERTEX
  8
0
 62
7
 10
10.59465338
 20
4.04811776
  0
VERTEX
  8
0
 62
7
 10
10.59908514
 20
4.08772033
  0
VERTEX
  8
0
 62
7
 10
10.59711917
 20
4.12752283
  0
VERTEX
  8
0
 62
7
 10
10.58895540
 20
4.16702544
  0
VERTEX
  8
0
 62
7
 10
10.58098531
 20
4.18799507
  0
VERTEX
  8
0
 62
7
 10
10.57017873
 20
4.20842738
  0
VERTEX
  8
0
 62
7
 10
10.55699799
 20
4.22818493
  0
VERTEX
  8
0
 62
7
 10
10.54190543
 20
4.24713027
  0
VERTEX
  8
0
 62
7
 10
10.52536339
 20
4.26512595
  0
VERTEX
  8
0
 62
7
 10
10.50783419
 20
4.28203452
  0
VERTEX
  8
0
 62
7
 10
10.48978018
 20
4.29771852
  0
VERTEX
  8
0
 62
7
 10
10.47166369
 20
4.31204051
  0
VERTEX
  8
0
 62
7
 10
10.43977501
 20
4.33289142
  0
VERTEX
  8
0
 62
7
 10
10.40728654
 20
4.34869413
  0
VERTEX
  8
0
 62
7
 10
10.37419828
 20
4.36009841
  0
VERTEX
  8
0
 62
7
 10
10.34051024
 20
4.36775402
  0
VERTEX
  8
0
 62
7
 10
10.30622241
 20
4.37231073
  0
VERTEX
  8
0
 62
7
 10
10.27133479
 20
4.37441831
  0
VERTEX
  8
0
 62
7
 10
10.23584738
 20
4.37472654
  0
VERTEX
  8
0
 62
7
 10
10.19976019
 20
4.37388517
  0
VERTEX
  8
0
 62
7
 10
10.15647138
 20
4.37166096
  0
VERTEX
  8
0
 62
7
 10
10.11315759
 20
4.36528823
  0
VERTEX
  8
0
 62
7
 10
10.07009370
 20
4.35521681
  0
VERTEX
  8
0
 62
7
 10
10.02755463
 20
4.34189655
  0
VERTEX
  8
0
 62
7
 10
9.98581528
 20
4.32577729
  0
VERTEX
  8
0
 62
7
 10
9.94515054
 20
4.30730886
  0
VERTEX
  8
0
 62
7
 10
9.90583533
 20
4.28694111
  0
VERTEX
  8
0
 62
7
 10
9.86814454
 20
4.26512387
  0
VERTEX
  8
0
 62
7
 10
9.82362700
 20
4.25312814
  0
VERTEX
  8
0
 62
7
 10
9.77751003
 20
4.24912956
  0
VERTEX
  8
0
 62
7
 10
9.74365538
 20
4.25244505
  0
VERTEX
  8
0
 62
7
 10
9.71060045
 20
4.26045886
  0
VERTEX
  8
0
 62
7
 10
9.67794537
 20
4.27027204
  0
VERTEX
  8
0
 62
7
 10
9.64529029
 20
4.27898560
  0
VERTEX
  8
0
 62
7
 10
9.61218537
 20
4.28968180
  0
VERTEX
  8
0
 62
7
 10
9.57958028
 20
4.30137764
  0
VERTEX
  8
0
 62
7
 10
9.54677525
 20
4.31227376
  0
VERTEX
  8
0
 62
7
 10
9.51307055
 20
4.32057081
  0
VERTEX
  8
0
 62
7
 10
9.44862675
 20
4.32893450
  0
VERTEX
  8
0
 62
7
 10
9.38378309
 20
4.32990082
  0
VERTEX
  8
0
 62
7
 10
9.31933930
 20
4.32326985
  0
VERTEX
  8
0
 62
7
 10
9.25609507
 20
4.30884165
  0
VERTEX
  8
0
 62
7
 10
9.21182745
 20
4.29419686
  0
VERTEX
  8
0
 62
7
 10
9.16905929
 20
4.27565346
  0
VERTEX
  8
0
 62
7
 10
9.12849036
 20
4.25291155
  0
VERTEX
  8
0
 62
7
 10
9.09082039
 20
4.22567124
  0
VERTEX
  8
0
 62
7
 10
9.06123089
 20
4.19688149
  0
VERTEX
  8
0
 62
7
 10
9.03324083
 20
4.16489287
  0
VERTEX
  8
0
 62
7
 10
8.96854712
 20
4.09526764
  0
VERTEX
  8
0
 62
7
 10
8.90675238
 20
4.02374310
  0
VERTEX
  8
0
 62
7
 10
8.84475772
 20
3.95241847
  0
VERTEX
  8
0
 62
7
 10
8.77946422
 20
3.88339304
  0
VERTEX
  8
0
 62
7
 10
8.70249154
 20
3.80743673
  0
VERTEX
  8
0
 62
7
 10
8.62431928
 20
3.73477925
  0
VERTEX
  8
0
 62
7
 10
8.54374787
 20
3.66552056
  0
VERTEX
  8
0
 62
7
 10
8.45957774
 20
3.59976063
  0
VERTEX
  8
0
 62
7
 10
8.39367196
 20
3.55144657
  0
VERTEX
  8
0
 62
7
 10
8.32639167
 20
3.50554415
  0
VERTEX
  8
0
 62
7
 10
8.25786183
 20
3.46186595
  0
VERTEX
  8
0
 62
7
 10
8.18820738
 20
3.42022451
  0
VERTEX
  8
0
 62
7
 10
8.11755329
 20
3.38043242
  0
VERTEX
  8
0
 62
7
 10
8.04602450
 20
3.34230224
  0
VERTEX
  8
0
 62
7
 10
7.97374599
 20
3.30564654
  0
VERTEX
  8
0
 62
7
 10
7.90084269
 20
3.27027787
  0
VERTEX
  8
0
 62
7
 10
7.78510043
 20
3.21578060
  0
VERTEX
  8
0
 62
7
 10
7.66825856
 20
3.16538186
  0
VERTEX
  8
0
 62
7
 10
7.55041705
 20
3.11838192
  0
VERTEX
  8
0
 62
7
 10
7.43167586
 20
3.07408102
  0
VERTEX
  8
0
 62
7
 10
7.32852080
 20
3.03934338
  0
VERTEX
  8
0
 62
7
 10
7.22461600
 20
3.00710485
  0
VERTEX
  8
0
 62
7
 10
7.12001146
 20
2.97736543
  0
VERTEX
  8
0
 62
7
 10
7.01475715
 20
2.95012513
  0
VERTEX
  8
0
 62
7
 10
6.90890304
 20
2.92538393
  0
VERTEX
  8
0
 62
7
 10
6.80249914
 20
2.90314184
  0
VERTEX
  8
0
 62
7
 10
6.69559541
 20
2.88339887
  0
VERTEX
  8
0
 62
7
 10
6.58824184
 20
2.86615501
  0
VERTEX
  8
0
 62
7
 10
6.59677215
 20
2.89920991
  0
VERTEX
  8
0
 62
7
 10
6.70291781
 20
2.91946937
  0
VERTEX
  8
0
 62
7
 10
6.80856365
 20
2.94212797
  0
VERTEX
  8
0
 62
7
 10
6.91360971
 20
2.96758558
  0
VERTEX
  8
0
 62
7
 10
7.01795601
 20
2.99624205
  0
VERTEX
  8
0
 62
7
 10
7.14574399
 20
3.03236253
  0
VERTEX
  8
0
 62
7
 10
7.27173262
 20
3.07088216
  0
VERTEX
  8
0
 62
7
 10
7.39612181
 20
3.11260064
  0
VERTEX
  8
0
 62
7
 10
7.51911149
 20
3.15831771
  0
VERTEX
  8
0
 62
7
 10
7.62812281
 20
3.20175225
  0
VERTEX
  8
0
 62
7
 10
7.73703416
 20
3.24748598
  0
VERTEX
  8
0
 62
7
 10
7.84494586
 20
3.29581878
  0
VERTEX
  8
0
 62
7
 10
7.95095824
 20
3.34705055
  0
VERTEX
  8
0
 62
7
 10
8.06948285
 20
3.40877859
  0
VERTEX
  8
0
 62
7
 10
8.18420880
 20
3.47780403
  0
VERTEX
  8
0
 62
7
 10
8.29613574
 20
3.55262740
  0
VERTEX
  8
0
 62
7
 10
8.40626333
 20
3.63174925
  0
VERTEX
  8
0
 62
7
 10
8.49469861
 20
3.70444005
  0
VERTEX
  8
0
 62
7
 10
8.56833914
 20
3.77583131
  0
VERTEX
  8
0
 62
7
 10
8.63478223
 20
3.84902193
  0
VERTEX
  8
0
 62
7
 10
8.70162518
 20
3.92711081
  0
VERTEX
  8
0
 62
7
 10
8.73116469
 20
3.96569708
  0
VERTEX
  8
0
 62
7
 10
8.76040432
 20
4.00548293
  0
VERTEX
  8
0
 62
7
 10
8.79144330
 20
4.04286962
  0
VERTEX
  8
0
 62
7
 10
8.82638090
 20
4.07425845
  0
VERTEX
  8
0
 62
7
 10
8.85515403
 20
4.09166892
  0
VERTEX
  8
0
 62
7
 10
8.88542662
 20
4.10558064
  0
VERTEX
  8
0
 62
7
 10
8.91709871
 20
4.11609357
  0
VERTEX
  8
0
 62
7
 10
8.95007034
 20
4.12330767
  0
VERTEX
  8
0
 62
7
 10
8.92597889
 20
4.17653873
  0
VERTEX
  8
0
 62
7
 10
8.89409021
 20
4.22527138
  0
VERTEX
  8
0
 62
7
 10
8.85500408
 20
4.26860596
  0
VERTEX
  8
0
 62
7
 10
8.80932029
 20
4.30564279
  0
VERTEX
  8
0
 62
7
 10
8.78096994
 20
4.32177246
  0
VERTEX
  8
0
 62
7
 10
8.75125756
 20
4.33511563
  0
VERTEX
  8
0
 62
7
 10
8.72042059
 20
4.34588472
  0
VERTEX
  8
0
 62
7
 10
8.68869643
 20
4.35429214
  0
VERTEX
  8
0
 62
7
 10
8.65632250
 20
4.36055033
  0
VERTEX
  8
0
 62
7
 10
8.62353622
 20
4.36487171
  0
VERTEX
  8
0
 62
7
 10
8.59057500
 20
4.36746870
  0
VERTEX
  8
0
 62
7
 10
8.55767626
 20
4.36855373
  0
VERTEX
  8
0
 62
7
 10
8.52261579
 20
4.36799560
  0
VERTEX
  8
0
 62
7
 10
8.49111655
 20
4.36488837
  0
VERTEX
  8
0
 62
7
 10
8.46214142
 20
4.35948196
  0
VERTEX
  8
0
 62
7
 10
8.43465325
 20
4.35202628
  0
VERTEX
  8
0
 62
7
 10
8.40761493
 20
4.34277124
  0
VERTEX
  8
0
 62
7
 10
8.37998932
 20
4.33196675
  0
VERTEX
  8
0
 62
7
 10
8.35073928
 20
4.31986273
  0
VERTEX
  8
0
 62
7
 10
8.31882769
 20
4.30670907
  0
VERTEX
  8
0
 62
7
 10
8.30699647
 20
4.30106108
  0
VERTEX
  8
0
 62
7
 10
8.29455297
 20
4.29411355
  0
VERTEX
  8
0
 62
7
 10
8.28128476
 20
4.28646628
  0
VERTEX
  8
0
 62
7
 10
8.26697942
 20
4.27871903
  0
VERTEX
  8
0
 62
7
 10
8.25142453
 20
4.27147161
  0
VERTEX
  8
0
 62
7
 10
8.23440765
 20
4.26532380
  0
VERTEX
  8
0
 62
7
 10
8.21571637
 20
4.26087538
  0
VERTEX
  8
0
 62
7
 10
8.19513825
 20
4.25872615
  0
VERTEX
  8
0
 62
7
 10
8.16015067
 20
4.26125858
  0
VERTEX
  8
0
 62
7
 10
8.12716238
 20
4.27018873
  0
VERTEX
  8
0
 62
7
 10
8.09617337
 20
4.28271761
  0
VERTEX
  8
0
 62
7
 10
8.06718366
 20
4.29604620
  0
VERTEX
  8
0
 62
7
 10
8.03396212
 20
4.31252367
  0
VERTEX
  8
0
 62
7
 10
8.00214008
 20
4.33030068
  0
VERTEX
  8
0
 62
7
 10
7.97031804
 20
4.34747790
  0
VERTEX
  8
0
 62
7
 10
7.93709649
 20
4.36215601
  0
VERTEX
  8
0
 62
7
 10
7.91613518
 20
4.36872034
  0
VERTEX
  8
0
 62
7
 10
7.89496145
 20
4.37248567
  0
VERTEX
  8
0
 62
7
 10
7.87376272
 20
4.37355195
  0
VERTEX
  8
0
 62
7
 10
7.85272643
 20
4.37201917
  0
VERTEX
  8
0
 62
7
 10
7.83204003
 20
4.36798727
  0
VERTEX
  8
0
 62
7
 10
7.81189093
 20
4.36155622
  0
VERTEX
  8
0
 62
7
 10
7.79246657
 20
4.35282600
  0
VERTEX
  8
0
 62
7
 10
7.77395439
 20
4.34189655
  0
VERTEX
  8
0
 62
7
 10
7.74748045
 20
4.32088736
  0
VERTEX
  8
0
 62
7
 10
7.72530499
 20
4.29537977
  0
VERTEX
  8
0
 62
7
 10
7.70692818
 20
4.26647339
  0
VERTEX
  8
0
 62
7
 10
7.69185019
 20
4.23526783
  0
VERTEX
  8
0
 62
7
 10
7.68037093
 20
4.20172976
  0
VERTEX
  8
0
 62
7
 10
7.67279029
 20
4.17009102
  0
VERTEX
  8
0
 62
7
 10
7.66620929
 20
4.13825235
  0
VERTEX
  8
0
 62
7
 10
7.65772897
 20
4.10411450
  0
VERTEX
  8
0
 62
7
 10
7.63640320
 20
4.01774523
  0
VERTEX
  8
0
 62
7
 10
7.61760987
 20
3.97002888
  0
VERTEX
  8
0
 62
7
 10
7.59481796
 20
3.92391195
  0
VERTEX
  8
0
 62
7
 10
7.54550213
 20
3.84300741
  0
VERTEX
  8
0
 62
7
 10
7.49138800
 20
3.76610144
  0
VERTEX
  8
0
 62
7
 10
7.45088571
 20
3.71513624
  0
VERTEX
  8
0
 62
7
 10
7.41128309
 20
3.67266802
  0
VERTEX
  8
0
 62
7
 10
7.37068084
 20
3.63399845
  0
VERTEX
  8
0
 62
7
 10
7.32717961
 20
3.59442919
  0
VERTEX
  8
0
 62
7
 10
7.27276558
 20
3.54801238
  0
VERTEX
  8
0
 62
7
 10
7.21575248
 20
3.50459449
  0
VERTEX
  8
0
 62
7
 10
7.15713995
 20
3.46397561
  0
VERTEX
  8
0
 62
7
 10
7.09792763
 20
3.42595581
  0
VERTEX
  8
0
 62
7
 10
7.02240443
 20
3.38147164
  0
VERTEX
  8
0
 62
7
 10
6.94478198
 20
3.33958654
  0
VERTEX
  8
0
 62
7
 10
6.86536016
 20
3.30090031
  0
VERTEX
  8
0
 62
7
 10
6.78443888
 20
3.26601272
  0
VERTEX
  8
0
 62
7
 10
6.67712696
 20
3.22526056
  0
VERTEX
  8
0
 62
7
 10
6.56811565
 20
3.18870690
  0
VERTEX
  8
0
 62
7
 10
6.45770483
 20
3.15775124
  0
VERTEX
  8
0
 62
7
 10
6.34619441
 20
3.13379310
  0
VERTEX
  8
0
 62
7
 10
6.19273220
 20
3.10669650
  0
VERTEX
  8
0
 62
7
 10
6.03797045
 20
3.08695977
  0
VERTEX
  8
0
 62
7
 10
5.88210910
 20
3.07454544
  0
VERTEX
  8
0
 62
7
 10
5.72534806
 20
3.06941601
  0
VERTEX
  8
0
 62
7
 10
5.56788728
 20
3.07153401
  0
VERTEX
  8
0
 62
7
 10
5.40992667
 20
3.08086194
  0
VERTEX
  8
0
 62
7
 10
5.25166616
 20
3.09736232
  0
VERTEX
  8
0
 62
7
 10
5.09330570
 20
3.12099766
  0
VERTEX
  8
0
 62
7
 10
5.09543827
 20
3.15085370
  0
VERTEX
  8
0
 62
7
 10
5.22985724
 20
3.13375978
  0
VERTEX
  8
0
 62
7
 10
5.36547578
 20
3.12206394
  0
VERTEX
  8
0
 62
7
 10
5.50149417
 20
3.11516640
  0
VERTEX
  8
0
 62
7
 10
5.63711271
 20
3.11246736
  0
VERTEX
  8
0
 62
7
 10
5.72538139
 20
3.11414593
  0
VERTEX
  8
0
 62
7
 10
5.81345013
 20
3.11769883
  0
VERTEX
  8
0
 62
7
 10
5.90131895
 20
3.12330100
  0
VERTEX
  8
0
 62
7
 10
5.98898784
 20
3.13112739
  0
VERTEX
  8
0
 62
7
 10
6.07645680
 20
3.14135291
  0
VERTEX
  8
0
 62
7
 10
6.16372583
 20
3.15415253
  0
VERTEX
  8
0
 62
7
 10
6.25079493
 20
3.16970116
  0
VERTEX
  8
0
 62
7
 10
6.33766410
 20
3.18817375
  0
VERTEX
  8
0
 62
7
 10
6.46032057
 20
3.21784653
  0
VERTEX
  8
0
 62
7
 10
6.58157754
 20
3.25281742
  0
VERTEX
  8
0
 62
7
 10
6.70083522
 20
3.29358624
  0
VERTEX
  8
0
 62
7
 10
6.81749382
 20
3.34065283
  0
VERTEX
  8
0
 62
7
 10
6.87284709
 20
3.36645615
  0
VERTEX
  8
0
 62
7
 10
6.92763806
 20
3.39293423
  0
VERTEX
  8
0
 62
7
 10
6.98170429
 20
3.42046193
  0
VERTEX
  8
0
 62
7
 10
7.03488334
 20
3.44941413
  0
VERTEX
  8
0
 62
7
 10
7.08701275
 20
3.48016569
  0
VERTEX
  8
0
 62
7
 10
7.13793010
 20
3.51309147
  0
VERTEX
  8
0
 62
7
 10
7.18747294
 20
3.54856635
  0
VERTEX
  8
0
 62
7
 10
7.23547882
 20
3.58696518
  0
VERTEX
  8
0
 62
7
 10
7.29430794
 20
3.63663084
  0
VERTEX
  8
0
 62
7
 10
7.35023809
 20
3.68759604
  0
VERTEX
  8
0
 62
7
 10
7.40236959
 20
3.74156017
  0
VERTEX
  8
0
 62
7
 10
7.44980276
 20
3.80022263
  0
VERTEX
  8
0
 62
7
 10
7.47725968
 20
3.83889220
  0
VERTEX
  8
0
 62
7
 10
7.50391689
 20
3.88086060
  0
VERTEX
  8
0
 62
7
 10
7.52777509
 20
3.92302893
  0
VERTEX
  8
0
 62
7
 10
7.54683499
 20
3.96229829
  0
VERTEX
  8
0
 62
7
 10
7.55607754
 20
3.98485901
  0
VERTEX
  8
0
 62
7
 10
7.56439542
 20
4.00843188
  0
VERTEX
  8
0
 62
7
 10
7.57146375
 20
4.03282945
  0
VERTEX
  8
0
 62
7
 10
7.57695763
 20
4.05786429
  0
VERTEX
  8
0
 62
7
 10
7.58055219
 20
4.08334897
  0
VERTEX
  8
0
 62
7
 10
7.58192254
 20
4.10909606
  0
VERTEX
  8
0
 62
7
 10
7.58074379
 20
4.13491812
  0
VERTEX
  8
0
 62
7
 10
7.57669106
 20
4.16062772
  0
VERTEX
  8
0
 62
7
 10
7.56512850
 20
4.20211296
  0
VERTEX
  8
0
 62
7
 10
7.54816785
 20
4.24299841
  0
VERTEX
  8
0
 62
7
 10
7.52600905
 20
4.28028514
  0
VERTEX
  8
0
 62
7
 10
7.49885202
 20
4.31097422
  0
VERTEX
  8
0
 62
7
 10
7.46386443
 20
4.33724821
  0
VERTEX
  8
0
 62
7
 10
7.42527813
 20
4.35642472
  0
VERTEX
  8
0
 62
7
 10
7.38429267
 20
4.37020315
  0
VERTEX
  8
0
 62
7
 10
7.34210764
 20
4.38028289
  0
VERTEX
  8
0
 62
7
 10
7.32011961
 20
4.38387536
  0
VERTEX
  8
0
 62
7
 10
7.29815657
 20
4.38523113
  0
VERTEX
  8
0
 62
7
 10
7.27624352
 20
4.38461260
  0
VERTEX
  8
0
 62
7
 10
7.25440543
 20
4.38228218
  0
VERTEX
  8
0
 62
7
 10
7.23266731
 20
4.37850228
  0
VERTEX
  8
0
 62
7
 10
7.21105415
 20
4.37353529
  0
VERTEX
  8
0
 62
7
 10
7.18959093
 20
4.36764364
  0
VERTEX
  8
0
 62
7
 10
7.16830266
 20
4.36108972
  0
VERTEX
  8
0
 62
7
 10
7.13748026
 20
4.35011030
  0
VERTEX
  8
0
 62
7
 10
7.10805737
 20
4.33643183
  0
VERTEX
  8
0
 62
7
 10
7.07863448
 20
4.32255343
  0
VERTEX
  8
0
 62
7
 10
7.04781208
 20
4.31097422
  0
VERTEX
  8
0
 62
7
 10
7.02138813
 20
4.30371014
  0
VERTEX
  8
0
 62
7
 10
6.99476424
 20
4.29844535
  0
VERTEX
  8
0
 62
7
 10
6.96774050
 20
4.29597956
  0
VERTEX
  8
0
 62
7
 10
6.94011697
 20
4.29711249
  0
VERTEX
  8
0
 62
7
 10
6.92187969
 20
4.29963867
  0
VERTEX
  8
0
 62
7
 10
6.90457958
 20
4.30512630
  0
VERTEX
  8
0
 62
7
 10
6.88795423
 20
4.31283814
  0
VERTEX
  8
0
 62
7
 10
6.87174123
 20
4.32203695
  0
VERTEX
  8
0
 62
7
 10
6.85567818
 20
4.33198550
  0
VERTEX
  8
0
 62
7
 10
6.83950267
 20
4.34194653
  0
VERTEX
  8
0
 62
7
 10
6.82295230
 20
4.35118283
  0
VERTEX
  8
0
 62
7
 10
6.80576465
 20
4.35895715
  0
VERTEX
  8
0
 62
7
 10
6.78282695
 20
4.36813513
  0
VERTEX
  8
0
 62
7
 10
6.75961436
 20
4.37700073
  0
VERTEX
  8
0
 62
7
 10
6.73615185
 20
4.38514158
  0
VERTEX
  8
0
 62
7
 10
6.71246442
 20
4.39214534
  0
VERTEX
  8
0
 62
7
 10
6.68857707
 20
4.39759965
  0
VERTEX
  8
0
 62
7
 10
6.66451477
 20
4.40109215
  0
VERTEX
  8
0
 62
7
 10
6.64030253
 20
4.40221051
  0
VERTEX
  8
0
 62
7
 10
6.61596534
 20
4.40054235
  0
VERTEX
  8
0
 62
7
 10
6.58181079
 20
4.39116235
  0
VERTEX
  8
0
 62
7
 10
6.54985546
 20
4.37748389
  0
VERTEX
  8
0
 62
7
 10
6.52029929
 20
4.35960692
  0
VERTEX
  8
0
 62
7
 10
6.49334219
 20
4.33763140
  0
VERTEX
  8
0
 62
7
 10
6.47161656
 20
4.31450630
  0
VERTEX
  8
0
 62
7
 10
6.45468924
 20
4.28778247
  0
VERTEX
  8
0
 62
7
 10
6.44056092
 20
4.25905936
  0
VERTEX
  8
0
 62
7
 10
6.42723231
 20
4.22993639
  0
VERTEX
  8
0
 62
7
 10
6.41250421
 20
4.19388255
  0
VERTEX
  8
0
 62
7
 10
6.40057511
 20
4.15662914
  0
VERTEX
  8
0
 62
7
 10
6.38944572
 20
4.11897587
  0
VERTEX
  8
0
 62
7
 10
6.37711676
 20
4.08172246
  0
VERTEX
  8
0
 62
7
 10
6.36220539
 20
4.03328970
  0
VERTEX
  8
0
 62
7
 10
6.34659426
 20
3.98455704
  0
VERTEX
  8
0
 62
7
 10
6.32838406
 20
3.93642417
  0
VERTEX
  8
0
 62
7
 10
6.30567545
 20
3.88979076
  0
VERTEX
  8
0
 62
7
 10
6.26810545
 20
3.82912901
  0
VERTEX
  8
0
 62
7
 10
6.22503740
 20
3.77316559
  0
VERTEX
  8
0
 62
7
 10
6.17777084
 20
3.72140068
  0
VERTEX
  8
0
 62
7
 10
6.12760531
 20
3.67333445
  0
VERTEX
  8
0
 62
7
 10
6.06780986
 20
3.62628452
  0
VERTEX
  8
0
 62
7
 10
6.00431573
 20
3.58403289
  0
VERTEX
  8
0
 62
7
 10
5.93822252
 20
3.54617970
  0
VERTEX
  8
0
 62
7
 10
5.87062984
 20
3.51232508
  0
VERTEX
  8
0
 62
7
 10
5.80050056
 20
3.48050931
  0
VERTEX
  8
0
 62
7
 10
5.72804711
 20
3.45292954
  0
VERTEX
  8
0
 62
7
 10
5.65384427
 20
3.42942332
  0
VERTEX
  8
0
 62
7
 10
5.57846686
 20
3.40982821
  0
VERTEX
  8
0
 62
7
 10
5.50248965
 20
3.39398177
  0
VERTEX
  8
0
 62
7
 10
5.42648746
 20
3.38172155
  0
VERTEX
  8
0
 62
7
 10
5.35103507
 20
3.37288511
  0
VERTEX
  8
0
 62
7
 10
5.27670728
 20
3.36731001
  0
VERTEX
  8
0
 62
7
 10
5.17576602
 20
3.36471927
  0
VERTEX
  8
0
 62
7
 10
5.07256306
 20
3.36737665
  0
VERTEX
  8
0
 62
7
 10
4.96783564
 20
3.37533216
  0
VERTEX
  8
0
 62
7
 10
4.86232100
 20
3.38863575
  0
VERTEX
  8
0
 62
7
 10
4.75675638
 20
3.40733743
  0
VERTEX
  8
0
 62
7
 10
4.65187902
 20
3.43148717
  0
VERTEX
  8
0
 62
7
 10
4.54842615
 20
3.46113496
  0
VERTEX
  8
0
 62
7
 10
4.44713501
 20
3.49633077
  0
VERTEX
  8
0
 62
7
 10
4.45566532
 20
3.52938567
  0
VERTEX
  8
0
 62
7
 10
4.52660681
 20
3.50626057
  0
VERTEX
  8
0
 62
7
 10
4.59854794
 20
3.48513475
  0
VERTEX
  8
0
 62
7
 10
4.67128879
 20
3.46640808
  0
VERTEX
  8
0
 62
7
 10
4.74462943
 20
3.45048042
  0
VERTEX
  8
0
 62
7
 10
4.85967194
 20
3.43328653
  0
VERTEX
  8
0
 62
7
 10
4.97401470
 20
3.42169066
  0
VERTEX
  8
0
 62
7
 10
5.08455880
 20
3.41569279
  0
VERTEX
  8
0
 62
7
 10
5.18820535
 20
3.41529294
  0
VERTEX
  8
0
 62
7
 10
5.27970621
 20
3.41987464
  0
VERTEX
  8
0
 62
7
 10
5.37640523
 20
3.43195367
  0
VERTEX
  8
0
 62
7
 10
5.47310425
 20
3.44903093
  0
VERTEX
  8
0
 62
7
 10
5.56460511
 20
3.46860730
  0
VERTEX
  8
0
 62
7
 10
5.61352733
 20
3.48108827
  0
VERTEX
  8
0
 62
7
 10
5.66188725
 20
3.49468135
  0
VERTEX
  8
0
 62
7
 10
5.70962239
 20
3.50959896
  0
VERTEX
  8
0
 62
7
 10
5.75667028
 20
3.52605352
  0
VERTEX
  8
0
 62
7
 10
5.80296843
 20
3.54425746
  0
VERTEX
  8
0
 62
7
 10
5.84845438
 20
3.56442320
  0
VERTEX
  8
0
 62
7
 10
5.89306563
 20
3.58676317
  0
VERTEX
  8
0
 62
7
 10
5.93673971
 20
3.61148979
  0
VERTEX
  8
0
 62
7
 10
6.00176664
 20
3.65455780
  0
VERTEX
  8
0
 62
7
 10
6.06429445
 20
3.70012492
  0
VERTEX
  8
0
 62
7
 10
6.12222389
 20
3.74989054
  0
VERTEX
  8
0
 62
7
 10
6.17345571
 20
3.80555407
  0
VERTEX
  8
0
 62
7
 10
6.19456488
 20
3.83150733
  0
VERTEX
  8
0
 62
7
 10
6.21457445
 20
3.85823532
  0
VERTEX
  8
0
 62
7
 10
6.23328447
 20
3.88581301
  0
VERTEX
  8
0
 62
7
 10
6.25049503
 20
3.91431537
  0
VERTEX
  8
0
 62
7
 10
6.26600620
 20
3.94381737
  0
VERTEX
  8
0
 62
7
 10
6.27961803
 20
3.97439399
  0
VERTEX
  8
0
 62
7
 10
6.29113061
 20
4.00612020
  0
VERTEX
  8
0
 62
7
 10
6.30034401
 20
4.03907097
  0
VERTEX
  8
0
 62
7
 10
6.30938872
 20
4.07993768
  0
VERTEX
  8
0
 62
7
 10
6.31572189
 20
4.12149165
  0
VERTEX
  8
0
 62
7
 10
6.31933102
 20
4.16332051
  0
VERTEX
  8
0
 62
7
 10
6.32020363
 20
4.20501193
  0
VERTEX
  8
0
 62
7
 10
6.31832721
 20
4.24615354
  0
VERTEX
  8
0
 62
7
 10
6.31368927
 20
4.28633299
  0
VERTEX
  8
0
 62
7
 10
6.30627732
 20
4.32513793
  0
VERTEX
  8
0
 62
7
 10
6.29607886
 20
4.36215601
  0
VERTEX
  8
0
 62
7
 10
6.28475787
 20
4.39600438
  0
VERTEX
  8
0
 62
7
 10
6.27088780
 20
4.42941541
  0
VERTEX
  8
0
 62
7
 10
6.25461857
 20
4.46215168
  0
VERTEX
  8
0
 62
7
 10
6.23610014
 20
4.49397577
  0
VERTEX
  8
0
 62
7
 10
6.21548246
 20
4.52465027
  0
VERTEX
  8
0
 62
7
 10
6.19291547
 20
4.55393777
  0
VERTEX
  8
0
 62
7
 10
6.16854911
 20
4.58160084
  0
VERTEX
  8
0
 62
7
 10
6.14253335
 20
4.60740208
  0
VERTEX
  8
0
 62
7
 10
6.11662587
 20
4.62876947
  0
VERTEX
  8
0
 62
7
 10
6.09001865
 20
4.64798763
  0
VERTEX
  8
0
 62
7
 10
6.06261171
 20
4.66490661
  0
VERTEX
  8
0
 62
7
 10
6.03430509
 20
4.67937646
  0
VERTEX
  8
0
 62
7
 10
6.00499882
 20
4.69124724
  0
VERTEX
  8
0
 62
7
 10
5.97459295
 20
4.70036899
  0
VERTEX
  8
0
 62
7
 10
5.94298749
 20
4.70659178
  0
VERTEX
  8
0
 62
7
 10
5.91008251
 20
4.70976565
  0
VERTEX
  8
0
 62
7
 10
5.86036682
 20
4.71098605
  0
VERTEX
  8
0
 62
7
 10
5.81165077
 20
4.70593368
  0
VERTEX
  8
0
 62
7
 10
5.76463412
 20
4.69473350
  0
VERTEX
  8
0
 62
7
 10
5.72001662
 20
4.67751046
  0
VERTEX
  8
0
 62
7
 10
5.67849802
 20
4.65438952
  0
VERTEX
  8
0
 62
7
 10
5.64077808
 20
4.62549564
  0
VERTEX
  8
0
 62
7
 10
5.60755653
 20
4.59095376
  0
VERTEX
  8
0
 62
7
 10
5.57953314
 20
4.55088885
  0
VERTEX
  8
0
 62
7
 10
5.59776001
 20
4.53719372
  0
VERTEX
  8
0
 62
7
 10
5.61338780
 20
4.52049967
  0
VERTEX
  8
0
 62
7
 10
5.62541686
 20
4.50140646
  0
VERTEX
  8
0
 62
7
 10
5.63284756
 20
4.48051389
  0
VERTEX
  8
0
 62
7
 10
5.63774582
 20
4.44822538
  0
VERTEX
  8
0
 62
7
 10
5.63844557
 20
4.41653666
  0
VERTEX
  8
0
 62
7
 10
5.63554660
 20
4.38484793
  0
VERTEX
  8
0
 62
7
 10
5.62964869
 20
4.35255942
  0
VERTEX
  8
0
 62
7
 10
5.62395071
 20
4.32257010
  0
VERTEX
  8
0
 62
7
 10
5.61525380
 20
4.29338048
  0
VERTEX
  8
0
 62
7
 10
5.60415774
 20
4.26499058
  0
VERTEX
  8
0
 62
7
 10
5.59126232
 20
4.23740040
  0
VERTEX
  8
0
 62
7
 10
5.55940695
 20
4.18581876
  0
VERTEX
  8
0
 62
7
 10
5.52115386
 20
4.13903540
  0
VERTEX
  8
0
 62
7
 10
5.47850233
 20
4.09585077
  0
VERTEX
  8
0
 62
7
 10
5.43345165
 20
4.05506528
  0
VERTEX
  8
0
 62
7
 10
5.39110002
 20
4.01769525
  0
VERTEX
  8
0
 62
7
 10
5.34574944
 20
3.98402390
  0
VERTEX
  8
0
 62
7
 10
5.29759986
 20
3.95415119
  0
VERTEX
  8
0
 62
7
 10
5.24685121
 20
3.92817710
  0
VERTEX
  8
0
 62
7
 10
5.19625041
 20
3.90721789
  0
VERTEX
  8
0
 62
7
 10
5.14453752
 20
3.89045719
  0
VERTEX
  8
0
 62
7
 10
5.09189995
 20
3.87749514
  0
VERTEX
  8
0
 62
7
 10
5.03852514
 20
3.86793187
  0
VERTEX
  8
0
 62
7
 10
4.98460052
 20
3.86136754
  0
VERTEX
  8
0
 62
7
 10
4.93031354
 20
3.85740228
  0
VERTEX
  8
0
 62
7
 10
4.87585162
 20
3.85563625
  0
VERTEX
  8
0
 62
7
 10
4.82140219
 20
3.85566957
  0
VERTEX
  8
0
 62
7
 10
4.73751529
 20
3.85760221
  0
VERTEX
  8
0
 62
7
 10
4.65412822
 20
3.86553273
  0
VERTEX
  8
0
 62
7
 10
4.57174079
 20
3.88026082
  0
VERTEX
  8
0
 62
7
 10
4.49085283
 20
3.90258621
  0
VERTEX
  8
0
 62
7
 10
4.41829524
 20
3.92736072
  0
VERTEX
  8
0
 62
7
 10
4.34783691
 20
3.95843300
  0
VERTEX
  8
0
 62
7
 10
4.27957781
 20
3.99570307
  0
VERTEX
  8
0
 62
7
 10
4.21361788
 20
4.03907097
  0
VERTEX
  8
0
 62
7
 10
4.15610496
 20
4.08497131
  0
VERTEX
  8
0
 62
7
 10
4.10299047
 20
4.13676954
  0
VERTEX
  8
0
 62
7
 10
4.05347471
 20
4.19276628
  0
VERTEX
  8
0
 62
7
 10
4.00675796
 20
4.25126214
  0
VERTEX
  8
0
 62
7
 10
3.94119789
 20
4.34317943
  0
VERTEX
  8
0
 62
7
 10
3.88453466
 20
4.43959512
  0
VERTEX
  8
0
 62
7
 10
3.83566867
 20
4.54020932
  0
VERTEX
  8
0
 62
7
 10
3.79350030
 20
4.64472213
  0
VERTEX
  8
0
 62
7
 10
3.77338218
 20
4.70480049
  0
VERTEX
  8
0
 62
7
 10
3.75581160
 20
4.76542709
  0
VERTEX
  8
0
 62
7
 10
3.74078698
 20
4.82652541
  0
VERTEX
  8
0
 62
7
 10
3.72830677
 20
4.88801889
  0
VERTEX
  8
0
 62
7
 10
3.71836941
 20
4.94983101
  0
VERTEX
  8
0
 62
7
 10
3.71097334
 20
5.01188523
  0
VERTEX
  8
0
 62
7
 10
3.70611699
 20
5.07410502
  0
VERTEX
  8
0
 62
7
 10
3.70379880
 20
5.13641383
  0
VERTEX
  8
0
 62
7
 10
3.70401722
 20
5.19873515
  0
VERTEX
  8
0
 62
7
 10
3.70677067
 20
5.26099242
  0
VERTEX
  8
0
 62
7
 10
3.71205759
 20
5.32310912
  0
VERTEX
  8
0
 62
7
 10
3.71987643
 20
5.38500871
  0
VERTEX
  8
0
 62
7
 10
3.73022562
 20
5.44661465
  0
VERTEX
  8
0
 62
7
 10
3.74310361
 20
5.50785041
  0
VERTEX
  8
0
 62
7
 10
3.75850882
 20
5.56863946
  0
VERTEX
  8
0
 62
7
 10
3.77643969
 20
5.62890526
  0
VERTEX
  8
0
 62
7
 10
3.80096432
 20
5.62890526
  0
VERTEX
  8
0
 62
7
 10
3.78062154
 20
5.54578483
  0
VERTEX
  8
0
 62
7
 10
3.76457723
 20
5.46136487
  0
VERTEX
  8
0
 62
7
 10
3.75313130
 20
5.37594527
  0
VERTEX
  8
0
 62
7
 10
3.74658362
 20
5.28982591
  0
VERTEX
  8
0
 62
7
 10
3.74600258
 20
5.21272626
  0
VERTEX
  8
0
 62
7
 10
3.74973250
 20
5.13586403
  0
VERTEX
  8
0
 62
7
 10
3.75758597
 20
5.05937666
  0
VERTEX
  8
0
 62
7
 10
3.76937553
 20
4.98340162
  0
VERTEX
  8
0
 62
7
 10
3.78491377
 20
4.90807634
  0
VERTEX
  8
0
 62
7
 10
3.80401324
 20
4.83353828
  0
VERTEX
  8
0
 62
7
 10
3.82648651
 20
4.75992489
  0
VERTEX
  8
0
 62
7
 10
3.85214616
 20
4.68737362
  0
VERTEX
  8
0
 62
7
 10
3.87361354
 20
4.63636885
  0
VERTEX
  8
0
 62
7
 10
3.89653041
 20
4.58582642
  0
VERTEX
  8
0
 62
7
 10
3.92104671
 20
4.53590877
  0
VERTEX
  8
0
 62
7
 10
3.94731239
 20
4.48677833
  0
VERTEX
  8
0
 62
7
 10
3.97547739
 20
4.43859756
  0
VERTEX
  8
0
 62
7
 10
4.00569167
 20
4.39152889
  0
VERTEX
  8
0
 62
7
 10
4.03810517
 20
4.34573477
  0
VERTEX
  8
0
 62
7
 10
4.07286783
 20
4.30137764
  0
VERTEX
  8
0
 62
7
 10
4.12504931
 20
4.23873326
  0
VERTEX
  8
0
 62
7
 10
4.17843037
 20
4.18168689
  0
VERTEX
  8
0
 62
7
 10
4.23660972
 20
4.12983868
  0
VERTEX
  8
0
 62
7
 10
4.30318609
 20
4.08278875
  0
VERTEX
  8
0
 62
7
 10
4.34095602
 20
4.06138179
  0
VERTEX
  8
0
 62
7
 10
4.38042535
 20
4.04188664
  0
VERTEX
  8
0
 62
7
 10
4.42119421
 20
4.02421584
  0
VERTEX
  8
0
 62
7
 10
4.46286276
 20
4.00828193
  0
VERTEX
  8
0
 62
7
 10
4.50503113
 20
3.99399743
  0
VERTEX
  8
0
 62
7
 10
4.54729946
 20
3.98127487
  0
VERTEX
  8
0
 62
7
 10
4.58926790
 20
3.97002679
  0
VERTEX
  8
0
 62
7
 10
4.63053659
 20
3.96016572
  0
VERTEX
  8
0
 62
7
 10
4.71232423
 20
3.94515439
  0
VERTEX
  8
0
 62
7
 10
4.79461170
 20
3.93684068
  0
VERTEX
  8
0
 62
7
 10
4.87749895
 20
3.93512463
  0
VERTEX
  8
0
 62
7
 10
4.96108595
 20
3.93990626
  0
VERTEX
  8
0
 62
7
 10
5.02717916
 20
3.94758686
  0
VERTEX
  8
0
 62
7
 10
5.09237269
 20
3.95896614
  0
VERTEX
  8
0
 62
7
 10
5.15616672
 20
3.97574351
  0
VERTEX
  8
0
 62
7
 10
5.21806142
 20
3.99961835
  0
VERTEX
  8
0
 62
7
 10
5.24532258
 20
4.01321559
  0
VERTEX
  8
0
 62
7
 10
5.27180902
 20
4.02782498
  0
VERTEX
  8
0
 62
7
 10
5.29734579
 20
4.04375889
  0
VERTEX
  8
0
 62
7
 10
5.32175796
 20
4.06132972
  0
VERTEX
  8
0
 62
7
 10
5.34487059
 20
4.08084986
  0
VERTEX
  8
0
 62
7
 10
5.36650874
 20
4.10263169
  0
VERTEX
  8
0
 62
7
 10
5.38649748
 20
4.12698761
  0
VERTEX
  8
0
 62
7
 10
5.40466187
 20
4.15423000
  0
VERTEX
  8
0
 62
7
 10
5.42172456
 20
4.18326758
  0
VERTEX
  8
0
 62
7
 10
5.43660053
 20
4.21279249
  0
VERTEX
  8
0
 62
7
 10
5.44880245
 20
4.24279223
  0
VERTEX
  8
0
 62
7
 10
5.45784300
 20
4.27325431
  0
VERTEX
  8
0
 62
7
 10
5.46323483
 20
4.30416623
  0
VERTEX
  8
0
 62
7
 10
5.46449064
 20
4.33551549
  0
VERTEX
  8
0
 62
7
 10
5.46112308
 20
4.36728960
  0
VERTEX
  8
0
 62
7
 10
5.45264484
 20
4.39947606
  0
VERTEX
  8
0
 62
7
 10
5.47482030
 20
4.42958202
  0
VERTEX
  8
0
 62
7
 10
5.49329708
 20
4.46198715
  0
VERTEX
  8
0
 62
7
 10
5.50797521
 20
4.49619165
  0
VERTEX
  8
0
 62
7
 10
5.51875471
 20
4.53169568
  0
VERTEX
  8
0
 62
7
 10
5.52511287
 20
4.56345105
  0
VERTEX
  8
0
 62
7
 10
5.52823468
 20
4.59540634
  0
VERTEX
  8
0
 62
7
 10
5.52818262
 20
4.62736164
  0
VERTEX
  8
0
 62
7
 10
5.52501916
 20
4.65911701
  0
VERTEX
  8
0
 62
7
 10
5.51880678
 20
4.69047252
  0
VERTEX
  8
0
 62
7
 10
5.50960796
 20
4.72122824
  0
VERTEX
  8
0
 62
7
 10
5.49748518
 20
4.75118425
  0
VERTEX
  8
0
 62
7
 10
5.48250091
 20
4.78014061
  0
VERTEX
  8
0
 62
7
 10
5.46689577
 20
4.80462435
  0
VERTEX
  8
0
 62
7
 10
5.44937725
 20
4.82726342
  0
VERTEX
  8
0
 62
7
 10
5.43010622
 20
4.84801255
  0
VERTEX
  8
0
 62
7
 10
5.40924358
 20
4.86682643
  0
VERTEX
  8
0
 62
7
 10
5.38695019
 20
4.88365976
  0
VERTEX
  8
0
 62
7
 10
5.36338693
 20
4.89846725
  0
VERTEX
  8
0
 62
7
 10
5.33871470
 20
4.91120361
  0
VERTEX
  8
0
 62
7
 10
5.31309436
 20
4.92182353
  0
VERTEX
  8
0
 62
7
 10
5.28668681
 20
4.93028172
  0
VERTEX
  8
0
 62
7
 10
5.25965291
 20
4.93653288
  0
VERTEX
  8
0
 62
7
 10
5.23215356
 20
4.94053171
  0
VERTEX
  8
0
 62
7
 10
5.20434962
 20
4.94223293
  0
VERTEX
  8
0
 62
7
 10
5.17640199
 20
4.94159123
  0
VERTEX
  8
0
 62
7
 10
5.14847154
 20
4.93856132
  0
VERTEX
  8
0
 62
7
 10
5.12071914
 20
4.93309790
  0
VERTEX
  8
0
 62
7
 10
5.09330570
 20
4.92515567
  0
VERTEX
  8
0
 62
7
 10
5.09772080
 20
4.90797845
  0
VERTEX
  8
0
 62
7
 10
5.09743756
 20
4.88850205
  0
VERTEX
  8
0
 62
7
 10
5.09375554
 20
4.86922558
  0
VERTEX
  8
0
 62
7
 10
5.08797426
 20
4.85264814
  0
VERTEX
  8
0
 62
7
 10
5.07321283
 20
4.82469142
  0
VERTEX
  8
0
 62
7
 10
5.05705190
 20
4.80413207
  0
VERTEX
  8
0
 62
7
 10
5.03849182
 20
4.78757130
  0
VERTEX
  8
0
 62
7
 10
5.01653294
 20
4.77161031
  0
VERTEX
  8
0
 62
7
 10
4.98903853
 20
4.75472674
  0
VERTEX
  8
0
 62
7
 10
4.95911998
 20
4.74070464
  0
VERTEX
  8
0
 62
7
 10
4.92765198
 20
4.72930661
  0
VERTEX
  8
0
 62
7
 10
4.89550922
 20
4.72029524
  0
VERTEX
  8
0
 62
7
 10
4.86356639
 20
4.71343310
  0
VERTEX
  8
0
 62
7
 10
4.83269818
 20
4.70848277
  0
VERTEX
  8
0
 62
7
 10
4.80377928
 20
4.70520686
  0
VERTEX
  8
0
 62
7
 10
4.77768437
 20
4.70336793
  0
VERTEX
  8
0
 62
7
 10
4.71920512
 20
4.70073553
  0
VERTEX
  8
0
 62
7
 10
4.65532779
 20
4.70310136
  0
VERTEX
  8
0
 62
7
 10
4.59504918
 20
4.70906590
  0
VERTEX
  8
0
 62
7
 10
4.54736611
 20
4.71722966
  0
VERTEX
  8
0
 62
7
 10
4.51741424
 20
4.72505396
  0
VERTEX
  8
0
 62
7
 10
4.48488828
 20
4.73563978
  0
VERTEX
  8
0
 62
7
 10
4.45061294
 20
4.74884966
  0
VERTEX
  8
0
 62
7
 10
4.41541293
 20
4.76454616
  0
VERTEX
  8
0
 62
7
 10
4.38011296
 20
4.78259182
  0
VERTEX
  8
0
 62
7
 10
4.34553773
 20
4.80284920
  0
VERTEX
  8
0
 62
7
 10
4.31251195
 20
4.82518083
  0
VERTEX
  8
0
 62
7
 10
4.28186033
 20
4.84944928
  0
VERTEX
  8
0
 62
7
 10
4.24368820
 20
4.88432775
  0
VERTEX
  8
0
 62
7
 10
4.20945061
 20
4.92165067
  0
VERTEX
  8
0
 62
7
 10
4.17900855
 20
4.96121342
  0
VERTEX
  8
0
 62
7
 10
4.15222300
 20
5.00281138
  0
VERTEX
  8
0
 62
7
 10
4.12895496
 20
5.04623993
  0
VERTEX
  8
0
 62
7
 10
4.10906540
 20
5.09129447
  0
VERTEX
  8
0
 62
7
 10
4.09241532
 20
5.13777038
  0
VERTEX
  8
0
 62
7
 10
4.07886570
 20
5.18546305
  0
VERTEX
  8
0
 62
7
 10
4.06827753
 20
5.23416785
  0
VERTEX
  8
0
 62
7
 10
4.06051180
 20
5.28368018
  0
VERTEX
  8
0
 62
7
 10
4.05542949
 20
5.33379542
  0
VERTEX
  8
0
 62
7
 10
4.05289158
 20
5.38430896
  0
VERTEX
  8
0
 62
7
 10
4.05275908
 20
5.43501618
  0
VERTEX
  8
0
 62
7
 10
4.05489296
 20
5.48571246
  0
VERTEX
  8
0
 62
7
 10
4.05915421
 20
5.53619319
  0
VERTEX
  8
0
 62
7
 10
4.06540381
 20
5.58625377
  0
VERTEX
  8
0
 62
7
 10
4.07368837
 20
5.63198541
  0
VERTEX
  8
0
 62
7
 10
4.08409718
 20
5.67720474
  0
VERTEX
  8
0
 62
7
 10
4.09655526
 20
5.72189925
  0
VERTEX
  8
0
 62
7
 10
4.11098763
 20
5.76605645
  0
VERTEX
  8
0
 62
7
 10
4.12731934
 20
5.80966385
  0
VERTEX
  8
0
 62
7
 10
4.14547540
 20
5.85270895
  0
VERTEX
  8
0
 62
7
 10
4.16538083
 20
5.89517926
  0
VERTEX
  8
0
 62
7
 10
4.18696067
 20
5.93706227
  0
VERTEX
  8
0
 62
7
 10
4.21292438
 20
5.98006572
  0
VERTEX
  8
0
 62
7
 10
4.24052500
 20
6.02178212
  0
VERTEX
  8
0
 62
7
 10
4.26989999
 20
6.06202405
  0
VERTEX
  8
0
 62
7
 10
4.30118680
 20
6.10060408
  0
VERTEX
  8
0
 62
7
 10
4.33452289
 20
6.13733476
  0
VERTEX
  8
0
 62
7
 10
4.37004570
 20
6.17202866
  0
VERTEX
  8
0
 62
7
 10
4.40789269
 20
6.20449836
  0
VERTEX
  8
0
 62
7
 10
4.44820130
 20
6.23455641
  0
VERTEX
  8
0
 62
7
 10
4.50839035
 20
6.27199934
  0
VERTEX
  8
0
 62
7
 10
4.57044125
 20
6.30298206
  0
VERTEX
  8
0
 62
7
 10
4.63411657
 20
6.32784197
  0
VERTEX
  8
0
 62
7
 10
4.69917890
 20
6.34691643
  0
VERTEX
  8
0
 62
7
 10
4.76539082
 20
6.36054283
  0
VERTEX
  8
0
 62
7
 10
4.83251491
 20
6.36905855
  0
VERTEX
  8
0
 62
7
 10
4.90031377
 20
6.37280097
  0
VERTEX
  8
0
 62
7
 10
4.96854997
 20
6.37210747
  0
VERTEX
  8
0
 62
7
 10
4.96961626
 20
6.34864915
  0
VERTEX
  8
0
 62
7
 10
4.91750142
 20
6.34763284
  0
VERTEX
  8
0
 62
7
 10
4.86538658
 20
6.34291785
  0
VERTEX
  8
0
 62
7
 10
4.81367160
 20
6.33440422
  0
VERTEX
  8
0
 62
7
 10
4.76275633
 20
6.32199197
  0
VERTEX
  8
0
 62
7
 10
4.68453696
 20
6.29590646
  0
VERTEX
  8
0
 62
7
 10
4.61073320
 20
6.26310459
  0
VERTEX
  8
0
 62
7
 10
4.54151219
 20
6.22399246
  0
VERTEX
  8
0
 62
7
 10
4.47704106
 20
6.17897619
  0
VERTEX
  8
0
 62
7
 10
4.41748694
 20
6.12846187
  0
VERTEX
  8
0
 62
7
 10
4.36301694
 20
6.07285562
  0
VERTEX
  8
0
 62
7
 10
4.31379821
 20
6.01256353
  0
VERTEX
  8
0
 62
7
 10
4.26999787
 20
5.94799171
  0
VERTEX
  8
0
 62
7
 10
4.23178305
 20
5.87954628
  0
VERTEX
  8
0
 62
7
 10
4.19932087
 20
5.80763333
  0
VERTEX
  8
0
 62
7
 10
4.17277847
 20
5.73265896
  0
VERTEX
  8
0
 62
7
 10
4.15232297
 20
5.65502929
  0
VERTEX
  8
0
 62
7
 10
4.13812149
 20
5.57515043
  0
VERTEX
  8
0
 62
7
 10
4.13034118
 20
5.49342846
  0
VERTEX
  8
0
 62
7
 10
4.12914916
 20
5.41026951
  0
VERTEX
  8
0
 62
7
 10
4.13471255
 20
5.32607968
  0
VERTEX
  8
0
 62
7
 10
4.14225987
 20
5.27662436
  0
VERTEX
  8
0
 62
7
 10
4.15310602
 20
5.22913084
  0
VERTEX
  8
0
 62
7
 10
4.16755089
 20
5.18376157
  0
VERTEX
  8
0
 62
7
 10
4.18589438
 20
5.14067898
  0
VERTEX
  8
0
 62
7
 10
4.20843639
 20
5.10004553
  0
VERTEX
  8
0
 62
7
 10
4.23547679
 20
5.06202364
  0
VERTEX
  8
0
 62
7
 10
4.26731549
 20
5.02677576
  0
VERTEX
  8
0
 62
7
 10
4.30425238
 20
4.99446435
  0
VERTEX
  8
0
 62
7
 10
4.33742603
 20
4.97346140
  0
VERTEX
  8
0
 62
7
 10
4.37251149
 20
4.95839385
  0
VERTEX
  8
0
 62
7
 10
4.40882152
 20
4.94919920
  0
VERTEX
  8
0
 62
7
 10
4.44566886
 20
4.94581499
  0
VERTEX
  8
0
 62
7
 10
4.48236626
 20
4.94817873
  0
VERTEX
  8
0
 62
7
 10
4.51822645
 20
4.95622795
  0
VERTEX
  8
0
 62
7
 10
4.55256218
 20
4.96990017
  0
VERTEX
  8
0
 62
7
 10
4.58468620
 20
4.98913291
  0
VERTEX
  8
0
 62
7
 10
4.63148625
 20
4.96325878
  0
VERTEX
  8
0
 62
7
 10
4.68158514
 20
4.94368242
  0
VERTEX
  8
0
 62
7
 10
4.73388325
 20
4.93110356
  0
VERTEX
  8
0
 62
7
 10
4.78728096
 20
4.92622196
  0
VERTEX
  8
0
 62
7
 10
4.83525769
 20
4.92589083
  0
VERTEX
  8
0
 62
7
 10
4.88219728
 20
4.93117020
  0
VERTEX
  8
0
 62
7
 10
4.92776236
 20
4.94187264
  0
VERTEX
  8
0
 62
7
 10
4.97161555
 20
4.95781072
  0
VERTEX
  8
0
 62
7
 10
5.01341946
 20
4.97879700
  0
VERTEX
  8
0
 62
7
 10
5.05283672
 20
5.00464406
  0
VERTEX
  8
0
 62
7
 10
5.08952995
 20
5.03516445
  0
VERTEX
  8
0
 62
7
 10
5.12316177
 20
5.07017074
  0
VERTEX
  8
0
 62
7
 10
5.14685128
 20
5.10019547
  0
VERTEX
  8
0
 62
7
 10
5.16632978
 20
5.13243192
  0
VERTEX
  8
0
 62
7
 10
5.18218457
 20
5.16649272
  0
VERTEX
  8
0
 62
7
 10
5.19500294
 20
5.20199050
  0
VERTEX
  8
0
 62
7
 10
5.20537218
 20
5.23853791
  0
VERTEX
  8
0
 62
7
 10
5.21387957
 20
5.27574759
  0
VERTEX
  8
0
 62
7
 10
5.22111242
 20
5.31323217
  0
VERTEX
  8
0
 62
7
 10
5.22765802
 20
5.35060429
  0
VERTEX
  8
0
 62
7
 10
5.23521367
 20
5.39552580
  0
VERTEX
  8
0
 62
7
 10
5.24032019
 20
5.44067224
  0
VERTEX
  8
0
 62
7
 10
5.24302756
 20
5.48596862
  0
VERTEX
  8
0
 62
7
 10
5.24338577
 20
5.53133997
  0
VERTEX
  8
0
 62
7
 10
5.24144479
 20
5.57671133
  0
VERTEX
  8
0
 62
7
 10
5.23725461
 20
5.62200771
  0
VERTEX
  8
0
 62
7
 10
5.23086521
 20
5.66715415
  0
VERTEX
  8
0
 62
7
 10
5.22232658
 20
5.71207566
  0
VERTEX
  8
0
 62
7
 10
5.19168745
 20
5.67258971
  0
VERTEX
  8
0
 62
7
 10
5.15475056
 20
5.63930156
  0
VERTEX
  8
0
 62
7
 10
5.11241558
 20
5.61281098
  0
VERTEX
  8
0
 62
7
 10
5.06558220
 20
5.59371778
  0
VERTEX
  8
0
 62
7
 10
5.03054464
 20
5.58577060
  0
VERTEX
  8
0
 62
7
 10
4.99480732
 20
5.58212190
  0
VERTEX
  8
0
 62
7
 10
4.95926993
 20
5.58427114
  0
VERTEX
  8
0
 62
7
 10
4.92483215
 20
5.59371778
  0
VERTEX
  8
0
 62
7
 10
4.90247550
 20
5.60485340
  0
VERTEX
  8
0
 62
7
 10
4.88253050
 20
5.61882551
  0
VERTEX
  8
0
 62
7
 10
4.86490967
 20
5.63527174
  0
VERTEX
  8
0
 62
7
 10
4.84952554
 20
5.65382972
  0
VERTEX
  8
0
 62
7
 10
4.83629066
 20
5.67413708
  0
VERTEX
  8
0
 62
7
 10
4.82511754
 20
5.69583144
  0
VERTEX
  8
0
 62
7
 10
4.81591872
 20
5.71855044
  0
VERTEX
  8
0
 62
7
 10
4.80860673
 20
5.74193170
  0
VERTEX
  8
0
 62
7
 10
4.80430409
 20
5.76281177
  0
VERTEX
  8
0
 62
7
 10
4.80237561
 20
5.78381680
  0
VERTEX
  8
0
 62
7
 10
4.80249640
 20
5.80487181
  0
VERTEX
  8
0
 62
7
 10
4.80434158
 20
5.82590182
  0
VERTEX
  8
0
 62
7
 10
4.80758626
 20
5.84683188
  0
VERTEX
  8
0
 62
7
 10
4.81190556
 20
5.86758699
  0
VERTEX
  8
0
 62
7
 10
4.81697459
 20
5.88809220
  0
VERTEX
  8
0
 62
7
 10
4.82246848
 20
5.90827251
  0
VERTEX
  8
0
 62
7
 10
4.84152838
 20
5.95403956
  0
VERTEX
  8
0
 62
7
 10
4.86618630
 20
5.99690764
  0
VERTEX
  8
0
 62
7
 10
4.89564251
 20
6.03677679
  0
VERTEX
  8
0
 62
7
 10
4.92909730
 20
6.07354704
  0
VERTEX
  8
0
 62
7
 10
4.96858173
 20
6.10996715
  0
VERTEX
  8
0
 62
7
 10
5.01045593
 20
6.14058777
  0
VERTEX
  8
0
 62
7
 10
5.05441065
 20
6.16560725
  0
VERTEX
  8
0
 62
7
 10
5.10013661
 20
6.18522397
  0
VERTEX
  8
0
 62
7
 10
5.14732455
 20
6.19963628
  0
VERTEX
  8
0
 62
7
 10
5.19566520
 20
6.20904257
  0
VERTEX
  8
0
 62
7
 10
5.24484931
 20
6.21364120
  0
VERTEX
  8
0
 62
7
 10
5.29456761
 20
6.21363052
  0
VERTEX
  8
0
 62
7
 10
5.34451082
 20
6.20920892
  0
VERTEX
  8
0
 62
7
 10
5.39436969
 20
6.20057475
  0
VERTEX
  8
0
 62
7
 10
5.44383495
 20
6.18792639
  0
VERTEX
  8
0
 62
7
 10
5.49259733
 20
6.17146220
  0
VERTEX
  8
0
 62
7
 10
5.54034757
 20
6.15138054
  0
VERTEX
  8
0
 62
7
 10
5.58677641
 20
6.12787979
  0
VERTEX
  8
0
 62
7
 10
5.63157457
 20
6.10115831
  0
VERTEX
  8
0
 62
7
 10
5.67443280
 20
6.07141446
  0
VERTEX
  8
0
 62
7
 10
5.73827681
 20
6.02276511
  0
VERTEX
  8
0
 62
7
 10
5.79812224
 20
5.96691831
  0
VERTEX
  8
0
 62
7
 10
5.83594215
 20
5.92671595
  0
VERTEX
  8
0
 62
7
 10
5.87196270
 20
5.88441434
  0
VERTEX
  8
0
 62
7
 10
5.90518424
 20
5.83991351
  0
VERTEX
  8
0
 62
7
 10
5.93460714
 20
5.79311349
  0
VERTEX
  8
0
 62
7
 10
5.96183081
 20
5.74064883
  0
VERTEX
  8
0
 62
7
 10
5.98525583
 20
5.68688463
  0
VERTEX
  8
0
 62
7
 10
6.00388255
 20
5.63132106
  0
VERTEX
  8
0
 62
7
 10
6.01671133
 20
5.57345832
  0
VERTEX
  8
0
 62
7
 10
6.02250303
 20
5.53933713
  0
VERTEX
  8
0
 62
7
 10
6.02625794
 20
5.50501601
  0
VERTEX
  8
0
 62
7
 10
6.02793860
 20
5.47059492
  0
VERTEX
  8
0
 62
7
 10
6.02750750
 20
5.43617384
  0
VERTEX
  8
0
 62
7
 10
6.02492717
 20
5.40185272
  0
VERTEX
  8
0
 62
7
 10
6.02016011
 20
5.36773152
  0
VERTEX
  8
0
 62
7
 10
6.01316884
 20
5.33391023
  0
VERTEX
  8
0
 62
7
 10
6.00391587
 20
5.30048878
  0
VERTEX
  8
0
 62
7
 10
5.99142031
 20
5.25437186
  0
VERTEX
  8
0
 62
7
 10
5.97512609
 20
5.20985437
  0
VERTEX
  8
0
 62
7
 10
5.95323386
 20
5.16853574
  0
VERTEX
  8
0
 62
7
 10
5.92394425
 20
5.13201540
  0
VERTEX
  8
0
 62
7
 10
5.90834562
 20
5.11672084
  0
VERTEX
  8
0
 62
7
 10
5.89192228
 20
5.10222600
  0
VERTEX
  8
0
 62
7
 10
5.87464925
 20
5.08883077
  0
VERTEX
  8
0
 62
7
 10
5.85650152
 20
5.07683504
  0
VERTEX
  8
0
 62
7
 10
5.83745411
 20
5.06653870
  0
VERTEX
  8
0
 62
7
 10
5.81748203
 20
5.05824165
  0
VERTEX
  8
0
 62
7
 10
5.79656029
 20
5.05224379
  0
VERTEX
  8
0
 62
7
 10
5.77466390
 20
5.04884499
  0
VERTEX
  8
0
 62
7
 10
5.73975962
 20
5.04826187
  0
VERTEX
  8
0
 62
7
 10
5.70575502
 20
5.05297686
  0
VERTEX
  8
0
 62
7
 10
5.67314992
 20
5.06308993
  0
VERTEX
  8
0
 62
7
 10
5.64244415
 20
5.07870104
  0
VERTEX
  8
0
 62
7
 10
5.65950476
 20
5.10429193
  0
VERTEX
  8
0
 62
7
 10
5.69255970
 20
5.10309236
  0
VERTEX
  8
0
 62
7
 10
5.72561464
 20
5.10749079
  0
VERTEX
  8
0
 62
7
 10
5.74889387
 20
5.11344492
  0
VERTEX
  8
0
 62
7
 10
5.77069864
 20
5.12233551
  0
VERTEX
  8
0
 62
7
 10
5.79095395
 20
5.13390015
  0
VERTEX
  8
0
 62
7
 10
5.80958484
 20
5.14787642
  0
VERTEX
  8
0
 62
7
 10
5.82651633
 20
5.16400193
  0
VERTEX
  8
0
 62
7
 10
5.84167345
 20
5.18201428
  0
VERTEX
  8
0
 62
7
 10
5.85498123
 20
5.20165104
  0
VERTEX
  8
0
 62
7
 10
5.86636469
 20
5.22264982
  0
VERTEX
  8
0
 62
7
 10
5.87765860
 20
5.25625869
  0
VERTEX
  8
0
 62
7
 10
5.88234235
 20
5.29039238
  0
VERTEX
  8
0
 62
7
 10
5.88100324
 20
5.32457605
  0
VERTEX
  8
0
 62
7
 10
5.87422856
 20
5.35833487
  0
VERTEX
  8
0
 62
7
 10
5.86260560
 20
5.39119401
  0
VERTEX
  8
0
 62
7
 10
5.84672166
 20
5.42267864
  0
VERTEX
  8
0
 62
7
 10
5.82716401
 20
5.45231393
  0
VERTEX
  8
0
 62
7
 10
5.80451997
 20
5.47962504
  0
VERTEX
  8
0
 62
7
 10
5.78119491
 20
5.50142770
  0
VERTEX
  8
0
 62
7
 10
5.75547071
 20
5.51909433
  0
VERTEX
  8
0
 62
7
 10
5.72774721
 20
5.53298730
  0
VERTEX
  8
0
 62
7
 10
5.69842429
 20
5.54346899
  0
VERTEX
  8
0
 62
7
 10
5.66790178
 20
5.55090176
  0
VERTEX
  8
0
 62
7
 10
5.63657957
 20
5.55564799
  0
VERTEX
  8
0
 62
7
 10
5.60485749
 20
5.55807005
  0
VERTEX
  8
0
 62
7
 10
5.57313541
 20
5.55853030
  0
VERTEX
  8
0
 62
7
 10
5.52278662
 20
5.55478163
  0
VERTEX
  8
0
 62
7
 10
5.47343746
 20
5.54453528
  0
VERTEX
  8
0
 62
7
 10
5.42648746
 20
5.52689156
  0
VERTEX
  8
0
 62
7
 10
5.38333610
 20
5.50095079
  0
VERTEX
  8
0
 62
7
 10
5.35506280
 20
5.47464348
  0
VERTEX
  8
0
 62
7
 10
5.33068812
 20
5.44563714
  0
VERTEX
  8
0
 62
7
 10
5.30971223
 20
5.41443157
  0
VERTEX
  8
0
 62
7
 10
5.29163531
 20
5.38152662
  0
VERTEX
  8
0
 62
7
 10
5.27829838
 20
5.35022109
  0
VERTEX
  8
0
 62
7
 10
5.26851019
 20
5.31801588
  0
VERTEX
  8
0
 62
7
 10
5.26202082
 20
5.28511092
  0
VERTEX
  8
0
 62
7
 10
5.25858038
 20
5.25170614
  0
VERTEX
  8
0
 62
7
 10
5.25793894
 20
5.21800147
  0
VERTEX
  8
0
 62
7
 10
5.25984659
 20
5.18419683
  0
VERTEX
  8
0
 62
7
 10
5.26405343
 20
5.15049216
  0
VERTEX
  8
0
 62
7
 10
5.27030955
 20
5.11708738
  0
VERTEX
  8
0
 62
7
 10
5.27789019
 20
5.08684814
  0
VERTEX
  8
0
 62
7
 10
5.28717023
 20
5.05710872
  0
VERTEX
  8
0
 62
7
 10
5.29834960
 20
5.02816902
  0
VERTEX
  8
0
 62
7
 10
5.31162822
 20
5.00032893
  0
VERTEX
  8
0
 62
7
 10
5.32720602
 20
4.97388833
  0
VERTEX
  8
0
 62
7
 10
5.34528294
 20
4.94914714
  0
VERTEX
  8
0
 62
7
 10
5.36605890
 20
4.92640523
  0
VERTEX
  8
0
 62
7
 10
5.38973383
 20
4.90596250
  0
VERTEX
  8
0
 62
7
 10
5.42398652
 20
4.87951046
  0
VERTEX
  8
0
 62
7
 10
5.45982771
 20
4.85688830
  0
VERTEX
  8
0
 62
7
 10
5.49704653
 20
4.83802730
  0
VERTEX
  8
0
 62
7
 10
5.53543213
 20
4.82285874
  0
VERTEX
  8
0
 62
7
 10
5.57477364
 20
4.81131389
  0
VERTEX
  8
0
 62
7
 10
5.61486019
 20
4.80332403
  0
VERTEX
  8
0
 62
7
 10
5.65548093
 20
4.79882042
  0
VERTEX
  8
0
 62
7
 10
5.69642499
 20
4.79773435
  0
VERTEX
  8
0
 62
7
 10
5.73748152
 20
4.79999709
  0
VERTEX
  8
0
 62
7
 10
5.77843964
 20
4.80553990
  0
VERTEX
  8
0
 62
7
 10
5.81908850
 20
4.81429408
  0
VERTEX
  8
0
 62
7
 10
5.85921722
 20
4.82619089
  0
VERTEX
  8
0
 62
7
 10
5.89861496
 20
4.84116160
  0
VERTEX
  8
0
 62
7
 10
5.93707084
 20
4.85913750
  0
VERTEX
  8
0
 62
7
 10
5.97437401
 20
4.88004985
  0
VERTEX
  8
0
 62
7
 10
6.01031360
 20
4.90382993
  0
VERTEX
  8
0
 62
7
 10
6.03761433
 20
4.92525772
  0
VERTEX
  8
0
 62
7
 10
6.06337810
 20
4.94869730
  0
VERTEX
  8
0
 62
7
 10
6.08736751
 20
4.97406119
  0
VERTEX
  8
0
 62
7
 10
6.10934512
 20
5.00126193
  0
VERTEX
  8
0
 62
7
 10
6.12907354
 20
5.03021204
  0
VERTEX
  8
0
 62
7
 10
6.14631534
 20
5.06082407
  0
VERTEX
  8
0
 62
7
 10
6.16083310
 20
5.09301053
  0
VERTEX
  8
0
 62
7
 10
6.17238942
 20
5.12668396
  0
VERTEX
  8
0
 62
7
 10
6.19234900
 20
5.20946544
  0
VERTEX
  8
0
 62
7
 10
6.20631071
 20
5.29136287
  0
VERTEX
  8
0
 62
7
 10
6.21437452
 20
5.37221691
  0
VERTEX
  8
0
 62
7
 10
6.21664038
 20
5.45186825
  0
VERTEX
  8
0
 62
7
 10
6.21320827
 20
5.53015758
  0
VERTEX
  8
0
 62
7
 10
6.20417814
 20
5.60692558
  0
VERTEX
  8
0
 62
7
 10
6.18964996
 20
5.68201292
  0
VERTEX
  8
0
 62
7
 10
6.16972370
 20
5.75526029
  0
VERTEX
  8
0
 62
7
 10
6.14449932
 20
5.82650838
  0
VERTEX
  8
0
 62
7
 10
6.11407678
 20
5.89559786
  0
VERTEX
  8
0
 62
7
 10
6.07855605
 20
5.96236941
  0
VERTEX
  8
0
 62
7
 10
6.03803710
 20
6.02666372
  0
VERTEX
  8
0
 62
7
 10
5.99261988
 20
6.08832147
  0
VERTEX
  8
0
 62
7
 10
5.94240437
 20
6.14718333
  0
VERTEX
  8
0
 62
7
 10
5.88749052
 20
6.20309000
  0
VERTEX
  8
0
 62
7
 10
5.82797831
 20
6.25588216
  0
VERTEX
  8
0
 62
7
 10
5.75089967
 20
6.31541592
  0
VERTEX
  8
0
 62
7
 10
5.67098611
 20
6.36888153
  0
VERTEX
  8
0
 62
7
 10
5.58850158
 20
6.41630866
  0
VERTEX
  8
0
 62
7
 10
5.50371005
 20
6.45772700
  0
VERTEX
  8
0
 62
7
 10
5.41687550
 20
6.49316621
  0
VERTEX
  8
0
 62
7
 10
5.32826190
 20
6.52265598
  0
VERTEX
  8
0
 62
7
 10
5.23813321
 20
6.54622598
  0
VERTEX
  8
0
 62
7
 10
5.14675340
 20
6.56390588
  0
VERTEX
  8
0
 62
7
 10
5.05438644
 20
6.57572538
  0
VERTEX
  8
0
 62
7
 10
4.96129629
 20
6.58171413
  0
VERTEX
  8
0
 62
7
 10
4.86774694
 20
6.58190182
  0
VERTEX
  8
0
 62
7
 10
4.77400234
 20
6.57631813
  0
VERTEX
  8
0
 62
7
 10
4.68032647
 20
6.56499274
  0
VERTEX
  8
0
 62
7
 10
4.58698330
 20
6.54795531
  0
VERTEX
  8
0
 62
7
 10
4.49423678
 20
6.52523553
  0
VERTEX
  8
0
 62
7
 10
4.40235090
 20
6.49686307
  0
VERTEX
  8
0
 62
7
 10
4.35263105
 20
6.47880075
  0
VERTEX
  8
0
 62
7
 10
4.30348599
 20
6.45832679
  0
VERTEX
  8
0
 62
7
 10
4.25499070
 20
6.43562861
  0
VERTEX
  8
0
 62
7
 10
4.20722015
 20
6.41089366
  0
VERTEX
  8
0
 62
7
 10
4.16024932
 20
6.38430937
  0
VERTEX
  8
0
 62
7
 10
4.11415318
 20
6.35606317
  0
VERTEX
  8
0
 62
7
 10
4.06900670
 20
6.32634250
  0
VERTEX
  8
0
 62
7
 10
4.02488486
 20
6.29533478
  0
VERTEX
  8
0
 62
7
 10
3.94871189
 20
6.23582263
  0
VERTEX
  8
0
 62
7
 10
3.87693736
 20
6.17111232
  0
VERTEX
  8
0
 62
7
 10
3.80956127
 20
6.10160372
  0
VERTEX
  8
0
 62
7
 10
3.74658362
 20
6.02769669
  0
VERTEX
  8
0
 62
7
 10
3.68507212
 20
5.94282689
  0
VERTEX
  8
0
 62
7
 10
3.63115792
 20
5.85335872
  0
VERTEX
  8
0
 62
7
 10
3.58404130
 20
5.75989198
  0
VERTEX
  8
0
 62
7
 10
3.54292256
 20
5.66302645
  0
VERTEX
  8
0
 62
7
 10
3.51185026
 20
5.56471143
  0
VERTEX
  8
0
 62
7
 10
3.48707571
 20
5.46509688
  0
VERTEX
  8
0
 62
7
 10
3.46809912
 20
5.36448268
  0
VERTEX
  8
0
 62
7
 10
3.45442064
 20
5.26316873
  0
VERTEX
  8
0
 62
7
 10
3.44895591
 20
5.15360772
  0
VERTEX
  8
0
 62
7
 10
3.45068863
 20
5.04404670
  0
VERTEX
  8
0
 62
7
 10
3.45801936
 20
4.93448569
  0
VERTEX
  8
0
 62
7
 10
3.46934867
 20
4.82492467
  0
VERTEX
  8
0
 62
7
 10
3.48507642
 20
4.67632755
  0
VERTEX
  8
0
 62
7
 10
3.50080418
 20
4.52783039
  0
VERTEX
  8
0
 62
7
 10
3.51493250
 20
4.37913330
  0
VERTEX
  8
0
 62
7
 10
3.52586195
 20
4.22993639
  0
VERTEX
  8
0
 62
7
 10
3.52837772
 20
4.19075033
  0
VERTEX
  8
0
 62
7
 10
3.53159325
 20
4.15156428
  0
VERTEX
  8
0
 62
7
 10
3.53380913
 20
4.11237822
  0
VERTEX
  8
0
 62
7
 10
3.53332597
 20
4.07319217
  0
VERTEX
  8
0
 62
7
 10
3.53106011
 20
4.03087389
  0
VERTEX
  8
0
 62
7
 10
3.52639509
 20
3.98895547
  0
VERTEX
  8
0
 62
7
 10
3.51773150
 20
3.94783677
  0
VERTEX
  8
0
 62
7
 10
3.50346990
 20
3.90791764
  0
VERTEX
  8
0
 62
7
 10
3.48474321
 20
3.86993116
  0
VERTEX
  8
0
 62
7
 10
3.46241780
 20
3.83354411
  0
VERTEX
  8
0
 62
7
 10
3.43689352
 20
3.79995606
  0
VERTEX
  8
0
 62
7
 10
3.40857024
 20
3.77036659
  0
VERTEX
  8
0
 62
7
 10
3.39031839
 20
3.75600503
  0
VERTEX
  8
0
 62
7
 10
3.36951743
 20
3.74364276
  0
VERTEX
  8
0
 62
7
 10
3.34671719
 20
3.73377961
  0
VERTEX
  8
0
 62
7
 10
3.32246746
 20
3.72691538
  0
VERTEX
  8
0
 62
7
 10
3.29731806
 20
3.72354991
  0
VERTEX
  8
0
 62
7
 10
3.27181877
 20
3.72418302
  0
VERTEX
  8
0
 62
7
 10
3.24651942
 20
3.72931453
  0
VERTEX
  8
0
 62
7
 10
3.22196980
 20
3.73944426
  0
VERTEX
  8
0
 62
7
 10
3.20679601
 20
3.75035704
  0
VERTEX
  8
0
 62
7
 10
3.19334662
 20
3.76296922
  0
VERTEX
  8
0
 62
7
 10
3.18174657
 20
3.77708087
  0
VERTEX
  8
0
 62
7
 10
3.17212082
 20
3.79249205
  0
VERTEX
  8
0
 62
7
 10
3.16459432
 20
3.80900284
  0
VERTEX
  8
0
 62
7
 10
3.15929204
 20
3.82641331
  0
VERTEX
  8
0
 62
7
 10
3.15633892
 20
3.84452353
  0
VERTEX
  8
0
 62
7
 10
3.15585992
 20
3.86313358
  0
VERTEX
  8
0
 62
7
 10
3.11795671
 20
3.84697266
  0
VERTEX
  8
0
 62
7
 10
3.08295246
 20
3.82581353
  0
VERTEX
  8
0
 62
7
 10
3.05134701
 20
3.79985610
  0
VERTEX
  8
0
 62
7
 10
3.02364018
 20
3.76930030
  0
VERTEX
  8
0
 62
7
 10
3.00454904
 20
3.73931514
  0
VERTEX
  8
0
 62
7
 10
2.98886918
 20
3.70595617
  0
VERTEX
  8
0
 62
7
 10
2.97661312
 20
3.67014808
  0
VERTEX
  8
0
 62
7
 10
2.96779333
 20
3.63281553
  0
VERTEX
  8
0
 62
7
 10
2.96242232
 20
3.59488320
  0
VERTEX
  8
0
 62
7
 10
2.96051258
 20
3.55727575
  0
VERTEX
  8
0
 62
7
 10
2.96207661
 20
3.52091785
  0
VERTEX
  8
0
 62
7
 10
2.96712690
 20
3.48673418
  0
VERTEX
  8
0
 62
7
 10
2.97772106
 20
3.44723574
  0
VERTEX
  8
0
 62
7
 10
2.99110173
 20
3.40946168
  0
VERTEX
  8
0
 62
7
 10
3.00725641
 20
3.37333703
  0
VERTEX
  8
0
 62
7
 10
3.02617261
 20
3.33878683
  0
VERTEX
  8
0
 62
7
 10
3.04783784
 20
3.30573609
  0
VERTEX
  8
0
 62
7
 10
3.07223960
 20
3.27410984
  0
VERTEX
  8
0
 62
7
 10
3.09936539
 20
3.24383311
  0
VERTEX
  8
0
 62
7
 10
3.12920272
 20
3.21483093
  0
VERTEX
  8
0
 62
7
 10
3.06309284
 20
3.14019083
  0
VERTEX
  8
0
 62
7
 10
3.09249908
 20
3.09280769
  0
VERTEX
  8
0
 62
7
 10
3.12480428
 20
3.04822355
  0
VERTEX
  8
0
 62
7
 10
3.16010842
 20
3.00643842
  0
VERTEX
  8
0
 62
7
 10
3.19851145
 20
2.96745229
  0
VERTEX
  8
0
 62
7
 10
3.23456533
 20
2.93657995
  0
VERTEX
  8
0
 62
7
 10
3.27261849
 20
2.90840664
  0
VERTEX
  8
0
 62
7
 10
3.31307080
 20
2.88363212
  0
VERTEX
  8
0
 62
7
 10
3.35632212
 20
2.86295614
  0
VERTEX
  8
0
 62
7
 10
3.39726384
 20
2.84846963
  0
VERTEX
  8
0
 62
7
 10
3.43914273
 20
2.83843154
  0
VERTEX
  8
0
 62
7
 10
3.48169637
 20
2.83259195
  0
VERTEX
  8
0
 62
7
 10
3.52466238
 20
2.83070095
  0
VERTEX
  8
0
 62
7
 10
3.56777832
 20
2.83250864
  0
VERTEX
  8
0
 62
7
 10
3.61078181
 20
2.83776511
  0
VERTEX
  8
0
 62
7
 10
3.65341044
 20
2.84622043
  0
VERTEX
  8
0
 62
7
 10
3.69540178
 20
2.85762471
  0
VERTEX
  8
0
 62
7
 10
3.73122449
 20
2.87028687
  0
VERTEX
  8
0
 62
7
 10
3.76586011
 20
2.88574803
  0
VERTEX
  8
0
 62
7
 10
3.79922119
 20
2.90380827
  0
VERTEX
  8
0
 62
7
 10
3.83122025
 20
2.92426766
  0
VERTEX
  8
0
 62
7
 10
3.86176983
 20
2.94692626
  0
VERTEX
  8
0
 62
7
 10
3.89078245
 20
2.97158416
  0
VERTEX
  8
0
 62
7
 10
3.91817064
 20
2.99804141
  0
VERTEX
  8
0
 62
7
 10
3.94384695
 20
3.02609809
  0
VERTEX
  8
0
 62
7
 10
3.98444296
 20
3.08026423
  0
VERTEX
  8
0
 62
7
 10
4.01810393
 20
3.13834148
  0
VERTEX
  8
0
 62
7
 10
4.04459245
 20
3.19964259
  0
VERTEX
  8
0
 62
7
 10
4.06367109
 20
3.26348029
  0
VERTEX
  8
0
 62
7
 10
4.07510245
 20
3.32916733
  0
VERTEX
  8
0
 62
7
 10
4.07864911
 20
3.39601646
  0
VERTEX
  8
0
 62
7
 10
4.07407365
 20
3.46334042
  0
VERTEX
  8
0
 62
7
 10
4.06113866
 20
3.53045196
  0
VERTEX
  8
0
 62
7
 10
4.17638109
 20
3.41864174
  0
VERTEX
  8
0
 62
7
 10
4.29532222
 20
3.31093007
  0
VERTEX
  8
0
 62
7
 10
4.41846185
 20
3.20821662
  0
VERTEX
  8
0
 62
7
 10
4.54629982
 20
3.11140107
  0
VERTEX
  8
0
 62
7
 10
4.65867660
 20
3.03137955
  0
VERTEX
  8
0
 62
7
 10
4.77355250
 20
2.95585642
  0
VERTEX
  8
0
 62
7
 10
4.89102748
 20
2.88453180
  0
VERTEX
  8
0
 62
7
 10
5.01120150
 20
2.81710579
  0
VERTEX
  8
0
 62
7
 10
5.14796963
 20
2.75032955
  0
VERTEX
  8
0
 62
7
 10
5.28643716
 20
2.68915132
  0
VERTEX
  8
0
 62
7
 10
5.42670405
 20
2.63357110
  0
VERTEX
  8
0
 62
7
 10
5.56887026
 20
2.58358889
  0
VERTEX
  8
0
 62
7
 10
5.73206235
 20
2.53372330
  0
VERTEX
  8
0
 62
7
 10
5.89795348
 20
2.49095518
  0
VERTEX
  8
0
 62
7
 10
6.06564397
 20
2.45478472
  0
VERTEX
  8
0
 62
7
 10
6.23423414
 20
2.42471209
  0
VERTEX
  8
0
 62
7
 10
6.37838298
 20
2.40606872
  0
VERTEX
  8
0
 62
7
 10
6.52293168
 20
2.39232361
  0
VERTEX
  8
0
 62
7
 10
6.66788025
 20
2.38197729
  0
VERTEX
  8
0
 62
7
 10
6.81322866
 20
2.37353030
  0
VERTEX
  8
0
 62
7
 10
6.96854021
 20
2.36869868
  0
VERTEX
  8
0
 62
7
 10
7.12405169
 20
2.36686600
  0
VERTEX
  8
0
 62
7
 10
7.27956317
 20
2.36783233
  0
VERTEX
  8
0
 62
7
 10
7.43487472
 20
2.37139772
  0
VERTEX
  8
0
 62
7
 10
7.65059817
 20
2.38247711
  0
VERTEX
  8
0
 62
7
 10
7.86592175
 20
2.39925448
  0
VERTEX
  8
0
 62
7
 10
8.08084548
 20
2.42103006
  0
VERTEX
  8
0
 62
7
 10
8.29536935
 20
2.44710412
  0
VERTEX
  8
0
 62
7
 10
8.49056674
 20
2.47512748
  0
VERTEX
  8
0
 62
7
 10
8.68456457
 20
2.50734935
  0
VERTEX
  8
0
 62
7
 10
8.87776267
 20
2.54277008
  0
VERTEX
  8
0
 62
7
 10
9.07056092
 20
2.58039002
  0
VERTEX
  8
0
 62
7
 10
9.28450166
 20
2.62262499
  0
VERTEX
  8
0
 62
7
 10
9.49774265
 20
2.66795886
  0
VERTEX
  8
0
 62
7
 10
9.71038386
 20
2.71669152
  0
VERTEX
  8
0
 62
7
 10
9.92252524
 20
2.76912287
  0
VERTEX
  8
0
 62
7
 10
10.09771932
 20
2.81473007
  0
VERTEX
  8
0
 62
7
 10
10.27260100
 20
2.86162745
  0
VERTEX
  8
0
 62
7
 10
10.44713282
 20
2.90988059
  0
VERTEX
  8
0
 62
7
 10
10.62127727
 20
2.95955510
  0
VERTEX
  8
0
 62
7
 10
10.79499687
 20
3.01071659
  0
VERTEX
  8
0
 62
7
 10
10.96825413
 20
3.06343064
  0
VERTEX
  8
0
 62
7
 10
11.14101157
 20
3.11776287
  0
VERTEX
  8
0
 62
7
 10
11.31323170
 20
3.17377888
  0
VERTEX
  8
0
 62
7
 10
11.48487704
 20
3.23154426
  0
VERTEX
  8
0
 62
7
 10
11.65591010
 20
3.29112462
  0
VERTEX
  8
0
 62
7
 10
11.82629338
 20
3.35258556
  0
VERTEX
  8
0
 62
7
 10
11.99598941
 20
3.41599269
  0
VERTEX
  8
0
 62
7
 10
12.16496069
 20
3.48141160
  0
VERTEX
  8
0
 62
7
 10
12.33316975
 20
3.54890789
  0
VERTEX
  8
0
 62
7
 10
12.50057909
 20
3.61854717
  0
VERTEX
  8
0
 62
7
 10
12.66715123
 20
3.69039505
  0
VERTEX
  8
0
 62
7
 10
12.83884446
 20
3.76765714
  0
VERTEX
  8
0
 62
7
 10
13.00926315
 20
3.84745582
  0
VERTEX
  8
0
 62
7
 10
13.17843228
 20
3.92972863
  0
VERTEX
  8
0
 62
7
 10
13.34637685
 20
4.01441308
  0
VERTEX
  8
0
 62
7
 10
13.51312184
 20
4.10144670
  0
VERTEX
  8
0
 62
7
 10
13.67869225
 20
4.19076700
  0
VERTEX
  8
0
 62
7
 10
13.84311307
 20
4.28231150
  0
VERTEX
  8
0
 62
7
 10
14.00640928
 20
4.37601774
  0
SEQEND
  0
POLYLINE
  8
0
 62
7
 66
1
 70
1
  0
VERTEX
  8
0
 62
7
 10
6.29596027
 20
8.94555306
  0
VERTEX
  8
0
 62
7
 10
6.29596027
 20
4.44048945
  0
VERTEX
  8
0
 62
7
 10
18.27037746
 20
4.44048945
  0
VERTEX
  8
0
 62
7
 10
18.27037746
 20
8.94555306
  0
VERTEX
  8
0
 62
7
 10
6.29596027
 20
8.94555306
  0
SEQEND
  0
POLYLINE
  8
0
 62
7
 66
1
 70
1
  0
VERTEX
  8
0
 62
7
 10
22.13222218
 20
2.75648376
  0
VERTEX
  8
0
 62
7
 10
22.12700736
 20
2.72156286
  0
VERTEX
  8
0
 62
7
 10
22.11769400
 20
2.68744166
  0
VERTEX
  8
0
 62
7
 10
22.10418213
 20
2.65452005
  0
VERTEX
  8
0
 62
7
 10
22.08637178
 20
2.62319786
  0
VERTEX
  8
0
 62
7
 10
22.06639970
 20
2.59751533
  0
VERTEX
  8
0
 62
7
 10
22.04235407
 20
2.57548150
  0
VERTEX
  8
0
 62
7
 10
22.01525952
 20
2.55804604
  0
VERTEX
  8
0
 62
7
 10
21.98614069
 20
2.54615860
  0
VERTEX
  8
0
 62
7
 10
21.95602221
 20
2.54076886
  0
VERTEX
  8
0
 62
7
 10
21.92592872
 20
2.54282646
  0
VERTEX
  8
0
 62
7
 10
21.89688486
 20
2.55328107
  0
VERTEX
  8
0
 62
7
 10
21.86991526
 20
2.57308236
  0
VERTEX
  8
0
 62
7
 10
21.85178836
 20
2.59509119
  0
VERTEX
  8
0
 62
7
 10
21.83925948
 20
2.62039885
  0
VERTEX
  8
0
 62
7
 10
21.83272846
 20
2.64790573
  0
VERTEX
  8
0
 62
7
 10
21.83259518
 20
2.67651222
  0
VERTEX
  8
0
 62
7
 10
21.83692697
 20
2.69747143
  0
VERTEX
  8
0
 62
7
 10
21.84485749
 20
2.71703113
  0
VERTEX
  8
0
 62
7
 10
21.85598687
 20
2.73499141
  0
VERTEX
  8
0
 62
7
 10
21.86991526
 20
2.75115233
  0
VERTEX
  8
0
 62
7
 10
21.84534430
 20
2.77891406
  0
VERTEX
  8
0
 62
7
 10
21.81859598
 20
2.80340665
  0
VERTEX
  8
0
 62
7
 10
21.78994208
 20
2.82460978
  0
VERTEX
  8
0
 62
7
 10
21.75965439
 20
2.84250315
  0
VERTEX
  8
0
 62
7
 10
21.72800469
 20
2.85706646
  0
VERTEX
  8
0
 62
7
 10
21.69526474
 20
2.86827940
  0
VERTEX
  8
0
 62
7
 10
21.66170634
 20
2.87612166
  0
VERTEX
  8
0
 62
7
 10
21.62760126
 20
2.88057294
  0
VERTEX
  8
0
 62
7
 10
21.59322127
 20
2.88161294
  0
VERTEX
  8
0
 62
7
 10
21.55883816
 20
2.87922134
  0
VERTEX
  8
0
 62
7
 10
21.52472370
 20
2.87337785
  0
VERTEX
  8
0
 62
7
 10
21.49114968
 20
2.86406215
  0
VERTEX
  8
0
 62
7
 10
21.45838787
 20
2.85125395
  0
VERTEX
  8
0
 62
7
 10
21.42671005
 20
2.83493293
  0
VERTEX
  8
0
 62
7
 10
21.39638800
 20
2.81507880
  0
VERTEX
  8
0
 62
7
 10
21.36769349
 20
2.79167124
  0
VERTEX
  8
0
 62
7
 10
21.34692586
 20
2.77080158
  0
VERTEX
  8
0
 62
7
 10
21.32790761
 20
2.74827002
  0
VERTEX
  8
0
 62
7
 10
21.31078869
 20
2.72421400
  0
VERTEX
  8
0
 62
7
 10
21.29571904
 20
2.69877097
  0
VERTEX
  8
0
 62
7
 10
21.28284860
 20
2.67207838
  0
VERTEX
  8
0
 62
7
 10
21.27232734
 20
2.64427369
  0
VERTEX
  8
0
 62
7
 10
21.26430518
 20
2.61549435
  0
VERTEX
  8
0
 62
7
 10
21.25893209
 20
2.58587780
  0
VERTEX
  8
0
 62
7
 10
21.25671621
 20
2.54004411
  0
VERTEX
  8
0
 62
7
 10
21.26119795
 20
2.49431039
  0
VERTEX
  8
0
 62
7
 10
21.27227735
 20
2.44957630
  0
VERTEX
  8
0
 62
7
 10
21.28985445
 20
2.40674155
  0
VERTEX
  8
0
 62
7
 10
21.32580836
 20
2.39362955
  0
VERTEX
  8
0
 62
7
 10
21.35996290
 20
2.37701879
  0
VERTEX
  8
0
 62
7
 10
21.39211816
 20
2.35740910
  0
VERTEX
  8
0
 62
7
 10
21.42207419
 20
2.33530030
  0
VERTEX
  8
0
 62
7
 10
21.45064739
 20
2.30656053
  0
VERTEX
  8
0
 62
7
 10
21.47552189
 20
2.27492179
  0
VERTEX
  8
0
 62
7
 10
21.49659775
 20
2.24068397
  0
VERTEX
  8
0
 62
7
 10
21.51377498
 20
2.20414697
  0
VERTEX
  8
0
 62
7
 10
21.49997572
 20
2.18734670
  0
VERTEX
  8
0
 62
7
 10
21.48895046
 20
2.16910944
  0
VERTEX
  8
0
 62
7
 10
21.48067423
 20
2.14969760
  0
VERTEX
  8
0
 62
7
 10
21.47512204
 20
2.12937358
  0
VERTEX
  8
0
 62
7
 10
21.47226888
 20
2.10839979
  0
VERTEX
  8
0
 62
7
 10
21.47208978
 20
2.08703864
  0
VERTEX
  8
0
 62
7
 10
21.47455973
 20
2.06555254
  0
VERTEX
  8
0
 62
7
 10
21.47965376
 20
2.04420388
  0
VERTEX
  8
0
 62
7
 10
21.49191608
 20
2.01649708
  0
VERTEX
  8
0
 62
7
 10
21.50977640
 20
1.99208909
  0
VERTEX
  8
0
 62
7
 10
21.53123546
 20
1.97028019
  0
VERTEX
  8
0
 62
7
 10
21.55429394
 20
1.95037061
  0
VERTEX
  8
0
 62
7
 10
21.57379952
 20
1.93612151
  0
VERTEX
  8
0
 62
7
 10
21.59457964
 20
1.92434653
  0
VERTEX
  8
0
 62
7
 10
21.61640940
 20
1.91472079
  0
VERTEX
  8
0
 62
7
 10
21.63906386
 20
1.90691940
  0
VERTEX
  8
0
 62
7
 10
21.66231810
 20
1.90061748
  0
VERTEX
  8
0
 62
7
 10
21.68594722
 20
1.89549013
  0
VERTEX
  8
0
 62
7
 10
21.70972628
 20
1.89121249
  0
VERTEX
  8
0
 62
7
 10
21.73343037
 20
1.88745966
  0
VERTEX
  8
0
 62
7
 10
21.77470322
 20
1.88063709
  0
VERTEX
  8
0
 62
7
 10
21.81610103
 20
1.87686343
  0
VERTEX
  8
0
 62
7
 10
21.85754882
 20
1.87598874
  0
VERTEX
  8
0
 62
7
 10
21.89897162
 20
1.87786307
  0
VERTEX
  8
0
 62
7
 10
21.94029446
 20
1.88233648
  0
VERTEX
  8
0
 62
7
 10
21.98144235
 20
1.88925902
  0
VERTEX
  8
0
 62
7
 10
22.02234034
 20
1.89848074
  0
VERTEX
  8
0
 62
7
 10
22.06291344
 20
1.90985169
  0
VERTEX
  8
0
 62
7
 10
22.13030619
 20
1.93169392
  0
VERTEX
  8
0
 62
7
 10
22.19499990
 20
1.95983391
  0
VERTEX
  8
0
 62
7
 10
22.25709453
 20
1.99337197
  0
VERTEX
  8
0
 62
7
 10
22.31669005
 20
2.03140844
  0
VERTEX
  8
0
 62
7
 10
22.35962481
 20
2.06484654
  0
VERTEX
  8
0
 62
7
 10
22.40026039
 20
2.09978411
  0
VERTEX
  8
0
 62
7
 10
22.43829689
 20
2.13652103
  0
VERTEX
  8
0
 62
7
 10
22.47343442
 20
2.17535721
  0
VERTEX
  8
0
 62
7
 10
22.50329049
 20
2.15723033
  0
VERTEX
  8
0
 62
7
 10
22.46948166
 20
2.11472462
  0
VERTEX
  8
0
 62
7
 10
22.43294879
 20
2.07449311
  0
VERTEX
  8
0
 62
7
 10
22.39386682
 20
2.03671072
  0
VERTEX
  8
0
 62
7
 10
22.35241070
 20
2.00155239
  0
VERTEX
  8
0
 62
7
 10
22.30875536
 20
1.96919307
  0
VERTEX
  8
0
 62
7
 10
22.26307574
 20
1.93980770
  0
VERTEX
  8
0
 62
7
 10
22.21554677
 20
1.91357120
  0
VERTEX
  8
0
 62
7
 10
22.16634340
 20
1.89065852
  0
VERTEX
  8
0
 62
7
 10
22.12698237
 20
1.87429768
  0
VERTEX
  8
0
 62
7
 10
22.08657171
 20
1.85973619
  0
VERTEX
  8
0
 62
7
 10
22.04526137
 20
1.84717399
  0
VERTEX
  8
0
 62
7
 10
22.00320130
 20
1.83681101
  0
VERTEX
  8
0
 62
7
 10
21.96054144
 20
1.82884718
  0
VERTEX
  8
0
 62
7
 10
21.91743174
 20
1.82348242
  0
VERTEX
  8
0
 62
7
 10
21.87402214
 20
1.82091667
  0
VERTEX
  8
0
 62
7
 10
21.83046260
 20
1.82134985
  0
VERTEX
  8
0
 62
7
 10
21.79480442
 20
1.82317837
  0
VERTEX
  8
0
 62
7
 10
21.75912125
 20
1.82578161
  0
VERTEX
  8
0
 62
7
 10
21.72358803
 20
1.82963440
  0
VERTEX
  8
0
 62
7
 10
21.68837969
 20
1.83521158
  0
VERTEX
  8
0
 62
7
 10
21.65367117
 20
1.84298798
  0
VERTEX
  8
0
 62
7
 10
21.61963742
 20
1.85343843
  0
VERTEX
  8
0
 62
7
 10
21.58645336
 20
1.86703776
  0
VERTEX
  8
0
 62
7
 10
21.55429394
 20
1.88426080
  0
VERTEX
  8
0
 62
7
 10
21.53625451
 20
1.89554636
  0
VERTEX
  8
0
 62
7
 10
21.51834003
 20
1.90716931
  0
VERTEX
  8
0
 62
7
 10
21.50087540
 20
1.91936705
  0
VERTEX
  8
0
 62
7
 10
21.48418549
 20
1.93237701
  0
VERTEX
  8
0
 62
7
 10
21.46859518
 20
1.94643659
  0
VERTEX
  8
0
 62
7
 10
21.45442938
 20
1.96178321
  0
VERTEX
  8
0
 62
7
 10
21.44201295
 20
1.97865429
  0
VERTEX
  8
0
 62
7
 10
21.43167079
 20
1.99728724
  0
VERTEX
  8
0
 62
7
 10
21.42089128
 20
2.02662680
  0
VERTEX
  8
0
 62
7
 10
21.41421032
 20
2.05686604
  0
VERTEX
  8
0
 62
7
 10
21.41172787
 20
2.08770507
  0
VERTEX
  8
0
 62
7
 10
21.41354389
 20
2.11884399
  0
VERTEX
  8
0
 62
7
 10
21.41617629
 20
2.14101943
  0
VERTEX
  8
0
 62
7
 10
21.42100791
 20
2.16269505
  0
VERTEX
  8
0
 62
7
 10
21.42823867
 20
2.18377089
  0
VERTEX
  8
0
 62
7
 10
21.43806852
 20
2.20414697
  0
VERTEX
  8
0
 62
7
 10
21.40777927
 20
2.25106361
  0
VERTEX
  8
0
 62
7
 10
21.37009264
 20
2.29238224
  0
VERTEX
  8
0
 62
7
 10
21.32560843
 20
2.32770300
  0
VERTEX
  8
0
 62
7
 10
21.27492641
 20
2.35662605
  0
VERTEX
  8
0
 62
7
 10
21.25254894
 20
2.36537293
  0
VERTEX
  8
0
 62
7
 10
21.22885943
 20
2.37162071
  0
VERTEX
  8
0
 62
7
 10
21.20424525
 20
2.37536938
  0
VERTEX
  8
0
 62
7
 10
21.17909376
 20
2.37661893
  0
VERTEX
  8
0
 62
7
 10
21.15379232
 20
2.37536938
  0
VERTEX
  8
0
 62
7
 10
21.12872830
 20
2.37162071
  0
VERTEX
  8
0
 62
7
 10
21.10428905
 20
2.36537293
  0
VERTEX
  8
0
 62
7
 10
21.08086195
 20
2.35662605
  0
VERTEX
  8
0
 62
7
 10
21.05450464
 20
2.34466364
  0
VERTEX
  8
0
 62
7
 10
21.02994669
 20
2.32970229
  0
VERTEX
  8
0
 62
7
 10
21.00738802
 20
2.31194195
  0
VERTEX
  8
0
 62
7
 10
20.98702858
 20
2.29158252
  0
VERTEX
  8
0
 62
7
 10
20.92875135
 20
2.28944162
  0
VERTEX
  8
0
 62
7
 10
20.87188611
 20
2.28005329
  0
VERTEX
  8
0
 62
7
 10
20.81704516
 20
2.26376742
  0
VERTEX
  8
0
 62
7
 10
20.76484077
 20
2.24093388
  0
VERTEX
  8
0
 62
7
 10
20.71588522
 20
2.21190254
  0
VERTEX
  8
0
 62
7
 10
20.67079081
 20
2.17702329
  0
VERTEX
  8
0
 62
7
 10
20.63016981
 20
2.13664599
  0
VERTEX
  8
0
 62
7
 10
20.59463450
 20
2.09112052
  0
VERTEX
  8
0
 62
7
 10
20.57239031
 20
2.05627042
  0
VERTEX
  8
0
 62
7
 10
20.55363239
 20
2.01984588
  0
VERTEX
  8
0
 62
7
 10
20.53834823
 20
1.98207183
  0
VERTEX
  8
0
 62
7
 10
20.52652534
 20
1.94317317
  0
VERTEX
  8
0
 62
7
 10
20.51815123
 20
1.90337483
  0
VERTEX
  8
0
 62
7
 10
20.51321340
 20
1.86290173
  0
VERTEX
  8
0
 62
7
 10
20.51169935
 20
1.82197879
  0
VERTEX
  8
0
 62
7
 10
20.51359659
 20
1.78083093
  0
VERTEX
  8
0
 62
7
 10
20.51689126
 20
1.74541645
  0
VERTEX
  8
0
 62
7
 10
20.52276001
 20
1.71043932
  0
VERTEX
  8
0
 62
7
 10
20.53117786
 20
1.67603697
  0
VERTEX
  8
0
 62
7
 10
20.54211981
 20
1.64234688
  0
VERTEX
  8
0
 62
7
 10
20.55556087
 20
1.60950648
  0
VERTEX
  8
0
 62
7
 10
20.57147605
 20
1.57765323
  0
VERTEX
  8
0
 62
7
 10
20.58984037
 20
1.54692458
  0
VERTEX
  8
0
 62
7
 10
20.61062883
 20
1.51745798
  0
VERTEX
  8
0
 62
7
 10
20.60897629
 20
1.47667848
  0
VERTEX
  8
0
 62
7
 10
20.61000405
 20
1.43603487
  0
VERTEX
  8
0
 62
7
 10
20.61369336
 20
1.39571302
  0
VERTEX
  8
0
 62
7
 10
20.62002549
 20
1.35589881
  0
VERTEX
  8
0
 62
7
 10
20.62898169
 20
1.31677809
  0
VERTEX
  8
0
 62
7
 10
20.64054321
 20
1.27853675
  0
VERTEX
  8
0
 62
7
 10
20.65469131
 20
1.24136066
  0
VERTEX
  8
0
 62
7
 10
20.67140726
 20
1.20543568
  0
VERTEX
  8
0
 62
7
 10
20.69067230
 20
1.17094769
  0
VERTEX
  8
0
 62
7
 10
20.71246769
 20
1.13808256
  0
VERTEX
  8
0
 62
7
 10
20.73677468
 20
1.10702617
  0
VERTEX
  8
0
 62
7
 10
20.76357455
 20
1.07796437
  0
VERTEX
  8
0
 62
7
 10
20.79284854
 20
1.05108305
  0
VERTEX
  8
0
 62
7
 10
20.82457790
 20
1.02656808
  0
VERTEX
  8
0
 62
7
 10
20.85874390
 20
1.00460532
  0
VERTEX
  8
0
 62
7
 10
20.89532779
 20
.98538065
  0
VERTEX
  8
0
 62
7
 10
20.93575719
 20
.96835546
  0
VERTEX
  8
0
 62
7
 10
20.97764858
 20
.95534134
  0
VERTEX
  8
0
 62
7
 10
21.02066456
 20
.94585097
  0
VERTEX
  8
0
 62
7
 10
21.06446777
 20
.93939701
  0
VERTEX
  8
0
 62
7
 10
21.10872081
 20
.93549215
  0
VERTEX
  8
0
 62
7
 10
21.15308632
 20
.93364906
  0
VERTEX
  8
0
 62
7
 10
21.19722690
 20
.93338040
  0
VERTEX
  8
0
 62
7
 10
21.24080519
 20
.93419886
  0
VERTEX
  8
0
 62
7
 10
21.28171567
 20
.93644806
  0
VERTEX
  8
0
 62
7
 10
21.32277610
 20
.94139630
  0
VERTEX
  8
0
 62
7
 10
21.36383653
 20
.94874369
  0
VERTEX
  8
0
 62
7
 10
21.40474701
 20
.95819032
  0
VERTEX
  8
0
 62
7
 10
21.44535760
 20
.96943632
  0
VERTEX
  8
0
 62
7
 10
21.48551835
 20
.98218179
  0
VERTEX
  8
0
 62
7
 10
21.52507931
 20
.99612683
  0
VERTEX
  8
0
 62
7
 10
21.56389053
 20
1.01097154
  0
VERTEX
  8
0
 62
7
 10
21.61825457
 20
1.03437988
  0
VERTEX
  8
0
 62
7
 10
21.67091922
 20
1.06148690
  0
VERTEX
  8
0
 62
7
 10
21.72178450
 20
1.09239257
  0
VERTEX
  8
0
 62
7
 10
21.77075046
 20
1.12719685
  0
VERTEX
  8
0
 62
7
 10
21.81293965
 20
1.09456888
  0
VERTEX
  8
0
 62
7
 10
21.85835270
 20
1.06790129
  0
VERTEX
  8
0
 62
7
 10
21.90641481
 20
1.04725655
  0
VERTEX
  8
0
 62
7
 10
21.95655119
 20
1.03269715
  0
VERTEX
  8
0
 62
7
 10
22.00818703
 20
1.02428556
  0
VERTEX
  8
0
 62
7
 10
22.06074754
 20
1.02208426
  0
VERTEX
  8
0
 62
7
 10
22.11365793
 20
1.02615572
  0
VERTEX
  8
0
 62
7
 10
22.16634340
 20
1.03656244
  0
VERTEX
  8
0
 62
7
 10
22.21206676
 20
1.05119681
  0
VERTEX
  8
0
 62
7
 10
22.25542845
 20
1.07086690
  0
VERTEX
  8
0
 62
7
 10
22.29606612
 20
1.09521032
  0
VERTEX
  8
0
 62
7
 10
22.33361737
 20
1.12386471
  0
VERTEX
  8
0
 62
7
 10
22.36771985
 20
1.15646769
  0
VERTEX
  8
0
 62
7
 10
22.39801119
 20
1.19265689
  0
VERTEX
  8
0
 62
7
 10
22.42412900
 20
1.23206995
  0
VERTEX
  8
0
 62
7
 10
22.44571093
 20
1.27434449
  0
VERTEX
  8
0
 62
7
 10
22.47797448
 20
1.25256266
  0
VERTEX
  8
0
 62
7
 10
22.51148758
 20
1.23364231
  0
VERTEX
  8
0
 62
7
 10
22.54610030
 20
1.21764592
  0
VERTEX
  8
0
 62
7
 10
22.58166268
 20
1.20463596
  0
VERTEX
  8
0
 62
7
 10
22.61802478
 20
1.19467493
  0
VERTEX
  8
0
 62
7
 10
22.65503664
 20
1.18782528
  0
VERTEX
  8
0
 62
7
 10
22.69254833
 20
1.18414950
  0
VERTEX
  8
0
 62
7
 10
22.73040989
 20
1.18371008
  0
VERTEX
  8
0
 62
7
 10
22.78757294
 20
1.18787526
  0
VERTEX
  8
0
 62
7
 10
22.84463602
 20
1.19863810
  0
VERTEX
  8
0
 62
7
 10
22.90029960
 20
1.21579866
  0
VERTEX
  8
0
 62
7
 10
22.95326414
 20
1.23915701
  0
VERTEX
  8
0
 62
7
 10
23.01197664
 20
1.27229522
  0
VERTEX
  8
0
 62
7
 10
23.06629070
 20
1.31233098
  0
VERTEX
  8
0
 62
7
 10
23.11580646
 20
1.35896438
  0
VERTEX
  8
0
 62
7
 10
23.16012406
 20
1.41189555
  0
VERTEX
  8
0
 62
7
 10
23.18374901
 20
1.44708303
  0
VERTEX
  8
0
 62
7
 10
23.20437503
 20
1.48386994
  0
VERTEX
  8
0
 62
7
 10
23.22100246
 20
1.52225628
  0
VERTEX
  8
0
 62
7
 10
23.23263166
 20
1.56224205
  0
VERTEX
  8
0
 62
7
 10
23.24102868
 20
1.60361066
  0
VERTEX
  8
0
 62
7
 10
23.24542712
 20
1.64447945
  0
VERTEX
  8
0
 62
7
 10
23.24582698
 20
1.68474846
  0
VERTEX
  8
0
 62
7
 10
23.24222826
 20
1.72431771
  0
VERTEX
  8
0
 62
7
 10
23.20537467
 20
1.72006922
  0
VERTEX
  8
0
 62
7
 10
23.16892094
 20
1.72311814
  0
VERTEX
  8
0
 62
7
 10
23.13366678
 20
1.73316456
  0
VERTEX
  8
0
 62
7
 10
23.10041192
 20
1.74990860
  0
VERTEX
  8
0
 62
7
 10
23.08211633
 20
1.76349752
  0
VERTEX
  8
0
 62
7
 10
23.06620739
 20
1.77924816
  0
VERTEX
  8
0
 62
7
 10
23.05237272
 20
1.79682316
  0
VERTEX
  8
0
 62
7
 10
23.04029992
 20
1.81588513
  0
VERTEX
  8
0
 62
7
 10
23.02967661
 20
1.83609669
  0
VERTEX
  8
0
 62
7
 10
23.02019039
 20
1.85712045
  0
VERTEX
  8
0
 62
7
 10
23.01152888
 20
1.87861905
  0
VERTEX
  8
0
 62
7
 10
23.00337969
 20
1.90025511
  0
VERTEX
  8
0
 62
7
 10
22.99673205
 20
1.92563149
  0
VERTEX
  8
0
 62
7
 10
22.99258352
 20
1.95132027
  0
VERTEX
  8
0
 62
7
 10
22.99063421
 20
1.97723396
  0
VERTEX
  8
0
 62
7
 10
22.99058423
 20
2.00328511
  0
VERTEX
  8
0
 62
7
 10
22.99213368
 20
2.02938624
  0
VERTEX
  8
0
 62
7
 10
22.99498267
 20
2.05544988
  0
VERTEX
  8
0
 62
7
 10
22.99883130
 20
2.08138857
  0
VERTEX
  8
0
 62
7
 10
23.00337969
 20
2.10711483
  0
VERTEX
  8
0
 62
7
 10
23.00971077
 20
2.14206906
  0
VERTEX
  8
0
 62
7
 10
23.01884087
 20
2.17642350
  0
VERTEX
  8
0
 62
7
 10
23.03037011
 20
2.20997823
  0
VERTEX
  8
0
 62
7
 10
23.04389864
 20
2.24253331
  0
VERTEX
  8
0
 62
7
 10
23.02790432
 20
2.25746133
  0
VERTEX
  8
0
 62
7
 10
22.97352362
 20
2.30544426
  0
VERTEX
  8
0
 62
7
 10
22.75600081
 20
2.30544426
  0
VERTEX
  8
0
 62
7
 10
22.75600081
 20
2.68077737
  0
VERTEX
  8
0
 62
7
 10
22.59525786
 20
2.69665505
  0
VERTEX
  8
0
 62
7
 10
22.43851348
 20
2.71423213
  0
VERTEX
  8
0
 62
7
 10
22.28456811
 20
2.73400843
  0
VERTEX
  8
0
 62
7
 10
22.13222218
 20
2.75648376
  0
SEQEND
  0
POLYLINE
  8
0
 62
7
 66
1
 70
1
  0
VERTEX
  8
0
 62
7
 10
23.99930630
 20
1.03473853
  0
VERTEX
  8
0
 62
7
 10
25.42600000
 20
1.03473853
  0
VERTEX
  8
0
 62
7
 10
25.33656507
 20
1.06206214
  0
VERTEX
  8
0
 62
7
 10
25.24792986
 20
1.09338433
  0
VERTEX
  8
0
 62
7
 10
25.18223651
 20
1.11722585
  0
VERTEX
  8
0
 62
7
 10
25.11584340
 20
1.14256683
  0
VERTEX
  8
0
 62
7
 10
25.05044994
 20
1.17210632
  0
VERTEX
  8
0
 62
7
 10
24.98775552
 20
1.20854335
  0
VERTEX
  8
0
 62
7
 10
24.93054249
 20
1.24687971
  0
VERTEX
  8
0
 62
7
 10
24.87632840
 20
1.28891476
  0
VERTEX
  8
0
 62
7
 10
24.82611289
 20
1.33554816
  0
VERTEX
  8
0
 62
7
 10
24.78089560
 20
1.38767961
  0
VERTEX
  8
0
 62
7
 10
24.76032582
 20
1.41750025
  0
VERTEX
  8
0
 62
7
 10
24.74109306
 20
1.44850797
  0
VERTEX
  8
0
 62
7
 10
24.72333478
 20
1.48059030
  0
VERTEX
  8
0
 62
7
 10
24.70718842
 20
1.51363479
  0
VERTEX
  8
0
 62
7
 10
24.69279145
 20
1.54752898
  0
VERTEX
  8
0
 62
7
 10
24.68028131
 20
1.58216041
  0
VERTEX
  8
0
 62
7
 10
24.66979544
 20
1.61741661
  0
VERTEX
  8
0
 62
7
 10
24.66147132
 20
1.65318514
  0
VERTEX
  8
0
 62
7
 10
24.65431344
 20
1.71621896
  0
VERTEX
  8
0
 62
7
 10
24.65479035
 20
1.77879044
  0
VERTEX
  8
0
 62
7
 10
24.66223979
 20
1.84063718
  0
VERTEX
  8
0
 62
7
 10
24.67599949
 20
1.90149678
  0
VERTEX
  8
0
 62
7
 10
24.69540719
 20
1.96110682
  0
VERTEX
  8
0
 62
7
 10
24.71980062
 20
2.01920489
  0
VERTEX
  8
0
 62
7
 10
24.74851751
 20
2.07552860
  0
VERTEX
  8
0
 62
7
 10
24.78089560
 20
2.12981553
  0
VERTEX
  8
0
 62
7
 10
24.81305086
 20
2.17799839
  0
VERTEX
  8
0
 62
7
 10
24.84860491
 20
2.22338224
  0
VERTEX
  8
0
 62
7
 10
24.88735782
 20
2.26596709
  0
VERTEX
  8
0
 62
7
 10
24.92910967
 20
2.30575293
  0
VERTEX
  8
0
 62
7
 10
24.00037259
 20
2.30575293
  0
VERTEX
  8
0
 62
7
 10
23.07056923
 20
2.30575293
  0
VERTEX
  8
0
 62
7
 10
23.11232108
 20
2.26596709
  0
VERTEX
  8
0
 62
7
 10
23.15107399
 20
2.22338224
  0
VERTEX
  8
0
 62
7
 10
23.18662804
 20
2.17799839
  0
VERTEX
  8
0
 62
7
 10
23.21878330
 20
2.12981553
  0
VERTEX
  8
0
 62
7
 10
23.25116139
 20
2.07552860
  0
VERTEX
  8
0
 62
7
 10
23.27987828
 20
2.01920489
  0
VERTEX
  8
0
 62
7
 10
23.30427171
 20
1.96110682
  0
VERTEX
  8
0
 62
7
 10
23.32367940
 20
1.90149678
  0
VERTEX
  8
0
 62
7
 10
23.33743910
 20
1.84063718
  0
VERTEX
  8
0
 62
7
 10
23.34488854
 20
1.77879044
  0
VERTEX
  8
0
 62
7
 10
23.34536546
 20
1.71621896
  0
VERTEX
  8
0
 62
7
 10
23.33820758
 20
1.65318514
  0
VERTEX
  8
0
 62
7
 10
23.32988345
 20
1.61741661
  0
VERTEX
  8
0
 62
7
 10
23.31939759
 20
1.58216041
  0
VERTEX
  8
0
 62
7
 10
23.30688745
 20
1.54752898
  0
VERTEX
  8
0
 62
7
 10
23.29249047
 20
1.51363479
  0
VERTEX
  8
0
 62
7
 10
23.27634412
 20
1.48059030
  0
VERTEX
  8
0
 62
7
 10
23.25858584
 20
1.44850797
  0
VERTEX
  8
0
 62
7
 10
23.23935308
 20
1.41750025
  0
VERTEX
  8
0
 62
7
 10
23.21878330
 20
1.38767961
  0
VERTEX
  8
0
 62
7
 10
23.17356601
 20
1.33554816
  0
VERTEX
  8
0
 62
7
 10
23.12335050
 20
1.28891476
  0
VERTEX
  8
0
 62
7
 10
23.06913640
 20
1.24687971
  0
VERTEX
  8
0
 62
7
 10
23.01192337
 20
1.20854335
  0
VERTEX
  8
0
 62
7
 10
22.94922896
 20
1.17210632
  0
VERTEX
  8
0
 62
7
 10
22.88383550
 20
1.14256683
  0
VERTEX
  8
0
 62
7
 10
22.81744239
 20
1.11722585
  0
VERTEX
  8
0
 62
7
 10
22.75174904
 20
1.09338433
  0
VERTEX
  8
0
 62
7
 10
22.66311383
 20
1.06206214
  0
VERTEX
  8
0
 62
7
 10
22.57367890
 20
1.03473853
  0
VERTEX
  8
0
 62
7
 10
23.99930630
 20
1.03473853
  0
SEQEND
  0
POLYLINE
  8
0
 62
7
 66
1
 70
1
  0
VERTEX
  8
0
 62
7
 10
23.99952017
 20
.71200000
  0
VERTEX
  8
0
 62
7
 10
25.84100000
 20
.71200000
  0
VERTEX
  8
0
 62
7
 10
25.84100000
 20
.97004151
  0
VERTEX
  8
0
 62
7
 10
24.00058646
 20
.97004151
  0
VERTEX
  8
0
 62
7
 10
22.15910663
 20
.97004151
  0
VERTEX
  8
0
 62
7
 10
22.15910663
 20
.71200000
  0
VERTEX
  8
0
 62
7
 10
23.99952017
 20
.71200000
  0
SEQEND
  0
POLYLINE
  8
0
 62
7
 66
1
 70
1
  0
VERTEX
  8
0
 62
7
 10
23.99961889
 20
2.36900000
  0
VERTEX
  8
0
 62
7
 10
25.18000000
 20
2.36900000
  0
VERTEX
  8
0
 62
7
 10
25.18000000
 20
2.63450552
  0
VERTEX
  8
0
 62
7
 10
24.00068518
 20
2.63450552
  0
VERTEX
  8
0
 62
7
 10
22.82030407
 20
2.63450552
  0
VERTEX
  8
0
 62
7
 10
22.82030407
 20
2.36900000
  0
VERTEX
  8
0
 62
7
 10
23.99961889
 20
2.36900000
  0
SEQEND
  0
POLYLINE
  8
0
 62
7
 66
1
 70
1
  0
VERTEX
  8
0
 62
7
 10
24.00010055
 20
2.69592501
  0
VERTEX
  8
0
 62
7
 10
24.16975701
 20
2.69244291
  0
VERTEX
  8
0
 62
7
 10
24.33931350
 20
2.69205972
  0
VERTEX
  8
0
 62
7
 10
24.50827021
 20
2.69547517
  0
VERTEX
  8
0
 62
7
 10
24.67612731
 20
2.70338902
  0
VERTEX
  8
0
 62
7
 10
24.91534658
 20
2.71899388
  0
VERTEX
  8
0
 62
7
 10
25.14079574
 20
2.73606073
  0
VERTEX
  8
0
 62
7
 10
25.35549871
 20
2.75555171
  0
VERTEX
  8
0
 62
7
 10
25.56247942
 20
2.77842898
  0
VERTEX
  8
0
 62
7
 10
25.76476181
 20
2.80565471
  0
VERTEX
  8
0
 62
7
 10
25.96536978
 20
2.83819105
  0
VERTEX
  8
0
 62
7
 10
26.16732728
 20
2.87700016
  0
VERTEX
  8
0
 62
7
 10
26.37365822
 20
2.92304419
  0
VERTEX
  8
0
 62
7
 10
26.50139622
 20
2.95348336
  0
VERTEX
  8
0
 62
7
 10
26.62863440
 20
2.98582185
  0
VERTEX
  8
0
 62
7
 10
26.75527279
 20
3.02035956
  0
VERTEX
  8
0
 62
7
 10
26.88121143
 20
3.05739638
  0
VERTEX
  8
0
 62
7
 10
26.95566340
 20
3.08083101
  0
VERTEX
  8
0
 62
7
 10
27.02978579
 20
3.10562297
  0
VERTEX
  8
0
 62
7
 10
27.10344897
 20
3.13188004
  0
VERTEX
  8
0
 62
7
 10
27.17652330
 20
3.15970998
  0
VERTEX
  8
0
 62
7
 10
27.24887913
 20
3.18922057
  0
VERTEX
  8
0
 62
7
 10
27.32038683
 20
3.22051959
  0
VERTEX
  8
0
 62
7
 10
27.39091675
 20
3.25371481
  0
VERTEX
  8
0
 62
7
 10
27.46033925
 20
3.28891400
  0
VERTEX
  8
0
 62
7
 10
27.52852468
 20
3.32622494
  0
VERTEX
  8
0
 62
7
 10
27.59534342
 20
3.36575541
  0
VERTEX
  8
0
 62
7
 10
27.66066581
 20
3.40761317
  0
VERTEX
  8
0
 62
7
 10
27.72436222
 20
3.45190600
  0
VERTEX
  8
0
 62
7
 10
27.78630300
 20
3.49874168
  0
VERTEX
  8
0
 62
7
 10
27.84635851
 20
3.54822798
  0
VERTEX
  8
0
 62
7
 10
27.90439911
 20
3.60047267
  0
VERTEX
  8
0
 62
7
 10
27.96029516
 20
3.65558353
  0
VERTEX
  8
0
 62
7
 10
28.03658475
 20
3.73852068
  0
VERTEX
  8
0
 62
7
 10
28.10837594
 20
3.82565634
  0
VERTEX
  8
0
 62
7
 10
28.17516890
 20
3.91679058
  0
VERTEX
  8
0
 62
7
 10
28.23646382
 20
4.01172347
  0
VERTEX
  8
0
 62
7
 10
24.00010055
 20
4.01172347
  0
VERTEX
  8
0
 62
7
 10
19.76373728
 20
4.01172347
  0
VERTEX
  8
0
 62
7
 10
19.82503219
 20
3.91679058
  0
VERTEX
  8
0
 62
7
 10
19.89182516
 20
3.82565634
  0
VERTEX
  8
0
 62
7
 10
19.96361635
 20
3.73852068
  0
VERTEX
  8
0
 62
7
 10
20.03990594
 20
3.65558353
  0
VERTEX
  8
0
 62
7
 10
20.09580199
 20
3.60047267
  0
VERTEX
  8
0
 62
7
 10
20.15384259
 20
3.54822798
  0
VERTEX
  8
0
 62
7
 10
20.21389810
 20
3.49874168
  0
VERTEX
  8
0
 62
7
 10
20.27583888
 20
3.45190600
  0
VERTEX
  8
0
 62
7
 10
20.33953528
 20
3.40761317
  0
VERTEX
  8
0
 62
7
 10
20.40485768
 20
3.36575541
  0
VERTEX
  8
0
 62
7
 10
20.47167641
 20
3.32622494
  0
VERTEX
  8
0
 62
7
 10
20.53986185
 20
3.28891400
  0
VERTEX
  8
0
 62
7
 10
20.60928435
 20
3.25371481
  0
VERTEX
  8
0
 62
7
 10
20.67981427
 20
3.22051959
  0
VERTEX
  8
0
 62
7
 10
20.75132196
 20
3.18922057
  0
VERTEX
  8
0
 62
7
 10
20.82367779
 20
3.15970998
  0
VERTEX
  8
0
 62
7
 10
20.89675212
 20
3.13188004
  0
VERTEX
  8
0
 62
7
 10
20.97041530
 20
3.10562297
  0
VERTEX
  8
0
 62
7
 10
21.04453770
 20
3.08083101
  0
VERTEX
  8
0
 62
7
 10
21.11898966
 20
3.05739638
  0
VERTEX
  8
0
 62
7
 10
21.24492830
 20
3.02035956
  0
VERTEX
  8
0
 62
7
 10
21.37156669
 20
2.98582185
  0
VERTEX
  8
0
 62
7
 10
21.49880487
 20
2.95348336
  0
VERTEX
  8
0
 62
7
 10
21.62654287
 20
2.92304419
  0
VERTEX
  8
0
 62
7
 10
21.83287382
 20
2.87700016
  0
VERTEX
  8
0
 62
7
 10
22.03483131
 20
2.83819105
  0
VERTEX
  8
0
 62
7
 10
22.23543929
 20
2.80565471
  0
VERTEX
  8
0
 62
7
 10
22.43772167
 20
2.77842898
  0
VERTEX
  8
0
 62
7
 10
22.64470238
 20
2.75555171
  0
VERTEX
  8
0
 62
7
 10
22.85940536
 20
2.73606073
  0
VERTEX
  8
0
 62
7
 10
23.08485452
 20
2.71899388
  0
VERTEX
  8
0
 62
7
 10
23.32407379
 20
2.70338902
  0
VERTEX
  8
0
 62
7
 10
23.49193089
 20
2.69547517
  0
VERTEX
  8
0
 62
7
 10
23.66088759
 20
2.69205972
  0
VERTEX
  8
0
 62
7
 10
23.83044409
 20
2.69244291
  0
VERTEX
  8
0
 62
7
 10
24.00010055
 20
2.69592501
  0
SEQEND
  0
POLYLINE
  8
0
 62
7
 66
1
 70
1
  0
VERTEX
  8
0
 62
7
 10
18.33400000
 20
5.94785002
  0
VERTEX
  8
0
 62
7
 10
18.33400000
 20
5.79003950
  0
VERTEX
  8
0
 62
7
 10
18.38384898
 20
5.81083211
  0
VERTEX
  8
0
 62
7
 10
18.43529738
 20
5.82842585
  0
VERTEX
  8
0
 62
7
 10
18.46387474
 20
5.83571492
  0
VERTEX
  8
0
 62
7
 10
18.49277699
 20
5.84215429
  0
VERTEX
  8
0
 62
7
 10
18.52192914
 20
5.84739410
  0
VERTEX
  8
0
 62
7
 10
18.55125623
 20
5.85108445
  0
VERTEX
  8
0
 62
7
 10
18.58068329
 20
5.85287548
  0
VERTEX
  8
0
 62
7
 10
18.61013534
 20
5.85241731
  0
VERTEX
  8
0
 62
7
 10
18.63953740
 20
5.84936006
  0
VERTEX
  8
0
 62
7
 10
18.66881451
 20
5.84335387
  0
VERTEX
  8
0
 62
7
 10
18.70320231
 20
5.83557330
  0
VERTEX
  8
0
 62
7
 10
18.73679039
 20
5.82429398
  0
VERTEX
  8
0
 62
7
 10
18.76837918
 20
5.80841630
  0
VERTEX
  8
0
 62
7
 10
18.79676911
 20
5.78684064
  0
VERTEX
  8
0
 62
7
 10
18.81614556
 20
5.76743088
  0
VERTEX
  8
0
 62
7
 10
18.83342277
 20
5.74592187
  0
VERTEX
  8
0
 62
7
 10
18.84730117
 20
5.72221364
  0
VERTEX
  8
0
 62
7
 10
18.85648125
 20
5.69620623
  0
VERTEX
  8
0
 62
7
 10
18.86107753
 20
5.66166852
  0
VERTEX
  8
0
 62
7
 10
18.85846388
 20
5.62823042
  0
VERTEX
  8
0
 62
7
 10
18.84922757
 20
5.59679160
  0
VERTEX
  8
0
 62
7
 10
18.83395591
 20
5.56825176
  0
VERTEX
  8
0
 62
7
 10
18.81323618
 20
5.54351056
  0
VERTEX
  8
0
 62
7
 10
18.78765567
 20
5.52346769
  0
VERTEX
  8
0
 62
7
 10
18.75780168
 20
5.50902283
  0
VERTEX
  8
0
 62
7
 10
18.72426150
 20
5.50107566
  0
VERTEX
  8
0
 62
7
 10
18.74946923
 20
5.46525507
  0
VERTEX
  8
0
 62
7
 10
18.78117464
 20
5.43523242
  0
VERTEX
  8
0
 62
7
 10
18.81827814
 20
5.41200735
  0
VERTEX
  8
0
 62
7
 10
18.85968011
 20
5.39657951
  0
VERTEX
  8
0
 62
7
 10
18.89358475
 20
5.39039838
  0
VERTEX
  8
0
 62
7
 10
18.92778928
 20
5.38951536
  0
VERTEX
  8
0
 62
7
 10
18.96179388
 20
5.39403042
  0
VERTEX
  8
0
 62
7
 10
18.99509872
 20
5.40404352
  0
VERTEX
  8
0
 62
7
 10
19.03088602
 20
5.38751607
  0
VERTEX
  8
0
 62
7
 10
19.06787290
 20
5.37338776
  0
VERTEX
  8
0
 62
7
 10
19.10605935
 20
5.36205846
  0
VERTEX
  8
0
 62
7
 10
19.14544537
 20
5.35392802
  0
VERTEX
  8
0
 62
7
 10
19.17804630
 20
5.34926926
  0
VERTEX
  8
0
 62
7
 10
19.21092213
 20
5.34664728
  0
VERTEX
  8
0
 62
7
 10
19.24384795
 20
5.34629949
  0
VERTEX
  8
0
 62
7
 10
19.27659882
 20
5.34846330
  0
VERTEX
  8
0
 62
7
 10
19.30894984
 20
5.35337613
  0
VERTEX
  8
0
 62
7
 10
19.34067608
 20
5.36127541
  0
VERTEX
  8
0
 62
7
 10
19.37155263
 20
5.37239853
  0
VERTEX
  8
0
 62
7
 10
19.40135455
 20
5.38698293
  0
VERTEX
  8
0
 62
7
 10
19.43689194
 20
5.40986020
  0
VERTEX
  8
0
 62
7
 10
19.46893057
 20
5.43664859
  0
VERTEX
  8
0
 62
7
 10
19.49717055
 20
5.46696072
  0
VERTEX
  8
0
 62
7
 10
19.52131198
 20
5.50040923
  0
VERTEX
  8
0
 62
7
 10
19.54105497
 20
5.53660677
  0
VERTEX
  8
0
 62
7
 10
19.55609964
 20
5.57516596
  0
VERTEX
  8
0
 62
7
 10
19.56614607
 20
5.61569946
  0
VERTEX
  8
0
 62
7
 10
19.57089438
 20
5.65781989
  0
VERTEX
  8
0
 62
7
 10
19.60928076
 20
5.69194108
  0
VERTEX
  8
0
 62
7
 10
19.62366082
 20
5.70669729
  0
VERTEX
  8
0
 62
7
 10
19.63530278
 20
5.72247188
  0
VERTEX
  8
0
 62
7
 10
19.64434254
 20
5.73910867
  0
VERTEX
  8
0
 62
7
 10
19.65091599
 20
5.75645146
  0
VERTEX
  8
0
 62
7
 10
19.65515901
 20
5.77434405
  0
VERTEX
  8
0
 62
7
 10
19.65720750
 20
5.79263025
  0
VERTEX
  8
0
 62
7
 10
19.65719735
 20
5.81115387
  0
VERTEX
  8
0
 62
7
 10
19.65526444
 20
5.82975870
  0
VERTEX
  8
0
 62
7
 10
19.65154467
 20
5.84828857
  0
VERTEX
  8
0
 62
7
 10
19.64617392
 20
5.86658727
  0
VERTEX
  8
0
 62
7
 10
19.63928808
 20
5.88449860
  0
VERTEX
  8
0
 62
7
 10
19.63102305
 20
5.90186638
  0
VERTEX
  8
0
 62
7
 10
19.62151470
 20
5.91853441
  0
VERTEX
  8
0
 62
7
 10
19.61089894
 20
5.93434649
  0
VERTEX
  8
0
 62
7
 10
19.59931164
 20
5.94914643
  0
VERTEX
  8
0
 62
7
 10
19.58688871
 20
5.96277804
  0
VERTEX
  8
0
 62
7
 10
19.55628290
 20
5.99095135
  0
VERTEX
  8
0
 62
7
 10
19.52197841
 20
6.01782512
  0
VERTEX
  8
0
 62
7
 10
19.48387527
 20
6.04329939
  0
VERTEX
  8
0
 62
7
 10
19.44187350
 20
6.06727419
  0
VERTEX
  8
0
 62
7
 10
19.39805572
 20
6.08615080
  0
VERTEX
  8
0
 62
7
 10
19.35123900
 20
6.10072895
  0
VERTEX
  8
0
 62
7
 10
19.30122342
 20
6.11270802
  0
VERTEX
  8
0
 62
7
 10
19.24780904
 20
6.12378741
  0
VERTEX
  8
0
 62
7
 10
19.23927874
 20
6.12485370
  0
VERTEX
  8
0
 62
7
 10
19.18932979
 20
6.13386716
  0
VERTEX
  8
0
 62
7
 10
19.13878107
 20
6.14018158
  0
VERTEX
  8
0
 62
7
 10
19.08783248
 20
6.14389692
  0
VERTEX
  8
0
 62
7
 10
19.03668397
 20
6.14511316
  0
VERTEX
  8
0
 62
7
 10
18.97697182
 20
6.14298058
  0
VERTEX
  8
0
 62
7
 10
18.91632668
 20
6.13788240
  0
VERTEX
  8
0
 62
7
 10
18.85568153
 20
6.12938542
  0
VERTEX
  8
0
 62
7
 10
18.79463653
 20
6.11808944
  0
VERTEX
  8
0
 62
7
 10
18.73279181
 20
6.10459424
  0
VERTEX
  8
0
 62
7
 10
18.62969506
 20
6.07545461
  0
VERTEX
  8
0
 62
7
 10
18.52859761
 20
6.03941743
  0
VERTEX
  8
0
 62
7
 10
18.42989930
 20
5.99678260
  0
VERTEX
  8
0
 62
7
 10
18.33400000
 20
5.94785002
  0
SEQEND
  0
POLYLINE
  8
0
 62
7
 66
1
 70
1
  0
VERTEX
  8
0
 62
7
 10
23.03800000
 20
5.22881587
  0
VERTEX
  8
0
 62
7
 10
23.05414219
 20
5.17259629
  0
VERTEX
  8
0
 62
7
 10
23.06817263
 20
5.11593937
  0
VERTEX
  8
0
 62
7
 10
23.08007882
 20
5.05890758
  0
VERTEX
  8
0
 62
7
 10
23.08984827
 20
5.00156340
  0
VERTEX
  8
0
 62
7
 10
23.09746848
 20
4.94396931
  0
VERTEX
  8
0
 62
7
 10
23.10292696
 20
4.88618779
  0
VERTEX
  8
0
 62
7
 10
23.10621121
 20
4.82828131
  0
VERTEX
  8
0
 62
7
 10
23.10730874
 20
4.77031235
  0
VERTEX
  8
0
 62
7
 10
23.10610916
 20
4.70873427
  0
VERTEX
  8
0
 62
7
 10
23.10251044
 20
4.64715618
  0
VERTEX
  8
0
 62
7
 10
23.09651257
 20
4.58557809
  0
VERTEX
  8
0
 62
7
 10
23.08811555
 20
4.52400000
  0
VERTEX
  8
0
 62
7
 10
23.12369667
 20
4.54400955
  0
VERTEX
  8
0
 62
7
 10
23.15764088
 20
4.56571849
  0
VERTEX
  8
0
 62
7
 10
23.18991067
 20
4.58922679
  0
VERTEX
  8
0
 62
7
 10
23.22046858
 20
4.61463442
  0
VERTEX
  8
0
 62
7
 10
23.24927711
 20
4.64204133
  0
VERTEX
  8
0
 62
7
 10
23.27629877
 20
4.67154750
  0
VERTEX
  8
0
 62
7
 10
23.30149607
 20
4.70325288
  0
VERTEX
  8
0
 62
7
 10
23.32483154
 20
4.73725745
  0
VERTEX
  8
0
 62
7
 10
23.34402473
 20
4.76711349
  0
VERTEX
  8
0
 62
7
 10
23.37921224
 20
4.76711349
  0
VERTEX
  8
0
 62
7
 10
23.60100020
 20
4.76711349
  0
VERTEX
  8
0
 62
7
 10
23.03800000
 20
5.22881587
  0
SEQEND
  0
POLYLINE
  8
0
 62
7
 66
1
 70
1
  0
VERTEX
  8
0
 62
7
 10
23.70169755
 20
4.76800000
  0
VERTEX
  8
0
 62
7
 10
23.72408960
 20
4.76800000
  0
VERTEX
  8
0
 62
7
 10
23.68233775
 20
4.84958763
  0
VERTEX
  8
0
 62
7
 10
23.64358484
 20
4.93287467
  0
VERTEX
  8
0
 62
7
 10
23.60803079
 20
5.01796106
  0
VERTEX
  8
0
 62
7
 10
23.57587553
 20
5.10494677
  0
VERTEX
  8
0
 62
7
 10
23.53730589
 20
5.22823623
  0
VERTEX
  8
0
 62
7
 10
23.50483408
 20
5.35312513
  0
VERTEX
  8
0
 62
7
 10
23.47856007
 20
5.47921359
  0
VERTEX
  8
0
 62
7
 10
23.45858382
 20
5.60610177
  0
VERTEX
  8
0
 62
7
 10
22.42961565
 20
7.69389220
  0
VERTEX
  8
0
 62
7
 10
22.39564437
 20
7.49376341
  0
VERTEX
  8
0
 62
7
 10
22.35617505
 20
7.29483420
  0
VERTEX
  8
0
 62
7
 10
22.31130763
 20
7.09710456
  0
VERTEX
  8
0
 62
7
 10
22.26114210
 20
6.90057449
  0
VERTEX
  8
0
 62
7
 10
22.22440514
 20
6.76928787
  0
VERTEX
  8
0
 62
7
 10
22.18476921
 20
6.63800126
  0
VERTEX
  8
0
 62
7
 10
22.14253420
 20
6.50711450
  0
VERTEX
  8
0
 62
7
 10
22.09800000
 20
6.37702745
  0
VERTEX
  8
0
 62
7
 10
22.17952107
 20
6.32326325
  0
VERTEX
  8
0
 62
7
 10
22.25914281
 20
6.26600029
  0
VERTEX
  8
0
 62
7
 10
22.33656534
 20
6.20533855
  0
VERTEX
  8
0
 62
7
 10
22.41148875
 20
6.14137797
  0
VERTEX
  8
0
 62
7
 10
22.51485207
 20
6.04369606
  0
VERTEX
  8
0
 62
7
 10
22.61301723
 20
5.93971640
  0
VERTEX
  8
0
 62
7
 10
22.70478466
 20
5.82993879
  0
VERTEX
  8
0
 62
7
 10
22.78895479
 20
5.71486307
  0
VERTEX
  8
0
 62
7
 10
22.84553472
 20
5.62741086
  0
VERTEX
  8
0
 62
7
 10
22.89931563
 20
5.53745953
  0
VERTEX
  8
0
 62
7
 10
22.94909796
 20
5.44450927
  0
VERTEX
  8
0
 62
7
 10
22.99368214
 20
5.34806026
  0
VERTEX
  8
0
 62
7
 10
23.07791891
 20
5.27875159
  0
VERTEX
  8
0
 62
7
 10
23.70169755
 20
4.76800000
  0
SEQEND
  0
POLYLINE
  8
0
 62
7
 66
1
 70
1
  0
VERTEX
  8
0
 62
7
 10
18.33400000
 20
6.39844191
  0
VERTEX
  8
0
 62
7
 10
18.33400000
 20
6.02097623
  0
VERTEX
  8
0
 62
7
 10
18.42651717
 20
6.06642672
  0
VERTEX
  8
0
 62
7
 10
18.52153345
 20
6.10627921
  0
VERTEX
  8
0
 62
7
 10
18.61874895
 20
6.13973397
  0
VERTEX
  8
0
 62
7
 10
18.71786377
 20
6.16599130
  0
VERTEX
  8
0
 62
7
 10
18.78124128
 20
6.18131917
  0
VERTEX
  8
0
 62
7
 10
18.84501865
 20
6.19344819
  0
VERTEX
  8
0
 62
7
 10
18.90919587
 20
6.20197849
  0
VERTEX
  8
0
 62
7
 10
18.97377296
 20
6.20651021
  0
VERTEX
  8
0
 62
7
 10
19.04394805
 20
6.20875941
  0
VERTEX
  8
0
 62
7
 10
19.11372329
 20
6.20611035
  0
VERTEX
  8
0
 62
7
 10
19.18309867
 20
6.19886293
  0
VERTEX
  8
0
 62
7
 10
19.25207419
 20
6.18731704
  0
VERTEX
  8
0
 62
7
 10
19.30812097
 20
6.17597108
  0
VERTEX
  8
0
 62
7
 10
19.36376789
 20
6.16292572
  0
VERTEX
  8
0
 62
7
 10
19.41821523
 20
6.14608171
  0
VERTEX
  8
0
 62
7
 10
19.47066329
 20
6.12333981
  0
VERTEX
  8
0
 62
7
 10
19.51598054
 20
6.09898181
  0
VERTEX
  8
0
 62
7
 10
19.55969836
 20
6.07162487
  0
VERTEX
  8
0
 62
7
 10
19.60021731
 20
6.04026937
  0
VERTEX
  8
0
 62
7
 10
19.63593797
 20
6.00391563
  0
VERTEX
  8
0
 62
7
 10
19.65979617
 20
5.97409291
  0
VERTEX
  8
0
 62
7
 10
19.68125522
 20
5.94207097
  0
VERTEX
  8
0
 62
7
 10
19.69951541
 20
5.90764989
  0
VERTEX
  8
0
 62
7
 10
19.71377701
 20
5.87062973
  0
VERTEX
  8
0
 62
7
 10
19.71832540
 20
5.85205509
  0
VERTEX
  8
0
 62
7
 10
19.72217403
 20
5.83319305
  0
VERTEX
  8
0
 62
7
 10
19.72502302
 20
5.81415607
  0
VERTEX
  8
0
 62
7
 10
19.72657247
 20
5.79505662
  0
VERTEX
  8
0
 62
7
 10
19.72652249
 20
5.77600715
  0
VERTEX
  8
0
 62
7
 10
19.72457318
 20
5.75712012
  0
VERTEX
  8
0
 62
7
 10
19.72042465
 20
5.73850799
  0
VERTEX
  8
0
 62
7
 10
19.71377701
 20
5.72028323
  0
VERTEX
  8
0
 62
7
 10
19.70099821
 20
5.69635841
  0
VERTEX
  8
0
 62
7
 10
19.68512051
 20
5.67443288
  0
VERTEX
  8
0
 62
7
 10
19.66624388
 20
5.65490649
  0
VERTEX
  8
0
 62
7
 10
19.64446827
 20
5.63817911
  0
VERTEX
  8
0
 62
7
 10
19.65424814
 20
5.58756379
  0
VERTEX
  8
0
 62
7
 10
19.67072562
 20
5.53874782
  0
VERTEX
  8
0
 62
7
 10
19.69380077
 20
5.49273086
  0
VERTEX
  8
0
 62
7
 10
19.72337361
 20
5.45051255
  0
VERTEX
  8
0
 62
7
 10
19.74366849
 20
5.42827880
  0
VERTEX
  8
0
 62
7
 10
19.76597515
 20
5.40859414
  0
VERTEX
  8
0
 62
7
 10
19.79000621
 20
5.39120866
  0
VERTEX
  8
0
 62
7
 10
19.81547426
 20
5.37587245
  0
VERTEX
  8
0
 62
7
 10
19.84209189
 20
5.36233560
  0
VERTEX
  8
0
 62
7
 10
19.86957172
 20
5.35034820
  0
VERTEX
  8
0
 62
7
 10
19.89762635
 20
5.33966033
  0
VERTEX
  8
0
 62
7
 10
19.92596838
 20
5.33002210
  0
VERTEX
  8
0
 62
7
 10
19.99362770
 20
5.31514406
  0
VERTEX
  8
0
 62
7
 10
20.06178684
 20
5.30856306
  0
VERTEX
  8
0
 62
7
 10
20.12974606
 20
5.30977930
  0
VERTEX
  8
0
 62
7
 10
20.19680559
 20
5.31829294
  0
VERTEX
  8
0
 62
7
 10
20.24593816
 20
5.33093844
  0
VERTEX
  8
0
 62
7
 10
20.29397111
 20
5.34668283
  0
VERTEX
  8
0
 62
7
 10
20.34060456
 20
5.36582602
  0
VERTEX
  8
0
 62
7
 10
20.38553862
 20
5.38866789
  0
VERTEX
  8
0
 62
7
 10
20.42201526
 20
5.39102331
  0
VERTEX
  8
0
 62
7
 10
20.45762970
 20
5.39791460
  0
VERTEX
  8
0
 62
7
 10
20.49201958
 20
5.40907938
  0
VERTEX
  8
0
 62
7
 10
20.52482252
 20
5.42425523
  0
VERTEX
  8
0
 62
7
 10
20.55567616
 20
5.44317975
  0
VERTEX
  8
0
 62
7
 10
20.58421811
 20
5.46559052
  0
VERTEX
  8
0
 62
7
 10
20.61008601
 20
5.49122515
  0
VERTEX
  8
0
 62
7
 10
20.63291749
 20
5.51982123
  0
VERTEX
  8
0
 62
7
 10
20.64731655
 20
5.54327954
  0
VERTEX
  8
0
 62
7
 10
20.65874166
 20
5.56793744
  0
VERTEX
  8
0
 62
7
 10
20.66751772
 20
5.59359497
  0
VERTEX
  8
0
 62
7
 10
20.67396959
 20
5.62005223
  0
VERTEX
  8
0
 62
7
 10
20.67842218
 20
5.64710927
  0
VERTEX
  8
0
 62
7
 10
20.68120036
 20
5.67456616
  0
VERTEX
  8
0
 62
7
 10
20.68262902
 20
5.70222299
  0
VERTEX
  8
0
 62
7
 10
20.68303304
 20
5.72987981
  0
VERTEX
  8
0
 62
7
 10
20.67888452
 20
5.78874220
  0
VERTEX
  8
0
 62
7
 10
20.66663886
 20
5.84650498
  0
VERTEX
  8
0
 62
7
 10
20.64659597
 20
5.90246840
  0
VERTEX
  8
0
 62
7
 10
20.61905575
 20
5.95593271
  0
VERTEX
  8
0
 62
7
 10
20.58076100
 20
6.01407660
  0
VERTEX
  8
0
 62
7
 10
20.53601855
 20
6.06641006
  0
VERTEX
  8
0
 62
7
 10
20.48567808
 20
6.11332045
  0
VERTEX
  8
0
 62
7
 10
20.43058930
 20
6.15519514
  0
VERTEX
  8
0
 62
7
 10
20.37160190
 20
6.19242147
  0
VERTEX
  8
0
 62
7
 10
20.30956558
 20
6.22538683
  0
VERTEX
  8
0
 62
7
 10
20.24533004
 20
6.25447856
  0
VERTEX
  8
0
 62
7
 10
20.17974498
 20
6.28008403
  0
VERTEX
  8
0
 62
7
 10
20.12817995
 20
6.29886068
  0
VERTEX
  8
0
 62
7
 10
20.07591516
 20
6.31513822
  0
VERTEX
  8
0
 62
7
 10
20.02305059
 20
6.32881669
  0
VERTEX
  8
0
 62
7
 10
19.96968620
 20
6.33979612
  0
VERTEX
  8
0
 62
7
 10
19.98461423
 20
6.36965216
  0
VERTEX
  8
0
 62
7
 10
20.04283107
 20
6.36299619
  0
VERTEX
  8
0
 62
7
 10
20.10067304
 20
6.35419099
  0
VERTEX
  8
0
 62
7
 10
20.15806518
 20
6.34318658
  0
VERTEX
  8
0
 62
7
 10
20.21493250
 20
6.32993296
  0
VERTEX
  8
0
 62
7
 10
20.27120003
 20
6.31438016
  0
VERTEX
  8
0
 62
7
 10
20.32679280
 20
6.29647820
  0
VERTEX
  8
0
 62
7
 10
20.38163584
 20
6.27617709
  0
VERTEX
  8
0
 62
7
 10
20.43565417
 20
6.25342685
  0
VERTEX
  8
0
 62
7
 10
20.48906438
 20
6.22810669
  0
VERTEX
  8
0
 62
7
 10
20.54105010
 20
6.20001252
  0
VERTEX
  8
0
 62
7
 10
20.59118647
 20
6.16896940
  0
VERTEX
  8
0
 62
7
 10
20.63904865
 20
6.13480239
  0
VERTEX
  8
0
 62
7
 10
20.68421179
 20
6.09733656
  0
VERTEX
  8
0
 62
7
 10
20.72625104
 20
6.05639696
  0
VERTEX
  8
0
 62
7
 10
20.76474155
 20
6.01180866
  0
VERTEX
  8
0
 62
7
 10
20.79925846
 20
5.96339672
  0
VERTEX
  8
0
 62
7
 10
20.81461760
 20
5.93711440
  0
VERTEX
  8
0
 62
7
 10
20.82916452
 20
5.90748328
  0
VERTEX
  8
0
 62
7
 10
20.84238691
 20
5.87515312
  0
VERTEX
  8
0
 62
7
 10
20.85377245
 20
5.84077369
  0
VERTEX
  8
0
 62
7
 10
20.86280883
 20
5.80499475
  0
VERTEX
  8
0
 62
7
 10
20.86898372
 20
5.76846608
  0
VERTEX
  8
0
 62
7
 10
20.87178481
 20
5.73183745
  0
VERTEX
  8
0
 62
7
 10
20.87069978
 20
5.69575862
  0
VERTEX
  8
0
 62
7
 10
20.86809653
 20
5.67160888
  0
VERTEX
  8
0
 62
7
 10
20.86486851
 20
5.64730919
  0
VERTEX
  8
0
 62
7
 10
20.86069083
 20
5.62310947
  0
VERTEX
  8
0
 62
7
 10
20.85523860
 20
5.59925963
  0
VERTEX
  8
0
 62
7
 10
20.84818693
 20
5.57600956
  0
VERTEX
  8
0
 62
7
 10
20.83921095
 20
5.55360920
  0
VERTEX
  8
0
 62
7
 10
20.82798577
 20
5.53230845
  0
VERTEX
  8
0
 62
7
 10
20.81418650
 20
5.51235721
  0
VERTEX
  8
0
 62
7
 10
20.79646987
 20
5.49172706
  0
VERTEX
  8
0
 62
7
 10
20.77701636
 20
5.47307119
  0
VERTEX
  8
0
 62
7
 10
20.75598840
 20
5.45646460
  0
VERTEX
  8
0
 62
7
 10
20.73354845
 20
5.44198226
  0
VERTEX
  8
0
 62
7
 10
20.70985894
 20
5.42969913
  0
VERTEX
  8
0
 62
7
 10
20.68508232
 20
5.41969019
  0
VERTEX
  8
0
 62
7
 10
20.65938102
 20
5.41203041
  0
VERTEX
  8
0
 62
7
 10
20.63291749
 20
5.40679478
  0
VERTEX
  8
0
 62
7
 10
20.64597536
 20
5.35533600
  0
VERTEX
  8
0
 62
7
 10
20.66420639
 20
5.30601397
  0
VERTEX
  8
0
 62
7
 10
20.68738566
 20
5.25926602
  0
VERTEX
  8
0
 62
7
 10
20.71528826
 20
5.21552950
  0
VERTEX
  8
0
 62
7
 10
20.74768926
 20
5.17524176
  0
VERTEX
  8
0
 62
7
 10
20.78436375
 20
5.13884012
  0
VERTEX
  8
0
 62
7
 10
20.82508680
 20
5.10676196
  0
VERTEX
  8
0
 62
7
 10
20.86963349
 20
5.07944459
  0
VERTEX
  8
0
 62
7
 10
20.91909927
 20
5.05526986
  0
VERTEX
  8
0
 62
7
 10
20.97106416
 20
5.03719296
  0
VERTEX
  8
0
 62
7
 10
21.02482841
 20
5.02531385
  0
VERTEX
  8
0
 62
7
 10
21.07969228
 20
5.01973251
  0
VERTEX
  8
0
 62
7
 10
21.14007085
 20
5.07358001
  0
VERTEX
  8
0
 62
7
 10
21.20764687
 20
5.12102980
  0
VERTEX
  8
0
 62
7
 10
21.23843594
 20
5.13699078
  0
VERTEX
  8
0
 62
7
 10
21.27002473
 20
5.15115241
  0
VERTEX
  8
0
 62
7
 10
21.30241324
 20
5.16331475
  0
VERTEX
  8
0
 62
7
 10
21.33560146
 20
5.17327787
  0
VERTEX
  8
0
 62
7
 10
21.34378189
 20
5.15876637
  0
VERTEX
  8
0
 62
7
 10
21.35546108
 20
5.14435483
  0
VERTEX
  8
0
 62
7
 10
21.36813991
 20
5.13054308
  0
VERTEX
  8
0
 62
7
 10
21.37931928
 20
5.11783093
  0
VERTEX
  8
0
 62
7
 10
21.40199456
 20
5.09522231
  0
VERTEX
  8
0
 62
7
 10
21.42716896
 20
5.08011102
  0
VERTEX
  8
0
 62
7
 10
21.45534230
 20
5.06999795
  0
VERTEX
  8
0
 62
7
 10
21.48701439
 20
5.06238400
  0
VERTEX
  8
0
 62
7
 10
21.52375344
 20
5.08239146
  0
VERTEX
  8
0
 62
7
 10
21.55720615
 20
5.10488554
  0
VERTEX
  8
0
 62
7
 10
21.58738502
 20
5.12995370
  0
VERTEX
  8
0
 62
7
 10
21.61430255
 20
5.15768342
  0
VERTEX
  8
0
 62
7
 10
21.63797124
 20
5.18816216
  0
VERTEX
  8
0
 62
7
 10
21.65840357
 20
5.22147739
  0
VERTEX
  8
0
 62
7
 10
21.67561205
 20
5.25771657
  0
VERTEX
  8
0
 62
7
 10
21.68960916
 20
5.29696719
  0
VERTEX
  8
0
 62
7
 10
21.69683160
 20
5.33149032
  0
VERTEX
  8
0
 62
7
 10
21.70040533
 20
5.36622588
  0
VERTEX
  8
0
 62
7
 10
21.70078020
 20
5.40108639
  0
VERTEX
  8
0
 62
7
 10
21.69840604
 20
5.43598439
  0
VERTEX
  8
0
 62
7
 10
21.69373270
 20
5.47083241
  0
VERTEX
  8
0
 62
7
 10
21.68721001
 20
5.50554297
  0
VERTEX
  8
0
 62
7
 10
21.67928783
 20
5.54002862
  0
VERTEX
  8
0
 62
7
 10
21.67041597
 20
5.57420187
  0
VERTEX
  8
0
 62
7
 10
21.65390517
 20
5.61903592
  0
VERTEX
  8
0
 62
7
 10
21.63509518
 20
5.66257043
  0
VERTEX
  8
0
 62
7
 10
21.61448582
 20
5.70510529
  0
VERTEX
  8
0
 62
7
 10
21.59257693
 20
5.74694041
  0
VERTEX
  8
0
 62
7
 10
21.55797254
 20
5.80665249
  0
VERTEX
  8
0
 62
7
 10
21.51966947
 20
5.86396543
  0
VERTEX
  8
0
 62
7
 10
21.47756775
 20
5.91847937
  0
VERTEX
  8
0
 62
7
 10
21.43156740
 20
5.96979444
  0
VERTEX
  8
0
 62
7
 10
21.38916578
 20
6.01552817
  0
VERTEX
  8
0
 62
7
 10
21.34426505
 20
6.05896271
  0
VERTEX
  8
0
 62
7
 10
21.29796482
 20
6.10099776
  0
VERTEX
  8
0
 62
7
 10
21.25136469
 20
6.14253298
  0
VERTEX
  8
0
 62
7
 10
21.14993402
 20
6.22557010
  0
VERTEX
  8
0
 62
7
 10
21.04450476
 20
6.30460864
  0
VERTEX
  8
0
 62
7
 10
21.07436084
 20
6.31953666
  0
VERTEX
  8
0
 62
7
 10
21.17505843
 20
6.25326024
  0
VERTEX
  8
0
 62
7
 10
21.27215731
 20
6.18118589
  0
VERTEX
  8
0
 62
7
 10
21.36525760
 20
6.10391339
  0
VERTEX
  8
0
 62
7
 10
21.45395946
 20
6.02204252
  0
VERTEX
  8
0
 62
7
 10
21.48227857
 20
5.99596638
  0
VERTEX
  8
0
 62
7
 10
21.51097256
 20
5.96957785
  0
VERTEX
  8
0
 62
7
 10
21.53961656
 20
5.94266451
  0
VERTEX
  8
0
 62
7
 10
21.56778573
 20
5.91501394
  0
VERTEX
  8
0
 62
7
 10
21.59505522
 20
5.88641370
  0
VERTEX
  8
0
 62
7
 10
21.62100018
 20
5.85665137
  0
VERTEX
  8
0
 62
7
 10
21.64519576
 20
5.82551453
  0
VERTEX
  8
0
 62
7
 10
21.66721711
 20
5.79279076
  0
VERTEX
  8
0
 62
7
 10
21.70070523
 20
5.73581104
  0
VERTEX
  8
0
 62
7
 10
21.73039469
 20
5.67683202
  0
VERTEX
  8
0
 62
7
 10
21.75568571
 20
5.61585372
  0
VERTEX
  8
0
 62
7
 10
21.77597851
 20
5.55287613
  0
VERTEX
  8
0
 62
7
 10
21.78474597
 20
5.51233847
  0
VERTEX
  8
0
 62
7
 10
21.79203740
 20
5.46988899
  0
VERTEX
  8
0
 62
7
 10
21.79752633
 20
5.42611499
  0
VERTEX
  8
0
 62
7
 10
21.80088634
 20
5.38160374
  0
VERTEX
  8
0
 62
7
 10
21.80179097
 20
5.33694255
  0
VERTEX
  8
0
 62
7
 10
21.79991377
 20
5.29271870
  0
VERTEX
  8
0
 62
7
 10
21.79492830
 20
5.24951949
  0
VERTEX
  8
0
 62
7
 10
21.78650811
 20
5.20793221
  0
VERTEX
  8
0
 62
7
 10
21.77432675
 20
5.16854414
  0
VERTEX
  8
0
 62
7
 10
21.75805779
 20
5.13194258
  0
VERTEX
  8
0
 62
7
 10
21.73737476
 20
5.09871482
  0
VERTEX
  8
0
 62
7
 10
21.71195123
 20
5.06944815
  0
VERTEX
  8
0
 62
7
 10
21.68146075
 20
5.04472986
  0
VERTEX
  8
0
 62
7
 10
21.64557687
 20
5.02514725
  0
VERTEX
  8
0
 62
7
 10
21.60397315
 20
5.01128760
  0
VERTEX
  8
0
 62
7
 10
21.55632313
 20
5.00373820
  0
VERTEX
  8
0
 62
7
 10
21.51053938
 20
5.00348829
  0
VERTEX
  8
0
 62
7
 10
21.46515548
 20
5.00973606
  0
VERTEX
  8
0
 62
7
 10
21.42137102
 20
5.02338121
  0
VERTEX
  8
0
 62
7
 10
21.38038557
 20
5.04532340
  0
VERTEX
  8
0
 62
7
 10
21.34359862
 20
5.07624573
  0
VERTEX
  8
0
 62
7
 10
21.31320941
 20
5.11356579
  0
VERTEX
  8
0
 62
7
 10
21.28079955
 20
5.09901263
  0
VERTEX
  8
0
 62
7
 10
21.25081072
 20
5.08151052
  0
VERTEX
  8
0
 62
7
 10
21.22333974
 20
5.06130938
  0
VERTEX
  8
0
 62
7
 10
21.19848345
 20
5.03865911
  0
VERTEX
  8
0
 62
7
 10
21.17633871
 20
5.01380962
  0
VERTEX
  8
0
 62
7
 10
21.15700234
 20
4.98701082
  0
VERTEX
  8
0
 62
7
 10
21.14057119
 20
4.95851263
  0
VERTEX
  8
0
 62
7
 10
21.12714210
 20
4.92856495
  0
VERTEX
  8
0
 62
7
 10
21.11681192
 20
4.89741770
  0
VERTEX
  8
0
 62
7
 10
21.10967747
 20
4.86532079
  0
VERTEX
  8
0
 62
7
 10
21.10583560
 20
4.83252412
  0
VERTEX
  8
0
 62
7
 10
21.10538316
 20
4.79927762
  0
VERTEX
  8
0
 62
7
 10
21.10841698
 20
4.76583119
  0
VERTEX
  8
0
 62
7
 10
21.11503390
 20
4.73243474
  0
VERTEX
  8
0
 62
7
 10
21.12533077
 20
4.69933818
  0
VERTEX
  8
0
 62
7
 10
21.13940442
 20
4.66679143
  0
VERTEX
  8
0
 62
7
 10
21.15332864
 20
4.64151709
  0
VERTEX
  8
0
 62
7
 10
21.16942710
 20
4.61774222
  0
VERTEX
  8
0
 62
7
 10
21.18757482
 20
4.59556677
  0
VERTEX
  8
0
 62
7
 10
21.20764687
 20
4.57509073
  0
VERTEX
  8
0
 62
7
 10
21.22951827
 20
4.55641404
  0
VERTEX
  8
0
 62
7
 10
21.25306408
 20
4.53963668
  0
VERTEX
  8
0
 62
7
 10
21.27815934
 20
4.52485860
  0
VERTEX
  8
0
 62
7
 10
21.30467910
 20
4.51217978
  0
VERTEX
  8
0
 62
7
 10
21.32384313
 20
4.48208007
  0
VERTEX
  8
0
 62
7
 10
21.34463159
 20
4.45351732
  0
VERTEX
  8
0
 62
7
 10
21.36716942
 20
4.42672894
  0
VERTEX
  8
0
 62
7
 10
21.39158159
 20
4.40195234
  0
VERTEX
  8
0
 62
7
 10
21.41799305
 20
4.37942493
  0
VERTEX
  8
0
 62
7
 10
21.44652876
 20
4.35938415
  0
VERTEX
  8
0
 62
7
 10
21.47731367
 20
4.34206739
  0
VERTEX
  8
0
 62
7
 10
21.51047273
 20
4.32771209
  0
VERTEX
  8
0
 62
7
 10
21.54215082
 20
4.31746573
  0
VERTEX
  8
0
 62
7
 10
21.57766347
 20
4.30916868
  0
VERTEX
  8
0
 62
7
 10
21.61649683
 20
4.30289592
  0
VERTEX
  8
0
 62
7
 10
21.65813700
 20
4.29872240
  0
VERTEX
  8
0
 62
7
 10
21.70207011
 20
4.29672311
  0
VERTEX
  8
0
 62
7
 10
21.74778227
 20
4.29697302
  0
VERTEX
  8
0
 62
7
 10
21.79475961
 20
4.29954711
  0
VERTEX
  8
0
 62
7
 10
21.84248824
 20
4.30452034
  0
VERTEX
  8
0
 62
7
 10
21.89045429
 20
4.31196769
  0
VERTEX
  8
0
 62
7
 10
21.93814388
 20
4.32196413
  0
VERTEX
  8
0
 62
7
 10
21.98504312
 20
4.33458464
  0
VERTEX
  8
0
 62
7
 10
22.03063814
 20
4.34990419
  0
VERTEX
  8
0
 62
7
 10
22.07441505
 20
4.36799775
  0
VERTEX
  8
0
 62
7
 10
22.11585998
 20
4.38894030
  0
VERTEX
  8
0
 62
7
 10
22.15445904
 20
4.41280681
  0
VERTEX
  8
0
 62
7
 10
22.18969836
 20
4.43967225
  0
VERTEX
  8
0
 62
7
 10
22.24104680
 20
4.49070409
  0
VERTEX
  8
0
 62
7
 10
22.28459801
 20
4.54963312
  0
VERTEX
  8
0
 62
7
 10
22.32015206
 20
4.61436009
  0
VERTEX
  8
0
 62
7
 10
22.34750902
 20
4.68278574
  0
VERTEX
  8
0
 62
7
 10
22.36800175
 20
4.76542300
  0
VERTEX
  8
0
 62
7
 10
22.38029738
 20
4.84646083
  0
VERTEX
  8
0
 62
7
 10
22.38499572
 20
4.92749866
  0
VERTEX
  8
0
 62
7
 10
22.38269653
 20
5.01013592
  0
VERTEX
  8
0
 62
7
 10
22.37448278
 20
5.09623862
  0
VERTEX
  8
0
 62
7
 10
22.36177063
 20
5.18154160
  0
VERTEX
  8
0
 62
7
 10
22.34326053
 20
5.26564500
  0
VERTEX
  8
0
 62
7
 10
22.31765295
 20
5.34814898
  0
VERTEX
  8
0
 62
7
 10
22.28867990
 20
5.42440518
  0
VERTEX
  8
0
 62
7
 10
22.25380894
 20
5.49836219
  0
VERTEX
  8
0
 62
7
 10
22.21433961
 20
5.57051985
  0
VERTEX
  8
0
 62
7
 10
22.17157146
 20
5.64137797
  0
VERTEX
  8
0
 62
7
 10
22.11019324
 20
5.73722720
  0
VERTEX
  8
0
 62
7
 10
22.04281715
 20
5.82837810
  0
VERTEX
  8
0
 62
7
 10
21.96944319
 20
5.91533049
  0
VERTEX
  8
0
 62
7
 10
21.89007136
 20
5.99858420
  0
VERTEX
  8
0
 62
7
 10
21.80530144
 20
6.07828917
  0
VERTEX
  8
0
 62
7
 10
21.71733266
 20
6.15319585
  0
VERTEX
  8
0
 62
7
 10
21.57445003
 20
6.26848816
  0
VERTEX
  8
0
 62
7
 10
21.42836854
 20
6.37498360
  0
VERTEX
  8
0
 62
7
 10
21.45076059
 20
6.38991162
  0
VERTEX
  8
0
 62
7
 10
21.54683900
 20
6.33535811
  0
VERTEX
  8
0
 62
7
 10
21.63979351
 20
6.27576890
  0
VERTEX
  8
0
 62
7
 10
21.72939921
 20
6.21130642
  0
VERTEX
  8
0
 62
7
 10
21.81543118
 20
6.14213312
  0
VERTEX
  8
0
 62
7
 10
21.89766449
 20
6.06841143
  0
VERTEX
  8
0
 62
7
 10
21.97587424
 20
5.99030381
  0
VERTEX
  8
0
 62
7
 10
22.04983549
 20
5.90797269
  0
VERTEX
  8
0
 62
7
 10
22.11932333
 20
5.82158052
  0
VERTEX
  8
0
 62
7
 10
22.18451686
 20
5.72881353
  0
VERTEX
  8
0
 62
7
 10
22.24501206
 20
5.63284767
  0
VERTEX
  8
0
 62
7
 10
22.29970932
 20
5.53368296
  0
VERTEX
  8
0
 62
7
 10
22.34750902
 20
5.43131938
  0
VERTEX
  8
0
 62
7
 10
22.38889433
 20
5.33062188
  0
VERTEX
  8
0
 62
7
 10
22.42348206
 20
5.22712538
  0
VERTEX
  8
0
 62
7
 10
22.45127220
 20
5.12122972
  0
VERTEX
  8
0
 62
7
 10
22.47226475
 20
5.01333478
  0
VERTEX
  8
0
 62
7
 10
22.48607651
 20
4.90838879
  0
VERTEX
  8
0
 62
7
 10
22.49319065
 20
4.80314291
  0
VERTEX
  8
0
 62
7
 10
22.49490671
 20
4.69769710
  0
VERTEX
  8
0
 62
7
 10
22.49252422
 20
4.59215132
  0
VERTEX
  8
0
 62
7
 10
22.48492692
 20
4.48992103
  0
VERTEX
  8
0
 62
7
 10
22.47333104
 20
4.38849046
  0
VERTEX
  8
0
 62
7
 10
22.62181168
 20
4.40741706
  0
VERTEX
  8
0
 62
7
 10
22.76869288
 20
4.43114195
  0
VERTEX
  8
0
 62
7
 10
22.79641638
 20
4.43647338
  0
VERTEX
  8
0
 62
7
 10
22.85534547
 20
4.44768606
  0
VERTEX
  8
0
 62
7
 10
22.91197537
 20
4.45979842
  0
VERTEX
  8
0
 62
7
 10
22.96600620
 20
4.47410999
  0
VERTEX
  8
0
 62
7
 10
23.01713805
 20
4.49192032
  0
VERTEX
  8
0
 62
7
 10
23.03118307
 20
4.58219445
  0
VERTEX
  8
0
 62
7
 10
23.03973003
 20
4.67290592
  0
VERTEX
  8
0
 62
7
 10
23.04277895
 20
4.76379233
  0
VERTEX
  8
0
 62
7
 10
23.04032982
 20
4.85459127
  0
VERTEX
  8
0
 62
7
 10
23.03238264
 20
4.94504034
  0
VERTEX
  8
0
 62
7
 10
23.01893741
 20
5.03487712
  0
VERTEX
  8
0
 62
7
 10
22.99999413
 20
5.12383921
  0
VERTEX
  8
0
 62
7
 10
22.97555281
 20
5.21166421
  0
VERTEX
  8
0
 62
7
 10
22.95400420
 20
5.27380252
  0
VERTEX
  8
0
 62
7
 10
22.92951914
 20
5.33470376
  0
VERTEX
  8
0
 62
7
 10
22.90236003
 20
5.39443043
  0
VERTEX
  8
0
 62
7
 10
22.87278928
 20
5.45304499
  0
VERTEX
  8
0
 62
7
 10
22.84106928
 20
5.51060992
  0
VERTEX
  8
0
 62
7
 10
22.80746246
 20
5.56718770
  0
VERTEX
  8
0
 62
7
 10
22.77223121
 20
5.62284082
  0
VERTEX
  8
0
 62
7
 10
22.73563795
 20
5.67763174
  0
VERTEX
  8
0
 62
7
 10
22.65448342
 20
5.78967520
  0
VERTEX
  8
0
 62
7
 10
22.56543168
 20
5.89662048
  0
VERTEX
  8
0
 62
7
 10
22.46978230
 20
5.99776782
  0
VERTEX
  8
0
 62
7
 10
22.36883479
 20
6.09241748
  0
VERTEX
  8
0
 62
7
 10
22.30792723
 20
6.14507166
  0
VERTEX
  8
0
 62
7
 10
22.24524531
 20
6.19516425
  0
VERTEX
  8
0
 62
7
 10
22.18091398
 20
6.24283270
  0
VERTEX
  8
0
 62
7
 10
22.11505818
 20
6.28821447
  0
VERTEX
  8
0
 62
7
 10
22.04780288
 20
6.33144700
  0
VERTEX
  8
0
 62
7
 10
21.97927303
 20
6.37266775
  0
VERTEX
  8
0
 62
7
 10
21.90959359
 20
6.41201417
  0
VERTEX
  8
0
 62
7
 10
21.83888952
 20
6.44962370
  0
VERTEX
  8
0
 62
7
 10
21.75628967
 20
6.48851611
  0
VERTEX
  8
0
 62
7
 10
21.67251523
 20
6.52384729
  0
VERTEX
  8
0
 62
7
 10
21.58769116
 20
6.55595462
  0
VERTEX
  8
0
 62
7
 10
21.50194243
 20
6.58517547
  0
VERTEX
  8
0
 62
7
 10
21.41539398
 20
6.61184723
  0
VERTEX
  8
0
 62
7
 10
21.32817076
 20
6.63630727
  0
VERTEX
  8
0
 62
7
 10
21.24039775
 20
6.65889299
  0
VERTEX
  8
0
 62
7
 10
21.15219988
 20
6.67994175
  0
VERTEX
  8
0
 62
7
 10
21.05030062
 20
6.70287734
  0
VERTEX
  8
0
 62
7
 10
20.94778909
 20
6.72227668
  0
VERTEX
  8
0
 62
7
 10
20.84475274
 20
6.73840220
  0
VERTEX
  8
0
 62
7
 10
20.74127904
 20
6.75151628
  0
VERTEX
  8
0
 62
7
 10
20.63745547
 20
6.76188134
  0
VERTEX
  8
0
 62
7
 10
20.53336949
 20
6.76975979
  0
VERTEX
  8
0
 62
7
 10
20.42910857
 20
6.77541403
  0
VERTEX
  8
0
 62
7
 10
20.32476019
 20
6.77910646
  0
VERTEX
  8
0
 62
7
 10
20.21160659
 20
6.78090999
  0
VERTEX
  8
0
 62
7
 10
20.09849048
 20
6.77993950
  0
VERTEX
  8
0
 62
7
 10
19.98544935
 20
6.77621999
  0
VERTEX
  8
0
 62
7
 10
19.87252068
 20
6.76977645
  0
VERTEX
  8
0
 62
7
 10
19.75974195
 20
6.76063387
  0
VERTEX
  8
0
 62
7
 10
19.64715066
 20
6.74881724
  0
VERTEX
  8
0
 62
7
 10
19.53478428
 20
6.73435155
  0
VERTEX
  8
0
 62
7
 10
19.42268032
 20
6.71726180
  0
VERTEX
  8
0
 62
7
 10
19.24737586
 20
6.68545645
  0
VERTEX
  8
0
 62
7
 10
19.07347091
 20
6.64755327
  0
VERTEX
  8
0
 62
7
 10
18.90116539
 20
6.60345230
  0
VERTEX
  8
0
 62
7
 10
18.73065923
 20
6.55305357
  0
VERTEX
  8
0
 62
7
 10
18.63089464
 20
6.51779944
  0
VERTEX
  8
0
 62
7
 10
18.53152990
 20
6.48054603
  0
VERTEX
  8
0
 62
7
 10
18.43256502
 20
6.44089348
  0
VERTEX
  8
0
 62
7
 10
18.33400000
 20
6.39844191
  0
SEQEND
  0
POLYLINE
  8
0
 62
7
 66
1
 70
1
  0
VERTEX
  8
0
 62
7
 10
23.99873546
 20
4.07500000
  0
VERTEX
  8
0
 62
7
 10
27.57400000
 20
4.07500000
  0
VERTEX
  8
0
 62
7
 10
27.19186894
 20
4.12964722
  0
VERTEX
  8
0
 62
7
 10
26.81053760
 20
4.17949615
  0
VERTEX
  8
0
 62
7
 10
26.35883124
 20
4.23281051
  0
VERTEX
  8
0
 62
7
 10
25.90632516
 20
4.28292601
  0
VERTEX
  8
0
 62
7
 10
25.82031401
 20
4.29306407
  0
VERTEX
  8
0
 62
7
 10
25.73425289
 20
4.30225247
  0
VERTEX
  8
0
 62
7
 10
25.64819176
 20
4.31104101
  0
VERTEX
  8
0
 62
7
 10
25.56218062
 20
4.31997949
  0
VERTEX
  8
0
 62
7
 10
25.47626944
 20
4.32961773
  0
VERTEX
  8
0
 62
7
 10
25.39050821
 20
4.34050552
  0
VERTEX
  8
0
 62
7
 10
25.30494691
 20
4.35319268
  0
VERTEX
  8
0
 62
7
 10
25.21963552
 20
4.36822899
  0
VERTEX
  8
0
 62
7
 10
25.14994358
 20
4.38087449
  0
VERTEX
  8
0
 62
7
 10
25.07955190
 20
4.39581917
  0
VERTEX
  8
0
 62
7
 10
25.01015985
 20
4.41456251
  0
VERTEX
  8
0
 62
7
 10
24.94346686
 20
4.43860395
  0
VERTEX
  8
0
 62
7
 10
24.89525480
 20
4.46168740
  0
VERTEX
  8
0
 62
7
 10
24.84906702
 20
4.48712002
  0
VERTEX
  8
0
 62
7
 10
24.80502848
 20
4.51515171
  0
VERTEX
  8
0
 62
7
 10
24.76326414
 20
4.54603239
  0
VERTEX
  8
0
 62
7
 10
24.72389894
 20
4.58001197
  0
VERTEX
  8
0
 62
7
 10
24.68705785
 20
4.61734035
  0
VERTEX
  8
0
 62
7
 10
24.65286582
 20
4.65826745
  0
VERTEX
  8
0
 62
7
 10
24.62144780
 20
4.70304319
  0
VERTEX
  8
0
 62
7
 10
24.00086803
 20
4.70304319
  0
VERTEX
  8
0
 62
7
 10
23.37815569
 20
4.70304319
  0
VERTEX
  8
0
 62
7
 10
23.34673767
 20
4.65826745
  0
VERTEX
  8
0
 62
7
 10
23.31254564
 20
4.61734035
  0
VERTEX
  8
0
 62
7
 10
23.27570454
 20
4.58001197
  0
VERTEX
  8
0
 62
7
 10
23.23633935
 20
4.54603239
  0
VERTEX
  8
0
 62
7
 10
23.19457500
 20
4.51515171
  0
VERTEX
  8
0
 62
7
 10
23.15053646
 20
4.48712002
  0
VERTEX
  8
0
 62
7
 10
23.10434869
 20
4.46168740
  0
VERTEX
  8
0
 62
7
 10
23.05613663
 20
4.43860395
  0
VERTEX
  8
0
 62
7
 10
22.98944363
 20
4.41456251
  0
VERTEX
  8
0
 62
7
 10
22.92005159
 20
4.39581917
  0
VERTEX
  8
0
 62
7
 10
22.84965991
 20
4.38087449
  0
VERTEX
  8
0
 62
7
 10
22.77996797
 20
4.36822899
  0
VERTEX
  8
0
 62
7
 10
22.69465658
 20
4.35319268
  0
VERTEX
  8
0
 62
7
 10
22.60909528
 20
4.34050552
  0
VERTEX
  8
0
 62
7
 10
22.52333404
 20
4.32961773
  0
VERTEX
  8
0
 62
7
 10
22.43742287
 20
4.31997949
  0
VERTEX
  8
0
 62
7
 10
22.35141172
 20
4.31104101
  0
VERTEX
  8
0
 62
7
 10
22.26535060
 20
4.30225247
  0
VERTEX
  8
0
 62
7
 10
22.17928947
 20
4.29306407
  0
VERTEX
  8
0
 62
7
 10
22.09327833
 20
4.28292601
  0
VERTEX
  8
0
 62
7
 10
21.64077225
 20
4.23281051
  0
VERTEX
  8
0
 62
7
 10
21.18906588
 20
4.17949615
  0
VERTEX
  8
0
 62
7
 10
20.80773454
 20
4.12964722
  0
VERTEX
  8
0
 62
7
 10
20.42560349
 20
4.07500000
  0
VERTEX
  8
0
 62
7
 10
23.99873546
 20
4.07500000
  0
SEQEND
  0
POLYLINE
  8
0
 62
7
 66
1
 70
1
  0
VERTEX
  8
0
 62
7
 10
24.00068579
 20
6.44867124
  0
VERTEX
  8
0
 62
7
 10
24.05400020
 20
6.36763341
  0
VERTEX
  8
0
 62
7
 10
24.11392894
 20
6.27020141
  0
VERTEX
  8
0
 62
7
 10
24.16716004
 20
6.16877084
  0
VERTEX
  8
0
 62
7
 10
24.21339364
 20
6.06414140
  0
VERTEX
  8
0
 62
7
 10
24.25232982
 20
5.95711282
  0
VERTEX
  8
0
 62
7
 10
24.27096696
 20
5.89454967
  0
VERTEX
  8
0
 62
7
 10
24.28626778
 20
5.83167412
  0
VERTEX
  8
0
 62
7
 10
24.29849469
 20
5.76857366
  0
VERTEX
  8
0
 62
7
 10
24.30791010
 20
5.70533575
  0
VERTEX
  8
0
 62
7
 10
24.31477641
 20
5.64204785
  0
VERTEX
  8
0
 62
7
 10
24.31935603
 20
5.57879744
  0
VERTEX
  8
0
 62
7
 10
24.32191138
 20
5.51567199
  0
VERTEX
  8
0
 62
7
 10
24.32270484
 20
5.45275896
  0
VERTEX
  8
0
 62
7
 10
24.32057227
 20
5.34466409
  0
VERTEX
  8
0
 62
7
 10
24.31524083
 20
5.23736893
  0
VERTEX
  8
0
 62
7
 10
24.30905969
 20
5.15579796
  0
VERTEX
  8
0
 62
7
 10
24.30017951
 20
5.07422698
  0
VERTEX
  8
0
 62
7
 10
24.28870025
 20
4.99265601
  0
VERTEX
  8
0
 62
7
 10
24.27472187
 20
4.91108504
  0
VERTEX
  8
0
 62
7
 10
24.32137198
 20
5.01744719
  0
VERTEX
  8
0
 62
7
 10
24.36322380
 20
5.12540877
  0
VERTEX
  8
0
 62
7
 10
24.38761723
 20
5.20216896
  0
VERTEX
  8
0
 62
7
 10
24.40962400
 20
5.27965389
  0
VERTEX
  8
0
 62
7
 10
24.42925662
 20
5.35778858
  0
VERTEX
  8
0
 62
7
 10
24.44652757
 20
5.43649807
  0
VERTEX
  8
0
 62
7
 10
24.46144936
 20
5.51570739
  0
VERTEX
  8
0
 62
7
 10
24.47403447
 20
5.59534155
  0
VERTEX
  8
0
 62
7
 10
24.48429542
 20
5.67532559
  0
VERTEX
  8
0
 62
7
 10
24.49224468
 20
5.75558453
  0
VERTEX
  8
0
 62
7
 10
24.49681181
 20
5.84690620
  0
VERTEX
  8
0
 62
7
 10
24.49799264
 20
5.93915255
  0
VERTEX
  8
0
 62
7
 10
24.49619953
 20
6.03204866
  0
VERTEX
  8
0
 62
7
 10
24.49184482
 20
6.12531964
  0
VERTEX
  8
0
 62
7
 10
24.48534088
 20
6.21869058
  0
VERTEX
  8
0
 62
7
 10
24.47710005
 20
6.31188658
  0
VERTEX
  8
0
 62
7
 10
24.46753470
 20
6.40463275
  0
VERTEX
  8
0
 62
7
 10
24.45705717
 20
6.49665417
  0
VERTEX
  8
0
 62
7
 10
24.44184564
 20
6.61501622
  0
VERTEX
  8
0
 62
7
 10
24.42393350
 20
6.72920475
  0
VERTEX
  8
0
 62
7
 10
24.40351913
 20
6.83954466
  0
VERTEX
  8
0
 62
7
 10
24.38080089
 20
6.94636081
  0
VERTEX
  8
0
 62
7
 10
24.35597715
 20
7.04997811
  0
VERTEX
  8
0
 62
7
 10
24.32924627
 20
7.15072143
  0
VERTEX
  8
0
 62
7
 10
24.30080663
 20
7.24891565
  0
VERTEX
  8
0
 62
7
 10
24.27085658
 20
7.34488567
  0
VERTEX
  8
0
 62
7
 10
24.23959450
 20
7.43895636
  0
VERTEX
  8
0
 62
7
 10
24.20721875
 20
7.53145262
  0
VERTEX
  8
0
 62
7
 10
24.17392769
 20
7.62269932
  0
VERTEX
  8
0
 62
7
 10
24.13991971
 20
7.71302134
  0
VERTEX
  8
0
 62
7
 10
24.10539316
 20
7.80274358
  0
VERTEX
  8
0
 62
7
 10
24.07054641
 20
7.89219092
  0
VERTEX
  8
0
 62
7
 10
24.03557783
 20
7.98168824
  0
VERTEX
  8
0
 62
7
 10
24.00068579
 20
8.07156043
  0
VERTEX
  8
0
 62
7
 10
23.96578177
 20
7.98168824
  0
VERTEX
  8
0
 62
7
 10
23.93077935
 20
7.89219092
  0
VERTEX
  8
0
 62
7
 10
23.89588001
 20
7.80274358
  0
VERTEX
  8
0
 62
7
 10
23.86128526
 20
7.71302134
  0
VERTEX
  8
0
 62
7
 10
23.82719658
 20
7.62269932
  0
VERTEX
  8
0
 62
7
 10
23.79381545
 20
7.53145262
  0
VERTEX
  8
0
 62
7
 10
23.76134338
 20
7.43895636
  0
VERTEX
  8
0
 62
7
 10
23.72998186
 20
7.34488567
  0
VERTEX
  8
0
 62
7
 10
23.69993236
 20
7.24891565
  0
VERTEX
  8
0
 62
7
 10
23.67139640
 20
7.15072143
  0
VERTEX
  8
0
 62
7
 10
23.64457545
 20
7.04997811
  0
VERTEX
  8
0
 62
7
 10
23.61967100
 20
6.94636081
  0
VERTEX
  8
0
 62
7
 10
23.59688456
 20
6.83954466
  0
VERTEX
  8
0
 62
7
 10
23.57641760
 20
6.72920475
  0
VERTEX
  8
0
 62
7
 10
23.55847163
 20
6.61501622
  0
VERTEX
  8
0
 62
7
 10
23.54324812
 20
6.49665417
  0
VERTEX
  8
0
 62
7
 10
23.53277059
 20
6.40463275
  0
VERTEX
  8
0
 62
7
 10
23.52320524
 20
6.31188658
  0
VERTEX
  8
0
 62
7
 10
23.51496441
 20
6.21869058
  0
VERTEX
  8
0
 62
7
 10
23.50846047
 20
6.12531964
  0
VERTEX
  8
0
 62
7
 10
23.50410577
 20
6.03204866
  0
VERTEX
  8
0
 62
7
 10
23.50231265
 20
5.93915255
  0
VERTEX
  8
0
 62
7
 10
23.50349348
 20
5.84690620
  0
VERTEX
  8
0
 62
7
 10
23.50806061
 20
5.75558453
  0
VERTEX
  8
0
 62
7
 10
23.51600987
 20
5.67532559
  0
VERTEX
  8
0
 62
7
 10
23.52627082
 20
5.59534155
  0
VERTEX
  8
0
 62
7
 10
23.53885593
 20
5.51570739
  0
VERTEX
  8
0
 62
7
 10
23.55377772
 20
5.43649807
  0
VERTEX
  8
0
 62
7
 10
23.57104868
 20
5.35778858
  0
VERTEX
  8
0
 62
7
 10
23.59068129
 20
5.27965389
  0
VERTEX
  8
0
 62
7
 10
23.61268807
 20
5.20216896
  0
VERTEX
  8
0
 62
7
 10
23.63708149
 20
5.12540877
  0
VERTEX
  8
0
 62
7
 10
23.67893331
 20
5.01744719
  0
VERTEX
  8
0
 62
7
 10
23.72558342
 20
4.91108504
  0
VERTEX
  8
0
 62
7
 10
23.71160505
 20
4.99265601
  0
VERTEX
  8
0
 62
7
 10
23.70012579
 20
5.07422698
  0
VERTEX
  8
0
 62
7
 10
23.69124560
 20
5.15579796
  0
VERTEX
  8
0
 62
7
 10
23.68506446
 20
5.23736893
  0
VERTEX
  8
0
 62
7
 10
23.67973302
 20
5.34466409
  0
VERTEX
  8
0
 62
7
 10
23.67760045
 20
5.45275896
  0
VERTEX
  8
0
 62
7
 10
23.67839391
 20
5.51567199
  0
VERTEX
  8
0
 62
7
 10
23.68094926
 20
5.57879744
  0
VERTEX
  8
0
 62
7
 10
23.68552888
 20
5.64204785
  0
VERTEX
  8
0
 62
7
 10
23.69239520
 20
5.70533575
  0
VERTEX
  8
0
 62
7
 10
23.70181060
 20
5.76857366
  0
VERTEX
  8
0
 62
7
 10
23.71403752
 20
5.83167412
  0
VERTEX
  8
0
 62
7
 10
23.72933834
 20
5.89454967
  0
VERTEX
  8
0
 62
7
 10
23.74797547
 20
5.95711282
  0
VERTEX
  8
0
 62
7
 10
23.78691165
 20
6.06414140
  0
VERTEX
  8
0
 62
7
 10
23.83314525
 20
6.16877084
  0
VERTEX
  8
0
 62
7
 10
23.88637636
 20
6.27020141
  0
VERTEX
  8
0
 62
7
 10
23.94630509
 20
6.36763341
  0
VERTEX
  8
0
 62
7
 10
24.00068579
 20
6.44867124
  0
SEQEND
  0
POLYLINE
  8
0
 62
7
 66
1
 70
1
  0
VERTEX
  8
0
 62
7
 10
24.00057207
 20
6.33330968
  0
VERTEX
  8
0
 62
7
 10
23.94254266
 20
6.23940975
  0
VERTEX
  8
0
 62
7
 10
23.89061109
 20
6.14191111
  0
VERTEX
  8
0
 62
7
 10
23.84567703
 20
6.04121361
  0
VERTEX
  8
0
 62
7
 10
23.80864018
 20
5.93771711
  0
VERTEX
  8
0
 62
7
 10
23.78407598
 20
5.85313262
  0
VERTEX
  8
0
 62
7
 10
23.76587202
 20
5.76746102
  0
VERTEX
  8
0
 62
7
 10
23.75329107
 20
5.68091474
  0
VERTEX
  8
0
 62
7
 10
23.74559588
 20
5.59370619
  0
VERTEX
  8
0
 62
7
 10
23.74204923
 20
5.50604779
  0
VERTEX
  8
0
 62
7
 10
23.74191386
 20
5.41815199
  0
VERTEX
  8
0
 62
7
 10
23.74445254
 20
5.33023119
  0
VERTEX
  8
0
 62
7
 10
23.74892804
 20
5.24249782
  0
VERTEX
  8
0
 62
7
 10
23.75892449
 20
5.12277376
  0
VERTEX
  8
0
 62
7
 10
23.77451895
 20
5.00364948
  0
VERTEX
  8
0
 62
7
 10
23.79571143
 20
4.88532492
  0
VERTEX
  8
0
 62
7
 10
23.82250193
 20
4.76800000
  0
VERTEX
  8
0
 62
7
 10
24.00057207
 20
4.76800000
  0
VERTEX
  8
0
 62
7
 10
24.17757592
 20
4.76800000
  0
VERTEX
  8
0
 62
7
 10
24.20436641
 20
4.88532492
  0
VERTEX
  8
0
 62
7
 10
24.22555889
 20
5.00364948
  0
VERTEX
  8
0
 62
7
 10
24.24115335
 20
5.12277376
  0
VERTEX
  8
0
 62
7
 10
24.25114981
 20
5.24249782
  0
VERTEX
  8
0
 62
7
 10
24.25562530
 20
5.33023119
  0
VERTEX
  8
0
 62
7
 10
24.25816398
 20
5.41815199
  0
VERTEX
  8
0
 62
7
 10
24.25802862
 20
5.50604779
  0
VERTEX
  8
0
 62
7
 10
24.25448196
 20
5.59370619
  0
VERTEX
  8
0
 62
7
 10
24.24678677
 20
5.68091474
  0
VERTEX
  8
0
 62
7
 10
24.23420582
 20
5.76746102
  0
VERTEX
  8
0
 62
7
 10
24.21600186
 20
5.85313262
  0
VERTEX
  8
0
 62
7
 10
24.19143766
 20
5.93771711
  0
VERTEX
  8
0
 62
7
 10
24.15456742
 20
6.04121361
  0
VERTEX
  8
0
 62
7
 10
24.10999990
 20
6.14191111
  0
VERTEX
  8
0
 62
7
 10
24.05843486
 20
6.23940975
  0
VERTEX
  8
0
 62
7
 10
24.00057207
 20
6.33330968
  0
SEQEND
  0
POLYLINE
  8
0
 62
7
 66
1
 70
1
  0
VERTEX
  8
0
 62
7
 10
24.00054571
 20
9.49679779
  0
VERTEX
  8
0
 62
7
 10
23.96366922
 20
9.40126928
  0
VERTEX
  8
0
 62
7
 10
23.92005761
 20
9.30556584
  0
VERTEX
  8
0
 62
7
 10
23.87067305
 20
9.21051216
  0
VERTEX
  8
0
 62
7
 10
23.81647770
 20
9.11693296
  0
VERTEX
  8
0
 62
7
 10
23.75843372
 20
9.02565294
  0
VERTEX
  8
0
 62
7
 10
23.69750326
 20
8.93749681
  0
VERTEX
  8
0
 62
7
 10
23.63464848
 20
8.85328927
  0
VERTEX
  8
0
 62
7
 10
23.57083154
 20
8.77385504
  0
VERTEX
  8
0
 62
7
 10
23.50382199
 20
8.69914829
  0
VERTEX
  8
0
 62
7
 10
23.43381350
 20
8.62724054
  0
VERTEX
  8
0
 62
7
 10
23.36060615
 20
8.55853166
  0
VERTEX
  8
0
 62
7
 10
23.28400000
 20
8.49342149
  0
VERTEX
  8
0
 62
7
 10
23.29466288
 20
8.44117342
  0
VERTEX
  8
0
 62
7
 10
23.57936185
 20
7.05500000
  0
VERTEX
  8
0
 62
7
 10
23.61139631
 20
7.17538841
  0
VERTEX
  8
0
 62
7
 10
23.64570497
 20
7.29216561
  0
VERTEX
  8
0
 62
7
 10
23.68196294
 20
7.40581892
  0
VERTEX
  8
0
 62
7
 10
23.71984533
 20
7.51683566
  0
VERTEX
  8
0
 62
7
 10
23.75902726
 20
7.62570317
  0
VERTEX
  8
0
 62
7
 10
23.79918384
 20
7.73290878
  0
VERTEX
  8
0
 62
7
 10
23.83999019
 20
7.83893980
  0
VERTEX
  8
0
 62
7
 10
23.88112143
 20
7.94428356
  0
VERTEX
  8
0
 62
7
 10
23.94083357
 20
8.09889521
  0
VERTEX
  8
0
 62
7
 10
24.00054571
 20
8.25030800
  0
VERTEX
  8
0
 62
7
 10
24.05919157
 20
8.09889521
  0
VERTEX
  8
0
 62
7
 10
24.11890371
 20
7.94428356
  0
VERTEX
  8
0
 62
7
 10
24.16003495
 20
7.83893980
  0
VERTEX
  8
0
 62
7
 10
24.20084130
 20
7.73290878
  0
VERTEX
  8
0
 62
7
 10
24.24099788
 20
7.62570317
  0
VERTEX
  8
0
 62
7
 10
24.28017981
 20
7.51683566
  0
VERTEX
  8
0
 62
7
 10
24.31806220
 20
7.40581892
  0
VERTEX
  8
0
 62
7
 10
24.35432017
 20
7.29216561
  0
VERTEX
  8
0
 62
7
 10
24.38862882
 20
7.17538841
  0
VERTEX
  8
0
 62
7
 10
24.42066329
 20
7.05500000
  0
VERTEX
  8
0
 62
7
 10
24.70536225
 20
8.44117342
  0
VERTEX
  8
0
 62
7
 10
24.71602514
 20
8.49342149
  0
VERTEX
  8
0
 62
7
 10
24.63941899
 20
8.55853166
  0
VERTEX
  8
0
 62
7
 10
24.56621164
 20
8.62724054
  0
VERTEX
  8
0
 62
7
 10
24.49620315
 20
8.69914829
  0
VERTEX
  8
0
 62
7
 10
24.42919359
 20
8.77385504
  0
VERTEX
  8
0
 62
7
 10
24.36542248
 20
8.85328927
  0
VERTEX
  8
0
 62
7
 10
24.30268849
 20
8.93749681
  0
VERTEX
  8
0
 62
7
 10
24.24192880
 20
9.02565294
  0
VERTEX
  8
0
 62
7
 10
24.18408058
 20
9.11693296
  0
VERTEX
  8
0
 62
7
 10
24.13008099
 20
9.21051216
  0
VERTEX
  8
0
 62
7
 10
24.08086721
 20
9.30556584
  0
VERTEX
  8
0
 62
7
 10
24.03737639
 20
9.40126928
  0
VERTEX
  8
0
 62
7
 10
24.00054571
 20
9.49679779
  0
SEQEND
  0
POLYLINE
  8
0
 62
7
 66
1
 70
1
  0
VERTEX
  8
0
 62
7
 10
23.44217271
 20
5.78600000
  0
VERTEX
  8
0
 62
7
 10
23.43884056
 20
5.85797439
  0
VERTEX
  8
0
 62
7
 10
23.43790756
 20
5.92994878
  0
VERTEX
  8
0
 62
7
 10
23.44140632
 20
6.07448068
  0
VERTEX
  8
0
 62
7
 10
23.45070302
 20
6.21931248
  0
VERTEX
  8
0
 62
7
 10
23.46399830
 20
6.36314463
  0
VERTEX
  8
0
 62
7
 10
23.47949280
 20
6.50467760
  0
VERTEX
  8
0
 62
7
 10
23.49327125
 20
6.60945699
  0
VERTEX
  8
0
 62
7
 10
23.50894902
 20
6.71113747
  0
VERTEX
  8
0
 62
7
 10
23.52642615
 20
6.80981902
  0
VERTEX
  8
0
 62
7
 10
23.54560268
 20
6.90560161
  0
VERTEX
  8
0
 62
7
 10
23.23211393
 20
8.42825979
  0
VERTEX
  8
0
 62
7
 10
23.12688460
 20
8.32582957
  0
VERTEX
  8
0
 62
7
 10
23.01725684
 20
8.22939722
  0
VERTEX
  8
0
 62
7
 10
22.90283078
 20
8.13856288
  0
VERTEX
  8
0
 62
7
 10
22.78320657
 20
8.05292668
  0
VERTEX
  8
0
 62
7
 10
22.69770358
 20
7.99677999
  0
VERTEX
  8
0
 62
7
 10
22.60940158
 20
7.94363224
  0
VERTEX
  8
0
 62
7
 10
22.51870044
 20
7.89368335
  0
VERTEX
  8
0
 62
7
 10
22.42600000
 20
7.84713324
  0
VERTEX
  8
0
 62
7
 10
22.48784472
 20
7.72237764
  0
VERTEX
  8
0
 62
7
 10
23.44217271
 20
5.78600000
  0
SEQEND
  0
POLYLINE
  8
0
 62
7
 66
1
 70
1
  0
VERTEX
  8
0
 62
7
 10
33.99359072
 20
4.37601774
  0
VERTEX
  8
0
 62
7
 10
34.15688693
 20
4.28231150
  0
VERTEX
  8
0
 62
7
 10
34.32130775
 20
4.19076700
  0
VERTEX
  8
0
 62
7
 10
34.48687816
 20
4.10144670
  0
VERTEX
  8
0
 62
7
 10
34.65362315
 20
4.01441308
  0
VERTEX
  8
0
 62
7
 10
34.82156772
 20
3.92972863
  0
VERTEX
  8
0
 62
7
 10
34.99073685
 20
3.84745582
  0
VERTEX
  8
0
 62
7
 10
35.16115554
 20
3.76765714
  0
VERTEX
  8
0
 62
7
 10
35.33284877
 20
3.69039505
  0
VERTEX
  8
0
 62
7
 10
35.49942091
 20
3.61854717
  0
VERTEX
  8
0
 62
7
 10
35.66683025
 20
3.54890789
  0
VERTEX
  8
0
 62
7
 10
35.83503931
 20
3.48141160
  0
VERTEX
  8
0
 62
7
 10
36.00401059
 20
3.41599269
  0
VERTEX
  8
0
 62
7
 10
36.17370662
 20
3.35258556
  0
VERTEX
  8
0
 62
7
 10
36.34408990
 20
3.29112462
  0
VERTEX
  8
0
 62
7
 10
36.51512296
 20
3.23154426
  0
VERTEX
  8
0
 62
7
 10
36.68676830
 20
3.17377888
  0
VERTEX
  8
0
 62
7
 10
36.85898843
 20
3.11776287
  0
VERTEX
  8
0
 62
7
 10
37.03174587
 20
3.06343064
  0
VERTEX
  8
0
 62
7
 10
37.20500313
 20
3.01071659
  0
VERTEX
  8
0
 62
7
 10
37.37872273
 20
2.95955510
  0
VERTEX
  8
0
 62
7
 10
37.55286718
 20
2.90988059
  0
VERTEX
  8
0
 62
7
 10
37.72739900
 20
2.86162745
  0
VERTEX
  8
0
 62
7
 10
37.90228068
 20
2.81473007
  0
VERTEX
  8
0
 62
7
 10
38.07747476
 20
2.76912287
  0
VERTEX
  8
0
 62
7
 10
38.28961614
 20
2.71669152
  0
VERTEX
  8
0
 62
7
 10
38.50225735
 20
2.66795886
  0
VERTEX
  8
0
 62
7
 10
38.71549834
 20
2.62262499
  0
VERTEX
  8
0
 62
7
 10
38.92943908
 20
2.58039002
  0
VERTEX
  8
0
 62
7
 10
39.12223733
 20
2.54277008
  0
VERTEX
  8
0
 62
7
 10
39.31543543
 20
2.50734935
  0
VERTEX
  8
0
 62
7
 10
39.50943326
 20
2.47512748
  0
VERTEX
  8
0
 62
7
 10
39.70463065
 20
2.44710412
  0
VERTEX
  8
0
 62
7
 10
39.91915452
 20
2.42103006
  0
VERTEX
  8
0
 62
7
 10
40.13407825
 20
2.39925448
  0
VERTEX
  8
0
 62
7
 10
40.34940183
 20
2.38247711
  0
VERTEX
  8
0
 62
7
 10
40.56512528
 20
2.37139772
  0
VERTEX
  8
0
 62
7
 10
40.72043683
 20
2.36783233
  0
VERTEX
  8
0
 62
7
 10
40.87594831
 20
2.36686600
  0
VERTEX
  8
0
 62
7
 10
41.03145979
 20
2.36869868
  0
VERTEX
  8
0
 62
7
 10
41.18677134
 20
2.37353030
  0
VERTEX
  8
0
 62
7
 10
41.33211975
 20
2.38197729
  0
VERTEX
  8
0
 62
7
 10
41.47706832
 20
2.39232361
  0
VERTEX
  8
0
 62
7
 10
41.62161702
 20
2.40606872
  0
VERTEX
  8
0
 62
7
 10
41.76576586
 20
2.42471209
  0
VERTEX
  8
0
 62
7
 10
41.93435603
 20
2.45478472
  0
VERTEX
  8
0
 62
7
 10
42.10204652
 20
2.49095518
  0
VERTEX
  8
0
 62
7
 10
42.26793765
 20
2.53372330
  0
VERTEX
  8
0
 62
7
 10
42.43112974
 20
2.58358889
  0
VERTEX
  8
0
 62
7
 10
42.57329595
 20
2.63357110
  0
VERTEX
  8
0
 62
7
 10
42.71356284
 20
2.68915132
  0
VERTEX
  8
0
 62
7
 10
42.85203037
 20
2.75032955
  0
VERTEX
  8
0
 62
7
 10
42.98879850
 20
2.81710579
  0
VERTEX
  8
0
 62
7
 10
43.10897252
 20
2.88453180
  0
VERTEX
  8
0
 62
7
 10
43.22644750
 20
2.95585642
  0
VERTEX
  8
0
 62
7
 10
43.34132340
 20
3.03137955
  0
VERTEX
  8
0
 62
7
 10
43.45370018
 20
3.11140107
  0
VERTEX
  8
0
 62
7
 10
43.58153815
 20
3.20821662
  0
VERTEX
  8
0
 62
7
 10
43.70467778
 20
3.31093007
  0
VERTEX
  8
0
 62
7
 10
43.82361891
 20
3.41864174
  0
VERTEX
  8
0
 62
7
 10
43.93886134
 20
3.53045196
  0
VERTEX
  8
0
 62
7
 10
43.92592635
 20
3.46334042
  0
VERTEX
  8
0
 62
7
 10
43.92135089
 20
3.39601646
  0
VERTEX
  8
0
 62
7
 10
43.92489755
 20
3.32916733
  0
VERTEX
  8
0
 62
7
 10
43.93632891
 20
3.26348029
  0
VERTEX
  8
0
 62
7
 10
43.95540755
 20
3.19964259
  0
VERTEX
  8
0
 62
7
 10
43.98189607
 20
3.13834148
  0
VERTEX
  8
0
 62
7
 10
44.01555704
 20
3.08026423
  0
VERTEX
  8
0
 62
7
 10
44.05615305
 20
3.02609809
  0
VERTEX
  8
0
 62
7
 10
44.08182936
 20
2.99804141
  0
VERTEX
  8
0
 62
7
 10
44.10921755
 20
2.97158416
  0
VERTEX
  8
0
 62
7
 10
44.13823017
 20
2.94692626
  0
VERTEX
  8
0
 62
7
 10
44.16877975
 20
2.92426766
  0
VERTEX
  8
0
 62
7
 10
44.20077881
 20
2.90380827
  0
VERTEX
  8
0
 62
7
 10
44.23413989
 20
2.88574803
  0
VERTEX
  8
0
 62
7
 10
44.26877551
 20
2.87028687
  0
VERTEX
  8
0
 62
7
 10
44.30459822
 20
2.85762471
  0
VERTEX
  8
0
 62
7
 10
44.34658956
 20
2.84622043
  0
VERTEX
  8
0
 62
7
 10
44.38921819
 20
2.83776511
  0
VERTEX
  8
0
 62
7
 10
44.43222168
 20
2.83250864
  0
VERTEX
  8
0
 62
7
 10
44.47533762
 20
2.83070095
  0
VERTEX
  8
0
 62
7
 10
44.51830363
 20
2.83259195
  0
VERTEX
  8
0
 62
7
 10
44.56085727
 20
2.83843154
  0
VERTEX
  8
0
 62
7
 10
44.60273616
 20
2.84846963
  0
VERTEX
  8
0
 62
7
 10
44.64367788
 20
2.86295614
  0
VERTEX
  8
0
 62
7
 10
44.68692920
 20
2.88363212
  0
VERTEX
  8
0
 62
7
 10
44.72738151
 20
2.90840664
  0
VERTEX
  8
0
 62
7
 10
44.76543467
 20
2.93657995
  0
VERTEX
  8
0
 62
7
 10
44.80148855
 20
2.96745229
  0
VERTEX
  8
0
 62
7
 10
44.83989158
 20
3.00643842
  0
VERTEX
  8
0
 62
7
 10
44.87519572
 20
3.04822355
  0
VERTEX
  8
0
 62
7
 10
44.90750092
 20
3.09280769
  0
VERTEX
  8
0
 62
7
 10
44.93690716
 20
3.14019083
  0
VERTEX
  8
0
 62
7
 10
44.87079728
 20
3.21483093
  0
VERTEX
  8
0
 62
7
 10
44.90063461
 20
3.24383311
  0
VERTEX
  8
0
 62
7
 10
44.92776040
 20
3.27410984
  0
VERTEX
  8
0
 62
7
 10
44.95216216
 20
3.30573609
  0
VERTEX
  8
0
 62
7
 10
44.97382739
 20
3.33878683
  0
VERTEX
  8
0
 62
7
 10
44.99274359
 20
3.37333703
  0
VERTEX
  8
0
 62
7
 10
45.00889827
 20
3.40946168
  0
VERTEX
  8
0
 62
7
 10
45.02227894
 20
3.44723574
  0
VERTEX
  8
0
 62
7
 10
45.03287310
 20
3.48673418
  0
VERTEX
  8
0
 62
7
 10
45.03792339
 20
3.52091785
  0
VERTEX
  8
0
 62
7
 10
45.03948742
 20
3.55727575
  0
VERTEX
  8
0
 62
7
 10
45.03757768
 20
3.59488320
  0
VERTEX
  8
0
 62
7
 10
45.03220667
 20
3.63281553
  0
VERTEX
  8
0
 62
7
 10
45.02338688
 20
3.67014808
  0
VERTEX
  8
0
 62
7
 10
45.01113082
 20
3.70595617
  0
VERTEX
  8
0
 62
7
 10
44.99545096
 20
3.73931514
  0
VERTEX
  8
0
 62
7
 10
44.97635982
 20
3.76930030
  0
VERTEX
  8
0
 62
7
 10
44.94865299
 20
3.79985610
  0
VERTEX
  8
0
 62
7
 10
44.91704754
 20
3.82581353
  0
VERTEX
  8
0
 62
7
 10
44.88204329
 20
3.84697266
  0
VERTEX
  8
0
 62
7
 10
44.84414008
 20
3.86313358
  0
VERTEX
  8
0
 62
7
 10
44.84366108
 20
3.84452353
  0
VERTEX
  8
0
 62
7
 10
44.84070796
 20
3.82641331
  0
VERTEX
  8
0
 62
7
 10
44.83540568
 20
3.80900284
  0
VERTEX
  8
0
 62
7
 10
44.82787918
 20
3.79249205
  0
VERTEX
  8
0
 62
7
 10
44.81825343
 20
3.77708087
  0
VERTEX
  8
0
 62
7
 10
44.80665338
 20
3.76296922
  0
VERTEX
  8
0
 62
7
 10
44.79320399
 20
3.75035704
  0
VERTEX
  8
0
 62
7
 10
44.77803020
 20
3.73944426
  0
VERTEX
  8
0
 62
7
 10
44.75348058
 20
3.72931453
  0
VERTEX
  8
0
 62
7
 10
44.72818123
 20
3.72418302
  0
VERTEX
  8
0
 62
7
 10
44.70268194
 20
3.72354991
  0
VERTEX
  8
0
 62
7
 10
44.67753254
 20
3.72691538
  0
VERTEX
  8
0
 62
7
 10
44.65328281
 20
3.73377961
  0
VERTEX
  8
0
 62
7
 10
44.63048257
 20
3.74364276
  0
VERTEX
  8
0
 62
7
 10
44.60968161
 20
3.75600503
  0
VERTEX
  8
0
 62
7
 10
44.59142976
 20
3.77036659
  0
VERTEX
  8
0
 62
7
 10
44.56310648
 20
3.79995606
  0
VERTEX
  8
0
 62
7
 10
44.53758220
 20
3.83354411
  0
VERTEX
  8
0
 62
7
 10
44.51525679
 20
3.86993116
  0
VERTEX
  8
0
 62
7
 10
44.49653010
 20
3.90791764
  0
VERTEX
  8
0
 62
7
 10
44.48226850
 20
3.94783677
  0
VERTEX
  8
0
 62
7
 10
44.47360491
 20
3.98895547
  0
VERTEX
  8
0
 62
7
 10
44.46893989
 20
4.03087389
  0
VERTEX
  8
0
 62
7
 10
44.46667403
 20
4.07319217
  0
VERTEX
  8
0
 62
7
 10
44.46619087
 20
4.11237822
  0
VERTEX
  8
0
 62
7
 10
44.46840675
 20
4.15156428
  0
VERTEX
  8
0
 62
7
 10
44.47162228
 20
4.19075033
  0
VERTEX
  8
0
 62
7
 10
44.47413805
 20
4.22993639
  0
VERTEX
  8
0
 62
7
 10
44.48506750
 20
4.37913330
  0
VERTEX
  8
0
 62
7
 10
44.49919582
 20
4.52783039
  0
VERTEX
  8
0
 62
7
 10
44.51492358
 20
4.67632755
  0
VERTEX
  8
0
 62
7
 10
44.53065133
 20
4.82492467
  0
VERTEX
  8
0
 62
7
 10
44.54198064
 20
4.93448569
  0
VERTEX
  8
0
 62
7
 10
44.54931137
 20
5.04404670
  0
VERTEX
  8
0
 62
7
 10
44.55104409
 20
5.15360772
  0
VERTEX
  8
0
 62
7
 10
44.54557936
 20
5.26316873
  0
VERTEX
  8
0
 62
7
 10
44.53190088
 20
5.36448268
  0
VERTEX
  8
0
 62
7
 10
44.51292429
 20
5.46509688
  0
VERTEX
  8
0
 62
7
 10
44.48814974
 20
5.56471143
  0
VERTEX
  8
0
 62
7
 10
44.45707744
 20
5.66302645
  0
VERTEX
  8
0
 62
7
 10
44.41595870
 20
5.75989198
  0
VERTEX
  8
0
 62
7
 10
44.36884208
 20
5.85335872
  0
VERTEX
  8
0
 62
7
 10
44.31492788
 20
5.94282689
  0
VERTEX
  8
0
 62
7
 10
44.25341638
 20
6.02769669
  0
VERTEX
  8
0
 62
7
 10
44.19043873
 20
6.10160372
  0
VERTEX
  8
0
 62
7
 10
44.12306264
 20
6.17111232
  0
VERTEX
  8
0
 62
7
 10
44.05128811
 20
6.23582263
  0
VERTEX
  8
0
 62
7
 10
43.97511514
 20
6.29533478
  0
VERTEX
  8
0
 62
7
 10
43.93099330
 20
6.32634250
  0
VERTEX
  8
0
 62
7
 10
43.88584682
 20
6.35606317
  0
VERTEX
  8
0
 62
7
 10
43.83975068
 20
6.38430937
  0
VERTEX
  8
0
 62
7
 10
43.79277985
 20
6.41089366
  0
VERTEX
  8
0
 62
7
 10
43.74500930
 20
6.43562861
  0
VERTEX
  8
0
 62
7
 10
43.69651401
 20
6.45832679
  0
VERTEX
  8
0
 62
7
 10
43.64736895
 20
6.47880075
  0
VERTEX
  8
0
 62
7
 10
43.59764910
 20
6.49686307
  0
VERTEX
  8
0
 62
7
 10
43.50576322
 20
6.52523553
  0
VERTEX
  8
0
 62
7
 10
43.41301670
 20
6.54795531
  0
VERTEX
  8
0
 62
7
 10
43.31967353
 20
6.56499274
  0
VERTEX
  8
0
 62
7
 10
43.22599766
 20
6.57631813
  0
VERTEX
  8
0
 62
7
 10
43.13225306
 20
6.58190182
  0
VERTEX
  8
0
 62
7
 10
43.03870371
 20
6.58171413
  0
VERTEX
  8
0
 62
7
 10
42.94561356
 20
6.57572538
  0
VERTEX
  8
0
 62
7
 10
42.85324660
 20
6.56390588
  0
VERTEX
  8
0
 62
7
 10
42.76186679
 20
6.54622598
  0
VERTEX
  8
0
 62
7
 10
42.67173810
 20
6.52265598
  0
VERTEX
  8
0
 62
7
 10
42.58312450
 20
6.49316621
  0
VERTEX
  8
0
 62
7
 10
42.49628995
 20
6.45772700
  0
VERTEX
  8
0
 62
7
 10
42.41149842
 20
6.41630866
  0
VERTEX
  8
0
 62
7
 10
42.32901389
 20
6.36888153
  0
VERTEX
  8
0
 62
7
 10
42.24910033
 20
6.31541592
  0
VERTEX
  8
0
 62
7
 10
42.17202169
 20
6.25588216
  0
VERTEX
  8
0
 62
7
 10
42.11250948
 20
6.20309000
  0
VERTEX
  8
0
 62
7
 10
42.05759563
 20
6.14718333
  0
VERTEX
  8
0
 62
7
 10
42.00738012
 20
6.08832147
  0
VERTEX
  8
0
 62
7
 10
41.96196290
 20
6.02666372
  0
VERTEX
  8
0
 62
7
 10
41.92144395
 20
5.96236941
  0
VERTEX
  8
0
 62
7
 10
41.88592322
 20
5.89559786
  0
VERTEX
  8
0
 62
7
 10
41.85550068
 20
5.82650838
  0
VERTEX
  8
0
 62
7
 10
41.83027630
 20
5.75526029
  0
VERTEX
  8
0
 62
7
 10
41.81035004
 20
5.68201292
  0
VERTEX
  8
0
 62
7
 10
41.79582186
 20
5.60692558
  0
VERTEX
  8
0
 62
7
 10
41.78679173
 20
5.53015758
  0
VERTEX
  8
0
 62
7
 10
41.78335962
 20
5.45186825
  0
VERTEX
  8
0
 62
7
 10
41.78562548
 20
5.37221691
  0
VERTEX
  8
0
 62
7
 10
41.79368929
 20
5.29136287
  0
VERTEX
  8
0
 62
7
 10
41.80765100
 20
5.20946544
  0
VERTEX
  8
0
 62
7
 10
41.82761058
 20
5.12668396
  0
VERTEX
  8
0
 62
7
 10
41.83916690
 20
5.09301053
  0
VERTEX
  8
0
 62
7
 10
41.85368466
 20
5.06082407
  0
VERTEX
  8
0
 62
7
 10
41.87092646
 20
5.03021204
  0
VERTEX
  8
0
 62
7
 10
41.89065488
 20
5.00126193
  0
VERTEX
  8
0
 62
7
 10
41.91263249
 20
4.97406119
  0
VERTEX
  8
0
 62
7
 10
41.93662190
 20
4.94869730
  0
VERTEX
  8
0
 62
7
 10
41.96238567
 20
4.92525772
  0
VERTEX
  8
0
 62
7
 10
41.98968640
 20
4.90382993
  0
VERTEX
  8
0
 62
7
 10
42.02562599
 20
4.88004985
  0
VERTEX
  8
0
 62
7
 10
42.06292916
 20
4.85913750
  0
VERTEX
  8
0
 62
7
 10
42.10138504
 20
4.84116160
  0
VERTEX
  8
0
 62
7
 10
42.14078278
 20
4.82619089
  0
VERTEX
  8
0
 62
7
 10
42.18091150
 20
4.81429408
  0
VERTEX
  8
0
 62
7
 10
42.22156036
 20
4.80553990
  0
VERTEX
  8
0
 62
7
 10
42.26251848
 20
4.79999709
  0
VERTEX
  8
0
 62
7
 10
42.30357501
 20
4.79773435
  0
VERTEX
  8
0
 62
7
 10
42.34451907
 20
4.79882042
  0
VERTEX
  8
0
 62
7
 10
42.38513981
 20
4.80332403
  0
VERTEX
  8
0
 62
7
 10
42.42522636
 20
4.81131389
  0
VERTEX
  8
0
 62
7
 10
42.46456787
 20
4.82285874
  0
VERTEX
  8
0
 62
7
 10
42.50295347
 20
4.83802730
  0
VERTEX
  8
0
 62
7
 10
42.54017229
 20
4.85688830
  0
VERTEX
  8
0
 62
7
 10
42.57601348
 20
4.87951046
  0
VERTEX
  8
0
 62
7
 10
42.61026617
 20
4.90596250
  0
VERTEX
  8
0
 62
7
 10
42.63394110
 20
4.92640523
  0
VERTEX
  8
0
 62
7
 10
42.65471706
 20
4.94914714
  0
VERTEX
  8
0
 62
7
 10
42.67279398
 20
4.97388833
  0
VERTEX
  8
0
 62
7
 10
42.68837178
 20
5.00032893
  0
VERTEX
  8
0
 62
7
 10
42.70165040
 20
5.02816902
  0
VERTEX
  8
0
 62
7
 10
42.71282977
 20
5.05710872
  0
VERTEX
  8
0
 62
7
 10
42.72210981
 20
5.08684814
  0
VERTEX
  8
0
 62
7
 10
42.72969045
 20
5.11708738
  0
VERTEX
  8
0
 62
7
 10
42.73594657
 20
5.15049216
  0
VERTEX
  8
0
 62
7
 10
42.74015341
 20
5.18419683
  0
VERTEX
  8
0
 62
7
 10
42.74206106
 20
5.21800147
  0
VERTEX
  8
0
 62
7
 10
42.74141962
 20
5.25170614
  0
VERTEX
  8
0
 62
7
 10
42.73797918
 20
5.28511092
  0
VERTEX
  8
0
 62
7
 10
42.73148981
 20
5.31801588
  0
VERTEX
  8
0
 62
7
 10
42.72170162
 20
5.35022109
  0
VERTEX
  8
0
 62
7
 10
42.70836469
 20
5.38152662
  0
VERTEX
  8
0
 62
7
 10
42.69028777
 20
5.41443157
  0
VERTEX
  8
0
 62
7
 10
42.66931188
 20
5.44563714
  0
VERTEX
  8
0
 62
7
 10
42.64493720
 20
5.47464348
  0
VERTEX
  8
0
 62
7
 10
42.61666390
 20
5.50095079
  0
VERTEX
  8
0
 62
7
 10
42.57351254
 20
5.52689156
  0
VERTEX
  8
0
 62
7
 10
42.52656254
 20
5.54453528
  0
VERTEX
  8
0
 62
7
 10
42.47721338
 20
5.55478163
  0
VERTEX
  8
0
 62
7
 10
42.42686459
 20
5.55853030
  0
VERTEX
  8
0
 62
7
 10
42.39514251
 20
5.55807005
  0
VERTEX
  8
0
 62
7
 10
42.36342043
 20
5.55564799
  0
VERTEX
  8
0
 62
7
 10
42.33209822
 20
5.55090176
  0
VERTEX
  8
0
 62
7
 10
42.30157571
 20
5.54346899
  0
VERTEX
  8
0
 62
7
 10
42.27225279
 20
5.53298730
  0
VERTEX
  8
0
 62
7
 10
42.24452929
 20
5.51909433
  0
VERTEX
  8
0
 62
7
 10
42.21880509
 20
5.50142770
  0
VERTEX
  8
0
 62
7
 10
42.19548003
 20
5.47962504
  0
VERTEX
  8
0
 62
7
 10
42.17283599
 20
5.45231393
  0
VERTEX
  8
0
 62
7
 10
42.15327834
 20
5.42267864
  0
VERTEX
  8
0
 62
7
 10
42.13739440
 20
5.39119401
  0
VERTEX
  8
0
 62
7
 10
42.12577144
 20
5.35833487
  0
VERTEX
  8
0
 62
7
 10
42.11899676
 20
5.32457605
  0
VERTEX
  8
0
 62
7
 10
42.11765765
 20
5.29039238
  0
VERTEX
  8
0
 62
7
 10
42.12234140
 20
5.25625869
  0
VERTEX
  8
0
 62
7
 10
42.13363531
 20
5.22264982
  0
VERTEX
  8
0
 62
7
 10
42.14501877
 20
5.20165104
  0
VERTEX
  8
0
 62
7
 10
42.15832655
 20
5.18201428
  0
VERTEX
  8
0
 62
7
 10
42.17348367
 20
5.16400193
  0
VERTEX
  8
0
 62
7
 10
42.19041516
 20
5.14787642
  0
VERTEX
  8
0
 62
7
 10
42.20904605
 20
5.13390015
  0
VERTEX
  8
0
 62
7
 10
42.22930136
 20
5.12233551
  0
VERTEX
  8
0
 62
7
 10
42.25110613
 20
5.11344492
  0
VERTEX
  8
0
 62
7
 10
42.27438536
 20
5.10749079
  0
VERTEX
  8
0
 62
7
 10
42.30744030
 20
5.10309236
  0
VERTEX
  8
0
 62
7
 10
42.34049524
 20
5.10429193
  0
VERTEX
  8
0
 62
7
 10
42.35755585
 20
5.07870104
  0
VERTEX
  8
0
 62
7
 10
42.32685008
 20
5.06308993
  0
VERTEX
  8
0
 62
7
 10
42.29424498
 20
5.05297686
  0
VERTEX
  8
0
 62
7
 10
42.26024038
 20
5.04826187
  0
VERTEX
  8
0
 62
7
 10
42.22533610
 20
5.04884499
  0
VERTEX
  8
0
 62
7
 10
42.20343971
 20
5.05224379
  0
VERTEX
  8
0
 62
7
 10
42.18251797
 20
5.05824165
  0
VERTEX
  8
0
 62
7
 10
42.16254589
 20
5.06653870
  0
VERTEX
  8
0
 62
7
 10
42.14349848
 20
5.07683504
  0
VERTEX
  8
0
 62
7
 10
42.12535075
 20
5.08883077
  0
VERTEX
  8
0
 62
7
 10
42.10807772
 20
5.10222600
  0
VERTEX
  8
0
 62
7
 10
42.09165438
 20
5.11672084
  0
VERTEX
  8
0
 62
7
 10
42.07605575
 20
5.13201540
  0
VERTEX
  8
0
 62
7
 10
42.04676614
 20
5.16853574
  0
VERTEX
  8
0
 62
7
 10
42.02487391
 20
5.20985437
  0
VERTEX
  8
0
 62
7
 10
42.00857969
 20
5.25437186
  0
VERTEX
  8
0
 62
7
 10
41.99608413
 20
5.30048878
  0
VERTEX
  8
0
 62
7
 10
41.98683116
 20
5.33391023
  0
VERTEX
  8
0
 62
7
 10
41.97983989
 20
5.36773152
  0
VERTEX
  8
0
 62
7
 10
41.97507283
 20
5.40185272
  0
VERTEX
  8
0
 62
7
 10
41.97249250
 20
5.43617384
  0
VERTEX
  8
0
 62
7
 10
41.97206140
 20
5.47059492
  0
VERTEX
  8
0
 62
7
 10
41.97374206
 20
5.50501601
  0
VERTEX
  8
0
 62
7
 10
41.97749697
 20
5.53933713
  0
VERTEX
  8
0
 62
7
 10
41.98328867
 20
5.57345832
  0
VERTEX
  8
0
 62
7
 10
41.99611745
 20
5.63132106
  0
VERTEX
  8
0
 62
7
 10
42.01474417
 20
5.68688463
  0
VERTEX
  8
0
 62
7
 10
42.03816919
 20
5.74064883
  0
VERTEX
  8
0
 62
7
 10
42.06539286
 20
5.79311349
  0
VERTEX
  8
0
 62
7
 10
42.09481576
 20
5.83991351
  0
VERTEX
  8
0
 62
7
 10
42.12803730
 20
5.88441434
  0
VERTEX
  8
0
 62
7
 10
42.16405785
 20
5.92671595
  0
VERTEX
  8
0
 62
7
 10
42.20187776
 20
5.96691831
  0
VERTEX
  8
0
 62
7
 10
42.26172319
 20
6.02276511
  0
VERTEX
  8
0
 62
7
 10
42.32556720
 20
6.07141446
  0
VERTEX
  8
0
 62
7
 10
42.36842543
 20
6.10115831
  0
VERTEX
  8
0
 62
7
 10
42.41322359
 20
6.12787979
  0
VERTEX
  8
0
 62
7
 10
42.45965243
 20
6.15138054
  0
VERTEX
  8
0
 62
7
 10
42.50740267
 20
6.17146220
  0
VERTEX
  8
0
 62
7
 10
42.55616505
 20
6.18792639
  0
VERTEX
  8
0
 62
7
 10
42.60563031
 20
6.20057475
  0
VERTEX
  8
0
 62
7
 10
42.65548918
 20
6.20920892
  0
VERTEX
  8
0
 62
7
 10
42.70543239
 20
6.21363052
  0
VERTEX
  8
0
 62
7
 10
42.75515069
 20
6.21364120
  0
VERTEX
  8
0
 62
7
 10
42.80433480
 20
6.20904257
  0
VERTEX
  8
0
 62
7
 10
42.85267545
 20
6.19963628
  0
VERTEX
  8
0
 62
7
 10
42.89986339
 20
6.18522397
  0
VERTEX
  8
0
 62
7
 10
42.94558935
 20
6.16560725
  0
VERTEX
  8
0
 62
7
 10
42.98954407
 20
6.14058777
  0
VERTEX
  8
0
 62
7
 10
43.03141827
 20
6.10996715
  0
VERTEX
  8
0
 62
7
 10
43.07090270
 20
6.07354704
  0
VERTEX
  8
0
 62
7
 10
43.10435749
 20
6.03677679
  0
VERTEX
  8
0
 62
7
 10
43.13381370
 20
5.99690764
  0
VERTEX
  8
0
 62
7
 10
43.15847162
 20
5.95403956
  0
VERTEX
  8
0
 62
7
 10
43.17753152
 20
5.90827251
  0
VERTEX
  8
0
 62
7
 10
43.18302541
 20
5.88809220
  0
VERTEX
  8
0
 62
7
 10
43.18809444
 20
5.86758699
  0
VERTEX
  8
0
 62
7
 10
43.19241374
 20
5.84683188
  0
VERTEX
  8
0
 62
7
 10
43.19565842
 20
5.82590182
  0
VERTEX
  8
0
 62
7
 10
43.19750360
 20
5.80487181
  0
VERTEX
  8
0
 62
7
 10
43.19762439
 20
5.78381680
  0
VERTEX
  8
0
 62
7
 10
43.19569591
 20
5.76281177
  0
VERTEX
  8
0
 62
7
 10
43.19139327
 20
5.74193170
  0
VERTEX
  8
0
 62
7
 10
43.18408128
 20
5.71855044
  0
VERTEX
  8
0
 62
7
 10
43.17488246
 20
5.69583144
  0
VERTEX
  8
0
 62
7
 10
43.16370934
 20
5.67413708
  0
VERTEX
  8
0
 62
7
 10
43.15047446
 20
5.65382972
  0
VERTEX
  8
0
 62
7
 10
43.13509033
 20
5.63527174
  0
VERTEX
  8
0
 62
7
 10
43.11746950
 20
5.61882551
  0
VERTEX
  8
0
 62
7
 10
43.09752450
 20
5.60485340
  0
VERTEX
  8
0
 62
7
 10
43.07516785
 20
5.59371778
  0
VERTEX
  8
0
 62
7
 10
43.04073007
 20
5.58427114
  0
VERTEX
  8
0
 62
7
 10
43.00519268
 20
5.58212190
  0
VERTEX
  8
0
 62
7
 10
42.96945536
 20
5.58577060
  0
VERTEX
  8
0
 62
7
 10
42.93441780
 20
5.59371778
  0
VERTEX
  8
0
 62
7
 10
42.88758442
 20
5.61281098
  0
VERTEX
  8
0
 62
7
 10
42.84524944
 20
5.63930156
  0
VERTEX
  8
0
 62
7
 10
42.80831255
 20
5.67258971
  0
VERTEX
  8
0
 62
7
 10
42.77767342
 20
5.71207566
  0
VERTEX
  8
0
 62
7
 10
42.76913479
 20
5.66715415
  0
VERTEX
  8
0
 62
7
 10
42.76274539
 20
5.62200771
  0
VERTEX
  8
0
 62
7
 10
42.75855521
 20
5.57671133
  0
VERTEX
  8
0
 62
7
 10
42.75661423
 20
5.53133997
  0
VERTEX
  8
0
 62
7
 10
42.75697244
 20
5.48596862
  0
VERTEX
  8
0
 62
7
 10
42.75967981
 20
5.44067224
  0
VERTEX
  8
0
 62
7
 10
42.76478633
 20
5.39552580
  0
VERTEX
  8
0
 62
7
 10
42.77234198
 20
5.35060429
  0
VERTEX
  8
0
 62
7
 10
42.77888758
 20
5.31323217
  0
VERTEX
  8
0
 62
7
 10
42.78612043
 20
5.27574759
  0
VERTEX
  8
0
 62
7
 10
42.79462782
 20
5.23853791
  0
VERTEX
  8
0
 62
7
 10
42.80499706
 20
5.20199050
  0
VERTEX
  8
0
 62
7
 10
42.81781543
 20
5.16649272
  0
VERTEX
  8
0
 62
7
 10
42.83367022
 20
5.13243192
  0
VERTEX
  8
0
 62
7
 10
42.85314872
 20
5.10019547
  0
VERTEX
  8
0
 62
7
 10
42.87683823
 20
5.07017074
  0
VERTEX
  8
0
 62
7
 10
42.91047005
 20
5.03516445
  0
VERTEX
  8
0
 62
7
 10
42.94716328
 20
5.00464406
  0
VERTEX
  8
0
 62
7
 10
42.98658054
 20
4.97879700
  0
VERTEX
  8
0
 62
7
 10
43.02838445
 20
4.95781072
  0
VERTEX
  8
0
 62
7
 10
43.07223764
 20
4.94187264
  0
VERTEX
  8
0
 62
7
 10
43.11780272
 20
4.93117020
  0
VERTEX
  8
0
 62
7
 10
43.16474231
 20
4.92589083
  0
VERTEX
  8
0
 62
7
 10
43.21271904
 20
4.92622196
  0
VERTEX
  8
0
 62
7
 10
43.26611675
 20
4.93110356
  0
VERTEX
  8
0
 62
7
 10
43.31841486
 20
4.94368242
  0
VERTEX
  8
0
 62
7
 10
43.36851375
 20
4.96325878
  0
VERTEX
  8
0
 62
7
 10
43.41531380
 20
4.98913291
  0
VERTEX
  8
0
 62
7
 10
43.44743782
 20
4.96990017
  0
VERTEX
  8
0
 62
7
 10
43.48177355
 20
4.95622795
  0
VERTEX
  8
0
 62
7
 10
43.51763374
 20
4.94817873
  0
VERTEX
  8
0
 62
7
 10
43.55433114
 20
4.94581499
  0
VERTEX
  8
0
 62
7
 10
43.59117848
 20
4.94919920
  0
VERTEX
  8
0
 62
7
 10
43.62748851
 20
4.95839385
  0
VERTEX
  8
0
 62
7
 10
43.66257397
 20
4.97346140
  0
VERTEX
  8
0
 62
7
 10
43.69574762
 20
4.99446435
  0
VERTEX
  8
0
 62
7
 10
43.73268451
 20
5.02677576
  0
VERTEX
  8
0
 62
7
 10
43.76452321
 20
5.06202364
  0
VERTEX
  8
0
 62
7
 10
43.79156361
 20
5.10004553
  0
VERTEX
  8
0
 62
7
 10
43.81410562
 20
5.14067898
  0
VERTEX
  8
0
 62
7
 10
43.83244911
 20
5.18376157
  0
VERTEX
  8
0
 62
7
 10
43.84689398
 20
5.22913084
  0
VERTEX
  8
0
 62
7
 10
43.85774013
 20
5.27662436
  0
VERTEX
  8
0
 62
7
 10
43.86528745
 20
5.32607968
  0
VERTEX
  8
0
 62
7
 10
43.87085084
 20
5.41026951
  0
VERTEX
  8
0
 62
7
 10
43.86965882
 20
5.49342846
  0
VERTEX
  8
0
 62
7
 10
43.86187851
 20
5.57515043
  0
VERTEX
  8
0
 62
7
 10
43.84767703
 20
5.65502929
  0
VERTEX
  8
0
 62
7
 10
43.82722153
 20
5.73265896
  0
VERTEX
  8
0
 62
7
 10
43.80067913
 20
5.80763333
  0
VERTEX
  8
0
 62
7
 10
43.76821695
 20
5.87954628
  0
VERTEX
  8
0
 62
7
 10
43.73000213
 20
5.94799171
  0
VERTEX
  8
0
 62
7
 10
43.68620179
 20
6.01256353
  0
VERTEX
  8
0
 62
7
 10
43.63698306
 20
6.07285562
  0
VERTEX
  8
0
 62
7
 10
43.58251306
 20
6.12846187
  0
VERTEX
  8
0
 62
7
 10
43.52295894
 20
6.17897619
  0
VERTEX
  8
0
 62
7
 10
43.45848781
 20
6.22399246
  0
VERTEX
  8
0
 62
7
 10
43.38926680
 20
6.26310459
  0
VERTEX
  8
0
 62
7
 10
43.31546304
 20
6.29590646
  0
VERTEX
  8
0
 62
7
 10
43.23724367
 20
6.32199197
  0
VERTEX
  8
0
 62
7
 10
43.18632840
 20
6.33440422
  0
VERTEX
  8
0
 62
7
 10
43.13461342
 20
6.34291785
  0
VERTEX
  8
0
 62
7
 10
43.08249858
 20
6.34763284
  0
VERTEX
  8
0
 62
7
 10
43.03038374
 20
6.34864915
  0
VERTEX
  8
0
 62
7
 10
43.03145003
 20
6.37210747
  0
VERTEX
  8
0
 62
7
 10
43.09968623
 20
6.37280097
  0
VERTEX
  8
0
 62
7
 10
43.16748509
 20
6.36905855
  0
VERTEX
  8
0
 62
7
 10
43.23460918
 20
6.36054283
  0
VERTEX
  8
0
 62
7
 10
43.30082110
 20
6.34691643
  0
VERTEX
  8
0
 62
7
 10
43.36588343
 20
6.32784197
  0
VERTEX
  8
0
 62
7
 10
43.42955875
 20
6.30298206
  0
VERTEX
  8
0
 62
7
 10
43.49160965
 20
6.27199934
  0
VERTEX
  8
0
 62
7
 10
43.55179870
 20
6.23455641
  0
VERTEX
  8
0
 62
7
 10
43.59210731
 20
6.20449836
  0
VERTEX
  8
0
 62
7
 10
43.62995430
 20
6.17202866
  0
VERTEX
  8
0
 62
7
 10
43.66547711
 20
6.13733476
  0
VERTEX
  8
0
 62
7
 10
43.69881320
 20
6.10060408
  0
VERTEX
  8
0
 62
7
 10
43.73010001
 20
6.06202405
  0
VERTEX
  8
0
 62
7
 10
43.75947500
 20
6.02178212
  0
VERTEX
  8
0
 62
7
 10
43.78707562
 20
5.98006572
  0
VERTEX
  8
0
 62
7
 10
43.81303933
 20
5.93706227
  0
VERTEX
  8
0
 62
7
 10
43.83461917
 20
5.89517926
  0
VERTEX
  8
0
 62
7
 10
43.85452460
 20
5.85270895
  0
VERTEX
  8
0
 62
7
 10
43.87268066
 20
5.80966385
  0
VERTEX
  8
0
 62
7
 10
43.88901237
 20
5.76605645
  0
VERTEX
  8
0
 62
7
 10
43.90344474
 20
5.72189925
  0
VERTEX
  8
0
 62
7
 10
43.91590282
 20
5.67720474
  0
VERTEX
  8
0
 62
7
 10
43.92631163
 20
5.63198541
  0
VERTEX
  8
0
 62
7
 10
43.93459619
 20
5.58625377
  0
VERTEX
  8
0
 62
7
 10
43.94084579
 20
5.53619319
  0
VERTEX
  8
0
 62
7
 10
43.94510704
 20
5.48571246
  0
VERTEX
  8
0
 62
7
 10
43.94724092
 20
5.43501618
  0
VERTEX
  8
0
 62
7
 10
43.94710842
 20
5.38430896
  0
VERTEX
  8
0
 62
7
 10
43.94457051
 20
5.33379542
  0
VERTEX
  8
0
 62
7
 10
43.93948820
 20
5.28368018
  0
VERTEX
  8
0
 62
7
 10
43.93172247
 20
5.23416785
  0
VERTEX
  8
0
 62
7
 10
43.92113430
 20
5.18546305
  0
VERTEX
  8
0
 62
7
 10
43.90758468
 20
5.13777038
  0
VERTEX
  8
0
 62
7
 10
43.89093460
 20
5.09129447
  0
VERTEX
  8
0
 62
7
 10
43.87104504
 20
5.04623993
  0
VERTEX
  8
0
 62
7
 10
43.84777700
 20
5.00281138
  0
VERTEX
  8
0
 62
7
 10
43.82099145
 20
4.96121342
  0
VERTEX
  8
0
 62
7
 10
43.79054939
 20
4.92165067
  0
VERTEX
  8
0
 62
7
 10
43.75631180
 20
4.88432775
  0
VERTEX
  8
0
 62
7
 10
43.71813967
 20
4.84944928
  0
VERTEX
  8
0
 62
7
 10
43.68748805
 20
4.82518083
  0
VERTEX
  8
0
 62
7
 10
43.65446227
 20
4.80284920
  0
VERTEX
  8
0
 62
7
 10
43.61988704
 20
4.78259182
  0
VERTEX
  8
0
 62
7
 10
43.58458707
 20
4.76454616
  0
VERTEX
  8
0
 62
7
 10
43.54938706
 20
4.74884966
  0
VERTEX
  8
0
 62
7
 10
43.51511172
 20
4.73563978
  0
VERTEX
  8
0
 62
7
 10
43.48258576
 20
4.72505396
  0
VERTEX
  8
0
 62
7
 10
43.45263389
 20
4.71722966
  0
VERTEX
  8
0
 62
7
 10
43.40495082
 20
4.70906590
  0
VERTEX
  8
0
 62
7
 10
43.34467221
 20
4.70310136
  0
VERTEX
  8
0
 62
7
 10
43.28079488
 20
4.70073553
  0
VERTEX
  8
0
 62
7
 10
43.22231563
 20
4.70336793
  0
VERTEX
  8
0
 62
7
 10
43.19622072
 20
4.70520686
  0
VERTEX
  8
0
 62
7
 10
43.16730182
 20
4.70848277
  0
VERTEX
  8
0
 62
7
 10
43.13643361
 20
4.71343310
  0
VERTEX
  8
0
 62
7
 10
43.10449078
 20
4.72029524
  0
VERTEX
  8
0
 62
7
 10
43.07234802
 20
4.72930661
  0
VERTEX
  8
0
 62
7
 10
43.04088002
 20
4.74070464
  0
VERTEX
  8
0
 62
7
 10
43.01096147
 20
4.75472674
  0
VERTEX
  8
0
 62
7
 10
42.98346706
 20
4.77161031
  0
VERTEX
  8
0
 62
7
 10
42.96150818
 20
4.78757130
  0
VERTEX
  8
0
 62
7
 10
42.94294810
 20
4.80413207
  0
VERTEX
  8
0
 62
7
 10
42.92678717
 20
4.82469142
  0
VERTEX
  8
0
 62
7
 10
42.91202574
 20
4.85264814
  0
VERTEX
  8
0
 62
7
 10
42.90624446
 20
4.86922558
  0
VERTEX
  8
0
 62
7
 10
42.90256244
 20
4.88850205
  0
VERTEX
  8
0
 62
7
 10
42.90227920
 20
4.90797845
  0
VERTEX
  8
0
 62
7
 10
42.90669430
 20
4.92515567
  0
VERTEX
  8
0
 62
7
 10
42.87928086
 20
4.93309790
  0
VERTEX
  8
0
 62
7
 10
42.85152846
 20
4.93856132
  0
VERTEX
  8
0
 62
7
 10
42.82359801
 20
4.94159123
  0
VERTEX
  8
0
 62
7
 10
42.79565038
 20
4.94223293
  0
VERTEX
  8
0
 62
7
 10
42.76784644
 20
4.94053171
  0
VERTEX
  8
0
 62
7
 10
42.74034709
 20
4.93653288
  0
VERTEX
  8
0
 62
7
 10
42.71331319
 20
4.93028172
  0
VERTEX
  8
0
 62
7
 10
42.68690564
 20
4.92182353
  0
VERTEX
  8
0
 62
7
 10
42.66128530
 20
4.91120361
  0
VERTEX
  8
0
 62
7
 10
42.63661307
 20
4.89846725
  0
VERTEX
  8
0
 62
7
 10
42.61304981
 20
4.88365976
  0
VERTEX
  8
0
 62
7
 10
42.59075642
 20
4.86682643
  0
VERTEX
  8
0
 62
7
 10
42.56989378
 20
4.84801255
  0
VERTEX
  8
0
 62
7
 10
42.55062275
 20
4.82726342
  0
VERTEX
  8
0
 62
7
 10
42.53310423
 20
4.80462435
  0
VERTEX
  8
0
 62
7
 10
42.51749909
 20
4.78014061
  0
VERTEX
  8
0
 62
7
 10
42.50251482
 20
4.75118425
  0
VERTEX
  8
0
 62
7
 10
42.49039204
 20
4.72122824
  0
VERTEX
  8
0
 62
7
 10
42.48119322
 20
4.69047252
  0
VERTEX
  8
0
 62
7
 10
42.47498084
 20
4.65911701
  0
VERTEX
  8
0
 62
7
 10
42.47181738
 20
4.62736164
  0
VERTEX
  8
0
 62
7
 10
42.47176532
 20
4.59540634
  0
VERTEX
  8
0
 62
7
 10
42.47488713
 20
4.56345105
  0
VERTEX
  8
0
 62
7
 10
42.48124529
 20
4.53169568
  0
VERTEX
  8
0
 62
7
 10
42.49202479
 20
4.49619165
  0
VERTEX
  8
0
 62
7
 10
42.50670292
 20
4.46198715
  0
VERTEX
  8
0
 62
7
 10
42.52517970
 20
4.42958202
  0
VERTEX
  8
0
 62
7
 10
42.54735516
 20
4.39947606
  0
VERTEX
  8
0
 62
7
 10
42.53887692
 20
4.36728960
  0
VERTEX
  8
0
 62
7
 10
42.53550936
 20
4.33551549
  0
VERTEX
  8
0
 62
7
 10
42.53676517
 20
4.30416623
  0
VERTEX
  8
0
 62
7
 10
42.54215700
 20
4.27325431
  0
VERTEX
  8
0
 62
7
 10
42.55119755
 20
4.24279223
  0
VERTEX
  8
0
 62
7
 10
42.56339947
 20
4.21279249
  0
VERTEX
  8
0
 62
7
 10
42.57827544
 20
4.18326758
  0
VERTEX
  8
0
 62
7
 10
42.59533813
 20
4.15423000
  0
VERTEX
  8
0
 62
7
 10
42.61350252
 20
4.12698761
  0
VERTEX
  8
0
 62
7
 10
42.63349126
 20
4.10263169
  0
VERTEX
  8
0
 62
7
 10
42.65512941
 20
4.08084986
  0
VERTEX
  8
0
 62
7
 10
42.67824204
 20
4.06132972
  0
VERTEX
  8
0
 62
7
 10
42.70265421
 20
4.04375889
  0
VERTEX
  8
0
 62
7
 10
42.72819098
 20
4.02782498
  0
VERTEX
  8
0
 62
7
 10
42.75467742
 20
4.01321559
  0
VERTEX
  8
0
 62
7
 10
42.78193858
 20
3.99961835
  0
VERTEX
  8
0
 62
7
 10
42.84383328
 20
3.97574351
  0
VERTEX
  8
0
 62
7
 10
42.90762731
 20
3.95896614
  0
VERTEX
  8
0
 62
7
 10
42.97282084
 20
3.94758686
  0
VERTEX
  8
0
 62
7
 10
43.03891405
 20
3.93990626
  0
VERTEX
  8
0
 62
7
 10
43.12250105
 20
3.93512463
  0
VERTEX
  8
0
 62
7
 10
43.20538830
 20
3.93684068
  0
VERTEX
  8
0
 62
7
 10
43.28767577
 20
3.94515439
  0
VERTEX
  8
0
 62
7
 10
43.36946341
 20
3.96016572
  0
VERTEX
  8
0
 62
7
 10
43.41073210
 20
3.97002679
  0
VERTEX
  8
0
 62
7
 10
43.45270054
 20
3.98127487
  0
VERTEX
  8
0
 62
7
 10
43.49496887
 20
3.99399743
  0
VERTEX
  8
0
 62
7
 10
43.53713724
 20
4.00828193
  0
VERTEX
  8
0
 62
7
 10
43.57880579
 20
4.02421584
  0
VERTEX
  8
0
 62
7
 10
43.61957465
 20
4.04188664
  0
VERTEX
  8
0
 62
7
 10
43.65904398
 20
4.06138179
  0
VERTEX
  8
0
 62
7
 10
43.69681391
 20
4.08278875
  0
VERTEX
  8
0
 62
7
 10
43.76339028
 20
4.12983868
  0
VERTEX
  8
0
 62
7
 10
43.82156963
 20
4.18168689
  0
VERTEX
  8
0
 62
7
 10
43.87495069
 20
4.23873326
  0
VERTEX
  8
0
 62
7
 10
43.92713217
 20
4.30137764
  0
VERTEX
  8
0
 62
7
 10
43.96189483
 20
4.34573477
  0
VERTEX
  8
0
 62
7
 10
43.99430833
 20
4.39152889
  0
VERTEX
  8
0
 62
7
 10
44.02452261
 20
4.43859756
  0
VERTEX
  8
0
 62
7
 10
44.05268761
 20
4.48677833
  0
VERTEX
  8
0
 62
7
 10
44.07895329
 20
4.53590877
  0
VERTEX
  8
0
 62
7
 10
44.10346959
 20
4.58582642
  0
VERTEX
  8
0
 62
7
 10
44.12638646
 20
4.63636885
  0
VERTEX
  8
0
 62
7
 10
44.14785384
 20
4.68737362
  0
VERTEX
  8
0
 62
7
 10
44.17351349
 20
4.75992489
  0
VERTEX
  8
0
 62
7
 10
44.19598676
 20
4.83353828
  0
VERTEX
  8
0
 62
7
 10
44.21508623
 20
4.90807634
  0
VERTEX
  8
0
 62
7
 10
44.23062447
 20
4.98340162
  0
VERTEX
  8
0
 62
7
 10
44.24241403
 20
5.05937666
  0
VERTEX
  8
0
 62
7
 10
44.25026750
 20
5.13586403
  0
VERTEX
  8
0
 62
7
 10
44.25399742
 20
5.21272626
  0
VERTEX
  8
0
 62
7
 10
44.25341638
 20
5.28982591
  0
VERTEX
  8
0
 62
7
 10
44.24686870
 20
5.37594527
  0
VERTEX
  8
0
 62
7
 10
44.23542277
 20
5.46136487
  0
VERTEX
  8
0
 62
7
 10
44.21937846
 20
5.54578483
  0
VERTEX
  8
0
 62
7
 10
44.19903568
 20
5.62890526
  0
VERTEX
  8
0
 62
7
 10
44.22356031
 20
5.62890526
  0
VERTEX
  8
0
 62
7
 10
44.24149118
 20
5.56863946
  0
VERTEX
  8
0
 62
7
 10
44.25689639
 20
5.50785041
  0
VERTEX
  8
0
 62
7
 10
44.26977438
 20
5.44661465
  0
VERTEX
  8
0
 62
7
 10
44.28012357
 20
5.38500871
  0
VERTEX
  8
0
 62
7
 10
44.28794241
 20
5.32310912
  0
VERTEX
  8
0
 62
7
 10
44.29322933
 20
5.26099242
  0
VERTEX
  8
0
 62
7
 10
44.29598278
 20
5.19873515
  0
VERTEX
  8
0
 62
7
 10
44.29620120
 20
5.13641383
  0
VERTEX
  8
0
 62
7
 10
44.29388301
 20
5.07410502
  0
VERTEX
  8
0
 62
7
 10
44.28902666
 20
5.01188523
  0
VERTEX
  8
0
 62
7
 10
44.28163059
 20
4.94983101
  0
VERTEX
  8
0
 62
7
 10
44.27169323
 20
4.88801889
  0
VERTEX
  8
0
 62
7
 10
44.25921302
 20
4.82652541
  0
VERTEX
  8
0
 62
7
 10
44.24418840
 20
4.76542709
  0
VERTEX
  8
0
 62
7
 10
44.22661782
 20
4.70480049
  0
VERTEX
  8
0
 62
7
 10
44.20649970
 20
4.64472213
  0
VERTEX
  8
0
 62
7
 10
44.16433133
 20
4.54020932
  0
VERTEX
  8
0
 62
7
 10
44.11546534
 20
4.43959512
  0
VERTEX
  8
0
 62
7
 10
44.05880211
 20
4.34317943
  0
VERTEX
  8
0
 62
7
 10
43.99324204
 20
4.25126214
  0
VERTEX
  8
0
 62
7
 10
43.94652529
 20
4.19276628
  0
VERTEX
  8
0
 62
7
 10
43.89700953
 20
4.13676954
  0
VERTEX
  8
0
 62
7
 10
43.84389504
 20
4.08497131
  0
VERTEX
  8
0
 62
7
 10
43.78638212
 20
4.03907097
  0
VERTEX
  8
0
 62
7
 10
43.72042219
 20
3.99570307
  0
VERTEX
  8
0
 62
7
 10
43.65216309
 20
3.95843300
  0
VERTEX
  8
0
 62
7
 10
43.58170476
 20
3.92736072
  0
VERTEX
  8
0
 62
7
 10
43.50914717
 20
3.90258621
  0
VERTEX
  8
0
 62
7
 10
43.42825921
 20
3.88026082
  0
VERTEX
  8
0
 62
7
 10
43.34587178
 20
3.86553273
  0
VERTEX
  8
0
 62
7
 10
43.26248471
 20
3.85760221
  0
VERTEX
  8
0
 62
7
 10
43.17859781
 20
3.85566957
  0
VERTEX
  8
0
 62
7
 10
43.12414838
 20
3.85563625
  0
VERTEX
  8
0
 62
7
 10
43.06968646
 20
3.85740228
  0
VERTEX
  8
0
 62
7
 10
43.01539948
 20
3.86136754
  0
VERTEX
  8
0
 62
7
 10
42.96147486
 20
3.86793187
  0
VERTEX
  8
0
 62
7
 10
42.90810005
 20
3.87749514
  0
VERTEX
  8
0
 62
7
 10
42.85546248
 20
3.89045719
  0
VERTEX
  8
0
 62
7
 10
42.80374959
 20
3.90721789
  0
VERTEX
  8
0
 62
7
 10
42.75314879
 20
3.92817710
  0
VERTEX
  8
0
 62
7
 10
42.70240014
 20
3.95415119
  0
VERTEX
  8
0
 62
7
 10
42.65425056
 20
3.98402390
  0
VERTEX
  8
0
 62
7
 10
42.60889998
 20
4.01769525
  0
VERTEX
  8
0
 62
7
 10
42.56654835
 20
4.05506528
  0
VERTEX
  8
0
 62
7
 10
42.52149767
 20
4.09585077
  0
VERTEX
  8
0
 62
7
 10
42.47884614
 20
4.13903540
  0
VERTEX
  8
0
 62
7
 10
42.44059305
 20
4.18581876
  0
VERTEX
  8
0
 62
7
 10
42.40873768
 20
4.23740040
  0
VERTEX
  8
0
 62
7
 10
42.39584226
 20
4.26499058
  0
VERTEX
  8
0
 62
7
 10
42.38474620
 20
4.29338048
  0
VERTEX
  8
0
 62
7
 10
42.37604929
 20
4.32257010
  0
VERTEX
  8
0
 62
7
 10
42.37035131
 20
4.35255942
  0
VERTEX
  8
0
 62
7
 10
42.36445340
 20
4.38484793
  0
VERTEX
  8
0
 62
7
 10
42.36155443
 20
4.41653666
  0
VERTEX
  8
0
 62
7
 10
42.36225418
 20
4.44822538
  0
VERTEX
  8
0
 62
7
 10
42.36715244
 20
4.48051389
  0
VERTEX
  8
0
 62
7
 10
42.37458314
 20
4.50140646
  0
VERTEX
  8
0
 62
7
 10
42.38661220
 20
4.52049967
  0
VERTEX
  8
0
 62
7
 10
42.40223999
 20
4.53719372
  0
VERTEX
  8
0
 62
7
 10
42.42046686
 20
4.55088885
  0
VERTEX
  8
0
 62
7
 10
42.39244347
 20
4.59095376
  0
VERTEX
  8
0
 62
7
 10
42.35922192
 20
4.62549564
  0
VERTEX
  8
0
 62
7
 10
42.32150198
 20
4.65438952
  0
VERTEX
  8
0
 62
7
 10
42.27998338
 20
4.67751046
  0
VERTEX
  8
0
 62
7
 10
42.23536588
 20
4.69473350
  0
VERTEX
  8
0
 62
7
 10
42.18834923
 20
4.70593368
  0
VERTEX
  8
0
 62
7
 10
42.13963318
 20
4.71098605
  0
VERTEX
  8
0
 62
7
 10
42.08991749
 20
4.70976565
  0
VERTEX
  8
0
 62
7
 10
42.05701251
 20
4.70659178
  0
VERTEX
  8
0
 62
7
 10
42.02540705
 20
4.70036899
  0
VERTEX
  8
0
 62
7
 10
41.99500118
 20
4.69124724
  0
VERTEX
  8
0
 62
7
 10
41.96569491
 20
4.67937646
  0
VERTEX
  8
0
 62
7
 10
41.93738829
 20
4.66490661
  0
VERTEX
  8
0
 62
7
 10
41.90998135
 20
4.64798763
  0
VERTEX
  8
0
 62
7
 10
41.88337413
 20
4.62876947
  0
VERTEX
  8
0
 62
7
 10
41.85746665
 20
4.60740208
  0
VERTEX
  8
0
 62
7
 10
41.83145089
 20
4.58160084
  0
VERTEX
  8
0
 62
7
 10
41.80708453
 20
4.55393777
  0
VERTEX
  8
0
 62
7
 10
41.78451754
 20
4.52465027
  0
VERTEX
  8
0
 62
7
 10
41.76389986
 20
4.49397577
  0
VERTEX
  8
0
 62
7
 10
41.74538143
 20
4.46215168
  0
VERTEX
  8
0
 62
7
 10
41.72911220
 20
4.42941541
  0
VERTEX
  8
0
 62
7
 10
41.71524213
 20
4.39600438
  0
VERTEX
  8
0
 62
7
 10
41.70392114
 20
4.36215601
  0
VERTEX
  8
0
 62
7
 10
41.69372268
 20
4.32513793
  0
VERTEX
  8
0
 62
7
 10
41.68631073
 20
4.28633299
  0
VERTEX
  8
0
 62
7
 10
41.68167279
 20
4.24615354
  0
VERTEX
  8
0
 62
7
 10
41.67979637
 20
4.20501193
  0
VERTEX
  8
0
 62
7
 10
41.68066898
 20
4.16332051
  0
VERTEX
  8
0
 62
7
 10
41.68427811
 20
4.12149165
  0
VERTEX
  8
0
 62
7
 10
41.69061128
 20
4.07993768
  0
VERTEX
  8
0
 62
7
 10
41.69965599
 20
4.03907097
  0
VERTEX
  8
0
 62
7
 10
41.70886939
 20
4.00612020
  0
VERTEX
  8
0
 62
7
 10
41.72038197
 20
3.97439399
  0
VERTEX
  8
0
 62
7
 10
41.73399380
 20
3.94381737
  0
VERTEX
  8
0
 62
7
 10
41.74950497
 20
3.91431537
  0
VERTEX
  8
0
 62
7
 10
41.76671553
 20
3.88581301
  0
VERTEX
  8
0
 62
7
 10
41.78542555
 20
3.85823532
  0
VERTEX
  8
0
 62
7
 10
41.80543512
 20
3.83150733
  0
VERTEX
  8
0
 62
7
 10
41.82654429
 20
3.80555407
  0
VERTEX
  8
0
 62
7
 10
41.87777611
 20
3.74989054
  0
VERTEX
  8
0
 62
7
 10
41.93570555
 20
3.70012492
  0
VERTEX
  8
0
 62
7
 10
41.99823336
 20
3.65455780
  0
VERTEX
  8
0
 62
7
 10
42.06326029
 20
3.61148979
  0
VERTEX
  8
0
 62
7
 10
42.10693437
 20
3.58676317
  0
VERTEX
  8
0
 62
7
 10
42.15154562
 20
3.56442320
  0
VERTEX
  8
0
 62
7
 10
42.19703157
 20
3.54425746
  0
VERTEX
  8
0
 62
7
 10
42.24332972
 20
3.52605352
  0
VERTEX
  8
0
 62
7
 10
42.29037761
 20
3.50959896
  0
VERTEX
  8
0
 62
7
 10
42.33811275
 20
3.49468135
  0
VERTEX
  8
0
 62
7
 10
42.38647267
 20
3.48108827
  0
VERTEX
  8
0
 62
7
 10
42.43539489
 20
3.46860730
  0
VERTEX
  8
0
 62
7
 10
42.52689575
 20
3.44903093
  0
VERTEX
  8
0
 62
7
 10
42.62359477
 20
3.43195367
  0
VERTEX
  8
0
 62
7
 10
42.72029379
 20
3.41987464
  0
VERTEX
  8
0
 62
7
 10
42.81179465
 20
3.41529294
  0
VERTEX
  8
0
 62
7
 10
42.91544120
 20
3.41569279
  0
VERTEX
  8
0
 62
7
 10
43.02598530
 20
3.42169066
  0
VERTEX
  8
0
 62
7
 10
43.14032806
 20
3.43328653
  0
VERTEX
  8
0
 62
7
 10
43.25537057
 20
3.45048042
  0
VERTEX
  8
0
 62
7
 10
43.32871121
 20
3.46640808
  0
VERTEX
  8
0
 62
7
 10
43.40145206
 20
3.48513475
  0
VERTEX
  8
0
 62
7
 10
43.47339319
 20
3.50626057
  0
VERTEX
  8
0
 62
7
 10
43.54433468
 20
3.52938567
  0
VERTEX
  8
0
 62
7
 10
43.55286499
 20
3.49633077
  0
VERTEX
  8
0
 62
7
 10
43.45157385
 20
3.46113496
  0
VERTEX
  8
0
 62
7
 10
43.34812098
 20
3.43148717
  0
VERTEX
  8
0
 62
7
 10
43.24324362
 20
3.40733743
  0
VERTEX
  8
0
 62
7
 10
43.13767900
 20
3.38863575
  0
VERTEX
  8
0
 62
7
 10
43.03216436
 20
3.37533216
  0
VERTEX
  8
0
 62
7
 10
42.92743694
 20
3.36737665
  0
VERTEX
  8
0
 62
7
 10
42.82423398
 20
3.36471927
  0
VERTEX
  8
0
 62
7
 10
42.72329272
 20
3.36731001
  0
VERTEX
  8
0
 62
7
 10
42.64896493
 20
3.37288511
  0
VERTEX
  8
0
 62
7
 10
42.57351254
 20
3.38172155
  0
VERTEX
  8
0
 62
7
 10
42.49751035
 20
3.39398177
  0
VERTEX
  8
0
 62
7
 10
42.42153314
 20
3.40982821
  0
VERTEX
  8
0
 62
7
 10
42.34615573
 20
3.42942332
  0
VERTEX
  8
0
 62
7
 10
42.27195289
 20
3.45292954
  0
VERTEX
  8
0
 62
7
 10
42.19949944
 20
3.48050931
  0
VERTEX
  8
0
 62
7
 10
42.12937016
 20
3.51232508
  0
VERTEX
  8
0
 62
7
 10
42.06177748
 20
3.54617970
  0
VERTEX
  8
0
 62
7
 10
41.99568427
 20
3.58403289
  0
VERTEX
  8
0
 62
7
 10
41.93219014
 20
3.62628452
  0
VERTEX
  8
0
 62
7
 10
41.87239469
 20
3.67333445
  0
VERTEX
  8
0
 62
7
 10
41.82222916
 20
3.72140068
  0
VERTEX
  8
0
 62
7
 10
41.77496260
 20
3.77316559
  0
VERTEX
  8
0
 62
7
 10
41.73189455
 20
3.82912901
  0
VERTEX
  8
0
 62
7
 10
41.69432455
 20
3.88979076
  0
VERTEX
  8
0
 62
7
 10
41.67161594
 20
3.93642417
  0
VERTEX
  8
0
 62
7
 10
41.65340574
 20
3.98455704
  0
VERTEX
  8
0
 62
7
 10
41.63779461
 20
4.03328970
  0
VERTEX
  8
0
 62
7
 10
41.62288324
 20
4.08172246
  0
VERTEX
  8
0
 62
7
 10
41.61055428
 20
4.11897587
  0
VERTEX
  8
0
 62
7
 10
41.59942489
 20
4.15662914
  0
VERTEX
  8
0
 62
7
 10
41.58749579
 20
4.19388255
  0
VERTEX
  8
0
 62
7
 10
41.57276769
 20
4.22993639
  0
VERTEX
  8
0
 62
7
 10
41.55943908
 20
4.25905936
  0
VERTEX
  8
0
 62
7
 10
41.54531076
 20
4.28778247
  0
VERTEX
  8
0
 62
7
 10
41.52838344
 20
4.31450630
  0
VERTEX
  8
0
 62
7
 10
41.50665781
 20
4.33763140
  0
VERTEX
  8
0
 62
7
 10
41.47970071
 20
4.35960692
  0
VERTEX
  8
0
 62
7
 10
41.45014454
 20
4.37748389
  0
VERTEX
  8
0
 62
7
 10
41.41818921
 20
4.39116235
  0
VERTEX
  8
0
 62
7
 10
41.38403466
 20
4.40054235
  0
VERTEX
  8
0
 62
7
 10
41.35969747
 20
4.40221051
  0
VERTEX
  8
0
 62
7
 10
41.33548523
 20
4.40109215
  0
VERTEX
  8
0
 62
7
 10
41.31142293
 20
4.39759965
  0
VERTEX
  8
0
 62
7
 10
41.28753558
 20
4.39214534
  0
VERTEX
  8
0
 62
7
 10
41.26384815
 20
4.38514158
  0
VERTEX
  8
0
 62
7
 10
41.24038564
 20
4.37700073
  0
VERTEX
  8
0
 62
7
 10
41.21717305
 20
4.36813513
  0
VERTEX
  8
0
 62
7
 10
41.19423535
 20
4.35895715
  0
VERTEX
  8
0
 62
7
 10
41.17704770
 20
4.35118283
  0
VERTEX
  8
0
 62
7
 10
41.16049733
 20
4.34194653
  0
VERTEX
  8
0
 62
7
 10
41.14432182
 20
4.33198550
  0
VERTEX
  8
0
 62
7
 10
41.12825877
 20
4.32203695
  0
VERTEX
  8
0
 62
7
 10
41.11204577
 20
4.31283814
  0
VERTEX
  8
0
 62
7
 10
41.09542042
 20
4.30512630
  0
VERTEX
  8
0
 62
7
 10
41.07812031
 20
4.29963867
  0
VERTEX
  8
0
 62
7
 10
41.05988303
 20
4.29711249
  0
VERTEX
  8
0
 62
7
 10
41.03225950
 20
4.29597956
  0
VERTEX
  8
0
 62
7
 10
41.00523576
 20
4.29844535
  0
VERTEX
  8
0
 62
7
 10
40.97861187
 20
4.30371014
  0
VERTEX
  8
0
 62
7
 10
40.95218792
 20
4.31097422
  0
VERTEX
  8
0
 62
7
 10
40.92136552
 20
4.32255343
  0
VERTEX
  8
0
 62
7
 10
40.89194263
 20
4.33643183
  0
VERTEX
  8
0
 62
7
 10
40.86251974
 20
4.35011030
  0
VERTEX
  8
0
 62
7
 10
40.83169734
 20
4.36108972
  0
VERTEX
  8
0
 62
7
 10
40.81040907
 20
4.36764364
  0
VERTEX
  8
0
 62
7
 10
40.78894585
 20
4.37353529
  0
VERTEX
  8
0
 62
7
 10
40.76733269
 20
4.37850228
  0
VERTEX
  8
0
 62
7
 10
40.74559457
 20
4.38228218
  0
VERTEX
  8
0
 62
7
 10
40.72375648
 20
4.38461260
  0
VERTEX
  8
0
 62
7
 10
40.70184343
 20
4.38523113
  0
VERTEX
  8
0
 62
7
 10
40.67988039
 20
4.38387536
  0
VERTEX
  8
0
 62
7
 10
40.65789236
 20
4.38028289
  0
VERTEX
  8
0
 62
7
 10
40.61570733
 20
4.37020315
  0
VERTEX
  8
0
 62
7
 10
40.57472187
 20
4.35642472
  0
VERTEX
  8
0
 62
7
 10
40.53613557
 20
4.33724821
  0
VERTEX
  8
0
 62
7
 10
40.50114798
 20
4.31097422
  0
VERTEX
  8
0
 62
7
 10
40.47399095
 20
4.28028514
  0
VERTEX
  8
0
 62
7
 10
40.45183215
 20
4.24299841
  0
VERTEX
  8
0
 62
7
 10
40.43487150
 20
4.20211296
  0
VERTEX
  8
0
 62
7
 10
40.42330894
 20
4.16062772
  0
VERTEX
  8
0
 62
7
 10
40.41925621
 20
4.13491812
  0
VERTEX
  8
0
 62
7
 10
40.41807746
 20
4.10909606
  0
VERTEX
  8
0
 62
7
 10
40.41944781
 20
4.08334897
  0
VERTEX
  8
0
 62
7
 10
40.42304237
 20
4.05786429
  0
VERTEX
  8
0
 62
7
 10
40.42853625
 20
4.03282945
  0
VERTEX
  8
0
 62
7
 10
40.43560458
 20
4.00843188
  0
VERTEX
  8
0
 62
7
 10
40.44392246
 20
3.98485901
  0
VERTEX
  8
0
 62
7
 10
40.45316501
 20
3.96229829
  0
VERTEX
  8
0
 62
7
 10
40.47222491
 20
3.92302893
  0
VERTEX
  8
0
 62
7
 10
40.49608311
 20
3.88086060
  0
VERTEX
  8
0
 62
7
 10
40.52274032
 20
3.83889220
  0
VERTEX
  8
0
 62
7
 10
40.55019724
 20
3.80022263
  0
VERTEX
  8
0
 62
7
 10
40.59763041
 20
3.74156017
  0
VERTEX
  8
0
 62
7
 10
40.64976191
 20
3.68759604
  0
VERTEX
  8
0
 62
7
 10
40.70569206
 20
3.63663084
  0
VERTEX
  8
0
 62
7
 10
40.76452118
 20
3.58696518
  0
VERTEX
  8
0
 62
7
 10
40.81252706
 20
3.54856635
  0
VERTEX
  8
0
 62
7
 10
40.86206990
 20
3.51309147
  0
VERTEX
  8
0
 62
7
 10
40.91298725
 20
3.48016569
  0
VERTEX
  8
0
 62
7
 10
40.96511666
 20
3.44941413
  0
VERTEX
  8
0
 62
7
 10
41.01829571
 20
3.42046193
  0
VERTEX
  8
0
 62
7
 10
41.07236194
 20
3.39293423
  0
VERTEX
  8
0
 62
7
 10
41.12715291
 20
3.36645615
  0
VERTEX
  8
0
 62
7
 10
41.18250618
 20
3.34065283
  0
VERTEX
  8
0
 62
7
 10
41.29916478
 20
3.29358624
  0
VERTEX
  8
0
 62
7
 10
41.41842246
 20
3.25281742
  0
VERTEX
  8
0
 62
7
 10
41.53967943
 20
3.21784653
  0
VERTEX
  8
0
 62
7
 10
41.66233590
 20
3.18817375
  0
VERTEX
  8
0
 62
7
 10
41.74920507
 20
3.16970116
  0
VERTEX
  8
0
 62
7
 10
41.83627417
 20
3.15415253
  0
VERTEX
  8
0
 62
7
 10
41.92354320
 20
3.14135291
  0
VERTEX
  8
0
 62
7
 10
42.01101216
 20
3.13112739
  0
VERTEX
  8
0
 62
7
 10
42.09868105
 20
3.12330100
  0
VERTEX
  8
0
 62
7
 10
42.18654987
 20
3.11769883
  0
VERTEX
  8
0
 62
7
 10
42.27461861
 20
3.11414593
  0
VERTEX
  8
0
 62
7
 10
42.36288729
 20
3.11246736
  0
VERTEX
  8
0
 62
7
 10
42.49850583
 20
3.11516640
  0
VERTEX
  8
0
 62
7
 10
42.63452422
 20
3.12206394
  0
VERTEX
  8
0
 62
7
 10
42.77014276
 20
3.13375978
  0
VERTEX
  8
0
 62
7
 10
42.90456173
 20
3.15085370
  0
VERTEX
  8
0
 62
7
 10
42.90669430
 20
3.12099766
  0
VERTEX
  8
0
 62
7
 10
42.74833384
 20
3.09736232
  0
VERTEX
  8
0
 62
7
 10
42.59007333
 20
3.08086194
  0
VERTEX
  8
0
 62
7
 10
42.43211272
 20
3.07153401
  0
VERTEX
  8
0
 62
7
 10
42.27465194
 20
3.06941601
  0
VERTEX
  8
0
 62
7
 10
42.11789090
 20
3.07454544
  0
VERTEX
  8
0
 62
7
 10
41.96202955
 20
3.08695977
  0
VERTEX
  8
0
 62
7
 10
41.80726780
 20
3.10669650
  0
VERTEX
  8
0
 62
7
 10
41.65380559
 20
3.13379310
  0
VERTEX
  8
0
 62
7
 10
41.54229517
 20
3.15775124
  0
VERTEX
  8
0
 62
7
 10
41.43188435
 20
3.18870690
  0
VERTEX
  8
0
 62
7
 10
41.32287304
 20
3.22526056
  0
VERTEX
  8
0
 62
7
 10
41.21556112
 20
3.26601272
  0
VERTEX
  8
0
 62
7
 10
41.13463984
 20
3.30090031
  0
VERTEX
  8
0
 62
7
 10
41.05521802
 20
3.33958654
  0
VERTEX
  8
0
 62
7
 10
40.97759557
 20
3.38147164
  0
VERTEX
  8
0
 62
7
 10
40.90207237
 20
3.42595581
  0
VERTEX
  8
0
 62
7
 10
40.84286005
 20
3.46397561
  0
VERTEX
  8
0
 62
7
 10
40.78424752
 20
3.50459449
  0
VERTEX
  8
0
 62
7
 10
40.72723442
 20
3.54801238
  0
VERTEX
  8
0
 62
7
 10
40.67282039
 20
3.59442919
  0
VERTEX
  8
0
 62
7
 10
40.62931916
 20
3.63399845
  0
VERTEX
  8
0
 62
7
 10
40.58871691
 20
3.67266802
  0
VERTEX
  8
0
 62
7
 10
40.54911429
 20
3.71513624
  0
VERTEX
  8
0
 62
7
 10
40.50861200
 20
3.76610144
  0
VERTEX
  8
0
 62
7
 10
40.45449787
 20
3.84300741
  0
VERTEX
  8
0
 62
7
 10
40.40518204
 20
3.92391195
  0
VERTEX
  8
0
 62
7
 10
40.38239013
 20
3.97002888
  0
VERTEX
  8
0
 62
7
 10
40.36359680
 20
4.01774523
  0
VERTEX
  8
0
 62
7
 10
40.34227103
 20
4.10411450
  0
VERTEX
  8
0
 62
7
 10
40.33379071
 20
4.13825235
  0
VERTEX
  8
0
 62
7
 10
40.32720971
 20
4.17009102
  0
VERTEX
  8
0
 62
7
 10
40.31962907
 20
4.20172976
  0
VERTEX
  8
0
 62
7
 10
40.30814981
 20
4.23526783
  0
VERTEX
  8
0
 62
7
 10
40.29307182
 20
4.26647339
  0
VERTEX
  8
0
 62
7
 10
40.27469501
 20
4.29537977
  0
VERTEX
  8
0
 62
7
 10
40.25251955
 20
4.32088736
  0
VERTEX
  8
0
 62
7
 10
40.22604561
 20
4.34189655
  0
VERTEX
  8
0
 62
7
 10
40.20753343
 20
4.35282600
  0
VERTEX
  8
0
 62
7
 10
40.18810907
 20
4.36155622
  0
VERTEX
  8
0
 62
7
 10
40.16795997
 20
4.36798727
  0
VERTEX
  8
0
 62
7
 10
40.14727357
 20
4.37201917
  0
VERTEX
  8
0
 62
7
 10
40.12623728
 20
4.37355195
  0
VERTEX
  8
0
 62
7
 10
40.10503855
 20
4.37248567
  0
VERTEX
  8
0
 62
7
 10
40.08386482
 20
4.36872034
  0
VERTEX
  8
0
 62
7
 10
40.06290351
 20
4.36215601
  0
VERTEX
  8
0
 62
7
 10
40.02968196
 20
4.34747790
  0
VERTEX
  8
0
 62
7
 10
39.99785992
 20
4.33030068
  0
VERTEX
  8
0
 62
7
 10
39.96603788
 20
4.31252367
  0
VERTEX
  8
0
 62
7
 10
39.93281634
 20
4.29604620
  0
VERTEX
  8
0
 62
7
 10
39.90382663
 20
4.28271761
  0
VERTEX
  8
0
 62
7
 10
39.87283762
 20
4.27018873
  0
VERTEX
  8
0
 62
7
 10
39.83984933
 20
4.26125858
  0
VERTEX
  8
0
 62
7
 10
39.80486175
 20
4.25872615
  0
VERTEX
  8
0
 62
7
 10
39.78428363
 20
4.26087538
  0
VERTEX
  8
0
 62
7
 10
39.76559235
 20
4.26532380
  0
VERTEX
  8
0
 62
7
 10
39.74857547
 20
4.27147161
  0
VERTEX
  8
0
 62
7
 10
39.73302058
 20
4.27871903
  0
VERTEX
  8
0
 62
7
 10
39.71871524
 20
4.28646628
  0
VERTEX
  8
0
 62
7
 10
39.70544703
 20
4.29411355
  0
VERTEX
  8
0
 62
7
 10
39.69300353
 20
4.30106108
  0
VERTEX
  8
0
 62
7
 10
39.68117231
 20
4.30670907
  0
VERTEX
  8
0
 62
7
 10
39.64926072
 20
4.31986273
  0
VERTEX
  8
0
 62
7
 10
39.62001068
 20
4.33196675
  0
VERTEX
  8
0
 62
7
 10
39.59238507
 20
4.34277124
  0
VERTEX
  8
0
 62
7
 10
39.56534675
 20
4.35202628
  0
VERTEX
  8
0
 62
7
 10
39.53785858
 20
4.35948196
  0
VERTEX
  8
0
 62
7
 10
39.50888345
 20
4.36488837
  0
VERTEX
  8
0
 62
7
 10
39.47738421
 20
4.36799560
  0
VERTEX
  8
0
 62
7
 10
39.44232374
 20
4.36855373
  0
VERTEX
  8
0
 62
7
 10
39.40942500
 20
4.36746870
  0
VERTEX
  8
0
 62
7
 10
39.37646378
 20
4.36487171
  0
VERTEX
  8
0
 62
7
 10
39.34367750
 20
4.36055033
  0
VERTEX
  8
0
 62
7
 10
39.31130357
 20
4.35429214
  0
VERTEX
  8
0
 62
7
 10
39.27957941
 20
4.34588472
  0
VERTEX
  8
0
 62
7
 10
39.24874244
 20
4.33511563
  0
VERTEX
  8
0
 62
7
 10
39.21903006
 20
4.32177246
  0
VERTEX
  8
0
 62
7
 10
39.19067971
 20
4.30564279
  0
VERTEX
  8
0
 62
7
 10
39.14499592
 20
4.26860596
  0
VERTEX
  8
0
 62
7
 10
39.10590979
 20
4.22527138
  0
VERTEX
  8
0
 62
7
 10
39.07402111
 20
4.17653873
  0
VERTEX
  8
0
 62
7
 10
39.04992966
 20
4.12330767
  0
VERTEX
  8
0
 62
7
 10
39.08290129
 20
4.11609357
  0
VERTEX
  8
0
 62
7
 10
39.11457338
 20
4.10558064
  0
VERTEX
  8
0
 62
7
 10
39.14484597
 20
4.09166892
  0
VERTEX
  8
0
 62
7
 10
39.17361910
 20
4.07425845
  0
VERTEX
  8
0
 62
7
 10
39.20855670
 20
4.04286962
  0
VERTEX
  8
0
 62
7
 10
39.23959568
 20
4.00548293
  0
VERTEX
  8
0
 62
7
 10
39.26883531
 20
3.96569708
  0
VERTEX
  8
0
 62
7
 10
39.29837482
 20
3.92711081
  0
VERTEX
  8
0
 62
7
 10
39.36521777
 20
3.84902193
  0
VERTEX
  8
0
 62
7
 10
39.43166086
 20
3.77583131
  0
VERTEX
  8
0
 62
7
 10
39.50530139
 20
3.70444005
  0
VERTEX
  8
0
 62
7
 10
39.59373667
 20
3.63174925
  0
VERTEX
  8
0
 62
7
 10
39.70386426
 20
3.55262740
  0
VERTEX
  8
0
 62
7
 10
39.81579120
 20
3.47780403
  0
VERTEX
  8
0
 62
7
 10
39.93051715
 20
3.40877859
  0
VERTEX
  8
0
 62
7
 10
40.04904176
 20
3.34705055
  0
VERTEX
  8
0
 62
7
 10
40.15505414
 20
3.29581878
  0
VERTEX
  8
0
 62
7
 10
40.26296584
 20
3.24748598
  0
VERTEX
  8
0
 62
7
 10
40.37187719
 20
3.20175225
  0
VERTEX
  8
0
 62
7
 10
40.48088851
 20
3.15831771
  0
VERTEX
  8
0
 62
7
 10
40.60387819
 20
3.11260064
  0
VERTEX
  8
0
 62
7
 10
40.72826738
 20
3.07088216
  0
VERTEX
  8
0
 62
7
 10
40.85425601
 20
3.03236253
  0
VERTEX
  8
0
 62
7
 10
40.98204399
 20
2.99624205
  0
VERTEX
  8
0
 62
7
 10
41.08639029
 20
2.96758558
  0
VERTEX
  8
0
 62
7
 10
41.19143635
 20
2.94212797
  0
VERTEX
  8
0
 62
7
 10
41.29708219
 20
2.91946937
  0
VERTEX
  8
0
 62
7
 10
41.40322785
 20
2.89920991
  0
VERTEX
  8
0
 62
7
 10
41.41175816
 20
2.86615501
  0
VERTEX
  8
0
 62
7
 10
41.30440459
 20
2.88339887
  0
VERTEX
  8
0
 62
7
 10
41.19750086
 20
2.90314184
  0
VERTEX
  8
0
 62
7
 10
41.09109696
 20
2.92538393
  0
VERTEX
  8
0
 62
7
 10
40.98524285
 20
2.95012513
  0
VERTEX
  8
0
 62
7
 10
40.87998854
 20
2.97736543
  0
VERTEX
  8
0
 62
7
 10
40.77538400
 20
3.00710485
  0
VERTEX
  8
0
 62
7
 10
40.67147920
 20
3.03934338
  0
VERTEX
  8
0
 62
7
 10
40.56832414
 20
3.07408102
  0
VERTEX
  8
0
 62
7
 10
40.44958295
 20
3.11838192
  0
VERTEX
  8
0
 62
7
 10
40.33174144
 20
3.16538186
  0
VERTEX
  8
0
 62
7
 10
40.21489957
 20
3.21578060
  0
VERTEX
  8
0
 62
7
 10
40.09915731
 20
3.27027787
  0
VERTEX
  8
0
 62
7
 10
40.02625401
 20
3.30564654
  0
VERTEX
  8
0
 62
7
 10
39.95397550
 20
3.34230224
  0
VERTEX
  8
0
 62
7
 10
39.88244671
 20
3.38043242
  0
VERTEX
  8
0
 62
7
 10
39.81179262
 20
3.42022451
  0
VERTEX
  8
0
 62
7
 10
39.74213817
 20
3.46186595
  0
VERTEX
  8
0
 62
7
 10
39.67360833
 20
3.50554415
  0
VERTEX
  8
0
 62
7
 10
39.60632804
 20
3.55144657
  0
VERTEX
  8
0
 62
7
 10
39.54042226
 20
3.59976063
  0
VERTEX
  8
0
 62
7
 10
39.45625213
 20
3.66552056
  0
VERTEX
  8
0
 62
7
 10
39.37568072
 20
3.73477925
  0
VERTEX
  8
0
 62
7
 10
39.29750846
 20
3.80743673
  0
VERTEX
  8
0
 62
7
 10
39.22053578
 20
3.88339304
  0
VERTEX
  8
0
 62
7
 10
39.15524228
 20
3.95241847
  0
VERTEX
  8
0
 62
7
 10
39.09324762
 20
4.02374310
  0
VERTEX
  8
0
 62
7
 10
39.03145288
 20
4.09526764
  0
VERTEX
  8
0
 62
7
 10
38.96675917
 20
4.16489287
  0
VERTEX
  8
0
 62
7
 10
38.93876911
 20
4.19688149
  0
VERTEX
  8
0
 62
7
 10
38.90917961
 20
4.22567124
  0
VERTEX
  8
0
 62
7
 10
38.87150964
 20
4.25291155
  0
VERTEX
  8
0
 62
7
 10
38.83094071
 20
4.27565346
  0
VERTEX
  8
0
 62
7
 10
38.78817255
 20
4.29419686
  0
VERTEX
  8
0
 62
7
 10
38.74390493
 20
4.30884165
  0
VERTEX
  8
0
 62
7
 10
38.68066070
 20
4.32326985
  0
VERTEX
  8
0
 62
7
 10
38.61621691
 20
4.32990082
  0
VERTEX
  8
0
 62
7
 10
38.55137325
 20
4.32893450
  0
VERTEX
  8
0
 62
7
 10
38.48692945
 20
4.32057081
  0
VERTEX
  8
0
 62
7
 10
38.45322475
 20
4.31227376
  0
VERTEX
  8
0
 62
7
 10
38.42041972
 20
4.30137764
  0
VERTEX
  8
0
 62
7
 10
38.38781463
 20
4.28968180
  0
VERTEX
  8
0
 62
7
 10
38.35470971
 20
4.27898560
  0
VERTEX
  8
0
 62
7
 10
38.32205463
 20
4.27027204
  0
VERTEX
  8
0
 62
7
 10
38.28939955
 20
4.26045886
  0
VERTEX
  8
0
 62
7
 10
38.25634462
 20
4.25244505
  0
VERTEX
  8
0
 62
7
 10
38.22248997
 20
4.24912956
  0
VERTEX
  8
0
 62
7
 10
38.17637300
 20
4.25312814
  0
VERTEX
  8
0
 62
7
 10
38.13185546
 20
4.26512387
  0
VERTEX
  8
0
 62
7
 10
38.09416467
 20
4.28694111
  0
VERTEX
  8
0
 62
7
 10
38.05484946
 20
4.30730886
  0
VERTEX
  8
0
 62
7
 10
38.01418472
 20
4.32577729
  0
VERTEX
  8
0
 62
7
 10
37.97244537
 20
4.34189655
  0
VERTEX
  8
0
 62
7
 10
37.92990630
 20
4.35521681
  0
VERTEX
  8
0
 62
7
 10
37.88684241
 20
4.36528823
  0
VERTEX
  8
0
 62
7
 10
37.84352862
 20
4.37166096
  0
VERTEX
  8
0
 62
7
 10
37.80023981
 20
4.37388517
  0
VERTEX
  8
0
 62
7
 10
37.76415262
 20
4.37472654
  0
VERTEX
  8
0
 62
7
 10
37.72866521
 20
4.37441831
  0
VERTEX
  8
0
 62
7
 10
37.69377759
 20
4.37231073
  0
VERTEX
  8
0
 62
7
 10
37.65948976
 20
4.36775402
  0
VERTEX
  8
0
 62
7
 10
37.62580172
 20
4.36009841
  0
VERTEX
  8
0
 62
7
 10
37.59271346
 20
4.34869413
  0
VERTEX
  8
0
 62
7
 10
37.56022499
 20
4.33289142
  0
VERTEX
  8
0
 62
7
 10
37.52833631
 20
4.31204051
  0
VERTEX
  8
0
 62
7
 10
37.51021982
 20
4.29771852
  0
VERTEX
  8
0
 62
7
 10
37.49216581
 20
4.28203452
  0
VERTEX
  8
0
 62
7
 10
37.47463661
 20
4.26512595
  0
VERTEX
  8
0
 62
7
 10
37.45809457
 20
4.24713027
  0
VERTEX
  8
0
 62
7
 10
37.44300201
 20
4.22818493
  0
VERTEX
  8
0
 62
7
 10
37.42982127
 20
4.20842738
  0
VERTEX
  8
0
 62
7
 10
37.41901469
 20
4.18799507
  0
VERTEX
  8
0
 62
7
 10
37.41104460
 20
4.16702544
  0
VERTEX
  8
0
 62
7
 10
37.40288083
 20
4.12752283
  0
VERTEX
  8
0
 62
7
 10
37.40091486
 20
4.08772033
  0
VERTEX
  8
0
 62
7
 10
37.40534662
 20
4.04811776
  0
VERTEX
  8
0
 62
7
 10
37.41637604
 20
4.00921493
  0
VERTEX
  8
0
 62
7
 10
37.47862062
 20
3.99828549
  0
VERTEX
  8
0
 62
7
 10
37.54006548
 20
3.98255775
  0
VERTEX
  8
0
 62
7
 10
37.58076770
 20
3.96729651
  0
VERTEX
  8
0
 62
7
 10
37.62017038
 20
3.94843656
  0
VERTEX
  8
0
 62
7
 10
37.65897328
 20
3.92797717
  0
VERTEX
  8
0
 62
7
 10
37.69787614
 20
3.90791764
  0
VERTEX
  8
0
 62
7
 10
37.94632131
 20
3.77249916
  0
VERTEX
  8
0
 62
7
 10
38.23568528
 20
3.62388538
  0
VERTEX
  8
0
 62
7
 10
38.53064727
 20
3.48246903
  0
VERTEX
  8
0
 62
7
 10
38.66924809
 20
3.41884167
  0
VERTEX
  8
0
 62
7
 10
38.80854865
 20
3.35891300
  0
VERTEX
  8
0
 62
7
 10
38.94884886
 20
3.29998397
  0
VERTEX
  8
0
 62
7
 10
39.09044861
 20
3.23935554
  0
VERTEX
  8
0
 62
7
 10
39.23528055
 20
3.17787742
  0
VERTEX
  8
0
 62
7
 10
39.38061230
 20
3.11939823
  0
VERTEX
  8
0
 62
7
 10
39.52694371
 20
3.06331818
  0
VERTEX
  8
0
 62
7
 10
39.67477458
 20
3.00903750
  0
VERTEX
  8
0
 62
7
 10
39.87928534
 20
2.93946225
  0
VERTEX
  8
0
 62
7
 10
40.08489570
 20
2.87468530
  0
VERTEX
  8
0
 62
7
 10
40.29150571
 20
2.81470665
  0
VERTEX
  8
0
 62
7
 10
40.49901541
 20
2.75952628
  0
VERTEX
  8
0
 62
7
 10
40.49901541
 20
2.72647138
  0
VERTEX
  8
0
 62
7
 10
40.32336108
 20
2.76845644
  0
VERTEX
  8
0
 62
7
 10
40.14940614
 20
2.81444007
  0
VERTEX
  8
0
 62
7
 10
39.97645085
 20
2.86442229
  0
VERTEX
  8
0
 62
7
 10
39.80379546
 20
2.91840308
  0
VERTEX
  8
0
 62
7
 10
39.59195397
 20
2.98966106
  0
VERTEX
  8
0
 62
7
 10
39.38301145
 20
3.06541743
  0
VERTEX
  8
0
 62
7
 10
39.17626816
 20
3.14497246
  0
VERTEX
  8
0
 62
7
 10
38.97102433
 20
3.22762638
  0
VERTEX
  8
0
 62
7
 10
38.76498078
 20
3.31434552
  0
VERTEX
  8
0
 62
7
 10
38.55983691
 20
3.40476335
  0
VERTEX
  8
0
 62
7
 10
38.35609255
 20
3.49857997
  0
VERTEX
  8
0
 62
7
 10
38.15424752
 20
3.59549548
  0
VERTEX
  8
0
 62
7
 10
37.88940817
 20
3.73158039
  0
VERTEX
  8
0
 62
7
 10
37.62856740
 20
3.87486274
  0
VERTEX
  8
0
 62
7
 10
37.49869682
 20
3.94645393
  0
VERTEX
  8
0
 62
7
 10
37.37012579
 20
4.01974452
  0
VERTEX
  8
0
 62
7
 10
37.24335411
 20
4.09603404
  0
VERTEX
  8
0
 62
7
 10
37.11888161
 20
4.17662203
  0
VERTEX
  8
0
 62
7
 10
37.08506028
 20
4.20162980
  0
VERTEX
  8
0
 62
7
 10
37.05063916
 20
4.22713739
  0
VERTEX
  8
0
 62
7
 10
37.01541833
 20
4.25084562
  0
VERTEX
  8
0
 62
7
 10
36.97919785
 20
4.27045531
  0
VERTEX
  8
0
 62
7
 10
36.93464699
 20
4.28804905
  0
VERTEX
  8
0
 62
7
 10
36.88989621
 20
4.30084449
  0
VERTEX
  8
0
 62
7
 10
36.84394585
 20
4.30884165
  0
VERTEX
  8
0
 62
7
 10
36.79579627
 20
4.31204051
  0
VERTEX
  8
0
 62
7
 10
36.75317806
 20
4.30799195
  0
VERTEX
  8
0
 62
7
 10
36.71155950
 20
4.29964492
  0
VERTEX
  8
0
 62
7
 10
36.67074065
 20
4.28789910
  0
VERTEX
  8
0
 62
7
 10
36.63052159
 20
4.27365417
  0
VERTEX
  8
0
 62
7
 10
36.56187928
 20
4.24459784
  0
VERTEX
  8
0
 62
7
 10
36.49723556
 20
4.21074322
  0
VERTEX
  8
0
 62
7
 10
36.44331719
 20
4.24614521
  0
VERTEX
  8
0
 62
7
 10
36.38597504
 20
4.27683637
  0
VERTEX
  8
0
 62
7
 10
36.32588387
 20
4.30230439
  0
VERTEX
  8
0
 62
7
 10
36.26371843
 20
4.32203695
  0
VERTEX
  8
0
 62
7
 10
36.20015348
 20
4.33552174
  0
VERTEX
  8
0
 62
7
 10
36.13586380
 20
4.34224643
  0
VERTEX
  8
0
 62
7
 10
36.07152413
 20
4.34169871
  0
VERTEX
  8
0
 62
7
 10
36.00780924
 20
4.33336625
  0
VERTEX
  8
0
 62
7
 10
35.96032609
 20
4.32155379
  0
VERTEX
  8
0
 62
7
 10
35.91424245
 20
4.30524293
  0
VERTEX
  8
0
 62
7
 10
35.87015809
 20
4.28433370
  0
VERTEX
  8
0
 62
7
 10
35.82867282
 20
4.25872615
  0
VERTEX
  8
0
 62
7
 10
35.80461677
 20
4.24068465
  0
VERTEX
  8
0
 62
7
 10
35.78217265
 20
4.22095625
  0
VERTEX
  8
0
 62
7
 10
35.76155289
 20
4.19955345
  0
VERTEX
  8
0
 62
7
 10
35.74296990
 20
4.17648874
  0
VERTEX
  8
0
 62
7
 10
35.72663611
 20
4.15177462
  0
VERTEX
  8
0
 62
7
 10
35.71276395
 20
4.12542358
  0
VERTEX
  8
0
 62
7
 10
35.70156584
 20
4.09744812
  0
VERTEX
  8
0
 62
7
 10
35.69325421
 20
4.06786073
  0
VERTEX
  8
0
 62
7
 10
35.68911817
 20
4.04330488
  0
VERTEX
  8
0
 62
7
 10
35.68715637
 20
4.01856161
  0
VERTEX
  8
0
 62
7
 10
35.68744377
 20
3.99384332
  0
VERTEX
  8
0
 62
7
 10
35.69005534
 20
3.96936245
  0
VERTEX
  8
0
 62
7
 10
35.69506606
 20
3.94533141
  0
VERTEX
  8
0
 62
7
 10
35.70255091
 20
3.92196265
  0
VERTEX
  8
0
 62
7
 10
35.71258485
 20
3.89946857
  0
VERTEX
  8
0
 62
7
 10
35.72524285
 20
3.87806160
  0
VERTEX
  8
0
 62
7
 10
35.74242009
 20
3.85590282
  0
VERTEX
  8
0
 62
7
 10
35.76189651
 20
3.83594325
  0
VERTEX
  8
0
 62
7
 10
35.78357215
 20
3.81838284
  0
VERTEX
  8
0
 62
7
 10
35.80734705
 20
3.80342149
  0
VERTEX
  8
0
 62
7
 10
35.85649628
 20
3.81530060
  0
VERTEX
  8
0
 62
7
 10
35.90624529
 20
3.82248138
  0
VERTEX
  8
0
 62
7
 10
35.95639416
 20
3.82546365
  0
VERTEX
  8
0
 62
7
 10
36.00674296
 20
3.82474724
  0
VERTEX
  8
0
 62
7
 10
36.05735833
 20
3.81941580
  0
VERTEX
  8
0
 62
7
 10
36.10697405
 20
3.80928607
  0
VERTEX
  8
0
 62
7
 10
36.15579006
 20
3.79595748
  0
VERTEX
  8
0
 62
7
 10
36.20400628
 20
3.78102946
  0
VERTEX
  8
0
 62
7
 10
36.28014593
 20
3.75447224
  0
VERTEX
  8
0
 62
7
 10
36.35488607
 20
3.72291681
  0
VERTEX
  8
0
 62
7
 10
36.42802678
 20
3.68896222
  0
VERTEX
  8
0
 62
7
 10
36.49936813
 20
3.65520757
  0
VERTEX
  8
0
 62
7
 10
36.68535213
 20
3.57200384
  0
VERTEX
  8
0
 62
7
 10
36.87003659
 20
3.49419819
  0
VERTEX
  8
0
 62
7
 10
37.05492098
 20
3.42039112
  0
VERTEX
  8
0
 62
7
 10
37.24150476
 20
3.34918313
  0
VERTEX
  8
0
 62
7
 10
37.45046394
 20
3.27517613
  0
VERTEX
  8
0
 62
7
 10
37.66082262
 20
3.20576749
  0
VERTEX
  8
0
 62
7
 10
37.87158116
 20
3.13955772
  0
VERTEX
  8
0
 62
7
 10
38.08173991
 20
3.07514730
  0
VERTEX
  8
0
 62
7
 10
38.26509151
 20
3.02171632
  0
VERTEX
  8
0
 62
7
 10
38.44894294
 20
2.96918501
  0
VERTEX
  8
0
 62
7
 10
38.63339414
 20
2.91845306
  0
VERTEX
  8
0
 62
7
 10
38.81854510
 20
2.87042015
  0
VERTEX
  8
0
 62
7
 10
38.98741851
 20
2.82928479
  0
VERTEX
  8
0
 62
7
 10
39.15789134
 20
2.79084847
  0
VERTEX
  8
0
 62
7
 10
39.32956375
 20
2.75541108
  0
VERTEX
  8
0
 62
7
 10
39.50203588
 20
2.72327251
  0
VERTEX
  8
0
 62
7
 10
39.50203588
 20
2.68168731
  0
VERTEX
  8
0
 62
7
 10
39.26746496
 20
2.72796459
  0
VERTEX
  8
0
 62
7
 10
39.03396865
 20
2.77800304
  0
VERTEX
  8
0
 62
7
 10
38.80152198
 20
2.83176516
  0
VERTEX
  8
0
 62
7
 10
38.57009994
 20
2.88921347
  0
VERTEX
  8
0
 62
7
 10
38.33967754
 20
2.95031048
  0
VERTEX
  8
0
 62
7
 10
38.11022980
 20
3.01501870
  0
VERTEX
  8
0
 62
7
 10
37.88173173
 20
3.08330065
  0
VERTEX
  8
0
 62
7
 10
37.65415832
 20
3.15511885
  0
VERTEX
  8
0
 62
7
 10
37.47125656
 20
3.21563065
  0
VERTEX
  8
0
 62
7
 10
37.28895459
 20
3.27774188
  0
VERTEX
  8
0
 62
7
 10
37.10745234
 20
3.34225226
  0
VERTEX
  8
0
 62
7
 10
36.92694973
 20
3.40996150
  0
VERTEX
  8
0
 62
7
 10
36.59106892
 20
3.54537998
  0
VERTEX
  8
0
 62
7
 10
36.38420900
 20
3.63921326
  0
VERTEX
  8
0
 62
7
 10
36.30610339
 20
3.67400088
  0
VERTEX
  8
0
 62
7
 10
36.22639834
 20
3.70638935
  0
VERTEX
  8
0
 62
7
 10
36.15735617
 20
3.73144710
  0
VERTEX
  8
0
 62
7
 10
36.08671458
 20
3.75010713
  0
VERTEX
  8
0
 62
7
 10
36.03380002
 20
3.76103658
  0
VERTEX
  8
0
 62
7
 10
35.98008575
 20
3.76716773
  0
VERTEX
  8
0
 62
7
 10
35.95512794
 20
3.76783416
  0
VERTEX
  8
0
 62
7
 10
35.92997020
 20
3.76770087
  0
VERTEX
  8
0
 62
7
 10
35.90481246
 20
3.76596815
  0
VERTEX
  8
0
 62
7
 10
35.87985465
 20
3.76183629
  0
VERTEX
  8
0
 62
7
 10
35.85439702
 20
3.75117342
  0
VERTEX
  8
0
 62
7
 10
35.82973910
 20
3.73731168
  0
VERTEX
  8
0
 62
7
 10
35.80232592
 20
3.74478611
  0
VERTEX
  8
0
 62
7
 10
35.77617478
 20
3.75512201
  0
VERTEX
  8
0
 62
7
 10
35.75144814
 20
3.76818195
  0
VERTEX
  8
0
 62
7
 10
35.72830843
 20
3.78382847
  0
VERTEX
  8
0
 62
7
 10
35.70691811
 20
3.80192411
  0
VERTEX
  8
0
 62
7
 10
35.68743960
 20
3.82233143
  0
VERTEX
  8
0
 62
7
 10
35.67003536
 20
3.84491298
  0
VERTEX
  8
0
 62
7
 10
35.65486783
 20
3.86953130
  0
VERTEX
  8
0
 62
7
 10
35.64085613
 20
3.89890418
  0
VERTEX
  8
0
 62
7
 10
35.63074306
 20
3.92937667
  0
VERTEX
  8
0
 62
7
 10
35.62442863
 20
3.96084881
  0
VERTEX
  8
0
 62
7
 10
35.62181289
 20
3.99322062
  0
VERTEX
  8
0
 62
7
 10
35.35204196
 20
4.13716940
  0
VERTEX
  8
0
 62
7
 10
35.15091334
 20
4.25379457
  0
VERTEX
  8
0
 62
7
 10
34.95538273
 20
4.37601774
  0
VERTEX
  8
0
 62
7
 10
33.99359072
 20
4.37601774
  0
SEQEND
  0
POLYLINE
  8
0
 62
7
 66
1
 70
1
  0
VERTEX
  8
0
 62
7
 10
41.70403973
 20
8.94555306
  0
VERTEX
  8
0
 62
7
 10
29.72962254
 20
8.94555306
  0
VERTEX
  8
0
 62
7
 10
29.72962254
 20
4.44048945
  0
VERTEX
  8
0
 62
7
 10
41.70403973
 20
4.44048945
  0
VERTEX
  8
0
 62
7
 10
41.70403973
 20
8.94555306
  0
SEQEND
  0
POLYLINE
  8
0
 62
7
 66
1
 70
1
  0
VERTEX
  8
0
 62
7
 10
25.86777782
 20
2.75648376
  0
VERTEX
  8
0
 62
7
 10
25.71543189
 20
2.73400843
  0
VERTEX
  8
0
 62
7
 10
25.56148652
 20
2.71423213
  0
VERTEX
  8
0
 62
7
 10
25.40474214
 20
2.69665505
  0
VERTEX
  8
0
 62
7
 10
25.24399919
 20
2.68077737
  0
VERTEX
  8
0
 62
7
 10
25.24399919
 20
2.30544426
  0
VERTEX
  8
0
 62
7
 10
25.02647638
 20
2.30544426
  0
VERTEX
  8
0
 62
7
 10
24.97209568
 20
2.25746133
  0
VERTEX
  8
0
 62
7
 10
24.95610136
 20
2.24253331
  0
VERTEX
  8
0
 62
7
 10
24.96962989
 20
2.20997823
  0
VERTEX
  8
0
 62
7
 10
24.98115913
 20
2.17642350
  0
VERTEX
  8
0
 62
7
 10
24.99028923
 20
2.14206906
  0
VERTEX
  8
0
 62
7
 10
24.99662031
 20
2.10711483
  0
VERTEX
  8
0
 62
7
 10
25.00116870
 20
2.08138857
  0
VERTEX
  8
0
 62
7
 10
25.00501733
 20
2.05544988
  0
VERTEX
  8
0
 62
7
 10
25.00786632
 20
2.02938624
  0
VERTEX
  8
0
 62
7
 10
25.00941577
 20
2.00328511
  0
VERTEX
  8
0
 62
7
 10
25.00936579
 20
1.97723396
  0
VERTEX
  8
0
 62
7
 10
25.00741648
 20
1.95132027
  0
VERTEX
  8
0
 62
7
 10
25.00326795
 20
1.92563149
  0
VERTEX
  8
0
 62
7
 10
24.99662031
 20
1.90025511
  0
VERTEX
  8
0
 62
7
 10
24.98847112
 20
1.87861905
  0
VERTEX
  8
0
 62
7
 10
24.97980961
 20
1.85712045
  0
VERTEX
  8
0
 62
7
 10
24.97032339
 20
1.83609669
  0
VERTEX
  8
0
 62
7
 10
24.95970008
 20
1.81588513
  0
VERTEX
  8
0
 62
7
 10
24.94762728
 20
1.79682316
  0
VERTEX
  8
0
 62
7
 10
24.93379261
 20
1.77924816
  0
VERTEX
  8
0
 62
7
 10
24.91788367
 20
1.76349752
  0
VERTEX
  8
0
 62
7
 10
24.89958808
 20
1.74990860
  0
VERTEX
  8
0
 62
7
 10
24.86633322
 20
1.73316456
  0
VERTEX
  8
0
 62
7
 10
24.83107906
 20
1.72311814
  0
VERTEX
  8
0
 62
7
 10
24.79462533
 20
1.72006922
  0
VERTEX
  8
0
 62
7
 10
24.75777174
 20
1.72431771
  0
VERTEX
  8
0
 62
7
 10
24.75417302
 20
1.68474846
  0
VERTEX
  8
0
 62
7
 10
24.75457288
 20
1.64447945
  0
VERTEX
  8
0
 62
7
 10
24.75897132
 20
1.60361066
  0
VERTEX
  8
0
 62
7
 10
24.76736834
 20
1.56224205
  0
VERTEX
  8
0
 62
7
 10
24.77899754
 20
1.52225628
  0
VERTEX
  8
0
 62
7
 10
24.79562497
 20
1.48386994
  0
VERTEX
  8
0
 62
7
 10
24.81625099
 20
1.44708303
  0
VERTEX
  8
0
 62
7
 10
24.83987594
 20
1.41189555
  0
VERTEX
  8
0
 62
7
 10
24.88419354
 20
1.35896438
  0
VERTEX
  8
0
 62
7
 10
24.93370930
 20
1.31233098
  0
VERTEX
  8
0
 62
7
 10
24.98802336
 20
1.27229522
  0
VERTEX
  8
0
 62
7
 10
25.04673586
 20
1.23915701
  0
VERTEX
  8
0
 62
7
 10
25.09970040
 20
1.21579866
  0
VERTEX
  8
0
 62
7
 10
25.15536398
 20
1.19863810
  0
VERTEX
  8
0
 62
7
 10
25.21242706
 20
1.18787526
  0
VERTEX
  8
0
 62
7
 10
25.26959011
 20
1.18371008
  0
VERTEX
  8
0
 62
7
 10
25.30745167
 20
1.18414950
  0
VERTEX
  8
0
 62
7
 10
25.34496336
 20
1.18782528
  0
VERTEX
  8
0
 62
7
 10
25.38197522
 20
1.19467493
  0
VERTEX
  8
0
 62
7
 10
25.41833732
 20
1.20463596
  0
VERTEX
  8
0
 62
7
 10
25.45389970
 20
1.21764592
  0
VERTEX
  8
0
 62
7
 10
25.48851242
 20
1.23364231
  0
VERTEX
  8
0
 62
7
 10
25.52202552
 20
1.25256266
  0
VERTEX
  8
0
 62
7
 10
25.55428907
 20
1.27434449
  0
VERTEX
  8
0
 62
7
 10
25.57587100
 20
1.23206995
  0
VERTEX
  8
0
 62
7
 10
25.60198881
 20
1.19265689
  0
VERTEX
  8
0
 62
7
 10
25.63228015
 20
1.15646769
  0
VERTEX
  8
0
 62
7
 10
25.66638263
 20
1.12386471
  0
VERTEX
  8
0
 62
7
 10
25.70393388
 20
1.09521032
  0
VERTEX
  8
0
 62
7
 10
25.74457155
 20
1.07086690
  0
VERTEX
  8
0
 62
7
 10
25.78793324
 20
1.05119681
  0
VERTEX
  8
0
 62
7
 10
25.83365660
 20
1.03656244
  0
VERTEX
  8
0
 62
7
 10
25.88634207
 20
1.02615572
  0
VERTEX
  8
0
 62
7
 10
25.93925246
 20
1.02208426
  0
VERTEX
  8
0
 62
7
 10
25.99181297
 20
1.02428556
  0
VERTEX
  8
0
 62
7
 10
26.04344881
 20
1.03269715
  0
VERTEX
  8
0
 62
7
 10
26.09358519
 20
1.04725655
  0
VERTEX
  8
0
 62
7
 10
26.14164730
 20
1.06790129
  0
VERTEX
  8
0
 62
7
 10
26.18706035
 20
1.09456888
  0
VERTEX
  8
0
 62
7
 10
26.22924954
 20
1.12719685
  0
VERTEX
  8
0
 62
7
 10
26.27821550
 20
1.09239257
  0
VERTEX
  8
0
 62
7
 10
26.32908078
 20
1.06148690
  0
VERTEX
  8
0
 62
7
 10
26.38174543
 20
1.03437988
  0
VERTEX
  8
0
 62
7
 10
26.43610947
 20
1.01097154
  0
VERTEX
  8
0
 62
7
 10
26.47492069
 20
.99612683
  0
VERTEX
  8
0
 62
7
 10
26.51448165
 20
.98218179
  0
VERTEX
  8
0
 62
7
 10
26.55464240
 20
.96943632
  0
VERTEX
  8
0
 62
7
 10
26.59525299
 20
.95819032
  0
VERTEX
  8
0
 62
7
 10
26.63616347
 20
.94874369
  0
VERTEX
  8
0
 62
7
 10
26.67722390
 20
.94139630
  0
VERTEX
  8
0
 62
7
 10
26.71828433
 20
.93644806
  0
VERTEX
  8
0
 62
7
 10
26.75919481
 20
.93419886
  0
VERTEX
  8
0
 62
7
 10
26.80277310
 20
.93338040
  0
VERTEX
  8
0
 62
7
 10
26.84691368
 20
.93364906
  0
VERTEX
  8
0
 62
7
 10
26.89127919
 20
.93549215
  0
VERTEX
  8
0
 62
7
 10
26.93553223
 20
.93939701
  0
VERTEX
  8
0
 62
7
 10
26.97933544
 20
.94585097
  0
VERTEX
  8
0
 62
7
 10
27.02235142
 20
.95534134
  0
VERTEX
  8
0
 62
7
 10
27.06424281
 20
.96835546
  0
VERTEX
  8
0
 62
7
 10
27.10467221
 20
.98538065
  0
VERTEX
  8
0
 62
7
 10
27.14125610
 20
1.00460532
  0
VERTEX
  8
0
 62
7
 10
27.17542210
 20
1.02656808
  0
VERTEX
  8
0
 62
7
 10
27.20715146
 20
1.05108305
  0
VERTEX
  8
0
 62
7
 10
27.23642545
 20
1.07796437
  0
VERTEX
  8
0
 62
7
 10
27.26322532
 20
1.10702617
  0
VERTEX
  8
0
 62
7
 10
27.28753231
 20
1.13808256
  0
VERTEX
  8
0
 62
7
 10
27.30932770
 20
1.17094769
  0
VERTEX
  8
0
 62
7
 10
27.32859274
 20
1.20543568
  0
VERTEX
  8
0
 62
7
 10
27.34530869
 20
1.24136066
  0
VERTEX
  8
0
 62
7
 10
27.35945679
 20
1.27853675
  0
VERTEX
  8
0
 62
7
 10
27.37101831
 20
1.31677809
  0
VERTEX
  8
0
 62
7
 10
27.37997451
 20
1.35589881
  0
VERTEX
  8
0
 62
7
 10
27.38630664
 20
1.39571302
  0
VERTEX
  8
0
 62
7
 10
27.38999595
 20
1.43603487
  0
VERTEX
  8
0
 62
7
 10
27.39102371
 20
1.47667848
  0
VERTEX
  8
0
 62
7
 10
27.38937117
 20
1.51745798
  0
VERTEX
  8
0
 62
7
 10
27.41015963
 20
1.54692458
  0
VERTEX
  8
0
 62
7
 10
27.42852395
 20
1.57765323
  0
VERTEX
  8
0
 62
7
 10
27.44443913
 20
1.60950648
  0
VERTEX
  8
0
 62
7
 10
27.45788019
 20
1.64234688
  0
VERTEX
  8
0
 62
7
 10
27.46882214
 20
1.67603697
  0
VERTEX
  8
0
 62
7
 10
27.47723999
 20
1.71043932
  0
VERTEX
  8
0
 62
7
 10
27.48310874
 20
1.74541645
  0
VERTEX
  8
0
 62
7
 10
27.48640341
 20
1.78083093
  0
VERTEX
  8
0
 62
7
 10
27.48830065
 20
1.82197879
  0
VERTEX
  8
0
 62
7
 10
27.48678660
 20
1.86290173
  0
VERTEX
  8
0
 62
7
 10
27.48184877
 20
1.90337483
  0
VERTEX
  8
0
 62
7
 10
27.47347466
 20
1.94317317
  0
VERTEX
  8
0
 62
7
 10
27.46165177
 20
1.98207183
  0
VERTEX
  8
0
 62
7
 10
27.44636761
 20
2.01984588
  0
VERTEX
  8
0
 62
7
 10
27.42760969
 20
2.05627042
  0
VERTEX
  8
0
 62
7
 10
27.40536550
 20
2.09112052
  0
VERTEX
  8
0
 62
7
 10
27.36983019
 20
2.13664599
  0
VERTEX
  8
0
 62
7
 10
27.32920919
 20
2.17702329
  0
VERTEX
  8
0
 62
7
 10
27.28411478
 20
2.21190254
  0
VERTEX
  8
0
 62
7
 10
27.23515923
 20
2.24093388
  0
VERTEX
  8
0
 62
7
 10
27.18295484
 20
2.26376742
  0
VERTEX
  8
0
 62
7
 10
27.12811389
 20
2.28005329
  0
VERTEX
  8
0
 62
7
 10
27.07124865
 20
2.28944162
  0
VERTEX
  8
0
 62
7
 10
27.01297142
 20
2.29158252
  0
VERTEX
  8
0
 62
7
 10
26.99261198
 20
2.31194195
  0
VERTEX
  8
0
 62
7
 10
26.97005331
 20
2.32970229
  0
VERTEX
  8
0
 62
7
 10
26.94549536
 20
2.34466364
  0
VERTEX
  8
0
 62
7
 10
26.91913805
 20
2.35662605
  0
VERTEX
  8
0
 62
7
 10
26.89571095
 20
2.36537293
  0
VERTEX
  8
0
 62
7
 10
26.87127170
 20
2.37162071
  0
VERTEX
  8
0
 62
7
 10
26.84620768
 20
2.37536938
  0
VERTEX
  8
0
 62
7
 10
26.82090624
 20
2.37661893
  0
VERTEX
  8
0
 62
7
 10
26.79575475
 20
2.37536938
  0
VERTEX
  8
0
 62
7
 10
26.77114057
 20
2.37162071
  0
VERTEX
  8
0
 62
7
 10
26.74745106
 20
2.36537293
  0
VERTEX
  8
0
 62
7
 10
26.72507359
 20
2.35662605
  0
VERTEX
  8
0
 62
7
 10
26.67439157
 20
2.32770300
  0
VERTEX
  8
0
 62
7
 10
26.62990736
 20
2.29238224
  0
VERTEX
  8
0
 62
7
 10
26.59222073
 20
2.25106361
  0
VERTEX
  8
0
 62
7
 10
26.56193148
 20
2.20414697
  0
VERTEX
  8
0
 62
7
 10
26.57176133
 20
2.18377089
  0
VERTEX
  8
0
 62
7
 10
26.57899209
 20
2.16269505
  0
VERTEX
  8
0
 62
7
 10
26.58382371
 20
2.14101943
  0
VERTEX
  8
0
 62
7
 10
26.58645611
 20
2.11884399
  0
VERTEX
  8
0
 62
7
 10
26.58827213
 20
2.08770507
  0
VERTEX
  8
0
 62
7
 10
26.58578968
 20
2.05686604
  0
VERTEX
  8
0
 62
7
 10
26.57910872
 20
2.02662680
  0
VERTEX
  8
0
 62
7
 10
26.56832921
 20
1.99728724
  0
VERTEX
  8
0
 62
7
 10
26.55798705
 20
1.97865429
  0
VERTEX
  8
0
 62
7
 10
26.54557062
 20
1.96178321
  0
VERTEX
  8
0
 62
7
 10
26.53140482
 20
1.94643659
  0
VERTEX
  8
0
 62
7
 10
26.51581451
 20
1.93237701
  0
VERTEX
  8
0
 62
7
 10
26.49912460
 20
1.91936705
  0
VERTEX
  8
0
 62
7
 10
26.48165997
 20
1.90716931
  0
VERTEX
  8
0
 62
7
 10
26.46374549
 20
1.89554636
  0
VERTEX
  8
0
 62
7
 10
26.44570606
 20
1.88426080
  0
VERTEX
  8
0
 62
7
 10
26.41354664
 20
1.86703776
  0
VERTEX
  8
0
 62
7
 10
26.38036258
 20
1.85343843
  0
VERTEX
  8
0
 62
7
 10
26.34632883
 20
1.84298798
  0
VERTEX
  8
0
 62
7
 10
26.31162031
 20
1.83521158
  0
VERTEX
  8
0
 62
7
 10
26.27641197
 20
1.82963440
  0
VERTEX
  8
0
 62
7
 10
26.24087875
 20
1.82578161
  0
VERTEX
  8
0
 62
7
 10
26.20519558
 20
1.82317837
  0
VERTEX
  8
0
 62
7
 10
26.16953740
 20
1.82134985
  0
VERTEX
  8
0
 62
7
 10
26.12597786
 20
1.82091667
  0
VERTEX
  8
0
 62
7
 10
26.08256826
 20
1.82348242
  0
VERTEX
  8
0
 62
7
 10
26.03945856
 20
1.82884718
  0
VERTEX
  8
0
 62
7
 10
25.99679870
 20
1.83681101
  0
VERTEX
  8
0
 62
7
 10
25.95473863
 20
1.84717399
  0
VERTEX
  8
0
 62
7
 10
25.91342829
 20
1.85973619
  0
VERTEX
  8
0
 62
7
 10
25.87301763
 20
1.87429768
  0
VERTEX
  8
0
 62
7
 10
25.83365660
 20
1.89065852
  0
VERTEX
  8
0
 62
7
 10
25.78445323
 20
1.91357120
  0
VERTEX
  8
0
 62
7
 10
25.73692426
 20
1.93980770
  0
VERTEX
  8
0
 62
7
 10
25.69124464
 20
1.96919307
  0
VERTEX
  8
0
 62
7
 10
25.64758930
 20
2.00155239
  0
VERTEX
  8
0
 62
7
 10
25.60613318
 20
2.03671072
  0
VERTEX
  8
0
 62
7
 10
25.56705121
 20
2.07449311
  0
VERTEX
  8
0
 62
7
 10
25.53051834
 20
2.11472462
  0
VERTEX
  8
0
 62
7
 10
25.49670951
 20
2.15723033
  0
VERTEX
  8
0
 62
7
 10
25.52656558
 20
2.17535721
  0
VERTEX
  8
0
 62
7
 10
25.56170311
 20
2.13652103
  0
VERTEX
  8
0
 62
7
 10
25.59973961
 20
2.09978411
  0
VERTEX
  8
0
 62
7
 10
25.64037519
 20
2.06484654
  0
VERTEX
  8
0
 62
7
 10
25.68330995
 20
2.03140844
  0
VERTEX
  8
0
 62
7
 10
25.74290547
 20
1.99337197
  0
VERTEX
  8
0
 62
7
 10
25.80500010
 20
1.95983391
  0
VERTEX
  8
0
 62
7
 10
25.86969381
 20
1.93169392
  0
VERTEX
  8
0
 62
7
 10
25.93708656
 20
1.90985169
  0
VERTEX
  8
0
 62
7
 10
25.97765966
 20
1.89848074
  0
VERTEX
  8
0
 62
7
 10
26.01855765
 20
1.88925902
  0
VERTEX
  8
0
 62
7
 10
26.05970554
 20
1.88233648
  0
VERTEX
  8
0
 62
7
 10
26.10102838
 20
1.87786307
  0
VERTEX
  8
0
 62
7
 10
26.14245118
 20
1.87598874
  0
VERTEX
  8
0
 62
7
 10
26.18389897
 20
1.87686343
  0
VERTEX
  8
0
 62
7
 10
26.22529678
 20
1.88063709
  0
VERTEX
  8
0
 62
7
 10
26.26656963
 20
1.88745966
  0
VERTEX
  8
0
 62
7
 10
26.29027372
 20
1.89121249
  0
VERTEX
  8
0
 62
7
 10
26.31405278
 20
1.89549013
  0
VERTEX
  8
0
 62
7
 10
26.33768190
 20
1.90061748
  0
VERTEX
  8
0
 62
7
 10
26.36093614
 20
1.90691940
  0
VERTEX
  8
0
 62
7
 10
26.38359060
 20
1.91472079
  0
VERTEX
  8
0
 62
7
 10
26.40542036
 20
1.92434653
  0
VERTEX
  8
0
 62
7
 10
26.42620048
 20
1.93612151
  0
VERTEX
  8
0
 62
7
 10
26.44570606
 20
1.95037061
  0
VERTEX
  8
0
 62
7
 10
26.46876454
 20
1.97028019
  0
VERTEX
  8
0
 62
7
 10
26.49022360
 20
1.99208909
  0
VERTEX
  8
0
 62
7
 10
26.50808392
 20
2.01649708
  0
VERTEX
  8
0
 62
7
 10
26.52034624
 20
2.04420388
  0
VERTEX
  8
0
 62
7
 10
26.52544027
 20
2.06555254
  0
VERTEX
  8
0
 62
7
 10
26.52791022
 20
2.08703864
  0
VERTEX
  8
0
 62
7
 10
26.52773112
 20
2.10839979
  0
VERTEX
  8
0
 62
7
 10
26.52487796
 20
2.12937358
  0
VERTEX
  8
0
 62
7
 10
26.51932577
 20
2.14969760
  0
VERTEX
  8
0
 62
7
 10
26.51104954
 20
2.16910944
  0
VERTEX
  8
0
 62
7
 10
26.50002428
 20
2.18734670
  0
VERTEX
  8
0
 62
7
 10
26.48622502
 20
2.20414697
  0
VERTEX
  8
0
 62
7
 10
26.50340225
 20
2.24068397
  0
VERTEX
  8
0
 62
7
 10
26.52447811
 20
2.27492179
  0
VERTEX
  8
0
 62
7
 10
26.54935261
 20
2.30656053
  0
VERTEX
  8
0
 62
7
 10
26.57792581
 20
2.33530030
  0
VERTEX
  8
0
 62
7
 10
26.60788184
 20
2.35740910
  0
VERTEX
  8
0
 62
7
 10
26.64003710
 20
2.37701879
  0
VERTEX
  8
0
 62
7
 10
26.67419164
 20
2.39362955
  0
VERTEX
  8
0
 62
7
 10
26.71014555
 20
2.40674155
  0
VERTEX
  8
0
 62
7
 10
26.72772265
 20
2.44957630
  0
VERTEX
  8
0
 62
7
 10
26.73880205
 20
2.49431039
  0
VERTEX
  8
0
 62
7
 10
26.74328379
 20
2.54004411
  0
VERTEX
  8
0
 62
7
 10
26.74106791
 20
2.58587780
  0
VERTEX
  8
0
 62
7
 10
26.73569482
 20
2.61549435
  0
VERTEX
  8
0
 62
7
 10
26.72767266
 20
2.64427369
  0
VERTEX
  8
0
 62
7
 10
26.71715140
 20
2.67207838
  0
VERTEX
  8
0
 62
7
 10
26.70428096
 20
2.69877097
  0
VERTEX
  8
0
 62
7
 10
26.68921131
 20
2.72421400
  0
VERTEX
  8
0
 62
7
 10
26.67209239
 20
2.74827002
  0
VERTEX
  8
0
 62
7
 10
26.65307414
 20
2.77080158
  0
VERTEX
  8
0
 62
7
 10
26.63230651
 20
2.79167124
  0
VERTEX
  8
0
 62
7
 10
26.60361200
 20
2.81507880
  0
VERTEX
  8
0
 62
7
 10
26.57328995
 20
2.83493293
  0
VERTEX
  8
0
 62
7
 10
26.54161213
 20
2.85125395
  0
VERTEX
  8
0
 62
7
 10
26.50885032
 20
2.86406215
  0
VERTEX
  8
0
 62
7
 10
26.47527630
 20
2.87337785
  0
VERTEX
  8
0
 62
7
 10
26.44116184
 20
2.87922134
  0
VERTEX
  8
0
 62
7
 10
26.40677873
 20
2.88161294
  0
VERTEX
  8
0
 62
7
 10
26.37239874
 20
2.88057294
  0
VERTEX
  8
0
 62
7
 10
26.33829366
 20
2.87612166
  0
VERTEX
  8
0
 62
7
 10
26.30473526
 20
2.86827940
  0
VERTEX
  8
0
 62
7
 10
26.27199531
 20
2.85706646
  0
VERTEX
  8
0
 62
7
 10
26.24034561
 20
2.84250315
  0
VERTEX
  8
0
 62
7
 10
26.21005792
 20
2.82460978
  0
VERTEX
  8
0
 62
7
 10
26.18140402
 20
2.80340665
  0
VERTEX
  8
0
 62
7
 10
26.15465570
 20
2.77891406
  0
VERTEX
  8
0
 62
7
 10
26.13008474
 20
2.75115233
  0
VERTEX
  8
0
 62
7
 10
26.14401313
 20
2.73499141
  0
VERTEX
  8
0
 62
7
 10
26.15514251
 20
2.71703113
  0
VERTEX
  8
0
 62
7
 10
26.16307303
 20
2.69747143
  0
VERTEX
  8
0
 62
7
 10
26.16740482
 20
2.67651222
  0
VERTEX
  8
0
 62
7
 10
26.16727154
 20
2.64790573
  0
VERTEX
  8
0
 62
7
 10
26.16074052
 20
2.62039885
  0
VERTEX
  8
0
 62
7
 10
26.14821164
 20
2.59509119
  0
VERTEX
  8
0
 62
7
 10
26.13008474
 20
2.57308236
  0
VERTEX
  8
0
 62
7
 10
26.10311514
 20
2.55328107
  0
VERTEX
  8
0
 62
7
 10
26.07407128
 20
2.54282646
  0
VERTEX
  8
0
 62
7
 10
26.04397779
 20
2.54076886
  0
VERTEX
  8
0
 62
7
 10
26.01385931
 20
2.54615860
  0
VERTEX
  8
0
 62
7
 10
25.98474048
 20
2.55804604
  0
VERTEX
  8
0
 62
7
 10
25.95764593
 20
2.57548150
  0
VERTEX
  8
0
 62
7
 10
25.93360030
 20
2.59751533
  0
VERTEX
  8
0
 62
7
 10
25.91362822
 20
2.62319786
  0
VERTEX
  8
0
 62
7
 10
25.89581787
 20
2.65452005
  0
VERTEX
  8
0
 62
7
 10
25.88230600
 20
2.68744166
  0
VERTEX
  8
0
 62
7
 10
25.87299264
 20
2.72156286
  0
VERTEX
  8
0
 62
7
 10
25.86777782
 20
2.75648376
  0
SEQEND
  0
POLYLINE
  8
0
 62
7
 66
1
 70
1
  0
VERTEX
  8
0
 62
7
 10
29.66600000
 20
5.94785002
  0
VERTEX
  8
0
 62
7
 10
29.57010070
 20
5.99678260
  0
VERTEX
  8
0
 62
7
 10
29.47140239
 20
6.03941743
  0
VERTEX
  8
0
 62
7
 10
29.37030494
 20
6.07545461
  0
VERTEX
  8
0
 62
7
 10
29.26720819
 20
6.10459424
  0
VERTEX
  8
0
 62
7
 10
29.20536347
 20
6.11808944
  0
VERTEX
  8
0
 62
7
 10
29.14431847
 20
6.12938542
  0
VERTEX
  8
0
 62
7
 10
29.08367332
 20
6.13788240
  0
VERTEX
  8
0
 62
7
 10
29.02302818
 20
6.14298058
  0
VERTEX
  8
0
 62
7
 10
28.96331603
 20
6.14511316
  0
VERTEX
  8
0
 62
7
 10
28.91216752
 20
6.14389692
  0
VERTEX
  8
0
 62
7
 10
28.86121893
 20
6.14018158
  0
VERTEX
  8
0
 62
7
 10
28.81067021
 20
6.13386716
  0
VERTEX
  8
0
 62
7
 10
28.76072126
 20
6.12485370
  0
VERTEX
  8
0
 62
7
 10
28.75219096
 20
6.12378741
  0
VERTEX
  8
0
 62
7
 10
28.69877658
 20
6.11270802
  0
VERTEX
  8
0
 62
7
 10
28.64876100
 20
6.10072895
  0
VERTEX
  8
0
 62
7
 10
28.60194428
 20
6.08615080
  0
VERTEX
  8
0
 62
7
 10
28.55812650
 20
6.06727419
  0
VERTEX
  8
0
 62
7
 10
28.51612473
 20
6.04329939
  0
VERTEX
  8
0
 62
7
 10
28.47802159
 20
6.01782512
  0
VERTEX
  8
0
 62
7
 10
28.44371710
 20
5.99095135
  0
VERTEX
  8
0
 62
7
 10
28.41311129
 20
5.96277804
  0
VERTEX
  8
0
 62
7
 10
28.40068836
 20
5.94914643
  0
VERTEX
  8
0
 62
7
 10
28.38910106
 20
5.93434649
  0
VERTEX
  8
0
 62
7
 10
28.37848530
 20
5.91853441
  0
VERTEX
  8
0
 62
7
 10
28.36897695
 20
5.90186638
  0
VERTEX
  8
0
 62
7
 10
28.36071192
 20
5.88449860
  0
VERTEX
  8
0
 62
7
 10
28.35382608
 20
5.86658727
  0
VERTEX
  8
0
 62
7
 10
28.34845533
 20
5.84828857
  0
VERTEX
  8
0
 62
7
 10
28.34473556
 20
5.82975870
  0
VERTEX
  8
0
 62
7
 10
28.34280265
 20
5.81115387
  0
VERTEX
  8
0
 62
7
 10
28.34279250
 20
5.79263025
  0
VERTEX
  8
0
 62
7
 10
28.34484099
 20
5.77434405
  0
VERTEX
  8
0
 62
7
 10
28.34908401
 20
5.75645146
  0
VERTEX
  8
0
 62
7
 10
28.35565746
 20
5.73910867
  0
VERTEX
  8
0
 62
7
 10
28.36469722
 20
5.72247188
  0
VERTEX
  8
0
 62
7
 10
28.37633918
 20
5.70669729
  0
VERTEX
  8
0
 62
7
 10
28.39071924
 20
5.69194108
  0
VERTEX
  8
0
 62
7
 10
28.42910562
 20
5.65781989
  0
VERTEX
  8
0
 62
7
 10
28.43385393
 20
5.61569946
  0
VERTEX
  8
0
 62
7
 10
28.44390036
 20
5.57516596
  0
VERTEX
  8
0
 62
7
 10
28.45894503
 20
5.53660677
  0
VERTEX
  8
0
 62
7
 10
28.47868802
 20
5.50040923
  0
VERTEX
  8
0
 62
7
 10
28.50282945
 20
5.46696072
  0
VERTEX
  8
0
 62
7
 10
28.53106943
 20
5.43664859
  0
VERTEX
  8
0
 62
7
 10
28.56310806
 20
5.40986020
  0
VERTEX
  8
0
 62
7
 10
28.59864545
 20
5.38698293
  0
VERTEX
  8
0
 62
7
 10
28.62844737
 20
5.37239853
  0
VERTEX
  8
0
 62
7
 10
28.65932392
 20
5.36127541
  0
VERTEX
  8
0
 62
7
 10
28.69105016
 20
5.35337613
  0
VERTEX
  8
0
 62
7
 10
28.72340118
 20
5.34846330
  0
VERTEX
  8
0
 62
7
 10
28.75615205
 20
5.34629949
  0
VERTEX
  8
0
 62
7
 10
28.78907787
 20
5.34664728
  0
VERTEX
  8
0
 62
7
 10
28.82195370
 20
5.34926926
  0
VERTEX
  8
0
 62
7
 10
28.85455463
 20
5.35392802
  0
VERTEX
  8
0
 62
7
 10
28.89394065
 20
5.36205846
  0
VERTEX
  8
0
 62
7
 10
28.93212710
 20
5.37338776
  0
VERTEX
  8
0
 62
7
 10
28.96911398
 20
5.38751607
  0
VERTEX
  8
0
 62
7
 10
29.00490128
 20
5.40404352
  0
VERTEX
  8
0
 62
7
 10
29.03820612
 20
5.39403042
  0
VERTEX
  8
0
 62
7
 10
29.07221072
 20
5.38951536
  0
VERTEX
  8
0
 62
7
 10
29.10641525
 20
5.39039838
  0
VERTEX
  8
0
 62
7
 10
29.14031989
 20
5.39657951
  0
VERTEX
  8
0
 62
7
 10
29.18172186
 20
5.41200735
  0
VERTEX
  8
0
 62
7
 10
29.21882536
 20
5.43523242
  0
VERTEX
  8
0
 62
7
 10
29.25053077
 20
5.46525507
  0
VERTEX
  8
0
 62
7
 10
29.27573850
 20
5.50107566
  0
VERTEX
  8
0
 62
7
 10
29.24219832
 20
5.50902283
  0
VERTEX
  8
0
 62
7
 10
29.21234433
 20
5.52346769
  0
VERTEX
  8
0
 62
7
 10
29.18676382
 20
5.54351056
  0
VERTEX
  8
0
 62
7
 10
29.16604409
 20
5.56825176
  0
VERTEX
  8
0
 62
7
 10
29.15077243
 20
5.59679160
  0
VERTEX
  8
0
 62
7
 10
29.14153612
 20
5.62823042
  0
VERTEX
  8
0
 62
7
 10
29.13892247
 20
5.66166852
  0
VERTEX
  8
0
 62
7
 10
29.14351875
 20
5.69620623
  0
VERTEX
  8
0
 62
7
 10
29.15269883
 20
5.72221364
  0
VERTEX
  8
0
 62
7
 10
29.16657723
 20
5.74592187
  0
VERTEX
  8
0
 62
7
 10
29.18385444
 20
5.76743088
  0
VERTEX
  8
0
 62
7
 10
29.20323089
 20
5.78684064
  0
VERTEX
  8
0
 62
7
 10
29.23162082
 20
5.80841630
  0
VERTEX
  8
0
 62
7
 10
29.26320961
 20
5.82429398
  0
VERTEX
  8
0
 62
7
 10
29.29679769
 20
5.83557330
  0
VERTEX
  8
0
 62
7
 10
29.33118549
 20
5.84335387
  0
VERTEX
  8
0
 62
7
 10
29.36046260
 20
5.84936006
  0
VERTEX
  8
0
 62
7
 10
29.38986466
 20
5.85241731
  0
VERTEX
  8
0
 62
7
 10
29.41931671
 20
5.85287548
  0
VERTEX
  8
0
 62
7
 10
29.44874377
 20
5.85108445
  0
VERTEX
  8
0
 62
7
 10
29.47807086
 20
5.84739410
  0
VERTEX
  8
0
 62
7
 10
29.50722301
 20
5.84215429
  0
VERTEX
  8
0
 62
7
 10
29.53612526
 20
5.83571492
  0
VERTEX
  8
0
 62
7
 10
29.56470262
 20
5.82842585
  0
VERTEX
  8
0
 62
7
 10
29.61615102
 20
5.81083211
  0
VERTEX
  8
0
 62
7
 10
29.66600000
 20
5.79003950
  0
VERTEX
  8
0
 62
7
 10
29.66600000
 20
5.94785002
  0
SEQEND
  0
POLYLINE
  8
0
 62
7
 66
1
 70
1
  0
VERTEX
  8
0
 62
7
 10
24.96200000
 20
5.22881587
  0
VERTEX
  8
0
 62
7
 10
24.39899980
 20
4.76711349
  0
VERTEX
  8
0
 62
7
 10
24.62078776
 20
4.76711349
  0
VERTEX
  8
0
 62
7
 10
24.65597527
 20
4.76711349
  0
VERTEX
  8
0
 62
7
 10
24.67516846
 20
4.73725745
  0
VERTEX
  8
0
 62
7
 10
24.69850393
 20
4.70325288
  0
VERTEX
  8
0
 62
7
 10
24.72370123
 20
4.67154750
  0
VERTEX
  8
0
 62
7
 10
24.75072289
 20
4.64204133
  0
VERTEX
  8
0
 62
7
 10
24.77953142
 20
4.61463442
  0
VERTEX
  8
0
 62
7
 10
24.81008933
 20
4.58922679
  0
VERTEX
  8
0
 62
7
 10
24.84235912
 20
4.56571849
  0
VERTEX
  8
0
 62
7
 10
24.87630333
 20
4.54400955
  0
VERTEX
  8
0
 62
7
 10
24.91188445
 20
4.52400000
  0
VERTEX
  8
0
 62
7
 10
24.90348743
 20
4.58557809
  0
VERTEX
  8
0
 62
7
 10
24.89748956
 20
4.64715618
  0
VERTEX
  8
0
 62
7
 10
24.89389084
 20
4.70873427
  0
VERTEX
  8
0
 62
7
 10
24.89269126
 20
4.77031235
  0
VERTEX
  8
0
 62
7
 10
24.89378879
 20
4.82828131
  0
VERTEX
  8
0
 62
7
 10
24.89707304
 20
4.88618779
  0
VERTEX
  8
0
 62
7
 10
24.90253152
 20
4.94396931
  0
VERTEX
  8
0
 62
7
 10
24.91015173
 20
5.00156340
  0
VERTEX
  8
0
 62
7
 10
24.91992118
 20
5.05890758
  0
VERTEX
  8
0
 62
7
 10
24.93182737
 20
5.11593937
  0
VERTEX
  8
0
 62
7
 10
24.94585781
 20
5.17259629
  0
VERTEX
  8
0
 62
7
 10
24.96200000
 20
5.22881587
  0
SEQEND
  0
POLYLINE
  8
0
 62
7
 66
1
 70
1
  0
VERTEX
  8
0
 62
7
 10
24.29830245
 20
4.76800000
  0
VERTEX
  8
0
 62
7
 10
24.92208109
 20
5.27875159
  0
VERTEX
  8
0
 62
7
 10
25.00631786
 20
5.34806026
  0
VERTEX
  8
0
 62
7
 10
25.05090204
 20
5.44450927
  0
VERTEX
  8
0
 62
7
 10
25.10068437
 20
5.53745953
  0
VERTEX
  8
0
 62
7
 10
25.15446528
 20
5.62741086
  0
VERTEX
  8
0
 62
7
 10
25.21104521
 20
5.71486307
  0
VERTEX
  8
0
 62
7
 10
25.29521534
 20
5.82993879
  0
VERTEX
  8
0
 62
7
 10
25.38698277
 20
5.93971640
  0
VERTEX
  8
0
 62
7
 10
25.48514793
 20
6.04369606
  0
VERTEX
  8
0
 62
7
 10
25.58851125
 20
6.14137797
  0
VERTEX
  8
0
 62
7
 10
25.66343466
 20
6.20533855
  0
VERTEX
  8
0
 62
7
 10
25.74085719
 20
6.26600029
  0
VERTEX
  8
0
 62
7
 10
25.82047893
 20
6.32326325
  0
VERTEX
  8
0
 62
7
 10
25.90200000
 20
6.37702745
  0
VERTEX
  8
0
 62
7
 10
25.85746580
 20
6.50711450
  0
VERTEX
  8
0
 62
7
 10
25.81523079
 20
6.63800126
  0
VERTEX
  8
0
 62
7
 10
25.77559486
 20
6.76928787
  0
VERTEX
  8
0
 62
7
 10
25.73885790
 20
6.90057449
  0
VERTEX
  8
0
 62
7
 10
25.68869237
 20
7.09710456
  0
VERTEX
  8
0
 62
7
 10
25.64382495
 20
7.29483420
  0
VERTEX
  8
0
 62
7
 10
25.60435563
 20
7.49376341
  0
VERTEX
  8
0
 62
7
 10
25.57038435
 20
7.69389220
  0
VERTEX
  8
0
 62
7
 10
24.54141618
 20
5.60610177
  0
VERTEX
  8
0
 62
7
 10
24.52143993
 20
5.47921359
  0
VERTEX
  8
0
 62
7
 10
24.49516592
 20
5.35312513
  0
VERTEX
  8
0
 62
7
 10
24.46269411
 20
5.22823623
  0
VERTEX
  8
0
 62
7
 10
24.42412447
 20
5.10494677
  0
VERTEX
  8
0
 62
7
 10
24.39196921
 20
5.01796106
  0
VERTEX
  8
0
 62
7
 10
24.35641516
 20
4.93287467
  0
VERTEX
  8
0
 62
7
 10
24.31766225
 20
4.84958763
  0
VERTEX
  8
0
 62
7
 10
24.27591040
 20
4.76800000
  0
VERTEX
  8
0
 62
7
 10
24.29830245
 20
4.76800000
  0
SEQEND
  0
POLYLINE
  8
0
 62
7
 66
1
 70
1
  0
VERTEX
  8
0
 62
7
 10
29.66600000
 20
6.39844191
  0
VERTEX
  8
0
 62
7
 10
29.56743498
 20
6.44089348
  0
VERTEX
  8
0
 62
7
 10
29.46847010
 20
6.48054603
  0
VERTEX
  8
0
 62
7
 10
29.36910536
 20
6.51779944
  0
VERTEX
  8
0
 62
7
 10
29.26934077
 20
6.55305357
  0
VERTEX
  8
0
 62
7
 10
29.09883461
 20
6.60345230
  0
VERTEX
  8
0
 62
7
 10
28.92652909
 20
6.64755327
  0
VERTEX
  8
0
 62
7
 10
28.75262414
 20
6.68545645
  0
VERTEX
  8
0
 62
7
 10
28.57731968
 20
6.71726180
  0
VERTEX
  8
0
 62
7
 10
28.46521572
 20
6.73435155
  0
VERTEX
  8
0
 62
7
 10
28.35284934
 20
6.74881724
  0
VERTEX
  8
0
 62
7
 10
28.24025805
 20
6.76063387
  0
VERTEX
  8
0
 62
7
 10
28.12747932
 20
6.76977645
  0
VERTEX
  8
0
 62
7
 10
28.01455065
 20
6.77621999
  0
VERTEX
  8
0
 62
7
 10
27.90150952
 20
6.77993950
  0
VERTEX
  8
0
 62
7
 10
27.78839341
 20
6.78090999
  0
VERTEX
  8
0
 62
7
 10
27.67523981
 20
6.77910646
  0
VERTEX
  8
0
 62
7
 10
27.57089143
 20
6.77541403
  0
VERTEX
  8
0
 62
7
 10
27.46663051
 20
6.76975979
  0
VERTEX
  8
0
 62
7
 10
27.36254453
 20
6.76188134
  0
VERTEX
  8
0
 62
7
 10
27.25872096
 20
6.75151628
  0
VERTEX
  8
0
 62
7
 10
27.15524726
 20
6.73840220
  0
VERTEX
  8
0
 62
7
 10
27.05221091
 20
6.72227668
  0
VERTEX
  8
0
 62
7
 10
26.94969938
 20
6.70287734
  0
VERTEX
  8
0
 62
7
 10
26.84780012
 20
6.67994175
  0
VERTEX
  8
0
 62
7
 10
26.75960225
 20
6.65889299
  0
VERTEX
  8
0
 62
7
 10
26.67182924
 20
6.63630727
  0
VERTEX
  8
0
 62
7
 10
26.58460602
 20
6.61184723
  0
VERTEX
  8
0
 62
7
 10
26.49805757
 20
6.58517547
  0
VERTEX
  8
0
 62
7
 10
26.41230884
 20
6.55595462
  0
VERTEX
  8
0
 62
7
 10
26.32748477
 20
6.52384729
  0
VERTEX
  8
0
 62
7
 10
26.24371033
 20
6.48851611
  0
VERTEX
  8
0
 62
7
 10
26.16111048
 20
6.44962370
  0
VERTEX
  8
0
 62
7
 10
26.09040641
 20
6.41201417
  0
VERTEX
  8
0
 62
7
 10
26.02072697
 20
6.37266775
  0
VERTEX
  8
0
 62
7
 10
25.95219712
 20
6.33144700
  0
VERTEX
  8
0
 62
7
 10
25.88494182
 20
6.28821447
  0
VERTEX
  8
0
 62
7
 10
25.81908602
 20
6.24283270
  0
VERTEX
  8
0
 62
7
 10
25.75475469
 20
6.19516425
  0
VERTEX
  8
0
 62
7
 10
25.69207277
 20
6.14507166
  0
VERTEX
  8
0
 62
7
 10
25.63116521
 20
6.09241748
  0
VERTEX
  8
0
 62
7
 10
25.53021770
 20
5.99776782
  0
VERTEX
  8
0
 62
7
 10
25.43456832
 20
5.89662048
  0
VERTEX
  8
0
 62
7
 10
25.34551658
 20
5.78967520
  0
VERTEX
  8
0
 62
7
 10
25.26436205
 20
5.67763174
  0
VERTEX
  8
0
 62
7
 10
25.22776879
 20
5.62284082
  0
VERTEX
  8
0
 62
7
 10
25.19253754
 20
5.56718770
  0
VERTEX
  8
0
 62
7
 10
25.15893072
 20
5.51060992
  0
VERTEX
  8
0
 62
7
 10
25.12721072
 20
5.45304499
  0
VERTEX
  8
0
 62
7
 10
25.09763997
 20
5.39443043
  0
VERTEX
  8
0
 62
7
 10
25.07048086
 20
5.33470376
  0
VERTEX
  8
0
 62
7
 10
25.04599580
 20
5.27380252
  0
VERTEX
  8
0
 62
7
 10
25.02444719
 20
5.21166421
  0
VERTEX
  8
0
 62
7
 10
25.00000587
 20
5.12383921
  0
VERTEX
  8
0
 62
7
 10
24.98106259
 20
5.03487712
  0
VERTEX
  8
0
 62
7
 10
24.96761736
 20
4.94504034
  0
VERTEX
  8
0
 62
7
 10
24.95967018
 20
4.85459127
  0
VERTEX
  8
0
 62
7
 10
24.95722105
 20
4.76379233
  0
VERTEX
  8
0
 62
7
 10
24.96026997
 20
4.67290592
  0
VERTEX
  8
0
 62
7
 10
24.96881693
 20
4.58219445
  0
VERTEX
  8
0
 62
7
 10
24.98286195
 20
4.49192032
  0
VERTEX
  8
0
 62
7
 10
25.03399380
 20
4.47410999
  0
VERTEX
  8
0
 62
7
 10
25.08802463
 20
4.45979842
  0
VERTEX
  8
0
 62
7
 10
25.14465453
 20
4.44768606
  0
VERTEX
  8
0
 62
7
 10
25.20358362
 20
4.43647338
  0
VERTEX
  8
0
 62
7
 10
25.23130712
 20
4.43114195
  0
VERTEX
  8
0
 62
7
 10
25.37818832
 20
4.40741706
  0
VERTEX
  8
0
 62
7
 10
25.52666896
 20
4.38849046
  0
VERTEX
  8
0
 62
7
 10
25.51507308
 20
4.48992103
  0
VERTEX
  8
0
 62
7
 10
25.50747578
 20
4.59215132
  0
VERTEX
  8
0
 62
7
 10
25.50509329
 20
4.69769710
  0
VERTEX
  8
0
 62
7
 10
25.50680935
 20
4.80314291
  0
VERTEX
  8
0
 62
7
 10
25.51392349
 20
4.90838879
  0
VERTEX
  8
0
 62
7
 10
25.52773525
 20
5.01333478
  0
VERTEX
  8
0
 62
7
 10
25.54872780
 20
5.12122972
  0
VERTEX
  8
0
 62
7
 10
25.57651794
 20
5.22712538
  0
VERTEX
  8
0
 62
7
 10
25.61110567
 20
5.33062188
  0
VERTEX
  8
0
 62
7
 10
25.65249098
 20
5.43131938
  0
VERTEX
  8
0
 62
7
 10
25.70029068
 20
5.53368296
  0
VERTEX
  8
0
 62
7
 10
25.75498794
 20
5.63284767
  0
VERTEX
  8
0
 62
7
 10
25.81548314
 20
5.72881353
  0
VERTEX
  8
0
 62
7
 10
25.88067667
 20
5.82158052
  0
VERTEX
  8
0
 62
7
 10
25.95016451
 20
5.90797269
  0
VERTEX
  8
0
 62
7
 10
26.02412576
 20
5.99030381
  0
VERTEX
  8
0
 62
7
 10
26.10233551
 20
6.06841143
  0
VERTEX
  8
0
 62
7
 10
26.18456882
 20
6.14213312
  0
VERTEX
  8
0
 62
7
 10
26.27060079
 20
6.21130642
  0
VERTEX
  8
0
 62
7
 10
26.36020649
 20
6.27576890
  0
VERTEX
  8
0
 62
7
 10
26.45316100
 20
6.33535811
  0
VERTEX
  8
0
 62
7
 10
26.54923941
 20
6.38991162
  0
VERTEX
  8
0
 62
7
 10
26.57163146
 20
6.37498360
  0
VERTEX
  8
0
 62
7
 10
26.42554997
 20
6.26848816
  0
VERTEX
  8
0
 62
7
 10
26.28266734
 20
6.15319585
  0
VERTEX
  8
0
 62
7
 10
26.19469856
 20
6.07828917
  0
VERTEX
  8
0
 62
7
 10
26.10992864
 20
5.99858420
  0
VERTEX
  8
0
 62
7
 10
26.03055681
 20
5.91533049
  0
VERTEX
  8
0
 62
7
 10
25.95718285
 20
5.82837810
  0
VERTEX
  8
0
 62
7
 10
25.88980676
 20
5.73722720
  0
VERTEX
  8
0
 62
7
 10
25.82842854
 20
5.64137797
  0
VERTEX
  8
0
 62
7
 10
25.78566039
 20
5.57051985
  0
VERTEX
  8
0
 62
7
 10
25.74619106
 20
5.49836219
  0
VERTEX
  8
0
 62
7
 10
25.71132010
 20
5.42440518
  0
VERTEX
  8
0
 62
7
 10
25.68234705
 20
5.34814898
  0
VERTEX
  8
0
 62
7
 10
25.65673947
 20
5.26564500
  0
VERTEX
  8
0
 62
7
 10
25.63822937
 20
5.18154160
  0
VERTEX
  8
0
 62
7
 10
25.62551722
 20
5.09623862
  0
VERTEX
  8
0
 62
7
 10
25.61730347
 20
5.01013592
  0
VERTEX
  8
0
 62
7
 10
25.61500428
 20
4.92749866
  0
VERTEX
  8
0
 62
7
 10
25.61970262
 20
4.84646083
  0
VERTEX
  8
0
 62
7
 10
25.63199825
 20
4.76542300
  0
VERTEX
  8
0
 62
7
 10
25.65249098
 20
4.68278574
  0
VERTEX
  8
0
 62
7
 10
25.67984794
 20
4.61436009
  0
VERTEX
  8
0
 62
7
 10
25.71540199
 20
4.54963312
  0
VERTEX
  8
0
 62
7
 10
25.75895320
 20
4.49070409
  0
VERTEX
  8
0
 62
7
 10
25.81030164
 20
4.43967225
  0
VERTEX
  8
0
 62
7
 10
25.84554096
 20
4.41280681
  0
VERTEX
  8
0
 62
7
 10
25.88414002
 20
4.38894030
  0
VERTEX
  8
0
 62
7
 10
25.92558495
 20
4.36799775
  0
VERTEX
  8
0
 62
7
 10
25.96936186
 20
4.34990419
  0
VERTEX
  8
0
 62
7
 10
26.01495688
 20
4.33458464
  0
VERTEX
  8
0
 62
7
 10
26.06185612
 20
4.32196413
  0
VERTEX
  8
0
 62
7
 10
26.10954571
 20
4.31196769
  0
VERTEX
  8
0
 62
7
 10
26.15751176
 20
4.30452034
  0
VERTEX
  8
0
 62
7
 10
26.20524039
 20
4.29954711
  0
VERTEX
  8
0
 62
7
 10
26.25221773
 20
4.29697302
  0
VERTEX
  8
0
 62
7
 10
26.29792989
 20
4.29672311
  0
VERTEX
  8
0
 62
7
 10
26.34186300
 20
4.29872240
  0
VERTEX
  8
0
 62
7
 10
26.38350317
 20
4.30289592
  0
VERTEX
  8
0
 62
7
 10
26.42233653
 20
4.30916868
  0
VERTEX
  8
0
 62
7
 10
26.45784918
 20
4.31746573
  0
VERTEX
  8
0
 62
7
 10
26.48952727
 20
4.32771209
  0
VERTEX
  8
0
 62
7
 10
26.52268633
 20
4.34206739
  0
VERTEX
  8
0
 62
7
 10
26.55347124
 20
4.35938415
  0
VERTEX
  8
0
 62
7
 10
26.58200695
 20
4.37942493
  0
VERTEX
  8
0
 62
7
 10
26.60841841
 20
4.40195234
  0
VERTEX
  8
0
 62
7
 10
26.63283058
 20
4.42672894
  0
VERTEX
  8
0
 62
7
 10
26.65536841
 20
4.45351732
  0
VERTEX
  8
0
 62
7
 10
26.67615687
 20
4.48208007
  0
VERTEX
  8
0
 62
7
 10
26.69532090
 20
4.51217978
  0
VERTEX
  8
0
 62
7
 10
26.72184066
 20
4.52485860
  0
VERTEX
  8
0
 62
7
 10
26.74693592
 20
4.53963668
  0
VERTEX
  8
0
 62
7
 10
26.77048173
 20
4.55641404
  0
VERTEX
  8
0
 62
7
 10
26.79235313
 20
4.57509073
  0
VERTEX
  8
0
 62
7
 10
26.81242518
 20
4.59556677
  0
VERTEX
  8
0
 62
7
 10
26.83057290
 20
4.61774222
  0
VERTEX
  8
0
 62
7
 10
26.84667136
 20
4.64151709
  0
VERTEX
  8
0
 62
7
 10
26.86059558
 20
4.66679143
  0
VERTEX
  8
0
 62
7
 10
26.87466923
 20
4.69933818
  0
VERTEX
  8
0
 62
7
 10
26.88496610
 20
4.73243474
  0
VERTEX
  8
0
 62
7
 10
26.89158302
 20
4.76583119
  0
VERTEX
  8
0
 62
7
 10
26.89461684
 20
4.79927762
  0
VERTEX
  8
0
 62
7
 10
26.89416440
 20
4.83252412
  0
VERTEX
  8
0
 62
7
 10
26.89032253
 20
4.86532079
  0
VERTEX
  8
0
 62
7
 10
26.88318808
 20
4.89741770
  0
VERTEX
  8
0
 62
7
 10
26.87285790
 20
4.92856495
  0
VERTEX
  8
0
 62
7
 10
26.85942881
 20
4.95851263
  0
VERTEX
  8
0
 62
7
 10
26.84299766
 20
4.98701082
  0
VERTEX
  8
0
 62
7
 10
26.82366129
 20
5.01380962
  0
VERTEX
  8
0
 62
7
 10
26.80151655
 20
5.03865911
  0
VERTEX
  8
0
 62
7
 10
26.77666026
 20
5.06130938
  0
VERTEX
  8
0
 62
7
 10
26.74918928
 20
5.08151052
  0
VERTEX
  8
0
 62
7
 10
26.71920045
 20
5.09901263
  0
VERTEX
  8
0
 62
7
 10
26.68679059
 20
5.11356579
  0
VERTEX
  8
0
 62
7
 10
26.65640138
 20
5.07624573
  0
VERTEX
  8
0
 62
7
 10
26.61961443
 20
5.04532340
  0
VERTEX
  8
0
 62
7
 10
26.57862898
 20
5.02338121
  0
VERTEX
  8
0
 62
7
 10
26.53484452
 20
5.00973606
  0
VERTEX
  8
0
 62
7
 10
26.48946062
 20
5.00348829
  0
VERTEX
  8
0
 62
7
 10
26.44367687
 20
5.00373820
  0
VERTEX
  8
0
 62
7
 10
26.39602685
 20
5.01128760
  0
VERTEX
  8
0
 62
7
 10
26.35442313
 20
5.02514725
  0
VERTEX
  8
0
 62
7
 10
26.31853925
 20
5.04472986
  0
VERTEX
  8
0
 62
7
 10
26.28804877
 20
5.06944815
  0
VERTEX
  8
0
 62
7
 10
26.26262524
 20
5.09871482
  0
VERTEX
  8
0
 62
7
 10
26.24194221
 20
5.13194258
  0
VERTEX
  8
0
 62
7
 10
26.22567325
 20
5.16854414
  0
VERTEX
  8
0
 62
7
 10
26.21349189
 20
5.20793221
  0
VERTEX
  8
0
 62
7
 10
26.20507170
 20
5.24951949
  0
VERTEX
  8
0
 62
7
 10
26.20008623
 20
5.29271870
  0
VERTEX
  8
0
 62
7
 10
26.19820903
 20
5.33694255
  0
VERTEX
  8
0
 62
7
 10
26.19911366
 20
5.38160374
  0
VERTEX
  8
0
 62
7
 10
26.20247367
 20
5.42611499
  0
VERTEX
  8
0
 62
7
 10
26.20796260
 20
5.46988899
  0
VERTEX
  8
0
 62
7
 10
26.21525403
 20
5.51233847
  0
VERTEX
  8
0
 62
7
 10
26.22402149
 20
5.55287613
  0
VERTEX
  8
0
 62
7
 10
26.24431429
 20
5.61585372
  0
VERTEX
  8
0
 62
7
 10
26.26960531
 20
5.67683202
  0
VERTEX
  8
0
 62
7
 10
26.29929477
 20
5.73581104
  0
VERTEX
  8
0
 62
7
 10
26.33278289
 20
5.79279076
  0
VERTEX
  8
0
 62
7
 10
26.35480424
 20
5.82551453
  0
VERTEX
  8
0
 62
7
 10
26.37899982
 20
5.85665137
  0
VERTEX
  8
0
 62
7
 10
26.40494478
 20
5.88641370
  0
VERTEX
  8
0
 62
7
 10
26.43221427
 20
5.91501394
  0
VERTEX
  8
0
 62
7
 10
26.46038344
 20
5.94266451
  0
VERTEX
  8
0
 62
7
 10
26.48902744
 20
5.96957785
  0
VERTEX
  8
0
 62
7
 10
26.51772143
 20
5.99596638
  0
VERTEX
  8
0
 62
7
 10
26.54604054
 20
6.02204252
  0
VERTEX
  8
0
 62
7
 10
26.63474240
 20
6.10391339
  0
VERTEX
  8
0
 62
7
 10
26.72784269
 20
6.18118589
  0
VERTEX
  8
0
 62
7
 10
26.82494157
 20
6.25326024
  0
VERTEX
  8
0
 62
7
 10
26.92563916
 20
6.31953666
  0
VERTEX
  8
0
 62
7
 10
26.95549524
 20
6.30460864
  0
VERTEX
  8
0
 62
7
 10
26.85006598
 20
6.22557010
  0
VERTEX
  8
0
 62
7
 10
26.74863531
 20
6.14253298
  0
VERTEX
  8
0
 62
7
 10
26.70203518
 20
6.10099776
  0
VERTEX
  8
0
 62
7
 10
26.65573495
 20
6.05896271
  0
VERTEX
  8
0
 62
7
 10
26.61083422
 20
6.01552817
  0
VERTEX
  8
0
 62
7
 10
26.56843260
 20
5.96979444
  0
VERTEX
  8
0
 62
7
 10
26.52243225
 20
5.91847937
  0
VERTEX
  8
0
 62
7
 10
26.48033053
 20
5.86396543
  0
VERTEX
  8
0
 62
7
 10
26.44202746
 20
5.80665249
  0
VERTEX
  8
0
 62
7
 10
26.40742307
 20
5.74694041
  0
VERTEX
  8
0
 62
7
 10
26.38551418
 20
5.70510529
  0
VERTEX
  8
0
 62
7
 10
26.36490482
 20
5.66257043
  0
VERTEX
  8
0
 62
7
 10
26.34609483
 20
5.61903592
  0
VERTEX
  8
0
 62
7
 10
26.32958403
 20
5.57420187
  0
VERTEX
  8
0
 62
7
 10
26.32071217
 20
5.54002862
  0
VERTEX
  8
0
 62
7
 10
26.31278999
 20
5.50554297
  0
VERTEX
  8
0
 62
7
 10
26.30626730
 20
5.47083241
  0
VERTEX
  8
0
 62
7
 10
26.30159396
 20
5.43598439
  0
VERTEX
  8
0
 62
7
 10
26.29921980
 20
5.40108639
  0
VERTEX
  8
0
 62
7
 10
26.29959467
 20
5.36622588
  0
VERTEX
  8
0
 62
7
 10
26.30316840
 20
5.33149032
  0
VERTEX
  8
0
 62
7
 10
26.31039084
 20
5.29696719
  0
VERTEX
  8
0
 62
7
 10
26.32438795
 20
5.25771657
  0
VERTEX
  8
0
 62
7
 10
26.34159643
 20
5.22147739
  0
VERTEX
  8
0
 62
7
 10
26.36202876
 20
5.18816216
  0
VERTEX
  8
0
 62
7
 10
26.38569745
 20
5.15768342
  0
VERTEX
  8
0
 62
7
 10
26.41261498
 20
5.12995370
  0
VERTEX
  8
0
 62
7
 10
26.44279385
 20
5.10488554
  0
VERTEX
  8
0
 62
7
 10
26.47624656
 20
5.08239146
  0
VERTEX
  8
0
 62
7
 10
26.51298561
 20
5.06238400
  0
VERTEX
  8
0
 62
7
 10
26.54465770
 20
5.06999795
  0
VERTEX
  8
0
 62
7
 10
26.57283104
 20
5.08011102
  0
VERTEX
  8
0
 62
7
 10
26.59800544
 20
5.09522231
  0
VERTEX
  8
0
 62
7
 10
26.62068072
 20
5.11783093
  0
VERTEX
  8
0
 62
7
 10
26.63186009
 20
5.13054308
  0
VERTEX
  8
0
 62
7
 10
26.64453892
 20
5.14435483
  0
VERTEX
  8
0
 62
7
 10
26.65621811
 20
5.15876637
  0
VERTEX
  8
0
 62
7
 10
26.66439854
 20
5.17327787
  0
VERTEX
  8
0
 62
7
 10
26.69758676
 20
5.16331475
  0
VERTEX
  8
0
 62
7
 10
26.72997527
 20
5.15115241
  0
VERTEX
  8
0
 62
7
 10
26.76156406
 20
5.13699078
  0
VERTEX
  8
0
 62
7
 10
26.79235313
 20
5.12102980
  0
VERTEX
  8
0
 62
7
 10
26.85992915
 20
5.07358001
  0
VERTEX
  8
0
 62
7
 10
26.92030772
 20
5.01973251
  0
VERTEX
  8
0
 62
7
 10
26.97517159
 20
5.02531385
  0
VERTEX
  8
0
 62
7
 10
27.02893584
 20
5.03719296
  0
VERTEX
  8
0
 62
7
 10
27.08090073
 20
5.05526986
  0
VERTEX
  8
0
 62
7
 10
27.13036651
 20
5.07944459
  0
VERTEX
  8
0
 62
7
 10
27.17491320
 20
5.10676196
  0
VERTEX
  8
0
 62
7
 10
27.21563625
 20
5.13884012
  0
VERTEX
  8
0
 62
7
 10
27.25231074
 20
5.17524176
  0
VERTEX
  8
0
 62
7
 10
27.28471174
 20
5.21552950
  0
VERTEX
  8
0
 62
7
 10
27.31261434
 20
5.25926602
  0
VERTEX
  8
0
 62
7
 10
27.33579361
 20
5.30601397
  0
VERTEX
  8
0
 62
7
 10
27.35402464
 20
5.35533600
  0
VERTEX
  8
0
 62
7
 10
27.36708251
 20
5.40679478
  0
VERTEX
  8
0
 62
7
 10
27.34061898
 20
5.41203041
  0
VERTEX
  8
0
 62
7
 10
27.31491768
 20
5.41969019
  0
VERTEX
  8
0
 62
7
 10
27.29014106
 20
5.42969913
  0
VERTEX
  8
0
 62
7
 10
27.26645155
 20
5.44198226
  0
VERTEX
  8
0
 62
7
 10
27.24401160
 20
5.45646460
  0
VERTEX
  8
0
 62
7
 10
27.22298364
 20
5.47307119
  0
VERTEX
  8
0
 62
7
 10
27.20353013
 20
5.49172706
  0
VERTEX
  8
0
 62
7
 10
27.18581350
 20
5.51235721
  0
VERTEX
  8
0
 62
7
 10
27.17201423
 20
5.53230845
  0
VERTEX
  8
0
 62
7
 10
27.16078905
 20
5.55360920
  0
VERTEX
  8
0
 62
7
 10
27.15181307
 20
5.57600956
  0
VERTEX
  8
0
 62
7
 10
27.14476140
 20
5.59925963
  0
VERTEX
  8
0
 62
7
 10
27.13930917
 20
5.62310947
  0
VERTEX
  8
0
 62
7
 10
27.13513149
 20
5.64730919
  0
VERTEX
  8
0
 62
7
 10
27.13190347
 20
5.67160888
  0
VERTEX
  8
0
 62
7
 10
27.12930022
 20
5.69575862
  0
VERTEX
  8
0
 62
7
 10
27.12821519
 20
5.73183745
  0
VERTEX
  8
0
 62
7
 10
27.13101628
 20
5.76846608
  0
VERTEX
  8
0
 62
7
 10
27.13719117
 20
5.80499475
  0
VERTEX
  8
0
 62
7
 10
27.14622755
 20
5.84077369
  0
VERTEX
  8
0
 62
7
 10
27.15761309
 20
5.87515312
  0
VERTEX
  8
0
 62
7
 10
27.17083548
 20
5.90748328
  0
VERTEX
  8
0
 62
7
 10
27.18538240
 20
5.93711440
  0
VERTEX
  8
0
 62
7
 10
27.20074154
 20
5.96339672
  0
VERTEX
  8
0
 62
7
 10
27.23525845
 20
6.01180866
  0
VERTEX
  8
0
 62
7
 10
27.27374896
 20
6.05639696
  0
VERTEX
  8
0
 62
7
 10
27.31578821
 20
6.09733656
  0
VERTEX
  8
0
 62
7
 10
27.36095135
 20
6.13480239
  0
VERTEX
  8
0
 62
7
 10
27.40881353
 20
6.16896940
  0
VERTEX
  8
0
 62
7
 10
27.45894990
 20
6.20001252
  0
VERTEX
  8
0
 62
7
 10
27.51093562
 20
6.22810669
  0
VERTEX
  8
0
 62
7
 10
27.56434583
 20
6.25342685
  0
VERTEX
  8
0
 62
7
 10
27.61836416
 20
6.27617709
  0
VERTEX
  8
0
 62
7
 10
27.67320720
 20
6.29647820
  0
VERTEX
  8
0
 62
7
 10
27.72879997
 20
6.31438016
  0
VERTEX
  8
0
 62
7
 10
27.78506750
 20
6.32993296
  0
VERTEX
  8
0
 62
7
 10
27.84193482
 20
6.34318658
  0
VERTEX
  8
0
 62
7
 10
27.89932696
 20
6.35419099
  0
VERTEX
  8
0
 62
7
 10
27.95716893
 20
6.36299619
  0
VERTEX
  8
0
 62
7
 10
28.01538577
 20
6.36965216
  0
VERTEX
  8
0
 62
7
 10
28.03031380
 20
6.33979612
  0
VERTEX
  8
0
 62
7
 10
27.97694941
 20
6.32881669
  0
VERTEX
  8
0
 62
7
 10
27.92408484
 20
6.31513822
  0
VERTEX
  8
0
 62
7
 10
27.87182005
 20
6.29886068
  0
VERTEX
  8
0
 62
7
 10
27.82025502
 20
6.28008403
  0
VERTEX
  8
0
 62
7
 10
27.75466996
 20
6.25447856
  0
VERTEX
  8
0
 62
7
 10
27.69043442
 20
6.22538683
  0
VERTEX
  8
0
 62
7
 10
27.62839810
 20
6.19242147
  0
VERTEX
  8
0
 62
7
 10
27.56941070
 20
6.15519514
  0
VERTEX
  8
0
 62
7
 10
27.51432192
 20
6.11332045
  0
VERTEX
  8
0
 62
7
 10
27.46398145
 20
6.06641006
  0
VERTEX
  8
0
 62
7
 10
27.41923900
 20
6.01407660
  0
VERTEX
  8
0
 62
7
 10
27.38094425
 20
5.95593271
  0
VERTEX
  8
0
 62
7
 10
27.35340403
 20
5.90246840
  0
VERTEX
  8
0
 62
7
 10
27.33336114
 20
5.84650498
  0
VERTEX
  8
0
 62
7
 10
27.32111548
 20
5.78874220
  0
VERTEX
  8
0
 62
7
 10
27.31696696
 20
5.72987981
  0
VERTEX
  8
0
 62
7
 10
27.31737098
 20
5.70222299
  0
VERTEX
  8
0
 62
7
 10
27.31879964
 20
5.67456616
  0
VERTEX
  8
0
 62
7
 10
27.32157782
 20
5.64710927
  0
VERTEX
  8
0
 62
7
 10
27.32603041
 20
5.62005223
  0
VERTEX
  8
0
 62
7
 10
27.33248228
 20
5.59359497
  0
VERTEX
  8
0
 62
7
 10
27.34125834
 20
5.56793744
  0
VERTEX
  8
0
 62
7
 10
27.35268345
 20
5.54327954
  0
VERTEX
  8
0
 62
7
 10
27.36708251
 20
5.51982123
  0
VERTEX
  8
0
 62
7
 10
27.38991399
 20
5.49122515
  0
VERTEX
  8
0
 62
7
 10
27.41578189
 20
5.46559052
  0
VERTEX
  8
0
 62
7
 10
27.44432384
 20
5.44317975
  0
VERTEX
  8
0
 62
7
 10
27.47517748
 20
5.42425523
  0
VERTEX
  8
0
 62
7
 10
27.50798042
 20
5.40907938
  0
VERTEX
  8
0
 62
7
 10
27.54237030
 20
5.39791460
  0
VERTEX
  8
0
 62
7
 10
27.57798474
 20
5.39102331
  0
VERTEX
  8
0
 62
7
 10
27.61446138
 20
5.38866789
  0
VERTEX
  8
0
 62
7
 10
27.65939544
 20
5.36582602
  0
VERTEX
  8
0
 62
7
 10
27.70602889
 20
5.34668283
  0
VERTEX
  8
0
 62
7
 10
27.75406184
 20
5.33093844
  0
VERTEX
  8
0
 62
7
 10
27.80319441
 20
5.31829294
  0
VERTEX
  8
0
 62
7
 10
27.87025394
 20
5.30977930
  0
VERTEX
  8
0
 62
7
 10
27.93821316
 20
5.30856306
  0
VERTEX
  8
0
 62
7
 10
28.00637230
 20
5.31514406
  0
VERTEX
  8
0
 62
7
 10
28.07403162
 20
5.33002210
  0
VERTEX
  8
0
 62
7
 10
28.10237365
 20
5.33966033
  0
VERTEX
  8
0
 62
7
 10
28.13042828
 20
5.35034820
  0
VERTEX
  8
0
 62
7
 10
28.15790811
 20
5.36233560
  0
VERTEX
  8
0
 62
7
 10
28.18452574
 20
5.37587245
  0
VERTEX
  8
0
 62
7
 10
28.20999379
 20
5.39120866
  0
VERTEX
  8
0
 62
7
 10
28.23402485
 20
5.40859414
  0
VERTEX
  8
0
 62
7
 10
28.25633151
 20
5.42827880
  0
VERTEX
  8
0
 62
7
 10
28.27662639
 20
5.45051255
  0
VERTEX
  8
0
 62
7
 10
28.30619923
 20
5.49273086
  0
VERTEX
  8
0
 62
7
 10
28.32927438
 20
5.53874782
  0
VERTEX
  8
0
 62
7
 10
28.34575186
 20
5.58756379
  0
VERTEX
  8
0
 62
7
 10
28.35553173
 20
5.63817911
  0
VERTEX
  8
0
 62
7
 10
28.33375612
 20
5.65490649
  0
VERTEX
  8
0
 62
7
 10
28.31487949
 20
5.67443288
  0
VERTEX
  8
0
 62
7
 10
28.29900179
 20
5.69635841
  0
VERTEX
  8
0
 62
7
 10
28.28622299
 20
5.72028323
  0
VERTEX
  8
0
 62
7
 10
28.27957535
 20
5.73850799
  0
VERTEX
  8
0
 62
7
 10
28.27542682
 20
5.75712012
  0
VERTEX
  8
0
 62
7
 10
28.27347751
 20
5.77600715
  0
VERTEX
  8
0
 62
7
 10
28.27342753
 20
5.79505662
  0
VERTEX
  8
0
 62
7
 10
28.27497698
 20
5.81415607
  0
VERTEX
  8
0
 62
7
 10
28.27782597
 20
5.83319305
  0
VERTEX
  8
0
 62
7
 10
28.28167460
 20
5.85205509
  0
VERTEX
  8
0
 62
7
 10
28.28622299
 20
5.87062973
  0
VERTEX
  8
0
 62
7
 10
28.30048459
 20
5.90764989
  0
VERTEX
  8
0
 62
7
 10
28.31874478
 20
5.94207097
  0
VERTEX
  8
0
 62
7
 10
28.34020383
 20
5.97409291
  0
VERTEX
  8
0
 62
7
 10
28.36406203
 20
6.00391563
  0
VERTEX
  8
0
 62
7
 10
28.39978269
 20
6.04026937
  0
VERTEX
  8
0
 62
7
 10
28.44030164
 20
6.07162487
  0
VERTEX
  8
0
 62
7
 10
28.48401946
 20
6.09898181
  0
VERTEX
  8
0
 62
7
 10
28.52933671
 20
6.12333981
  0
VERTEX
  8
0
 62
7
 10
28.58178477
 20
6.14608171
  0
VERTEX
  8
0
 62
7
 10
28.63623211
 20
6.16292572
  0
VERTEX
  8
0
 62
7
 10
28.69187903
 20
6.17597108
  0
VERTEX
  8
0
 62
7
 10
28.74792581
 20
6.18731704
  0
VERTEX
  8
0
 62
7
 10
28.81690133
 20
6.19886293
  0
VERTEX
  8
0
 62
7
 10
28.88627671
 20
6.20611035
  0
VERTEX
  8
0
 62
7
 10
28.95605195
 20
6.20875941
  0
VERTEX
  8
0
 62
7
 10
29.02622704
 20
6.20651021
  0
VERTEX
  8
0
 62
7
 10
29.09080413
 20
6.20197849
  0
VERTEX
  8
0
 62
7
 10
29.15498135
 20
6.19344819
  0
VERTEX
  8
0
 62
7
 10
29.21875872
 20
6.18131917
  0
VERTEX
  8
0
 62
7
 10
29.28213623
 20
6.16599130
  0
VERTEX
  8
0
 62
7
 10
29.38125105
 20
6.13973397
  0
VERTEX
  8
0
 62
7
 10
29.47846655
 20
6.10627921
  0
VERTEX
  8
0
 62
7
 10
29.57348283
 20
6.06642672
  0
VERTEX
  8
0
 62
7
 10
29.66600000
 20
6.02097623
  0
VERTEX
  8
0
 62
7
 10
29.66600000
 20
6.39844191
  0
SEQEND
  0
POLYLINE
  8
0
 62
7
 66
1
 70
1
  0
VERTEX
  8
0
 62
7
 10
24.55782729
 20
5.78600000
  0
VERTEX
  8
0
 62
7
 10
25.51215528
 20
7.72237764
  0
VERTEX
  8
0
 62
7
 10
25.57400000
 20
7.84713324
  0
VERTEX
  8
0
 62
7
 10
25.48129956
 20
7.89368335
  0
VERTEX
  8
0
 62
7
 10
25.39059842
 20
7.94363224
  0
VERTEX
  8
0
 62
7
 10
25.30229642
 20
7.99677999
  0
VERTEX
  8
0
 62
7
 10
25.21679343
 20
8.05292668
  0
VERTEX
  8
0
 62
7
 10
25.09716922
 20
8.13856288
  0
VERTEX
  8
0
 62
7
 10
24.98274316
 20
8.22939722
  0
VERTEX
  8
0
 62
7
 10
24.87311540
 20
8.32582957
  0
VERTEX
  8
0
 62
7
 10
24.76788607
 20
8.42825979
  0
VERTEX
  8
0
 62
7
 10
24.45439732
 20
6.90560161
  0
VERTEX
  8
0
 62
7
 10
24.47357385
 20
6.80981902
  0
VERTEX
  8
0
 62
7
 10
24.49105098
 20
6.71113747
  0
VERTEX
  8
0
 62
7
 10
24.50672875
 20
6.60945699
  0
VERTEX
  8
0
 62
7
 10
24.52050720
 20
6.50467760
  0
VERTEX
  8
0
 62
7
 10
24.53600170
 20
6.36314463
  0
VERTEX
  8
0
 62
7
 10
24.54929698
 20
6.21931248
  0
VERTEX
  8
0
 62
7
 10
24.55859368
 20
6.07448068
  0
VERTEX
  8
0
 62
7
 10
24.56209244
 20
5.92994878
  0
VERTEX
  8
0
 62
7
 10
24.56115944
 20
5.85797439
  0
VERTEX
  8
0
 62
7
 10
24.55782729
 20
5.78600000
  0
SEQEND
  0
ENDSEC
  0
EOF
