  0
SECTION
  2
ENTITIES
  0
POLYLINE
  8
0
 62
7
 66
1
 70
1
  0
VERTEX
  8
0
 62
7
 10
.00160578
 20
.00000000
  0
VERTEX
  8
0
 62
7
 10
47.99917716
 20
.00000000
  0
VERTEX
  8
0
 62
7
 10
47.97668673
 20
1.25164063
  0
VERTEX
  8
0
 62
7
 10
47.94268491
 20
2.50300000
  0
VERTEX
  8
0
 62
7
 10
47.89723195
 20
3.75398438
  0
VERTEX
  8
0
 62
7
 10
47.84038814
 20
5.00450000
  0
VERTEX
  8
0
 62
7
 10
47.77221372
 20
6.25445313
  0
VERTEX
  8
0
 62
7
 10
47.69276899
 20
7.50375000
  0
VERTEX
  8
0
 62
7
 10
47.60211420
 20
8.75229688
  0
VERTEX
  8
0
 62
7
 10
47.50030962
 20
10.00000000
  0
VERTEX
  8
0
 62
7
 10
47.40371163
 20
11.06574023
  0
VERTEX
  8
0
 62
7
 10
47.29903757
 20
12.13067188
  0
VERTEX
  8
0
 62
7
 10
47.18624728
 20
13.19473633
  0
VERTEX
  8
0
 62
7
 10
47.06530056
 20
14.25787500
  0
VERTEX
  8
0
 62
7
 10
46.93615724
 20
15.32002930
  0
VERTEX
  8
0
 62
7
 10
46.79877715
 20
16.38114063
  0
VERTEX
  8
0
 62
7
 10
46.65312010
 20
17.44115039
  0
VERTEX
  8
0
 62
7
 10
46.49914591
 20
18.50000000
  0
VERTEX
  8
0
 62
7
 10
45.82517316
 20
18.51272876
  0
VERTEX
  8
0
 62
7
 10
45.15335001
 20
18.53025195
  0
VERTEX
  8
0
 62
7
 10
44.48377691
 20
18.55251245
  0
VERTEX
  8
0
 62
7
 10
43.81655431
 20
18.57945313
  0
VERTEX
  8
0
 62
7
 10
43.15178264
 20
18.61101685
  0
VERTEX
  8
0
 62
7
 10
42.48956237
 20
18.64714648
  0
VERTEX
  8
0
 62
7
 10
41.82999395
 20
18.68778491
  0
VERTEX
  8
0
 62
7
 10
41.17317781
 20
18.73287500
  0
VERTEX
  8
0
 62
7
 10
40.51921441
 20
18.78235962
  0
VERTEX
  8
0
 62
7
 10
39.86820419
 20
18.83618164
  0
VERTEX
  8
0
 62
7
 10
39.22024761
 20
18.89428394
  0
VERTEX
  8
0
 62
7
 10
38.57544512
 20
18.95660938
  0
VERTEX
  8
0
 62
7
 10
37.93389715
 20
19.02310083
  0
VERTEX
  8
0
 62
7
 10
37.29570417
 20
19.09370117
  0
VERTEX
  8
0
 62
7
 10
36.66096662
 20
19.16835327
  0
VERTEX
  8
0
 62
7
 10
36.02978494
 20
19.24700000
  0
VERTEX
  8
0
 62
7
 10
35.31030483
 20
19.33605249
  0
VERTEX
  8
0
 62
7
 10
34.58503386
 20
19.41979492
  0
VERTEX
  8
0
 62
7
 10
33.85428844
 20
19.49816724
  0
VERTEX
  8
0
 62
7
 10
33.11838500
 20
19.57110938
  0
VERTEX
  8
0
 62
7
 10
32.37763994
 20
19.63856128
  0
VERTEX
  8
0
 62
7
 10
31.63236967
 20
19.70046289
  0
VERTEX
  8
0
 62
7
 10
30.88289060
 20
19.75675415
  0
VERTEX
  8
0
 62
7
 10
30.12951916
 20
19.80737500
  0
VERTEX
  8
0
 62
7
 10
29.37257175
 20
19.85226538
  0
VERTEX
  8
0
 62
7
 10
28.61236478
 20
19.89136523
  0
VERTEX
  8
0
 62
7
 10
27.84921468
 20
19.92461450
  0
VERTEX
  8
0
 62
7
 10
27.08343784
 20
19.95195313
  0
VERTEX
  8
0
 62
7
 10
26.31535069
 20
19.97332104
  0
VERTEX
  8
0
 62
7
 10
25.54526964
 20
19.98865820
  0
VERTEX
  8
0
 62
7
 10
24.77351109
 20
19.99790454
  0
VERTEX
  8
0
 62
7
 10
24.00039147
 20
20.00100000
  0
VERTEX
  8
0
 62
7
 10
23.22727185
 20
19.99790454
  0
VERTEX
  8
0
 62
7
 10
22.45551330
 20
19.98865820
  0
VERTEX
  8
0
 62
7
 10
21.68543225
 20
19.97332104
  0
VERTEX
  8
0
 62
7
 10
20.91734510
 20
19.95195313
  0
VERTEX
  8
0
 62
7
 10
20.15156826
 20
19.92461450
  0
VERTEX
  8
0
 62
7
 10
19.38841815
 20
19.89136523
  0
VERTEX
  8
0
 62
7
 10
18.62821119
 20
19.85226538
  0
VERTEX
  8
0
 62
7
 10
17.87126378
 20
19.80737500
  0
VERTEX
  8
0
 62
7
 10
17.11789234
 20
19.75675415
  0
VERTEX
  8
0
 62
7
 10
16.36841327
 20
19.70046289
  0
VERTEX
  8
0
 62
7
 10
15.62314300
 20
19.63856128
  0
VERTEX
  8
0
 62
7
 10
14.88239794
 20
19.57110938
  0
VERTEX
  8
0
 62
7
 10
14.14649449
 20
19.49816724
  0
VERTEX
  8
0
 62
7
 10
13.41574908
 20
19.41979492
  0
VERTEX
  8
0
 62
7
 10
12.69047811
 20
19.33605249
  0
VERTEX
  8
0
 62
7
 10
11.97099800
 20
19.24700000
  0
VERTEX
  8
0
 62
7
 10
11.33981632
 20
19.16835327
  0
VERTEX
  8
0
 62
7
 10
10.70507877
 20
19.09370117
  0
VERTEX
  8
0
 62
7
 10
10.06688579
 20
19.02310083
  0
VERTEX
  8
0
 62
7
 10
9.42533782
 20
18.95660938
  0
VERTEX
  8
0
 62
7
 10
8.78053533
 20
18.89428394
  0
VERTEX
  8
0
 62
7
 10
8.13257875
 20
18.83618164
  0
VERTEX
  8
0
 62
7
 10
7.48156853
 20
18.78235962
  0
VERTEX
  8
0
 62
7
 10
6.82760513
 20
18.73287500
  0
VERTEX
  8
0
 62
7
 10
6.17078899
 20
18.68778491
  0
VERTEX
  8
0
 62
7
 10
5.51122056
 20
18.64714648
  0
VERTEX
  8
0
 62
7
 10
4.84900029
 20
18.61101685
  0
VERTEX
  8
0
 62
7
 10
4.18422863
 20
18.57945313
  0
VERTEX
  8
0
 62
7
 10
3.51700603
 20
18.55251245
  0
VERTEX
  8
0
 62
7
 10
2.84743293
 20
18.53025195
  0
VERTEX
  8
0
 62
7
 10
2.17560978
 20
18.51272876
  0
VERTEX
  8
0
 62
7
 10
1.50163703
 20
18.50000000
  0
VERTEX
  8
0
 62
7
 10
1.34766284
 20
17.44115039
  0
VERTEX
  8
0
 62
7
 10
1.20200579
 20
16.38114063
  0
VERTEX
  8
0
 62
7
 10
1.06462569
 20
15.32002930
  0
VERTEX
  8
0
 62
7
 10
.93548238
 20
14.25787500
  0
VERTEX
  8
0
 62
7
 10
.81453566
 20
13.19473633
  0
VERTEX
  8
0
 62
7
 10
.70174537
 20
12.13067188
  0
VERTEX
  8
0
 62
7
 10
.59707131
 20
11.06574023
  0
VERTEX
  8
0
 62
7
 10
.50047332
 20
10.00000000
  0
VERTEX
  8
0
 62
7
 10
.39866874
 20
8.75229688
  0
VERTEX
  8
0
 62
7
 10
.30801395
 20
7.50375000
  0
VERTEX
  8
0
 62
7
 10
.22856921
 20
6.25445313
  0
VERTEX
  8
0
 62
7
 10
.16039480
 20
5.00450000
  0
VERTEX
  8
0
 62
7
 10
.10355098
 20
3.75398438
  0
VERTEX
  8
0
 62
7
 10
.05809803
 20
2.50300000
  0
VERTEX
  8
0
 62
7
 10
.02409620
 20
1.25164063
  0
VERTEX
  8
0
 62
7
 10
.00160578
 20
.00000000
  0
SEQEND
  0
POLYLINE
  8
0
 62
7
 66
1
 70
1
  0
VERTEX
  8
0
 62
7
 10
23.51762800
 20
4.33700000
  0
VERTEX
  8
0
 62
7
 10
23.48211925
 20
4.37900000
  0
VERTEX
  8
0
 62
7
 10
23.44243300
 20
4.41875000
  0
VERTEX
  8
0
 62
7
 10
23.39856925
 20
4.45512500
  0
VERTEX
  8
0
 62
7
 10
23.35052800
 20
4.48700000
  0
VERTEX
  8
0
 62
7
 10
23.29475838
 20
4.51404688
  0
VERTEX
  8
0
 62
7
 10
23.23857100
 20
4.53312500
  0
VERTEX
  8
0
 62
7
 10
23.18321913
 20
4.54564063
  0
VERTEX
  8
0
 62
7
 10
23.12995600
 20
4.55300000
  0
VERTEX
  8
0
 62
7
 10
23.09653600
 20
4.55612500
  0
VERTEX
  8
0
 62
7
 10
23.06311600
 20
4.55700000
  0
VERTEX
  8
0
 62
7
 10
23.01803381
 20
4.55534375
  0
VERTEX
  8
0
 62
7
 10
22.97316050
 20
4.55050000
  0
VERTEX
  8
0
 62
7
 10
22.92870494
 20
4.54265625
  0
VERTEX
  8
0
 62
7
 10
22.88487600
 20
4.53200000
  0
VERTEX
  8
0
 62
7
 10
22.81511175
 20
4.50807813
  0
VERTEX
  8
0
 62
7
 10
22.74952500
 20
4.47712500
  0
VERTEX
  8
0
 62
7
 10
22.68811575
 20
4.43960938
  0
VERTEX
  8
0
 62
7
 10
22.63088400
 20
4.39600000
  0
VERTEX
  8
0
 62
7
 10
22.62865600
 20
4.39900000
  0
VERTEX
  8
0
 62
7
 10
22.60592344
 20
4.42987500
  0
VERTEX
  8
0
 62
7
 10
22.58047550
 20
4.45400000
  0
VERTEX
  8
0
 62
7
 10
22.55628081
 20
4.47212500
  0
VERTEX
  8
0
 62
7
 10
22.53730800
 20
4.48500000
  0
VERTEX
  8
0
 62
7
 10
22.50611600
 20
4.50900000
  0
VERTEX
  8
0
 62
7
 10
22.48160800
 20
4.55200000
  0
VERTEX
  8
0
 62
7
 10
22.47353150
 20
4.58262500
  0
VERTEX
  8
0
 62
7
 10
22.47046800
 20
4.61400000
  0
VERTEX
  8
0
 62
7
 10
22.47046800
 20
4.62900000
  0
VERTEX
  8
0
 62
7
 10
22.48160800
 20
4.73800000
  0
VERTEX
  8
0
 62
7
 10
22.37243600
 20
4.72800000
  0
VERTEX
  8
0
 62
7
 10
22.32355925
 20
4.71987500
  0
VERTEX
  8
0
 62
7
 10
22.27718900
 20
4.70650000
  0
VERTEX
  8
0
 62
7
 10
22.23332525
 20
4.68862500
  0
VERTEX
  8
0
 62
7
 10
22.19196800
 20
4.66700000
  0
VERTEX
  8
0
 62
7
 10
22.15151588
 20
4.64112500
  0
VERTEX
  8
0
 62
7
 10
22.11398800
 20
4.61150000
  0
VERTEX
  8
0
 62
7
 10
22.07980213
 20
4.57812500
  0
VERTEX
  8
0
 62
7
 10
22.04937600
 20
4.54100000
  0
VERTEX
  8
0
 62
7
 10
21.93797600
 20
4.56437500
  0
VERTEX
  8
0
 62
7
 10
21.82657600
 20
4.58100000
  0
VERTEX
  8
0
 62
7
 10
21.76140700
 20
4.58871875
  0
VERTEX
  8
0
 62
7
 10
21.69623800
 20
4.59400000
  0
VERTEX
  8
0
 62
7
 10
21.63106900
 20
4.59703125
  0
VERTEX
  8
0
 62
7
 10
21.56590000
 20
4.59800000
  0
VERTEX
  8
0
 62
7
 10
21.45697169
 20
4.59518750
  0
VERTEX
  8
0
 62
7
 10
21.34783450
 20
4.58675000
  0
VERTEX
  8
0
 62
7
 10
21.23911506
 20
4.57268750
  0
VERTEX
  8
0
 62
7
 10
21.13144000
 20
4.55300000
  0
VERTEX
  8
0
 62
7
 10
21.08688000
 20
4.54400000
  0
VERTEX
  8
0
 62
7
 10
21.08322469
 20
4.58800000
  0
VERTEX
  8
0
 62
7
 10
21.07768950
 20
4.63500000
  0
VERTEX
  8
0
 62
7
 10
21.06839456
 20
4.68350000
  0
VERTEX
  8
0
 62
7
 10
21.05346000
 20
4.73200000
  0
VERTEX
  8
0
 62
7
 10
21.03539231
 20
4.77450000
  0
VERTEX
  8
0
 62
7
 10
21.01419150
 20
4.81625000
  0
VERTEX
  8
0
 62
7
 10
20.98923094
 20
4.85687500
  0
VERTEX
  8
0
 62
7
 10
20.95988400
 20
4.89600000
  0
VERTEX
  8
0
 62
7
 10
20.89750000
 20
4.97000000
  0
VERTEX
  8
0
 62
7
 10
20.82843200
 20
4.90300000
  0
VERTEX
  8
0
 62
7
 10
20.77516888
 20
4.85828125
  0
VERTEX
  8
0
 62
7
 10
20.71647500
 20
4.82050000
  0
VERTEX
  8
0
 62
7
 10
20.65360363
 20
4.79021875
  0
VERTEX
  8
0
 62
7
 10
20.58780800
 20
4.76800000
  0
VERTEX
  8
0
 62
7
 10
20.55560644
 20
4.75996875
  0
VERTEX
  8
0
 62
7
 10
20.52570250
 20
4.75400000
  0
VERTEX
  8
0
 62
7
 10
20.49788731
 20
4.75028125
  0
VERTEX
  8
0
 62
7
 10
20.47195200
 20
4.74900000
  0
VERTEX
  8
0
 62
7
 10
20.44298800
 20
4.75000000
  0
VERTEX
  8
0
 62
7
 10
20.42297081
 20
4.75512500
  0
VERTEX
  8
0
 62
7
 10
20.40149150
 20
4.76475000
  0
VERTEX
  8
0
 62
7
 10
20.37625244
 20
4.77925000
  0
VERTEX
  8
0
 62
7
 10
20.34495600
 20
4.79900000
  0
VERTEX
  8
0
 62
7
 10
20.29677550
 20
4.82875000
  0
VERTEX
  8
0
 62
7
 10
20.24024000
 20
4.85700000
  0
VERTEX
  8
0
 62
7
 10
20.18843900
 20
4.87475000
  0
VERTEX
  8
0
 62
7
 10
20.13998000
 20
4.88800000
  0
VERTEX
  8
0
 62
7
 10
20.08511550
 20
4.90337500
  0
VERTEX
  8
0
 62
7
 10
20.04194800
 20
4.92100000
  0
VERTEX
  8
0
 62
7
 10
19.99195725
 20
4.95031250
  0
VERTEX
  8
0
 62
7
 10
19.94614400
 20
4.98300000
  0
VERTEX
  8
0
 62
7
 10
19.90534375
 20
5.01943750
  0
VERTEX
  8
0
 62
7
 10
19.87039200
 20
5.06000000
  0
VERTEX
  8
0
 62
7
 10
19.84671950
 20
5.09828125
  0
VERTEX
  8
0
 62
7
 10
19.82638900
 20
5.13900000
  0
VERTEX
  8
0
 62
7
 10
19.81023600
 20
5.18121875
  0
VERTEX
  8
0
 62
7
 10
19.79909600
 20
5.22400000
  0
VERTEX
  8
0
 62
7
 10
19.76344800
 20
5.40200000
  0
VERTEX
  8
0
 62
7
 10
19.64313600
 20
5.26600000
  0
VERTEX
  8
0
 62
7
 10
19.57629600
 20
5.18150000
  0
VERTEX
  8
0
 62
7
 10
19.51614000
 20
5.09100000
  0
VERTEX
  8
0
 62
7
 10
19.50500000
 20
5.14200000
  0
VERTEX
  8
0
 62
7
 10
19.48355550
 20
5.18525000
  0
VERTEX
  8
0
 62
7
 10
19.45375600
 20
5.22400000
  0
VERTEX
  8
0
 62
7
 10
19.48049200
 20
5.35000000
  0
VERTEX
  8
0
 62
7
 10
19.49640131
 20
5.45009375
  0
VERTEX
  8
0
 62
7
 10
19.50750650
 20
5.55075000
  0
VERTEX
  8
0
 62
7
 10
19.51401644
 20
5.65178125
  0
VERTEX
  8
0
 62
7
 10
19.51614000
 20
5.75300000
  0
VERTEX
  8
0
 62
7
 10
19.51318094
 20
5.86921875
  0
VERTEX
  8
0
 62
7
 10
19.50416450
 20
5.98525000
  0
VERTEX
  8
0
 62
7
 10
19.48888181
 20
6.10090625
  0
VERTEX
  8
0
 62
7
 10
19.46712400
 20
6.21600000
  0
VERTEX
  8
0
 62
7
 10
19.46044000
 20
6.24900000
  0
VERTEX
  8
0
 62
7
 10
19.51391200
 20
6.29400000
  0
VERTEX
  8
0
 62
7
 10
19.55592634
 20
6.33711914
  0
VERTEX
  8
0
 62
7
 10
19.59352819
 20
6.38301563
  0
VERTEX
  8
0
 62
7
 10
19.62690032
 20
6.43137305
  0
VERTEX
  8
0
 62
7
 10
19.65622550
 20
6.48187500
  0
VERTEX
  8
0
 62
7
 10
19.68168649
 20
6.53420508
  0
VERTEX
  8
0
 62
7
 10
19.70346606
 20
6.58804688
  0
VERTEX
  8
0
 62
7
 10
19.72174698
 20
6.64308398
  0
VERTEX
  8
0
 62
7
 10
19.73671200
 20
6.69900000
  0
VERTEX
  8
0
 62
7
 10
19.75370050
 20
6.79350000
  0
VERTEX
  8
0
 62
7
 10
19.75899200
 20
6.88800000
  0
VERTEX
  8
0
 62
7
 10
19.75450119
 20
6.97693750
  0
VERTEX
  8
0
 62
7
 10
19.74144650
 20
7.06475000
  0
VERTEX
  8
0
 62
7
 10
19.72045456
 20
7.15068750
  0
VERTEX
  8
0
 62
7
 10
19.69215200
 20
7.23400000
  0
VERTEX
  8
0
 62
7
 10
19.66649084
 20
7.29643945
  0
VERTEX
  8
0
 62
7
 10
19.63641719
 20
7.35682813
  0
VERTEX
  8
0
 62
7
 10
19.60211382
 20
7.41489648
  0
VERTEX
  8
0
 62
7
 10
19.56376350
 20
7.47037500
  0
VERTEX
  8
0
 62
7
 10
19.52154899
 20
7.52299414
  0
VERTEX
  8
0
 62
7
 10
19.47565306
 20
7.57248438
  0
VERTEX
  8
0
 62
7
 10
19.42625848
 20
7.61857617
  0
VERTEX
  8
0
 62
7
 10
19.37354800
 20
7.66100000
  0
VERTEX
  8
0
 62
7
 10
19.34904000
 20
7.67900000
  0
VERTEX
  8
0
 62
7
 10
19.35349600
 20
7.69900000
  0
VERTEX
  8
0
 62
7
 10
19.43816000
 20
7.72587500
  0
VERTEX
  8
0
 62
7
 10
19.52282400
 20
7.76400000
  0
VERTEX
  8
0
 62
7
 10
19.59643503
 20
7.80928320
  0
VERTEX
  8
0
 62
7
 10
19.66346650
 20
7.86207813
  0
VERTEX
  8
0
 62
7
 10
19.72381397
 20
7.92155273
  0
VERTEX
  8
0
 62
7
 10
19.77737300
 20
7.98687500
  0
VERTEX
  8
0
 62
7
 10
19.82403916
 20
8.05721289
  0
VERTEX
  8
0
 62
7
 10
19.86370800
 20
8.13173438
  0
VERTEX
  8
0
 62
7
 10
19.89627509
 20
8.20960742
  0
VERTEX
  8
0
 62
7
 10
19.92163600
 20
8.29000000
  0
VERTEX
  8
0
 62
7
 10
19.94168800
 20
8.39612500
  0
VERTEX
  8
0
 62
7
 10
19.94837200
 20
8.50300000
  0
VERTEX
  8
0
 62
7
 10
19.94527369
 20
8.57516992
  0
VERTEX
  8
0
 62
7
 10
19.93611800
 20
8.64667187
  0
VERTEX
  8
0
 62
7
 10
19.92111381
 20
8.71711914
  0
VERTEX
  8
0
 62
7
 10
19.90047000
 20
8.78612500
  0
VERTEX
  8
0
 62
7
 10
19.87439544
 20
8.85330273
  0
VERTEX
  8
0
 62
7
 10
19.84309900
 20
8.91826563
  0
VERTEX
  8
0
 62
7
 10
19.80678956
 20
8.98062695
  0
VERTEX
  8
0
 62
7
 10
19.76567600
 20
9.04000000
  0
VERTEX
  8
0
 62
7
 10
19.73413207
 20
9.07923804
  0
VERTEX
  8
0
 62
7
 10
19.70058098
 20
9.11629492
  0
VERTEX
  8
0
 62
7
 10
19.66515654
 20
9.15112231
  0
VERTEX
  8
0
 62
7
 10
19.62799256
 20
9.18367188
  0
VERTEX
  8
0
 62
7
 10
19.58922286
 20
9.21389526
  0
VERTEX
  8
0
 62
7
 10
19.54898124
 20
9.24174414
  0
VERTEX
  8
0
 62
7
 10
19.50740152
 20
9.26717017
  0
VERTEX
  8
0
 62
7
 10
19.46461750
 20
9.29012500
  0
VERTEX
  8
0
 62
7
 10
19.42076300
 20
9.31056030
  0
VERTEX
  8
0
 62
7
 10
19.37597182
 20
9.32842773
  0
VERTEX
  8
0
 62
7
 10
19.33037778
 20
9.34367896
  0
VERTEX
  8
0
 62
7
 10
19.28411469
 20
9.35626563
  0
VERTEX
  8
0
 62
7
 10
19.23731635
 20
9.36613940
  0
VERTEX
  8
0
 62
7
 10
19.19011659
 20
9.37325195
  0
VERTEX
  8
0
 62
7
 10
19.14264920
 20
9.37755493
  0
VERTEX
  8
0
 62
7
 10
19.09504800
 20
9.37900000
  0
VERTEX
  8
0
 62
7
 10
19.03817308
 20
9.37692188
  0
VERTEX
  8
0
 62
7
 10
18.98135038
 20
9.37062500
  0
VERTEX
  8
0
 62
7
 10
18.92484098
 20
9.36001563
  0
VERTEX
  8
0
 62
7
 10
18.86890600
 20
9.34500000
  0
VERTEX
  8
0
 62
7
 10
18.81380652
 20
9.32548438
  0
VERTEX
  8
0
 62
7
 10
18.75980363
 20
9.30137500
  0
VERTEX
  8
0
 62
7
 10
18.70715842
 20
9.27257813
  0
VERTEX
  8
0
 62
7
 10
18.65613200
 20
9.23900000
  0
VERTEX
  8
0
 62
7
 10
18.60247288
 20
9.19726563
  0
VERTEX
  8
0
 62
7
 10
18.55228631
 20
9.15150000
  0
VERTEX
  8
0
 62
7
 10
18.50632946
 20
9.10160938
  0
VERTEX
  8
0
 62
7
 10
18.46535950
 20
9.04750000
  0
VERTEX
  8
0
 62
7
 10
18.43013360
 20
8.98907813
  0
VERTEX
  8
0
 62
7
 10
18.40140894
 20
8.92625000
  0
VERTEX
  8
0
 62
7
 10
18.37994268
 20
8.85892188
  0
VERTEX
  8
0
 62
7
 10
18.36649200
 20
8.78700000
  0
VERTEX
  8
0
 62
7
 10
18.35980800
 20
8.69300000
  0
VERTEX
  8
0
 62
7
 10
18.36649200
 20
8.59300000
  0
VERTEX
  8
0
 62
7
 10
18.30856400
 20
8.60100000
  0
VERTEX
  8
0
 62
7
 10
18.24711994
 20
8.61168750
  0
VERTEX
  8
0
 62
7
 10
18.18630250
 20
8.62575000
  0
VERTEX
  8
0
 62
7
 10
18.12590281
 20
8.64318750
  0
VERTEX
  8
0
 62
7
 10
18.06571200
 20
8.66400000
  0
VERTEX
  8
0
 62
7
 10
17.99218800
 20
8.69200000
  0
VERTEX
  8
0
 62
7
 10
17.95431200
 20
8.62200000
  0
VERTEX
  8
0
 62
7
 10
17.91309400
 20
8.53200000
  0
VERTEX
  8
0
 62
7
 10
17.87856000
 20
8.43900000
  0
VERTEX
  8
0
 62
7
 10
17.85913463
 20
8.36464063
  0
VERTEX
  8
0
 62
7
 10
17.84681100
 20
8.29037500
  0
VERTEX
  8
0
 62
7
 10
17.84033588
 20
8.21667187
  0
VERTEX
  8
0
 62
7
 10
17.83845600
 20
8.14400000
  0
VERTEX
  8
0
 62
7
 10
17.84291200
 20
8.01200000
  0
VERTEX
  8
0
 62
7
 10
17.76437500
 20
8.05325000
  0
VERTEX
  8
0
 62
7
 10
17.68918000
 20
8.10500000
  0
VERTEX
  8
0
 62
7
 10
17.62738781
 20
8.15803125
  0
VERTEX
  8
0
 62
7
 10
17.57248850
 20
8.21650000
  0
VERTEX
  8
0
 62
7
 10
17.52469094
 20
8.28021875
  0
VERTEX
  8
0
 62
7
 10
17.48420400
 20
8.34900000
  0
VERTEX
  8
0
 62
7
 10
17.47306400
 20
8.36200000
  0
VERTEX
  8
0
 62
7
 10
17.47306400
 20
8.37500000
  0
VERTEX
  8
0
 62
7
 10
17.45078400
 20
8.37400000
  0
VERTEX
  8
0
 62
7
 10
17.43936550
 20
8.37537500
  0
VERTEX
  8
0
 62
7
 10
17.42627600
 20
8.37300000
  0
VERTEX
  8
0
 62
7
 10
17.42404800
 20
8.37300000
  0
VERTEX
  8
0
 62
7
 10
17.28368400
 20
8.36762500
  0
VERTEX
  8
0
 62
7
 10
17.14332000
 20
8.36600000
  0
VERTEX
  8
0
 62
7
 10
16.95620281
 20
8.36900000
  0
VERTEX
  8
0
 62
7
 10
16.76929450
 20
8.37800000
  0
VERTEX
  8
0
 62
7
 10
16.58280394
 20
8.39300000
  0
VERTEX
  8
0
 62
7
 10
16.39694000
 20
8.41400000
  0
VERTEX
  8
0
 62
7
 10
16.23219855
 20
8.43875977
  0
VERTEX
  8
0
 62
7
 10
16.06865813
 20
8.46939063
  0
VERTEX
  8
0
 62
7
 10
15.90605764
 20
8.50454492
  0
VERTEX
  8
0
 62
7
 10
15.74413600
 20
8.54287500
  0
VERTEX
  8
0
 62
7
 10
15.58263211
 20
8.58303320
  0
VERTEX
  8
0
 62
7
 10
15.42128488
 20
8.62367187
  0
VERTEX
  8
0
 62
7
 10
15.25983320
 20
8.66344336
  0
VERTEX
  8
0
 62
7
 10
15.09801600
 20
8.70100000
  0
VERTEX
  8
0
 62
7
 10
14.99858715
 20
8.72354004
  0
VERTEX
  8
0
 62
7
 10
14.89913219
 20
8.74669531
  0
VERTEX
  8
0
 62
7
 10
14.79962501
 20
8.77014355
  0
VERTEX
  8
0
 62
7
 10
14.70003950
 20
8.79356250
  0
VERTEX
  8
0
 62
7
 10
14.60034955
 20
8.81662988
  0
VERTEX
  8
0
 62
7
 10
14.50052906
 20
8.83902344
  0
VERTEX
  8
0
 62
7
 10
14.40055191
 20
8.86042090
  0
VERTEX
  8
0
 62
7
 10
14.30039200
 20
8.88050000
  0
VERTEX
  8
0
 62
7
 10
14.20002321
 20
8.89893848
  0
VERTEX
  8
0
 62
7
 10
14.09941944
 20
8.91541406
  0
VERTEX
  8
0
 62
7
 10
13.99855457
 20
8.92960449
  0
VERTEX
  8
0
 62
7
 10
13.89740250
 20
8.94118750
  0
VERTEX
  8
0
 62
7
 10
13.79593712
 20
8.94984082
  0
VERTEX
  8
0
 62
7
 10
13.69413231
 20
8.95524219
  0
VERTEX
  8
0
 62
7
 10
13.59196198
 20
8.95706934
  0
VERTEX
  8
0
 62
7
 10
13.48940000
 20
8.95500000
  0
VERTEX
  8
0
 62
7
 10
13.39807811
 20
8.94989453
  0
VERTEX
  8
0
 62
7
 10
13.30712175
 20
8.94209375
  0
VERTEX
  8
0
 62
7
 10
13.21658314
 20
8.93162109
  0
VERTEX
  8
0
 62
7
 10
13.12651450
 20
8.91850000
  0
VERTEX
  8
0
 62
7
 10
13.03696805
 20
8.90275391
  0
VERTEX
  8
0
 62
7
 10
12.94799600
 20
8.88440625
  0
VERTEX
  8
0
 62
7
 10
12.85965058
 20
8.86348047
  0
VERTEX
  8
0
 62
7
 10
12.77198400
 20
8.84000000
  0
VERTEX
  8
0
 62
7
 10
12.68504848
 20
8.81398828
  0
VERTEX
  8
0
 62
7
 10
12.59889625
 20
8.78546875
  0
VERTEX
  8
0
 62
7
 10
12.51357952
 20
8.75446484
  0
VERTEX
  8
0
 62
7
 10
12.42915050
 20
8.72100000
  0
VERTEX
  8
0
 62
7
 10
12.34566142
 20
8.68509766
  0
VERTEX
  8
0
 62
7
 10
12.26316450
 20
8.64678125
  0
VERTEX
  8
0
 62
7
 10
12.18171195
 20
8.60607422
  0
VERTEX
  8
0
 62
7
 10
12.10135600
 20
8.56300000
  0
VERTEX
  8
0
 62
7
 10
11.93342050
 20
8.46350000
  0
VERTEX
  8
0
 62
7
 10
11.77384000
 20
8.35500000
  0
VERTEX
  8
0
 62
7
 10
11.61314550
 20
8.46387500
  0
VERTEX
  8
0
 62
7
 10
11.44409600
 20
8.56300000
  0
VERTEX
  8
0
 62
7
 10
11.36374005
 20
8.60607422
  0
VERTEX
  8
0
 62
7
 10
11.28228750
 20
8.64678125
  0
VERTEX
  8
0
 62
7
 10
11.19979058
 20
8.68509766
  0
VERTEX
  8
0
 62
7
 10
11.11630150
 20
8.72100000
  0
VERTEX
  8
0
 62
7
 10
11.03187248
 20
8.75446484
  0
VERTEX
  8
0
 62
7
 10
10.94655575
 20
8.78546875
  0
VERTEX
  8
0
 62
7
 10
10.86040352
 20
8.81398828
  0
VERTEX
  8
0
 62
7
 10
10.77346800
 20
8.84000000
  0
VERTEX
  8
0
 62
7
 10
10.68580142
 20
8.86348047
  0
VERTEX
  8
0
 62
7
 10
10.59745600
 20
8.88440625
  0
VERTEX
  8
0
 62
7
 10
10.50848395
 20
8.90275391
  0
VERTEX
  8
0
 62
7
 10
10.41893750
 20
8.91850000
  0
VERTEX
  8
0
 62
7
 10
10.32886886
 20
8.93162109
  0
VERTEX
  8
0
 62
7
 10
10.23833025
 20
8.94209375
  0
VERTEX
  8
0
 62
7
 10
10.14737389
 20
8.94989453
  0
VERTEX
  8
0
 62
7
 10
10.05605200
 20
8.95500000
  0
VERTEX
  8
0
 62
7
 10
9.95351450
 20
8.95706934
  0
VERTEX
  8
0
 62
7
 10
9.85141107
 20
8.95524219
  0
VERTEX
  8
0
 62
7
 10
9.74970581
 20
8.94984082
  0
VERTEX
  8
0
 62
7
 10
9.64836281
 20
8.94118750
  0
VERTEX
  8
0
 62
7
 10
9.54734618
 20
8.92960449
  0
VERTEX
  8
0
 62
7
 10
9.44662002
 20
8.91541406
  0
VERTEX
  8
0
 62
7
 10
9.34614843
 20
8.89893848
  0
VERTEX
  8
0
 62
7
 10
9.24589550
 20
8.88050000
  0
VERTEX
  8
0
 62
7
 10
9.14582534
 20
8.86042090
  0
VERTEX
  8
0
 62
7
 10
9.04590204
 20
8.83902344
  0
VERTEX
  8
0
 62
7
 10
8.94608971
 20
8.81662988
  0
VERTEX
  8
0
 62
7
 10
8.84635244
 20
8.79356250
  0
VERTEX
  8
0
 62
7
 10
8.74665433
 20
8.77014355
  0
VERTEX
  8
0
 62
7
 10
8.64695949
 20
8.74669531
  0
VERTEX
  8
0
 62
7
 10
8.54723201
 20
8.72354004
  0
VERTEX
  8
0
 62
7
 10
8.44743600
 20
8.70100000
  0
VERTEX
  8
0
 62
7
 10
8.28561880
 20
8.66344336
  0
VERTEX
  8
0
 62
7
 10
8.12416713
 20
8.62367187
  0
VERTEX
  8
0
 62
7
 10
7.96281989
 20
8.58303320
  0
VERTEX
  8
0
 62
7
 10
7.80131600
 20
8.54287500
  0
VERTEX
  8
0
 62
7
 10
7.63939436
 20
8.50454492
  0
VERTEX
  8
0
 62
7
 10
7.47679387
 20
8.46939063
  0
VERTEX
  8
0
 62
7
 10
7.31325345
 20
8.43875977
  0
VERTEX
  8
0
 62
7
 10
7.14851200
 20
8.41400000
  0
VERTEX
  8
0
 62
7
 10
6.96264806
 20
8.39300000
  0
VERTEX
  8
0
 62
7
 10
6.77615750
 20
8.37800000
  0
VERTEX
  8
0
 62
7
 10
6.58924919
 20
8.36900000
  0
VERTEX
  8
0
 62
7
 10
6.40213200
 20
8.36600000
  0
VERTEX
  8
0
 62
7
 10
6.26176800
 20
8.36762500
  0
VERTEX
  8
0
 62
7
 10
6.12140400
 20
8.37300000
  0
VERTEX
  8
0
 62
7
 10
6.11917600
 20
8.37300000
  0
VERTEX
  8
0
 62
7
 10
6.10692200
 20
8.37537500
  0
VERTEX
  8
0
 62
7
 10
6.09466800
 20
8.37400000
  0
VERTEX
  8
0
 62
7
 10
6.07238800
 20
8.37500000
  0
VERTEX
  8
0
 62
7
 10
6.07238800
 20
8.36200000
  0
VERTEX
  8
0
 62
7
 10
6.06124800
 20
8.34900000
  0
VERTEX
  8
0
 62
7
 10
6.02076106
 20
8.28021875
  0
VERTEX
  8
0
 62
7
 10
5.97296350
 20
8.21650000
  0
VERTEX
  8
0
 62
7
 10
5.91806419
 20
8.15803125
  0
VERTEX
  8
0
 62
7
 10
5.85627200
 20
8.10500000
  0
VERTEX
  8
0
 62
7
 10
5.79984094
 20
8.06492188
  0
VERTEX
  8
0
 62
7
 10
5.74069450
 20
8.03037500
  0
VERTEX
  8
0
 62
7
 10
5.67862381
 20
8.00164063
  0
VERTEX
  8
0
 62
7
 10
5.61342000
 20
7.97900000
  0
VERTEX
  8
0
 62
7
 10
5.58000000
 20
7.96900000
  0
VERTEX
  8
0
 62
7
 10
5.58000000
 20
7.93300000
  0
VERTEX
  8
0
 62
7
 10
5.58222800
 20
2.77700000
  0
VERTEX
  8
0
 62
7
 10
5.58821575
 20
2.75798438
  0
VERTEX
  8
0
 62
7
 10
5.60339400
 20
2.74637500
  0
VERTEX
  8
0
 62
7
 10
5.62358525
 20
2.74057813
  0
VERTEX
  8
0
 62
7
 10
5.64461200
 20
2.73900000
  0
VERTEX
  8
0
 62
7
 10
11.27922400
 20
2.73800000
  0
VERTEX
  8
0
 62
7
 10
11.30683031
 20
2.69604688
  0
VERTEX
  8
0
 62
7
 10
11.34132950
 20
2.65962500
  0
VERTEX
  8
0
 62
7
 10
11.38042394
 20
2.62789063
  0
VERTEX
  8
0
 62
7
 10
11.42181600
 20
2.60000000
  0
VERTEX
  8
0
 62
7
 10
11.45840829
 20
2.57958594
  0
VERTEX
  8
0
 62
7
 10
11.49899531
 20
2.56118750
  0
VERTEX
  8
0
 62
7
 10
11.54255880
 20
2.54494531
  0
VERTEX
  8
0
 62
7
 10
11.58808050
 20
2.53100000
  0
VERTEX
  8
0
 62
7
 10
11.63454213
 20
2.51949219
  0
VERTEX
  8
0
 62
7
 10
11.68092544
 20
2.51056250
  0
VERTEX
  8
0
 62
7
 10
11.72621215
 20
2.50435156
  0
VERTEX
  8
0
 62
7
 10
11.76938400
 20
2.50100000
  0
VERTEX
  8
0
 62
7
 10
11.81265594
 20
2.50435156
  0
VERTEX
  8
0
 62
7
 10
11.85822550
 20
2.51056250
  0
VERTEX
  8
0
 62
7
 10
11.90504831
 20
2.51949219
  0
VERTEX
  8
0
 62
7
 10
11.95208000
 20
2.53100000
  0
VERTEX
  8
0
 62
7
 10
11.99827619
 20
2.54494531
  0
VERTEX
  8
0
 62
7
 10
12.04259250
 20
2.56118750
  0
VERTEX
  8
0
 62
7
 10
12.08398456
 20
2.57958594
  0
VERTEX
  8
0
 62
7
 10
12.12140800
 20
2.60000000
  0
VERTEX
  8
0
 62
7
 10
12.16154681
 20
2.62789063
  0
VERTEX
  8
0
 62
7
 10
12.20022350
 20
2.65962500
  0
VERTEX
  8
0
 62
7
 10
12.23514044
 20
2.69604688
  0
VERTEX
  8
0
 62
7
 10
12.26400000
 20
2.73800000
  0
VERTEX
  8
0
 62
7
 10
17.90306800
 20
2.73900000
  0
VERTEX
  8
0
 62
7
 10
17.93805456
 20
2.74203125
  0
VERTEX
  8
0
 62
7
 10
17.97241450
 20
2.75050000
  0
VERTEX
  8
0
 62
7
 10
18.00552119
 20
2.76346875
  0
VERTEX
  8
0
 62
7
 10
18.03674800
 20
2.78000000
  0
VERTEX
  8
0
 62
7
 10
18.11027200
 20
2.81775000
  0
VERTEX
  8
0
 62
7
 10
18.18379600
 20
2.84500000
  0
VERTEX
  8
0
 62
7
 10
18.21651975
 20
2.85225000
  0
VERTEX
  8
0
 62
7
 10
18.25175000
 20
2.85650000
  0
VERTEX
  8
0
 62
7
 10
18.29032225
 20
2.85850000
  0
VERTEX
  8
0
 62
7
 10
18.33307200
 20
2.85900000
  0
VERTEX
  8
0
 62
7
 10
18.35980800
 20
2.85900000
  0
VERTEX
  8
0
 62
7
 10
18.38654400
 20
2.85900000
  0
VERTEX
  8
0
 62
7
 10
18.48012000
 20
2.86200000
  0
VERTEX
  8
0
 62
7
 10
18.56367000
 20
2.87262500
  0
VERTEX
  8
0
 62
7
 10
18.64053600
 20
2.88700000
  0
VERTEX
  8
0
 62
7
 10
18.69174519
 20
2.89623438
  0
VERTEX
  8
0
 62
7
 10
18.73940350
 20
2.90387500
  0
VERTEX
  8
0
 62
7
 10
18.78497306
 20
2.90907813
  0
VERTEX
  8
0
 62
7
 10
18.82991600
 20
2.91100000
  0
VERTEX
  8
0
 62
7
 10
18.86333600
 20
2.90900000
  0
VERTEX
  8
0
 62
7
 10
18.94803481
 20
2.89867188
  0
VERTEX
  8
0
 62
7
 10
19.03127150
 20
2.88112500
  0
VERTEX
  8
0
 62
7
 10
19.11241944
 20
2.85626563
  0
VERTEX
  8
0
 62
7
 10
19.19085200
 20
2.82400000
  0
VERTEX
  8
0
 62
7
 10
19.26660400
 20
2.78800000
  0
VERTEX
  8
0
 62
7
 10
19.30670800
 20
2.86000000
  0
VERTEX
  8
0
 62
7
 10
19.34681200
 20
2.93600000
  0
VERTEX
  8
0
 62
7
 10
19.33790000
 20
2.88225000
  0
VERTEX
  8
0
 62
7
 10
19.33567200
 20
2.83000000
  0
VERTEX
  8
0
 62
7
 10
19.34235600
 20
2.73900000
  0
VERTEX
  8
0
 62
7
 10
19.36953151
 20
2.63603125
  0
VERTEX
  8
0
 62
7
 10
19.40978781
 20
2.54693750
  0
VERTEX
  8
0
 62
7
 10
19.46137559
 20
2.47068750
  0
VERTEX
  8
0
 62
7
 10
19.52254550
 20
2.40625000
  0
VERTEX
  8
0
 62
7
 10
19.59154823
 20
2.35259375
  0
VERTEX
  8
0
 62
7
 10
19.66663444
 20
2.30868750
  0
VERTEX
  8
0
 62
7
 10
19.74605480
 20
2.27350000
  0
VERTEX
  8
0
 62
7
 10
19.82806000
 20
2.24600000
  0
VERTEX
  8
0
 62
7
 10
19.91530013
 20
2.22546875
  0
VERTEX
  8
0
 62
7
 10
20.00295800
 20
2.21150000
  0
VERTEX
  8
0
 62
7
 10
20.09061588
 20
2.20353125
  0
VERTEX
  8
0
 62
7
 10
20.17785600
 20
2.20100000
  0
VERTEX
  8
0
 62
7
 10
20.22687200
 20
2.20200000
  0
VERTEX
  8
0
 62
7
 10
20.30173628
 20
2.20655469
  0
VERTEX
  8
0
 62
7
 10
20.37586950
 20
2.21556250
  0
VERTEX
  8
0
 62
7
 10
20.44916722
 20
2.22878906
  0
VERTEX
  8
0
 62
7
 10
20.52152500
 20
2.24600000
  0
VERTEX
  8
0
 62
7
 10
20.59283841
 20
2.26696094
  0
VERTEX
  8
0
 62
7
 10
20.66300300
 20
2.29143750
  0
VERTEX
  8
0
 62
7
 10
20.73191434
 20
2.31919531
  0
VERTEX
  8
0
 62
7
 10
20.79946800
 20
2.35000000
  0
VERTEX
  8
0
 62
7
 10
20.92242575
 20
2.41784375
  0
VERTEX
  8
0
 62
7
 10
21.03953500
 20
2.49750000
  0
VERTEX
  8
0
 62
7
 10
21.14912475
 20
2.58765625
  0
VERTEX
  8
0
 62
7
 10
21.24952400
 20
2.68700000
  0
VERTEX
  8
0
 62
7
 10
21.28517200
 20
2.72700000
  0
VERTEX
  8
0
 62
7
 10
21.34146381
 20
2.73003125
  0
VERTEX
  8
0
 62
7
 10
21.39629350
 20
2.73550000
  0
VERTEX
  8
0
 62
7
 10
21.44903444
 20
2.74246875
  0
VERTEX
  8
0
 62
7
 10
21.49906000
 20
2.75000000
  0
VERTEX
  8
0
 62
7
 10
21.55100025
 20
2.75779688
  0
VERTEX
  8
0
 62
7
 10
21.60043400
 20
2.76437500
  0
VERTEX
  8
0
 62
7
 10
21.64819675
 20
2.76926563
  0
VERTEX
  8
0
 62
7
 10
21.69512400
 20
2.77200000
  0
VERTEX
  8
0
 62
7
 10
21.81543600
 20
2.77900000
  0
VERTEX
  8
0
 62
7
 10
21.88840300
 20
2.78400000
  0
VERTEX
  8
0
 62
7
 10
21.95802800
 20
2.78600000
  0
VERTEX
  8
0
 62
7
 10
22.01456350
 20
2.78412500
  0
VERTEX
  8
0
 62
7
 10
22.06942800
 20
2.77700000
  0
VERTEX
  8
0
 62
7
 10
22.13329588
 20
2.76211133
  0
VERTEX
  8
0
 62
7
 10
22.19604106
 20
2.74301563
  0
VERTEX
  8
0
 62
7
 10
22.25737634
 20
2.71981836
  0
VERTEX
  8
0
 62
7
 10
22.31701450
 20
2.69262500
  0
VERTEX
  8
0
 62
7
 10
22.37466835
 20
2.66154102
  0
VERTEX
  8
0
 62
7
 10
22.43005069
 20
2.62667188
  0
VERTEX
  8
0
 62
7
 10
22.48287430
 20
2.58812305
  0
VERTEX
  8
0
 62
7
 10
22.53285200
 20
2.54600000
  0
VERTEX
  8
0
 62
7
 10
22.60637600
 20
2.48000000
  0
VERTEX
  8
0
 62
7
 10
22.66430400
 20
2.55900000
  0
VERTEX
  8
0
 62
7
 10
22.71523469
 20
2.63168750
  0
VERTEX
  8
0
 62
7
 10
22.76094350
 20
2.70850000
  0
VERTEX
  8
0
 62
7
 10
22.80122156
 20
2.78906250
  0
VERTEX
  8
0
 62
7
 10
22.83586000
 20
2.87300000
  0
VERTEX
  8
0
 62
7
 10
22.87150800
 20
2.83900000
  0
VERTEX
  8
0
 62
7
 10
22.89156000
 20
2.79400000
  0
VERTEX
  8
0
 62
7
 10
22.92052400
 20
2.72600000
  0
VERTEX
  8
0
 62
7
 10
22.94726000
 20
2.67800000
  0
VERTEX
  8
0
 62
7
 10
22.95560575
 20
2.66225146
  0
VERTEX
  8
0
 62
7
 10
22.96483596
 20
2.64487109
  0
VERTEX
  8
0
 62
7
 10
22.97505180
 20
2.62621924
  0
VERTEX
  8
0
 62
7
 10
22.98635444
 20
2.60665625
  0
VERTEX
  8
0
 62
7
 10
22.99884505
 20
2.58654248
  0
VERTEX
  8
0
 62
7
 10
23.01262482
 20
2.56623828
  0
VERTEX
  8
0
 62
7
 10
23.02779491
 20
2.54610400
  0
VERTEX
  8
0
 62
7
 10
23.04445650
 20
2.52650000
  0
VERTEX
  8
0
 62
7
 10
23.06271076
 20
2.50778662
  0
VERTEX
  8
0
 62
7
 10
23.08265887
 20
2.49032422
  0
VERTEX
  8
0
 62
7
 10
23.10440199
 20
2.47447314
  0
VERTEX
  8
0
 62
7
 10
23.12804131
 20
2.46059375
  0
VERTEX
  8
0
 62
7
 10
23.15367800
 20
2.44904639
  0
VERTEX
  8
0
 62
7
 10
23.18141323
 20
2.44019141
  0
VERTEX
  8
0
 62
7
 10
23.21134817
 20
2.43438916
  0
VERTEX
  8
0
 62
7
 10
23.24358400
 20
2.43200000
  0
VERTEX
  8
0
 62
7
 10
23.24804000
 20
2.43200000
  0
VERTEX
  8
0
 62
7
 10
23.25026800
 20
2.43200000
  0
VERTEX
  8
0
 62
7
 10
23.24804000
 20
2.36400000
  0
VERTEX
  8
0
 62
7
 10
23.24804000
 20
2.32300000
  0
VERTEX
  8
0
 62
7
 10
23.25250470
 20
2.28688086
  0
VERTEX
  8
0
 62
7
 10
23.25952813
 20
2.24948438
  0
VERTEX
  8
0
 62
7
 10
23.26958023
 20
2.21150195
  0
VERTEX
  8
0
 62
7
 10
23.28313100
 20
2.17362500
  0
VERTEX
  8
0
 62
7
 10
23.30065039
 20
2.13654492
  0
VERTEX
  8
0
 62
7
 10
23.32260838
 20
2.10095313
  0
VERTEX
  8
0
 62
7
 10
23.34947492
 20
2.06754102
  0
VERTEX
  8
0
 62
7
 10
23.38172000
 20
2.03700000
  0
VERTEX
  8
0
 62
7
 10
23.43446094
 20
2.00395313
  0
VERTEX
  8
0
 62
7
 10
23.48782850
 20
1.98487500
  0
VERTEX
  8
0
 62
7
 10
23.53994281
 20
1.97610938
  0
VERTEX
  8
0
 62
7
 10
23.58892400
 20
1.97400000
  0
VERTEX
  8
0
 62
7
 10
23.65576400
 20
1.97700000
  0
VERTEX
  8
0
 62
7
 10
23.71146400
 20
1.97900000
  0
VERTEX
  8
0
 62
7
 10
23.73151600
 20
1.97800000
  0
VERTEX
  8
0
 62
7
 10
23.76048000
 20
1.97700000
  0
VERTEX
  8
0
 62
7
 10
23.82063600
 20
1.98000000
  0
VERTEX
  8
0
 62
7
 10
23.87410800
 20
1.98200000
  0
VERTEX
  8
0
 62
7
 10
23.90975600
 20
1.98000000
  0
VERTEX
  8
0
 62
7
 10
23.93872000
 20
1.93800000
  0
VERTEX
  8
0
 62
7
 10
23.94763200
 20
1.92200000
  0
VERTEX
  8
0
 62
7
 10
23.96264924
 20
1.90048047
  0
VERTEX
  8
0
 62
7
 10
23.98171344
 20
1.88596875
  0
VERTEX
  8
0
 62
7
 10
24.00344079
 20
1.87816016
  0
VERTEX
  8
0
 62
7
 10
24.02644750
 20
1.87675000
  0
VERTEX
  8
0
 62
7
 10
24.04934977
 20
1.88143359
  0
VERTEX
  8
0
 62
7
 10
24.07076381
 20
1.89190625
  0
VERTEX
  8
0
 62
7
 10
24.08930582
 20
1.90786328
  0
VERTEX
  8
0
 62
7
 10
24.10359200
 20
1.92900000
  0
VERTEX
  8
0
 62
7
 10
24.10582000
 20
1.93100000
  0
VERTEX
  8
0
 62
7
 10
24.12559350
 20
1.96675000
  0
VERTEX
  8
0
 62
7
 10
24.13701200
 20
1.98000000
  0
VERTEX
  8
0
 62
7
 10
24.16653300
 20
1.99362500
  0
VERTEX
  8
0
 62
7
 10
24.20608000
 20
1.99900000
  0
VERTEX
  8
0
 62
7
 10
24.23699350
 20
2.00175000
  0
VERTEX
  8
0
 62
7
 10
24.27292000
 20
2.00900000
  0
VERTEX
  8
0
 62
7
 10
24.31859400
 20
2.01562500
  0
VERTEX
  8
0
 62
7
 10
24.37095200
 20
2.02000000
  0
VERTEX
  8
0
 62
7
 10
24.39870191
 20
2.02164844
  0
VERTEX
  8
0
 62
7
 10
24.42961106
 20
2.02418750
  0
VERTEX
  8
0
 62
7
 10
24.46287005
 20
2.02850781
  0
VERTEX
  8
0
 62
7
 10
24.49766950
 20
2.03550000
  0
VERTEX
  8
0
 62
7
 10
24.53320001
 20
2.04605469
  0
VERTEX
  8
0
 62
7
 10
24.56865219
 20
2.06106250
  0
VERTEX
  8
0
 62
7
 10
24.60321665
 20
2.08141406
  0
VERTEX
  8
0
 62
7
 10
24.63608400
 20
2.10800000
  0
VERTEX
  8
0
 62
7
 10
24.68725838
 20
2.16764063
  0
VERTEX
  8
0
 62
7
 10
24.72631800
 20
2.23562500
  0
VERTEX
  8
0
 62
7
 10
24.75200963
 20
2.30979688
  0
VERTEX
  8
0
 62
7
 10
24.76308000
 20
2.38800000
  0
VERTEX
  8
0
 62
7
 10
24.76308000
 20
2.40200000
  0
VERTEX
  8
0
 62
7
 10
24.76308000
 20
2.42300000
  0
VERTEX
  8
0
 62
7
 10
24.77867600
 20
2.42300000
  0
VERTEX
  8
0
 62
7
 10
24.83200875
 20
2.42676563
  0
VERTEX
  8
0
 62
7
 10
24.88450600
 20
2.43812500
  0
VERTEX
  8
0
 62
7
 10
24.93533225
 20
2.45717188
  0
VERTEX
  8
0
 62
7
 10
24.98365200
 20
2.48400000
  0
VERTEX
  8
0
 62
7
 10
25.01429135
 20
2.50775000
  0
VERTEX
  8
0
 62
7
 10
25.04119706
 20
2.53431250
  0
VERTEX
  8
0
 62
7
 10
25.06460412
 20
2.56303125
  0
VERTEX
  8
0
 62
7
 10
25.08474750
 20
2.59325000
  0
VERTEX
  8
0
 62
7
 10
25.10186220
 20
2.62431250
  0
VERTEX
  8
0
 62
7
 10
25.11618319
 20
2.65556250
  0
VERTEX
  8
0
 62
7
 10
25.12794546
 20
2.68634375
  0
VERTEX
  8
0
 62
7
 10
25.13738400
 20
2.71600000
  0
VERTEX
  8
0
 62
7
 10
25.14518200
 20
2.75750000
  0
VERTEX
  8
0
 62
7
 10
25.14629600
 20
2.79300000
  0
VERTEX
  8
0
 62
7
 10
25.14629600
 20
2.82300000
  0
VERTEX
  8
0
 62
7
 10
25.14629600
 20
2.84600000
  0
VERTEX
  8
0
 62
7
 10
25.14852400
 20
2.87100000
  0
VERTEX
  8
0
 62
7
 10
25.15743600
 20
2.89500000
  0
VERTEX
  8
0
 62
7
 10
25.19155225
 20
2.80467188
  0
VERTEX
  8
0
 62
7
 10
25.23318800
 20
2.71837500
  0
VERTEX
  8
0
 62
7
 10
25.28150775
 20
2.63639063
  0
VERTEX
  8
0
 62
7
 10
25.33567600
 20
2.55900000
  0
VERTEX
  8
0
 62
7
 10
25.39360400
 20
2.48000000
  0
VERTEX
  8
0
 62
7
 10
25.46712800
 20
2.54600000
  0
VERTEX
  8
0
 62
7
 10
25.51710570
 20
2.58812305
  0
VERTEX
  8
0
 62
7
 10
25.56992931
 20
2.62667188
  0
VERTEX
  8
0
 62
7
 10
25.62531165
 20
2.66154102
  0
VERTEX
  8
0
 62
7
 10
25.68296550
 20
2.69262500
  0
VERTEX
  8
0
 62
7
 10
25.74260366
 20
2.71981836
  0
VERTEX
  8
0
 62
7
 10
25.80393894
 20
2.74301563
  0
VERTEX
  8
0
 62
7
 10
25.86668412
 20
2.76211133
  0
VERTEX
  8
0
 62
7
 10
25.93055200
 20
2.77700000
  0
VERTEX
  8
0
 62
7
 10
25.98541650
 20
2.78412500
  0
VERTEX
  8
0
 62
7
 10
26.04195200
 20
2.78600000
  0
VERTEX
  8
0
 62
7
 10
26.11157700
 20
2.78400000
  0
VERTEX
  8
0
 62
7
 10
26.18454400
 20
2.77900000
  0
VERTEX
  8
0
 62
7
 10
26.30485600
 20
2.77200000
  0
VERTEX
  8
0
 62
7
 10
26.35178325
 20
2.76926563
  0
VERTEX
  8
0
 62
7
 10
26.39954600
 20
2.76437500
  0
VERTEX
  8
0
 62
7
 10
26.44897975
 20
2.75779688
  0
VERTEX
  8
0
 62
7
 10
26.50092000
 20
2.75000000
  0
VERTEX
  8
0
 62
7
 10
26.55094556
 20
2.74246875
  0
VERTEX
  8
0
 62
7
 10
26.60368650
 20
2.73550000
  0
VERTEX
  8
0
 62
7
 10
26.65851619
 20
2.73003125
  0
VERTEX
  8
0
 62
7
 10
26.71480800
 20
2.72700000
  0
VERTEX
  8
0
 62
7
 10
26.75045600
 20
2.68700000
  0
VERTEX
  8
0
 62
7
 10
26.85085525
 20
2.58765625
  0
VERTEX
  8
0
 62
7
 10
26.96044500
 20
2.49750000
  0
VERTEX
  8
0
 62
7
 10
27.07755425
 20
2.41784375
  0
VERTEX
  8
0
 62
7
 10
27.20051200
 20
2.35000000
  0
VERTEX
  8
0
 62
7
 10
27.26806566
 20
2.31919531
  0
VERTEX
  8
0
 62
7
 10
27.33697700
 20
2.29143750
  0
VERTEX
  8
0
 62
7
 10
27.40714159
 20
2.26696094
  0
VERTEX
  8
0
 62
7
 10
27.47845500
 20
2.24600000
  0
VERTEX
  8
0
 62
7
 10
27.55081278
 20
2.22878906
  0
VERTEX
  8
0
 62
7
 10
27.62411050
 20
2.21556250
  0
VERTEX
  8
0
 62
7
 10
27.69824372
 20
2.20655469
  0
VERTEX
  8
0
 62
7
 10
27.77310800
 20
2.20200000
  0
VERTEX
  8
0
 62
7
 10
27.82212400
 20
2.20100000
  0
VERTEX
  8
0
 62
7
 10
27.90936413
 20
2.20353125
  0
VERTEX
  8
0
 62
7
 10
27.99702200
 20
2.21150000
  0
VERTEX
  8
0
 62
7
 10
28.08467988
 20
2.22546875
  0
VERTEX
  8
0
 62
7
 10
28.17192000
 20
2.24600000
  0
VERTEX
  8
0
 62
7
 10
28.25392520
 20
2.27350000
  0
VERTEX
  8
0
 62
7
 10
28.33334556
 20
2.30868750
  0
VERTEX
  8
0
 62
7
 10
28.40843177
 20
2.35259375
  0
VERTEX
  8
0
 62
7
 10
28.47743450
 20
2.40625000
  0
VERTEX
  8
0
 62
7
 10
28.53860441
 20
2.47068750
  0
VERTEX
  8
0
 62
7
 10
28.59019219
 20
2.54693750
  0
VERTEX
  8
0
 62
7
 10
28.63044849
 20
2.63603125
  0
VERTEX
  8
0
 62
7
 10
28.65762400
 20
2.73900000
  0
VERTEX
  8
0
 62
7
 10
28.66430800
 20
2.83000000
  0
VERTEX
  8
0
 62
7
 10
28.66208000
 20
2.88225000
  0
VERTEX
  8
0
 62
7
 10
28.65316800
 20
2.93600000
  0
VERTEX
  8
0
 62
7
 10
28.69327200
 20
2.86000000
  0
VERTEX
  8
0
 62
7
 10
28.73337600
 20
2.78800000
  0
VERTEX
  8
0
 62
7
 10
28.80912800
 20
2.82400000
  0
VERTEX
  8
0
 62
7
 10
28.88756056
 20
2.85626563
  0
VERTEX
  8
0
 62
7
 10
28.96870850
 20
2.88112500
  0
VERTEX
  8
0
 62
7
 10
29.05194519
 20
2.89867188
  0
VERTEX
  8
0
 62
7
 10
29.13664400
 20
2.90900000
  0
VERTEX
  8
0
 62
7
 10
29.17006400
 20
2.91100000
  0
VERTEX
  8
0
 62
7
 10
29.21500694
 20
2.90907813
  0
VERTEX
  8
0
 62
7
 10
29.26057650
 20
2.90387500
  0
VERTEX
  8
0
 62
7
 10
29.30823481
 20
2.89623438
  0
VERTEX
  8
0
 62
7
 10
29.35944400
 20
2.88700000
  0
VERTEX
  8
0
 62
7
 10
29.43631000
 20
2.87262500
  0
VERTEX
  8
0
 62
7
 10
29.51986000
 20
2.86200000
  0
VERTEX
  8
0
 62
7
 10
29.61343600
 20
2.85900000
  0
VERTEX
  8
0
 62
7
 10
29.64017200
 20
2.85900000
  0
VERTEX
  8
0
 62
7
 10
29.66690800
 20
2.85900000
  0
VERTEX
  8
0
 62
7
 10
29.70965775
 20
2.85850000
  0
VERTEX
  8
0
 62
7
 10
29.74823000
 20
2.85650000
  0
VERTEX
  8
0
 62
7
 10
29.78346025
 20
2.85225000
  0
VERTEX
  8
0
 62
7
 10
29.81618400
 20
2.84500000
  0
VERTEX
  8
0
 62
7
 10
29.88970800
 20
2.81775000
  0
VERTEX
  8
0
 62
7
 10
29.96323200
 20
2.78000000
  0
VERTEX
  8
0
 62
7
 10
29.99445881
 20
2.76346875
  0
VERTEX
  8
0
 62
7
 10
30.02756550
 20
2.75050000
  0
VERTEX
  8
0
 62
7
 10
30.06192544
 20
2.74203125
  0
VERTEX
  8
0
 62
7
 10
30.09691200
 20
2.73900000
  0
VERTEX
  8
0
 62
7
 10
35.73598000
 20
2.73800000
  0
VERTEX
  8
0
 62
7
 10
35.76483956
 20
2.69604688
  0
VERTEX
  8
0
 62
7
 10
35.79975650
 20
2.65962500
  0
VERTEX
  8
0
 62
7
 10
35.83843319
 20
2.62789063
  0
VERTEX
  8
0
 62
7
 10
35.87857200
 20
2.60000000
  0
VERTEX
  8
0
 62
7
 10
35.91599544
 20
2.57958594
  0
VERTEX
  8
0
 62
7
 10
35.95738750
 20
2.56118750
  0
VERTEX
  8
0
 62
7
 10
36.00170381
 20
2.54494531
  0
VERTEX
  8
0
 62
7
 10
36.04790000
 20
2.53100000
  0
VERTEX
  8
0
 62
7
 10
36.09493169
 20
2.51949219
  0
VERTEX
  8
0
 62
7
 10
36.14175450
 20
2.51056250
  0
VERTEX
  8
0
 62
7
 10
36.18732406
 20
2.50435156
  0
VERTEX
  8
0
 62
7
 10
36.23059600
 20
2.50100000
  0
VERTEX
  8
0
 62
7
 10
36.27376785
 20
2.50435156
  0
VERTEX
  8
0
 62
7
 10
36.31905456
 20
2.51056250
  0
VERTEX
  8
0
 62
7
 10
36.36543787
 20
2.51949219
  0
VERTEX
  8
0
 62
7
 10
36.41189950
 20
2.53100000
  0
VERTEX
  8
0
 62
7
 10
36.45742120
 20
2.54494531
  0
VERTEX
  8
0
 62
7
 10
36.50098469
 20
2.56118750
  0
VERTEX
  8
0
 62
7
 10
36.54157171
 20
2.57958594
  0
VERTEX
  8
0
 62
7
 10
36.57816400
 20
2.60000000
  0
VERTEX
  8
0
 62
7
 10
36.61955606
 20
2.62789063
  0
VERTEX
  8
0
 62
7
 10
36.65865050
 20
2.65962500
  0
VERTEX
  8
0
 62
7
 10
36.69314969
 20
2.69604688
  0
VERTEX
  8
0
 62
7
 10
36.72075600
 20
2.73800000
  0
VERTEX
  8
0
 62
7
 10
42.35536800
 20
2.73900000
  0
VERTEX
  8
0
 62
7
 10
42.37639475
 20
2.74057813
  0
VERTEX
  8
0
 62
7
 10
42.39658600
 20
2.74637500
  0
VERTEX
  8
0
 62
7
 10
42.41176425
 20
2.75798438
  0
VERTEX
  8
0
 62
7
 10
42.41775200
 20
2.77700000
  0
VERTEX
  8
0
 62
7
 10
42.41998000
 20
7.93300000
  0
VERTEX
  8
0
 62
7
 10
42.41998000
 20
7.96900000
  0
VERTEX
  8
0
 62
7
 10
42.38656000
 20
7.97900000
  0
VERTEX
  8
0
 62
7
 10
42.32135619
 20
8.00164063
  0
VERTEX
  8
0
 62
7
 10
42.25928550
 20
8.03037500
  0
VERTEX
  8
0
 62
7
 10
42.20013906
 20
8.06492188
  0
VERTEX
  8
0
 62
7
 10
42.14370800
 20
8.10500000
  0
VERTEX
  8
0
 62
7
 10
42.08191581
 20
8.15803125
  0
VERTEX
  8
0
 62
7
 10
42.02701650
 20
8.21650000
  0
VERTEX
  8
0
 62
7
 10
41.97921894
 20
8.28021875
  0
VERTEX
  8
0
 62
7
 10
41.93873200
 20
8.34900000
  0
VERTEX
  8
0
 62
7
 10
41.92759200
 20
8.36200000
  0
VERTEX
  8
0
 62
7
 10
41.92759200
 20
8.37500000
  0
VERTEX
  8
0
 62
7
 10
41.90531200
 20
8.37400000
  0
VERTEX
  8
0
 62
7
 10
41.89305800
 20
8.37537500
  0
VERTEX
  8
0
 62
7
 10
41.88080400
 20
8.37300000
  0
VERTEX
  8
0
 62
7
 10
41.87857600
 20
8.37300000
  0
VERTEX
  8
0
 62
7
 10
41.73821200
 20
8.36762500
  0
VERTEX
  8
0
 62
7
 10
41.59784800
 20
8.36600000
  0
VERTEX
  8
0
 62
7
 10
41.41073081
 20
8.36900000
  0
VERTEX
  8
0
 62
7
 10
41.22382250
 20
8.37800000
  0
VERTEX
  8
0
 62
7
 10
41.03733194
 20
8.39300000
  0
VERTEX
  8
0
 62
7
 10
40.85146800
 20
8.41400000
  0
VERTEX
  8
0
 62
7
 10
40.68672655
 20
8.43875977
  0
VERTEX
  8
0
 62
7
 10
40.52318613
 20
8.46939063
  0
VERTEX
  8
0
 62
7
 10
40.36058564
 20
8.50454492
  0
VERTEX
  8
0
 62
7
 10
40.19866400
 20
8.54287500
  0
VERTEX
  8
0
 62
7
 10
40.03716011
 20
8.58303320
  0
VERTEX
  8
0
 62
7
 10
39.87581287
 20
8.62367187
  0
VERTEX
  8
0
 62
7
 10
39.71436120
 20
8.66344336
  0
VERTEX
  8
0
 62
7
 10
39.55254400
 20
8.70100000
  0
VERTEX
  8
0
 62
7
 10
39.45274799
 20
8.72354004
  0
VERTEX
  8
0
 62
7
 10
39.35302051
 20
8.74669531
  0
VERTEX
  8
0
 62
7
 10
39.25332567
 20
8.77014355
  0
VERTEX
  8
0
 62
7
 10
39.15362756
 20
8.79356250
  0
VERTEX
  8
0
 62
7
 10
39.05389029
 20
8.81662988
  0
VERTEX
  8
0
 62
7
 10
38.95407796
 20
8.83902344
  0
VERTEX
  8
0
 62
7
 10
38.85415466
 20
8.86042090
  0
VERTEX
  8
0
 62
7
 10
38.75408450
 20
8.88050000
  0
VERTEX
  8
0
 62
7
 10
38.65383157
 20
8.89893848
  0
VERTEX
  8
0
 62
7
 10
38.55335998
 20
8.91541406
  0
VERTEX
  8
0
 62
7
 10
38.45263382
 20
8.92960449
  0
VERTEX
  8
0
 62
7
 10
38.35161719
 20
8.94118750
  0
VERTEX
  8
0
 62
7
 10
38.25027419
 20
8.94984082
  0
VERTEX
  8
0
 62
7
 10
38.14856893
 20
8.95524219
  0
VERTEX
  8
0
 62
7
 10
38.04646550
 20
8.95706934
  0
VERTEX
  8
0
 62
7
 10
37.94392800
 20
8.95500000
  0
VERTEX
  8
0
 62
7
 10
37.85260611
 20
8.94989453
  0
VERTEX
  8
0
 62
7
 10
37.76164975
 20
8.94209375
  0
VERTEX
  8
0
 62
7
 10
37.67111114
 20
8.93162109
  0
VERTEX
  8
0
 62
7
 10
37.58104250
 20
8.91850000
  0
VERTEX
  8
0
 62
7
 10
37.49149605
 20
8.90275391
  0
VERTEX
  8
0
 62
7
 10
37.40252400
 20
8.88440625
  0
VERTEX
  8
0
 62
7
 10
37.31417858
 20
8.86348047
  0
VERTEX
  8
0
 62
7
 10
37.22651200
 20
8.84000000
  0
VERTEX
  8
0
 62
7
 10
37.13957648
 20
8.81398828
  0
VERTEX
  8
0
 62
7
 10
37.05342425
 20
8.78546875
  0
VERTEX
  8
0
 62
7
 10
36.96810752
 20
8.75446484
  0
VERTEX
  8
0
 62
7
 10
36.88367850
 20
8.72100000
  0
VERTEX
  8
0
 62
7
 10
36.80018942
 20
8.68509766
  0
VERTEX
  8
0
 62
7
 10
36.71769250
 20
8.64678125
  0
VERTEX
  8
0
 62
7
 10
36.63623995
 20
8.60607422
  0
VERTEX
  8
0
 62
7
 10
36.55588400
 20
8.56300000
  0
VERTEX
  8
0
 62
7
 10
36.38683450
 20
8.46387500
  0
VERTEX
  8
0
 62
7
 10
36.22614000
 20
8.35500000
  0
VERTEX
  8
0
 62
7
 10
36.06655950
 20
8.46350000
  0
VERTEX
  8
0
 62
7
 10
35.89862400
 20
8.56300000
  0
VERTEX
  8
0
 62
7
 10
35.81826805
 20
8.60607422
  0
VERTEX
  8
0
 62
7
 10
35.73681550
 20
8.64678125
  0
VERTEX
  8
0
 62
7
 10
35.65431858
 20
8.68509766
  0
VERTEX
  8
0
 62
7
 10
35.57082950
 20
8.72100000
  0
VERTEX
  8
0
 62
7
 10
35.48640048
 20
8.75446484
  0
VERTEX
  8
0
 62
7
 10
35.40108375
 20
8.78546875
  0
VERTEX
  8
0
 62
7
 10
35.31493152
 20
8.81398828
  0
VERTEX
  8
0
 62
7
 10
35.22799600
 20
8.84000000
  0
VERTEX
  8
0
 62
7
 10
35.14032942
 20
8.86348047
  0
VERTEX
  8
0
 62
7
 10
35.05198400
 20
8.88440625
  0
VERTEX
  8
0
 62
7
 10
34.96301195
 20
8.90275391
  0
VERTEX
  8
0
 62
7
 10
34.87346550
 20
8.91850000
  0
VERTEX
  8
0
 62
7
 10
34.78339686
 20
8.93162109
  0
VERTEX
  8
0
 62
7
 10
34.69285825
 20
8.94209375
  0
VERTEX
  8
0
 62
7
 10
34.60190189
 20
8.94989453
  0
VERTEX
  8
0
 62
7
 10
34.51058000
 20
8.95500000
  0
VERTEX
  8
0
 62
7
 10
34.40801802
 20
8.95706934
  0
VERTEX
  8
0
 62
7
 10
34.30584769
 20
8.95524219
  0
VERTEX
  8
0
 62
7
 10
34.20404288
 20
8.94984082
  0
VERTEX
  8
0
 62
7
 10
34.10257750
 20
8.94118750
  0
VERTEX
  8
0
 62
7
 10
34.00142543
 20
8.92960449
  0
VERTEX
  8
0
 62
7
 10
33.90056056
 20
8.91541406
  0
VERTEX
  8
0
 62
7
 10
33.79995679
 20
8.89893848
  0
VERTEX
  8
0
 62
7
 10
33.69958800
 20
8.88050000
  0
VERTEX
  8
0
 62
7
 10
33.59942809
 20
8.86042090
  0
VERTEX
  8
0
 62
7
 10
33.49945094
 20
8.83902344
  0
VERTEX
  8
0
 62
7
 10
33.39963045
 20
8.81662988
  0
VERTEX
  8
0
 62
7
 10
33.29994050
 20
8.79356250
  0
VERTEX
  8
0
 62
7
 10
33.20035499
 20
8.77014355
  0
VERTEX
  8
0
 62
7
 10
33.10084781
 20
8.74669531
  0
VERTEX
  8
0
 62
7
 10
33.00139285
 20
8.72354004
  0
VERTEX
  8
0
 62
7
 10
32.90196400
 20
8.70100000
  0
VERTEX
  8
0
 62
7
 10
32.74014680
 20
8.66344336
  0
VERTEX
  8
0
 62
7
 10
32.57869513
 20
8.62367187
  0
VERTEX
  8
0
 62
7
 10
32.41734789
 20
8.58303320
  0
VERTEX
  8
0
 62
7
 10
32.25584400
 20
8.54287500
  0
VERTEX
  8
0
 62
7
 10
32.09392236
 20
8.50454492
  0
VERTEX
  8
0
 62
7
 10
31.93132188
 20
8.46939063
  0
VERTEX
  8
0
 62
7
 10
31.76778145
 20
8.43875977
  0
VERTEX
  8
0
 62
7
 10
31.60304000
 20
8.41400000
  0
VERTEX
  8
0
 62
7
 10
31.41717606
 20
8.39300000
  0
VERTEX
  8
0
 62
7
 10
31.23068550
 20
8.37800000
  0
VERTEX
  8
0
 62
7
 10
31.04377719
 20
8.36900000
  0
VERTEX
  8
0
 62
7
 10
30.85666000
 20
8.36600000
  0
VERTEX
  8
0
 62
7
 10
30.71629600
 20
8.36762500
  0
VERTEX
  8
0
 62
7
 10
30.57593200
 20
8.37300000
  0
VERTEX
  8
0
 62
7
 10
30.57370400
 20
8.37300000
  0
VERTEX
  8
0
 62
7
 10
30.56145000
 20
8.37537500
  0
VERTEX
  8
0
 62
7
 10
30.54919600
 20
8.37400000
  0
VERTEX
  8
0
 62
7
 10
30.52691600
 20
8.37500000
  0
VERTEX
  8
0
 62
7
 10
30.52691600
 20
8.36200000
  0
VERTEX
  8
0
 62
7
 10
30.51577600
 20
8.34900000
  0
VERTEX
  8
0
 62
7
 10
30.47528906
 20
8.28021875
  0
VERTEX
  8
0
 62
7
 10
30.42749150
 20
8.21650000
  0
VERTEX
  8
0
 62
7
 10
30.37259219
 20
8.15803125
  0
VERTEX
  8
0
 62
7
 10
30.31080000
 20
8.10500000
  0
VERTEX
  8
0
 62
7
 10
30.23560500
 20
8.05325000
  0
VERTEX
  8
0
 62
7
 10
30.15706800
 20
8.01200000
  0
VERTEX
  8
0
 62
7
 10
30.16152400
 20
8.14400000
  0
VERTEX
  8
0
 62
7
 10
30.15964413
 20
8.21667187
  0
VERTEX
  8
0
 62
7
 10
30.15316900
 20
8.29037500
  0
VERTEX
  8
0
 62
7
 10
30.14084538
 20
8.36464063
  0
VERTEX
  8
0
 62
7
 10
30.12142000
 20
8.43900000
  0
VERTEX
  8
0
 62
7
 10
30.08688600
 20
8.53200000
  0
VERTEX
  8
0
 62
7
 10
30.04566800
 20
8.62200000
  0
VERTEX
  8
0
 62
7
 10
30.00779200
 20
8.69200000
  0
VERTEX
  8
0
 62
7
 10
29.93426800
 20
8.66400000
  0
VERTEX
  8
0
 62
7
 10
29.87407719
 20
8.64318750
  0
VERTEX
  8
0
 62
7
 10
29.81367750
 20
8.62575000
  0
VERTEX
  8
0
 62
7
 10
29.75286006
 20
8.61168750
  0
VERTEX
  8
0
 62
7
 10
29.69141600
 20
8.60100000
  0
VERTEX
  8
0
 62
7
 10
29.63348800
 20
8.59300000
  0
VERTEX
  8
0
 62
7
 10
29.64017200
 20
8.69300000
  0
VERTEX
  8
0
 62
7
 10
29.63348800
 20
8.78700000
  0
VERTEX
  8
0
 62
7
 10
29.62003732
 20
8.85892188
  0
VERTEX
  8
0
 62
7
 10
29.59857106
 20
8.92625000
  0
VERTEX
  8
0
 62
7
 10
29.56984640
 20
8.98907813
  0
VERTEX
  8
0
 62
7
 10
29.53462050
 20
9.04750000
  0
VERTEX
  8
0
 62
7
 10
29.49365054
 20
9.10160938
  0
VERTEX
  8
0
 62
7
 10
29.44769369
 20
9.15150000
  0
VERTEX
  8
0
 62
7
 10
29.39750712
 20
9.19726563
  0
VERTEX
  8
0
 62
7
 10
29.34384800
 20
9.23900000
  0
VERTEX
  8
0
 62
7
 10
29.29282158
 20
9.27257813
  0
VERTEX
  8
0
 62
7
 10
29.24017638
 20
9.30137500
  0
VERTEX
  8
0
 62
7
 10
29.18617348
 20
9.32548438
  0
VERTEX
  8
0
 62
7
 10
29.13107400
 20
9.34500000
  0
VERTEX
  8
0
 62
7
 10
29.07513902
 20
9.36001563
  0
VERTEX
  8
0
 62
7
 10
29.01862963
 20
9.37062500
  0
VERTEX
  8
0
 62
7
 10
28.96180692
 20
9.37692188
  0
VERTEX
  8
0
 62
7
 10
28.90493200
 20
9.37900000
  0
VERTEX
  8
0
 62
7
 10
28.85733080
 20
9.37755493
  0
VERTEX
  8
0
 62
7
 10
28.80986341
 20
9.37325195
  0
VERTEX
  8
0
 62
7
 10
28.76266365
 20
9.36613940
  0
VERTEX
  8
0
 62
7
 10
28.71586531
 20
9.35626563
  0
VERTEX
  8
0
 62
7
 10
28.66960222
 20
9.34367896
  0
VERTEX
  8
0
 62
7
 10
28.62400818
 20
9.32842773
  0
VERTEX
  8
0
 62
7
 10
28.57921700
 20
9.31056030
  0
VERTEX
  8
0
 62
7
 10
28.53536250
 20
9.29012500
  0
VERTEX
  8
0
 62
7
 10
28.49257848
 20
9.26717017
  0
VERTEX
  8
0
 62
7
 10
28.45099876
 20
9.24174414
  0
VERTEX
  8
0
 62
7
 10
28.41075714
 20
9.21389526
  0
VERTEX
  8
0
 62
7
 10
28.37198744
 20
9.18367188
  0
VERTEX
  8
0
 62
7
 10
28.33482346
 20
9.15112231
  0
VERTEX
  8
0
 62
7
 10
28.29939902
 20
9.11629492
  0
VERTEX
  8
0
 62
7
 10
28.26584793
 20
9.07923804
  0
VERTEX
  8
0
 62
7
 10
28.23430400
 20
9.04000000
  0
VERTEX
  8
0
 62
7
 10
28.19319044
 20
8.98062695
  0
VERTEX
  8
0
 62
7
 10
28.15688100
 20
8.91826563
  0
VERTEX
  8
0
 62
7
 10
28.12558456
 20
8.85330273
  0
VERTEX
  8
0
 62
7
 10
28.09951000
 20
8.78612500
  0
VERTEX
  8
0
 62
7
 10
28.07886619
 20
8.71711914
  0
VERTEX
  8
0
 62
7
 10
28.06386200
 20
8.64667187
  0
VERTEX
  8
0
 62
7
 10
28.05470631
 20
8.57516992
  0
VERTEX
  8
0
 62
7
 10
28.05160800
 20
8.50300000
  0
VERTEX
  8
0
 62
7
 10
28.05829200
 20
8.39612500
  0
VERTEX
  8
0
 62
7
 10
28.07834400
 20
8.29000000
  0
VERTEX
  8
0
 62
7
 10
28.10370491
 20
8.20960742
  0
VERTEX
  8
0
 62
7
 10
28.13627200
 20
8.13173438
  0
VERTEX
  8
0
 62
7
 10
28.17594084
 20
8.05721289
  0
VERTEX
  8
0
 62
7
 10
28.22260700
 20
7.98687500
  0
VERTEX
  8
0
 62
7
 10
28.27616603
 20
7.92155273
  0
VERTEX
  8
0
 62
7
 10
28.33651350
 20
7.86207813
  0
VERTEX
  8
0
 62
7
 10
28.40354497
 20
7.80928320
  0
VERTEX
  8
0
 62
7
 10
28.47715600
 20
7.76400000
  0
VERTEX
  8
0
 62
7
 10
28.56182000
 20
7.72587500
  0
VERTEX
  8
0
 62
7
 10
28.64648400
 20
7.69900000
  0
VERTEX
  8
0
 62
7
 10
28.65094000
 20
7.67900000
  0
VERTEX
  8
0
 62
7
 10
28.62643200
 20
7.66100000
  0
VERTEX
  8
0
 62
7
 10
28.57372152
 20
7.61857617
  0
VERTEX
  8
0
 62
7
 10
28.52432694
 20
7.57248438
  0
VERTEX
  8
0
 62
7
 10
28.47843101
 20
7.52299414
  0
VERTEX
  8
0
 62
7
 10
28.43621650
 20
7.47037500
  0
VERTEX
  8
0
 62
7
 10
28.39786618
 20
7.41489648
  0
VERTEX
  8
0
 62
7
 10
28.36356281
 20
7.35682813
  0
VERTEX
  8
0
 62
7
 10
28.33348916
 20
7.29643945
  0
VERTEX
  8
0
 62
7
 10
28.30782800
 20
7.23400000
  0
VERTEX
  8
0
 62
7
 10
28.27952544
 20
7.15068750
  0
VERTEX
  8
0
 62
7
 10
28.25853350
 20
7.06475000
  0
VERTEX
  8
0
 62
7
 10
28.24547881
 20
6.97693750
  0
VERTEX
  8
0
 62
7
 10
28.24098800
 20
6.88800000
  0
VERTEX
  8
0
 62
7
 10
28.24627950
 20
6.79350000
  0
VERTEX
  8
0
 62
7
 10
28.26326800
 20
6.69900000
  0
VERTEX
  8
0
 62
7
 10
28.27823302
 20
6.64308398
  0
VERTEX
  8
0
 62
7
 10
28.29651394
 20
6.58804688
  0
VERTEX
  8
0
 62
7
 10
28.31829351
 20
6.53420508
  0
VERTEX
  8
0
 62
7
 10
28.34375450
 20
6.48187500
  0
VERTEX
  8
0
 62
7
 10
28.37307968
 20
6.43137305
  0
VERTEX
  8
0
 62
7
 10
28.40645181
 20
6.38301563
  0
VERTEX
  8
0
 62
7
 10
28.44405366
 20
6.33711914
  0
VERTEX
  8
0
 62
7
 10
28.48606800
 20
6.29400000
  0
VERTEX
  8
0
 62
7
 10
28.53954000
 20
6.24900000
  0
VERTEX
  8
0
 62
7
 10
28.53285600
 20
6.21600000
  0
VERTEX
  8
0
 62
7
 10
28.51109819
 20
6.10090625
  0
VERTEX
  8
0
 62
7
 10
28.49581550
 20
5.98525000
  0
VERTEX
  8
0
 62
7
 10
28.48679906
 20
5.86921875
  0
VERTEX
  8
0
 62
7
 10
28.48384000
 20
5.75300000
  0
VERTEX
  8
0
 62
7
 10
28.48596356
 20
5.65178125
  0
VERTEX
  8
0
 62
7
 10
28.49247350
 20
5.55075000
  0
VERTEX
  8
0
 62
7
 10
28.50357869
 20
5.45009375
  0
VERTEX
  8
0
 62
7
 10
28.51948800
 20
5.35000000
  0
VERTEX
  8
0
 62
7
 10
28.54622400
 20
5.22400000
  0
VERTEX
  8
0
 62
7
 10
28.51642450
 20
5.18525000
  0
VERTEX
  8
0
 62
7
 10
28.49498000
 20
5.14200000
  0
VERTEX
  8
0
 62
7
 10
28.48384000
 20
5.09100000
  0
VERTEX
  8
0
 62
7
 10
28.42368400
 20
5.18150000
  0
VERTEX
  8
0
 62
7
 10
28.35684400
 20
5.26600000
  0
VERTEX
  8
0
 62
7
 10
28.23653200
 20
5.40200000
  0
VERTEX
  8
0
 62
7
 10
28.20088400
 20
5.22400000
  0
VERTEX
  8
0
 62
7
 10
28.18974400
 20
5.18121875
  0
VERTEX
  8
0
 62
7
 10
28.17359100
 20
5.13900000
  0
VERTEX
  8
0
 62
7
 10
28.15326050
 20
5.09828125
  0
VERTEX
  8
0
 62
7
 10
28.12958800
 20
5.06000000
  0
VERTEX
  8
0
 62
7
 10
28.09463625
 20
5.01943750
  0
VERTEX
  8
0
 62
7
 10
28.05383600
 20
4.98300000
  0
VERTEX
  8
0
 62
7
 10
28.00802275
 20
4.95031250
  0
VERTEX
  8
0
 62
7
 10
27.95803200
 20
4.92100000
  0
VERTEX
  8
0
 62
7
 10
27.91486450
 20
4.90337500
  0
VERTEX
  8
0
 62
7
 10
27.86000000
 20
4.88800000
  0
VERTEX
  8
0
 62
7
 10
27.81154100
 20
4.87475000
  0
VERTEX
  8
0
 62
7
 10
27.75974000
 20
4.85700000
  0
VERTEX
  8
0
 62
7
 10
27.70320450
 20
4.82875000
  0
VERTEX
  8
0
 62
7
 10
27.65502400
 20
4.79900000
  0
VERTEX
  8
0
 62
7
 10
27.62372756
 20
4.77925000
  0
VERTEX
  8
0
 62
7
 10
27.59848850
 20
4.76475000
  0
VERTEX
  8
0
 62
7
 10
27.57700919
 20
4.75512500
  0
VERTEX
  8
0
 62
7
 10
27.55699200
 20
4.75000000
  0
VERTEX
  8
0
 62
7
 10
27.52802800
 20
4.74900000
  0
VERTEX
  8
0
 62
7
 10
27.50209269
 20
4.75028125
  0
VERTEX
  8
0
 62
7
 10
27.47427750
 20
4.75400000
  0
VERTEX
  8
0
 62
7
 10
27.44437356
 20
4.75996875
  0
VERTEX
  8
0
 62
7
 10
27.41217200
 20
4.76800000
  0
VERTEX
  8
0
 62
7
 10
27.34637638
 20
4.79021875
  0
VERTEX
  8
0
 62
7
 10
27.28350500
 20
4.82050000
  0
VERTEX
  8
0
 62
7
 10
27.22481113
 20
4.85828125
  0
VERTEX
  8
0
 62
7
 10
27.17154800
 20
4.90300000
  0
VERTEX
  8
0
 62
7
 10
27.10248000
 20
4.97000000
  0
VERTEX
  8
0
 62
7
 10
27.04009600
 20
4.89600000
  0
VERTEX
  8
0
 62
7
 10
27.01074906
 20
4.85687500
  0
VERTEX
  8
0
 62
7
 10
26.98578850
 20
4.81625000
  0
VERTEX
  8
0
 62
7
 10
26.96458769
 20
4.77450000
  0
VERTEX
  8
0
 62
7
 10
26.94652000
 20
4.73200000
  0
VERTEX
  8
0
 62
7
 10
26.93158544
 20
4.68350000
  0
VERTEX
  8
0
 62
7
 10
26.92229050
 20
4.63500000
  0
VERTEX
  8
0
 62
7
 10
26.91675531
 20
4.58800000
  0
VERTEX
  8
0
 62
7
 10
26.91310000
 20
4.54400000
  0
VERTEX
  8
0
 62
7
 10
26.86854000
 20
4.55300000
  0
VERTEX
  8
0
 62
7
 10
26.76086494
 20
4.57268750
  0
VERTEX
  8
0
 62
7
 10
26.65214550
 20
4.58675000
  0
VERTEX
  8
0
 62
7
 10
26.54300831
 20
4.59518750
  0
VERTEX
  8
0
 62
7
 10
26.43408000
 20
4.59800000
  0
VERTEX
  8
0
 62
7
 10
26.36891100
 20
4.59703125
  0
VERTEX
  8
0
 62
7
 10
26.30374200
 20
4.59400000
  0
VERTEX
  8
0
 62
7
 10
26.23857300
 20
4.58871875
  0
VERTEX
  8
0
 62
7
 10
26.17340400
 20
4.58100000
  0
VERTEX
  8
0
 62
7
 10
26.06283950
 20
4.56437500
  0
VERTEX
  8
0
 62
7
 10
25.95060400
 20
4.54100000
  0
VERTEX
  8
0
 62
7
 10
25.92017788
 20
4.57812500
  0
VERTEX
  8
0
 62
7
 10
25.88599200
 20
4.61150000
  0
VERTEX
  8
0
 62
7
 10
25.84846413
 20
4.64112500
  0
VERTEX
  8
0
 62
7
 10
25.80801200
 20
4.66700000
  0
VERTEX
  8
0
 62
7
 10
25.76665475
 20
4.68862500
  0
VERTEX
  8
0
 62
7
 10
25.72279100
 20
4.70650000
  0
VERTEX
  8
0
 62
7
 10
25.67642075
 20
4.71987500
  0
VERTEX
  8
0
 62
7
 10
25.62754400
 20
4.72800000
  0
VERTEX
  8
0
 62
7
 10
25.51837200
 20
4.73800000
  0
VERTEX
  8
0
 62
7
 10
25.52951200
 20
4.62900000
  0
VERTEX
  8
0
 62
7
 10
25.52951200
 20
4.61400000
  0
VERTEX
  8
0
 62
7
 10
25.52644850
 20
4.58262500
  0
VERTEX
  8
0
 62
7
 10
25.51837200
 20
4.55200000
  0
VERTEX
  8
0
 62
7
 10
25.49386400
 20
4.50900000
  0
VERTEX
  8
0
 62
7
 10
25.46267200
 20
4.48500000
  0
VERTEX
  8
0
 62
7
 10
25.44369919
 20
4.47212500
  0
VERTEX
  8
0
 62
7
 10
25.41950450
 20
4.45400000
  0
VERTEX
  8
0
 62
7
 10
25.39405656
 20
4.42987500
  0
VERTEX
  8
0
 62
7
 10
25.37132400
 20
4.39900000
  0
VERTEX
  8
0
 62
7
 10
25.36909600
 20
4.39600000
  0
VERTEX
  8
0
 62
7
 10
25.31186425
 20
4.43960938
  0
VERTEX
  8
0
 62
7
 10
25.25045500
 20
4.47712500
  0
VERTEX
  8
0
 62
7
 10
25.18486825
 20
4.50807813
  0
VERTEX
  8
0
 62
7
 10
25.11510400
 20
4.53200000
  0
VERTEX
  8
0
 62
7
 10
25.07127506
 20
4.54265625
  0
VERTEX
  8
0
 62
7
 10
25.02681950
 20
4.55050000
  0
VERTEX
  8
0
 62
7
 10
24.98194619
 20
4.55534375
  0
VERTEX
  8
0
 62
7
 10
24.93686400
 20
4.55700000
  0
VERTEX
  8
0
 62
7
 10
24.90344400
 20
4.55612500
  0
VERTEX
  8
0
 62
7
 10
24.87002400
 20
4.55300000
  0
VERTEX
  8
0
 62
7
 10
24.81676088
 20
4.54564063
  0
VERTEX
  8
0
 62
7
 10
24.76140900
 20
4.53312500
  0
VERTEX
  8
0
 62
7
 10
24.70522163
 20
4.51404688
  0
VERTEX
  8
0
 62
7
 10
24.64945200
 20
4.48700000
  0
VERTEX
  8
0
 62
7
 10
24.60106263
 20
4.45453125
  0
VERTEX
  8
0
 62
7
 10
24.55643300
 20
4.41775000
  0
VERTEX
  8
0
 62
7
 10
24.51598088
 20
4.37759375
  0
VERTEX
  8
0
 62
7
 10
24.48012400
 20
4.33500000
  0
VERTEX
  8
0
 62
7
 10
24.47789600
 20
4.33200000
  0
VERTEX
  8
0
 62
7
 10
24.44336200
 20
4.34000000
  0
VERTEX
  8
0
 62
7
 10
24.40882800
 20
4.34500000
  0
VERTEX
  8
0
 62
7
 10
24.36788850
 20
4.35337500
  0
VERTEX
  8
0
 62
7
 10
24.34198800
 20
4.36700000
  0
VERTEX
  8
0
 62
7
 10
24.31553050
 20
4.38825000
  0
VERTEX
  8
0
 62
7
 10
24.28406000
 20
4.42000000
  0
VERTEX
  8
0
 62
7
 10
24.26178000
 20
4.44400000
  0
VERTEX
  8
0
 62
7
 10
24.20162400
 20
4.50400000
  0
VERTEX
  8
0
 62
7
 10
24.13701200
 20
4.44700000
  0
VERTEX
  8
0
 62
7
 10
24.10150325
 20
4.41975000
  0
VERTEX
  8
0
 62
7
 10
24.06515900
 20
4.40075000
  0
VERTEX
  8
0
 62
7
 10
24.02797925
 20
4.38962500
  0
VERTEX
  8
0
 62
7
 10
23.98996400
 20
4.38600000
  0
VERTEX
  8
0
 62
7
 10
23.96768400
 20
4.38800000
  0
VERTEX
  8
0
 62
7
 10
23.92180113
 20
4.39535938
  0
VERTEX
  8
0
 62
7
 10
23.87967800
 20
4.40787500
  0
VERTEX
  8
0
 62
7
 10
23.84423888
 20
4.42470313
  0
VERTEX
  8
0
 62
7
 10
23.81840800
 20
4.44500000
  0
VERTEX
  8
0
 62
7
 10
23.74042800
 20
4.52200000
  0
VERTEX
  8
0
 62
7
 10
23.67804400
 20
4.43100000
  0
VERTEX
  8
0
 62
7
 10
23.64156050
 20
4.38587500
  0
VERTEX
  8
0
 62
7
 10
23.60006400
 20
4.35500000
  0
VERTEX
  8
0
 62
7
 10
23.56441600
 20
4.34700000
  0
VERTEX
  8
0
 62
7
 10
23.51762800
 20
4.33700000
  0
SEQEND
  0
POLYLINE
  8
0
 62
7
 66
1
 70
1
  0
VERTEX
  8
0
 62
7
 10
23.41200000
 20
3.86400000
  0
VERTEX
  8
0
 62
7
 10
23.37739063
 20
3.89359375
  0
VERTEX
  8
0
 62
7
 10
23.33762500
 20
3.91625000
  0
VERTEX
  8
0
 62
7
 10
23.29429688
 20
3.93178125
  0
VERTEX
  8
0
 62
7
 10
23.24900000
 20
3.94000000
  0
VERTEX
  8
0
 62
7
 10
23.21863672
 20
3.94086914
  0
VERTEX
  8
0
 62
7
 10
23.18853125
 20
3.93889063
  0
VERTEX
  8
0
 62
7
 10
23.15903516
 20
3.93393555
  0
VERTEX
  8
0
 62
7
 10
23.13050000
 20
3.92587500
  0
VERTEX
  8
0
 62
7
 10
23.10327734
 20
3.91458008
  0
VERTEX
  8
0
 62
7
 10
23.07771875
 20
3.89992188
  0
VERTEX
  8
0
 62
7
 10
23.05417578
 20
3.88177148
  0
VERTEX
  8
0
 62
7
 10
23.03300000
 20
3.86000000
  0
VERTEX
  8
0
 62
7
 10
23.01965820
 20
3.83896289
  0
VERTEX
  8
0
 62
7
 10
23.01045313
 20
3.81657813
  0
VERTEX
  8
0
 62
7
 10
23.00436523
 20
3.79318555
  0
VERTEX
  8
0
 62
7
 10
23.00037500
 20
3.76912500
  0
VERTEX
  8
0
 62
7
 10
22.99746289
 20
3.74473633
  0
VERTEX
  8
0
 62
7
 10
22.99460938
 20
3.72035938
  0
VERTEX
  8
0
 62
7
 10
22.99079492
 20
3.69633398
  0
VERTEX
  8
0
 62
7
 10
22.98500000
 20
3.67300000
  0
VERTEX
  8
0
 62
7
 10
22.97206250
 20
3.62904688
  0
VERTEX
  8
0
 62
7
 10
22.95950000
 20
3.58387500
  0
VERTEX
  8
0
 62
7
 10
22.94393750
 20
3.53926563
  0
VERTEX
  8
0
 62
7
 10
22.92200000
 20
3.49700000
  0
VERTEX
  8
0
 62
7
 10
22.89250000
 20
3.45825000
  0
VERTEX
  8
0
 62
7
 10
22.85700000
 20
3.42400000
  0
VERTEX
  8
0
 62
7
 10
22.88169336
 20
3.39146484
  0
VERTEX
  8
0
 62
7
 10
22.90248438
 20
3.35703125
  0
VERTEX
  8
0
 62
7
 10
22.91931445
 20
3.32095703
  0
VERTEX
  8
0
 62
7
 10
22.93212500
 20
3.28350000
  0
VERTEX
  8
0
 62
7
 10
22.94085742
 20
3.24491797
  0
VERTEX
  8
0
 62
7
 10
22.94545313
 20
3.20546875
  0
VERTEX
  8
0
 62
7
 10
22.94585352
 20
3.16541016
  0
VERTEX
  8
0
 62
7
 10
22.94200000
 20
3.12500000
  0
VERTEX
  8
0
 62
7
 10
22.93320313
 20
3.07971875
  0
VERTEX
  8
0
 62
7
 10
22.91887500
 20
3.03575000
  0
VERTEX
  8
0
 62
7
 10
22.89910938
 20
2.99365625
  0
VERTEX
  8
0
 62
7
 10
22.87400000
 20
2.95400000
  0
VERTEX
  8
0
 62
7
 10
22.89246875
 20
2.94229688
  0
VERTEX
  8
0
 62
7
 10
22.90925000
 20
2.92862500
  0
VERTEX
  8
0
 62
7
 10
22.92490625
 20
2.91364063
  0
VERTEX
  8
0
 62
7
 10
22.94000000
 20
2.89800000
  0
VERTEX
  8
0
 62
7
 10
22.95807813
 20
2.86845313
  0
VERTEX
  8
0
 62
7
 10
22.97137500
 20
2.83562500
  0
VERTEX
  8
0
 62
7
 10
22.98373438
 20
2.80223438
  0
VERTEX
  8
0
 62
7
 10
22.99900000
 20
2.77100000
  0
VERTEX
  8
0
 62
7
 10
23.00965063
 20
2.75141650
  0
VERTEX
  8
0
 62
7
 10
23.02031445
 20
2.73109766
  0
VERTEX
  8
0
 62
7
 10
23.03112183
 20
2.71031592
  0
VERTEX
  8
0
 62
7
 10
23.04220313
 20
2.68934375
  0
VERTEX
  8
0
 62
7
 10
23.05368872
 20
2.66845361
  0
VERTEX
  8
0
 62
7
 10
23.06570898
 20
2.64791797
  0
VERTEX
  8
0
 62
7
 10
23.07839429
 20
2.62800928
  0
VERTEX
  8
0
 62
7
 10
23.09187500
 20
2.60900000
  0
VERTEX
  8
0
 62
7
 10
23.10628149
 20
2.59116260
  0
VERTEX
  8
0
 62
7
 10
23.12174414
 20
2.57476953
  0
VERTEX
  8
0
 62
7
 10
23.13839331
 20
2.56009326
  0
VERTEX
  8
0
 62
7
 10
23.15635938
 20
2.54740625
  0
VERTEX
  8
0
 62
7
 10
23.17577271
 20
2.53698096
  0
VERTEX
  8
0
 62
7
 10
23.19676367
 20
2.52908984
  0
VERTEX
  8
0
 62
7
 10
23.21946265
 20
2.52400537
  0
VERTEX
  8
0
 62
7
 10
23.24400000
 20
2.52200000
  0
VERTEX
  8
0
 62
7
 10
23.28531250
 20
2.52473438
  0
VERTEX
  8
0
 62
7
 10
23.32475000
 20
2.53412500
  0
VERTEX
  8
0
 62
7
 10
23.36156250
 20
2.54970313
  0
VERTEX
  8
0
 62
7
 10
23.39500000
 20
2.57100000
  0
VERTEX
  8
0
 62
7
 10
23.37971289
 20
2.54374805
  0
VERTEX
  8
0
 62
7
 10
23.36682813
 20
2.51535938
  0
VERTEX
  8
0
 62
7
 10
23.35631055
 20
2.48600977
  0
VERTEX
  8
0
 62
7
 10
23.34812500
 20
2.45587500
  0
VERTEX
  8
0
 62
7
 10
23.34223633
 20
2.42513086
  0
VERTEX
  8
0
 62
7
 10
23.33860938
 20
2.39395313
  0
VERTEX
  8
0
 62
7
 10
23.33720898
 20
2.36251758
  0
VERTEX
  8
0
 62
7
 10
23.33800000
 20
2.33100000
  0
VERTEX
  8
0
 62
7
 10
23.34221680
 20
2.29980078
  0
VERTEX
  8
0
 62
7
 10
23.34829688
 20
2.26871875
  0
VERTEX
  8
0
 62
7
 10
23.35650977
 20
2.23815234
  0
VERTEX
  8
0
 62
7
 10
23.36712500
 20
2.20850000
  0
VERTEX
  8
0
 62
7
 10
23.38041211
 20
2.18016016
  0
VERTEX
  8
0
 62
7
 10
23.39664063
 20
2.15353125
  0
VERTEX
  8
0
 62
7
 10
23.41608008
 20
2.12901172
  0
VERTEX
  8
0
 62
7
 10
23.43900000
 20
2.10700000
  0
VERTEX
  8
0
 62
7
 10
23.47181836
 20
2.08633398
  0
VERTEX
  8
0
 62
7
 10
23.50692188
 20
2.07348438
  0
VERTEX
  8
0
 62
7
 10
23.54378320
 20
2.06679883
  0
VERTEX
  8
0
 62
7
 10
23.58187500
 20
2.06462500
  0
VERTEX
  8
0
 62
7
 10
23.62066992
 20
2.06531055
  0
VERTEX
  8
0
 62
7
 10
23.65964063
 20
2.06720313
  0
VERTEX
  8
0
 62
7
 10
23.69825977
 20
2.06865039
  0
VERTEX
  8
0
 62
7
 10
23.73600000
 20
2.06800000
  0
VERTEX
  8
0
 62
7
 10
23.78204688
 20
2.06773438
  0
VERTEX
  8
0
 62
7
 10
23.82687500
 20
2.06962500
  0
VERTEX
  8
0
 62
7
 10
23.87451563
 20
2.07095313
  0
VERTEX
  8
0
 62
7
 10
23.92900000
 20
2.06900000
  0
VERTEX
  8
0
 62
7
 10
23.94477148
 20
2.06453906
  0
VERTEX
  8
0
 62
7
 10
23.95917188
 20
2.05618750
  0
VERTEX
  8
0
 62
7
 10
23.97233008
 20
2.04474219
  0
VERTEX
  8
0
 62
7
 10
23.98437500
 20
2.03100000
  0
VERTEX
  8
0
 62
7
 10
23.99543555
 20
2.01575781
  0
VERTEX
  8
0
 62
7
 10
24.00564063
 20
1.99981250
  0
VERTEX
  8
0
 62
7
 10
24.01511914
 20
1.98396094
  0
VERTEX
  8
0
 62
7
 10
24.02400000
 20
1.96900000
  0
VERTEX
  8
0
 62
7
 10
24.03581250
 20
1.99242188
  0
VERTEX
  8
0
 62
7
 10
24.04950000
 20
2.01612500
  0
VERTEX
  8
0
 62
7
 10
24.06618750
 20
2.03776563
  0
VERTEX
  8
0
 62
7
 10
24.08700000
 20
2.05500000
  0
VERTEX
  8
0
 62
7
 10
24.10963672
 20
2.06824609
  0
VERTEX
  8
0
 62
7
 10
24.13121875
 20
2.07715625
  0
VERTEX
  8
0
 62
7
 10
24.15200391
 20
2.08273828
  0
VERTEX
  8
0
 62
7
 10
24.17225000
 20
2.08600000
  0
VERTEX
  8
0
 62
7
 10
24.19221484
 20
2.08794922
  0
VERTEX
  8
0
 62
7
 10
24.21215625
 20
2.08959375
  0
VERTEX
  8
0
 62
7
 10
24.23233203
 20
2.09194141
  0
VERTEX
  8
0
 62
7
 10
24.25300000
 20
2.09600000
  0
VERTEX
  8
0
 62
7
 10
24.29398633
 20
2.10349219
  0
VERTEX
  8
0
 62
7
 10
24.33620313
 20
2.10775000
  0
VERTEX
  8
0
 62
7
 10
24.37891211
 20
2.11069531
  0
VERTEX
  8
0
 62
7
 10
24.42137500
 20
2.11425000
  0
VERTEX
  8
0
 62
7
 10
24.46285352
 20
2.12033594
  0
VERTEX
  8
0
 62
7
 10
24.50260938
 20
2.13087500
  0
VERTEX
  8
0
 62
7
 10
24.53990430
 20
2.14778906
  0
VERTEX
  8
0
 62
7
 10
24.57400000
 20
2.17300000
  0
VERTEX
  8
0
 62
7
 10
24.59469922
 20
2.19565625
  0
VERTEX
  8
0
 62
7
 10
24.61321875
 20
2.22000000
  0
VERTEX
  8
0
 62
7
 10
24.62944141
 20
2.24584375
  0
VERTEX
  8
0
 62
7
 10
24.64325000
 20
2.27300000
  0
VERTEX
  8
0
 62
7
 10
24.65452734
 20
2.30128125
  0
VERTEX
  8
0
 62
7
 10
24.66315625
 20
2.33050000
  0
VERTEX
  8
0
 62
7
 10
24.66901953
 20
2.36046875
  0
VERTEX
  8
0
 62
7
 10
24.67200000
 20
2.39100000
  0
VERTEX
  8
0
 62
7
 10
24.67006250
 20
2.43451563
  0
VERTEX
  8
0
 62
7
 10
24.66250000
 20
2.47737500
  0
VERTEX
  8
0
 62
7
 10
24.64893750
 20
2.51854688
  0
VERTEX
  8
0
 62
7
 10
24.62900000
 20
2.55700000
  0
VERTEX
  8
0
 62
7
 10
24.66499023
 20
2.53739844
  0
VERTEX
  8
0
 62
7
 10
24.70279688
 20
2.52356250
  0
VERTEX
  8
0
 62
7
 10
24.74179883
 20
2.51544531
  0
VERTEX
  8
0
 62
7
 10
24.78137500
 20
2.51300000
  0
VERTEX
  8
0
 62
7
 10
24.82090430
 20
2.51617969
  0
VERTEX
  8
0
 62
7
 10
24.85976563
 20
2.52493750
  0
VERTEX
  8
0
 62
7
 10
24.89733789
 20
2.53922656
  0
VERTEX
  8
0
 62
7
 10
24.93300000
 20
2.55900000
  0
VERTEX
  8
0
 62
7
 10
24.95496875
 20
2.57604883
  0
VERTEX
  8
0
 62
7
 10
24.97450000
 20
2.59545313
  0
VERTEX
  8
0
 62
7
 10
24.99178125
 20
2.61684961
  0
VERTEX
  8
0
 62
7
 10
25.00700000
 20
2.63987500
  0
VERTEX
  8
0
 62
7
 10
25.02034375
 20
2.66416602
  0
VERTEX
  8
0
 62
7
 10
25.03200000
 20
2.68935938
  0
VERTEX
  8
0
 62
7
 10
25.04215625
 20
2.71509180
  0
VERTEX
  8
0
 62
7
 10
25.05100000
 20
2.74100000
  0
VERTEX
  8
0
 62
7
 10
25.05487891
 20
2.76091406
  0
VERTEX
  8
0
 62
7
 10
25.05653125
 20
2.78087500
  0
VERTEX
  8
0
 62
7
 10
25.05673047
 20
2.80083594
  0
VERTEX
  8
0
 62
7
 10
25.05625000
 20
2.82075000
  0
VERTEX
  8
0
 62
7
 10
25.05586328
 20
2.84057031
  0
VERTEX
  8
0
 62
7
 10
25.05634375
 20
2.86025000
  0
VERTEX
  8
0
 62
7
 10
25.05846484
 20
2.87974219
  0
VERTEX
  8
0
 62
7
 10
25.06300000
 20
2.89900000
  0
VERTEX
  8
0
 62
7
 10
25.08250000
 20
2.94550000
  0
VERTEX
  8
0
 62
7
 10
25.10800000
 20
2.98600000
  0
VERTEX
  8
0
 62
7
 10
25.08920508
 20
3.01376563
  0
VERTEX
  8
0
 62
7
 10
25.07482813
 20
3.04350000
  0
VERTEX
  8
0
 62
7
 10
25.06488086
 20
3.07473438
  0
VERTEX
  8
0
 62
7
 10
25.05937500
 20
3.10700000
  0
VERTEX
  8
0
 62
7
 10
25.05832227
 20
3.13982813
  0
VERTEX
  8
0
 62
7
 10
25.06173438
 20
3.17275000
  0
VERTEX
  8
0
 62
7
 10
25.06962305
 20
3.20529688
  0
VERTEX
  8
0
 62
7
 10
25.08200000
 20
3.23700000
  0
VERTEX
  8
0
 62
7
 10
25.10825000
 20
3.27575000
  0
VERTEX
  8
0
 62
7
 10
25.14200000
 20
3.31000000
  0
VERTEX
  8
0
 62
7
 10
25.11850000
 20
3.33912500
  0
VERTEX
  8
0
 62
7
 10
25.10100000
 20
3.37200000
  0
VERTEX
  8
0
 62
7
 10
25.09592188
 20
3.39314063
  0
VERTEX
  8
0
 62
7
 10
25.09412500
 20
3.41437500
  0
VERTEX
  8
0
 62
7
 10
25.09326563
 20
3.43542188
  0
VERTEX
  8
0
 62
7
 10
25.09100000
 20
3.45600000
  0
VERTEX
  8
0
 62
7
 10
25.08937109
 20
3.48407227
  0
VERTEX
  8
0
 62
7
 10
25.08978125
 20
3.51201563
  0
VERTEX
  8
0
 62
7
 10
25.09117578
 20
3.53979492
  0
VERTEX
  8
0
 62
7
 10
25.09250000
 20
3.56737500
  0
VERTEX
  8
0
 62
7
 10
25.09269922
 20
3.59472070
  0
VERTEX
  8
0
 62
7
 10
25.09071875
 20
3.62179688
  0
VERTEX
  8
0
 62
7
 10
25.08550391
 20
3.64856836
  0
VERTEX
  8
0
 62
7
 10
25.07600000
 20
3.67500000
  0
VERTEX
  8
0
 62
7
 10
25.04589063
 20
3.72718750
  0
VERTEX
  8
0
 62
7
 10
25.00987500
 20
3.77600000
  0
VERTEX
  8
0
 62
7
 10
24.96842188
 20
3.81956250
  0
VERTEX
  8
0
 62
7
 10
24.92200000
 20
3.85600000
  0
VERTEX
  8
0
 62
7
 10
24.90089844
 20
3.86823242
  0
VERTEX
  8
0
 62
7
 10
24.87768750
 20
3.87923438
  0
VERTEX
  8
0
 62
7
 10
24.85288281
 20
3.88871289
  0
VERTEX
  8
0
 62
7
 10
24.82700000
 20
3.89637500
  0
VERTEX
  8
0
 62
7
 10
24.80055469
 20
3.90192773
  0
VERTEX
  8
0
 62
7
 10
24.77406250
 20
3.90507813
  0
VERTEX
  8
0
 62
7
 10
24.74803906
 20
3.90553320
  0
VERTEX
  8
0
 62
7
 10
24.72300000
 20
3.90300000
  0
VERTEX
  8
0
 62
7
 10
24.69420313
 20
3.89659375
  0
VERTEX
  8
0
 62
7
 10
24.66662500
 20
3.88550000
  0
VERTEX
  8
0
 62
7
 10
24.64073438
 20
3.87065625
  0
VERTEX
  8
0
 62
7
 10
24.61700000
 20
3.85300000
  0
VERTEX
  8
0
 62
7
 10
24.63500195
 20
3.88287695
  0
VERTEX
  8
0
 62
7
 10
24.64851563
 20
3.91445313
  0
VERTEX
  8
0
 62
7
 10
24.65755273
 20
3.94727148
  0
VERTEX
  8
0
 62
7
 10
24.66212500
 20
3.98087500
  0
VERTEX
  8
0
 62
7
 10
24.66224414
 20
4.01480664
  0
VERTEX
  8
0
 62
7
 10
24.65792188
 20
4.04860938
  0
VERTEX
  8
0
 62
7
 10
24.64916992
 20
4.08182617
  0
VERTEX
  8
0
 62
7
 10
24.63600000
 20
4.11400000
  0
VERTEX
  8
0
 62
7
 10
24.61679688
 20
4.14281250
  0
VERTEX
  8
0
 62
7
 10
24.59487500
 20
4.16975000
  0
VERTEX
  8
0
 62
7
 10
24.56976563
 20
4.19331250
  0
VERTEX
  8
0
 62
7
 10
24.54100000
 20
4.21200000
  0
VERTEX
  8
0
 62
7
 10
24.50612500
 20
4.22857813
  0
VERTEX
  8
0
 62
7
 10
24.46975000
 20
4.24112500
  0
VERTEX
  8
0
 62
7
 10
24.43300000
 20
4.25010938
  0
VERTEX
  8
0
 62
7
 10
24.39700000
 20
4.25600000
  0
VERTEX
  8
0
 62
7
 10
24.36650000
 20
4.26051563
  0
VERTEX
  8
0
 62
7
 10
24.33900000
 20
4.26737500
  0
VERTEX
  8
0
 62
7
 10
24.31375000
 20
4.27779688
  0
VERTEX
  8
0
 62
7
 10
24.29000000
 20
4.29300000
  0
VERTEX
  8
0
 62
7
 10
24.26535938
 20
4.31137500
  0
VERTEX
  8
0
 62
7
 10
24.24212500
 20
4.33350000
  0
VERTEX
  8
0
 62
7
 10
24.21982813
 20
4.35712500
  0
VERTEX
  8
0
 62
7
 10
24.19800000
 20
4.38000000
  0
VERTEX
  8
0
 62
7
 10
24.17124219
 20
4.35830664
  0
VERTEX
  8
0
 62
7
 10
24.14350000
 20
4.33976563
  0
VERTEX
  8
0
 62
7
 10
24.11482031
 20
4.32443555
  0
VERTEX
  8
0
 62
7
 10
24.08525000
 20
4.31237500
  0
VERTEX
  8
0
 62
7
 10
24.05483594
 20
4.30364258
  0
VERTEX
  8
0
 62
7
 10
24.02362500
 20
4.29829688
  0
VERTEX
  8
0
 62
7
 10
23.99166406
 20
4.29639648
  0
VERTEX
  8
0
 62
7
 10
23.95900000
 20
4.29800000
  0
VERTEX
  8
0
 62
7
 10
23.93185742
 20
4.30152539
  0
VERTEX
  8
0
 62
7
 10
23.90404688
 20
4.30689063
  0
VERTEX
  8
0
 62
7
 10
23.87611914
 20
4.31415430
  0
VERTEX
  8
0
 62
7
 10
23.84862500
 20
4.32337500
  0
VERTEX
  8
0
 62
7
 10
23.82211523
 20
4.33461133
  0
VERTEX
  8
0
 62
7
 10
23.79714063
 20
4.34792188
  0
VERTEX
  8
0
 62
7
 10
23.77425195
 20
4.36336523
  0
VERTEX
  8
0
 62
7
 10
23.75400000
 20
4.38100000
  0
VERTEX
  8
0
 62
7
 10
23.73084375
 20
4.34967188
  0
VERTEX
  8
0
 62
7
 10
23.70450000
 20
4.32087500
  0
VERTEX
  8
0
 62
7
 10
23.67440625
 20
4.29564063
  0
VERTEX
  8
0
 62
7
 10
23.64000000
 20
4.27500000
  0
VERTEX
  8
0
 62
7
 10
23.62485938
 20
4.26869336
  0
VERTEX
  8
0
 62
7
 10
23.60887500
 20
4.26429688
  0
VERTEX
  8
0
 62
7
 10
23.59232813
 20
4.26109570
  0
VERTEX
  8
0
 62
7
 10
23.57550000
 20
4.25837500
  0
VERTEX
  8
0
 62
7
 10
23.55867188
 20
4.25541992
  0
VERTEX
  8
0
 62
7
 10
23.54212500
 20
4.25151563
  0
VERTEX
  8
0
 62
7
 10
23.52614063
 20
4.24594727
  0
VERTEX
  8
0
 62
7
 10
23.51100000
 20
4.23800000
  0
VERTEX
  8
0
 62
7
 10
23.48683008
 20
4.22326953
  0
VERTEX
  8
0
 62
7
 10
23.46464063
 20
4.20621875
  0
VERTEX
  8
0
 62
7
 10
23.44453711
 20
4.18705859
  0
VERTEX
  8
0
 62
7
 10
23.42662500
 20
4.16600000
  0
VERTEX
  8
0
 62
7
 10
23.41100977
 20
4.14325391
  0
VERTEX
  8
0
 62
7
 10
23.39779688
 20
4.11903125
  0
VERTEX
  8
0
 62
7
 10
23.38709180
 20
4.09354297
  0
VERTEX
  8
0
 62
7
 10
23.37900000
 20
4.06700000
  0
VERTEX
  8
0
 62
7
 10
23.37401953
 20
4.04100977
  0
VERTEX
  8
0
 62
7
 10
23.37178125
 20
4.01489063
  0
VERTEX
  8
0
 62
7
 10
23.37221484
 20
3.98879492
  0
VERTEX
  8
0
 62
7
 10
23.37525000
 20
3.96287500
  0
VERTEX
  8
0
 62
7
 10
23.38081641
 20
3.93728320
  0
VERTEX
  8
0
 62
7
 10
23.38884375
 20
3.91217188
  0
VERTEX
  8
0
 62
7
 10
23.39926172
 20
3.88769336
  0
VERTEX
  8
0
 62
7
 10
23.41200000
 20
3.86400000
  0
SEQEND
  0
POLYLINE
  8
0
 62
7
 66
1
 70
1
  0
VERTEX
  8
0
 62
7
 10
23.67900000
 20
3.30800000
  0
VERTEX
  8
0
 62
7
 10
23.68947290
 20
3.33135400
  0
VERTEX
  8
0
 62
7
 10
23.70170508
 20
3.35373828
  0
VERTEX
  8
0
 62
7
 10
23.71560425
 20
3.37507373
  0
VERTEX
  8
0
 62
7
 10
23.73107813
 20
3.39528125
  0
VERTEX
  8
0
 62
7
 10
23.74803442
 20
3.41428174
  0
VERTEX
  8
0
 62
7
 10
23.76638086
 20
3.43199609
  0
VERTEX
  8
0
 62
7
 10
23.78602515
 20
3.44834521
  0
VERTEX
  8
0
 62
7
 10
23.80687500
 20
3.46325000
  0
VERTEX
  8
0
 62
7
 10
23.82883813
 20
3.47663135
  0
VERTEX
  8
0
 62
7
 10
23.85182227
 20
3.48841016
  0
VERTEX
  8
0
 62
7
 10
23.87573511
 20
3.49850732
  0
VERTEX
  8
0
 62
7
 10
23.90048438
 20
3.50684375
  0
VERTEX
  8
0
 62
7
 10
23.92597778
 20
3.51334033
  0
VERTEX
  8
0
 62
7
 10
23.95212305
 20
3.51791797
  0
VERTEX
  8
0
 62
7
 10
23.97882788
 20
3.52049756
  0
VERTEX
  8
0
 62
7
 10
24.00600000
 20
3.52100000
  0
VERTEX
  8
0
 62
7
 10
24.03764258
 20
3.51820020
  0
VERTEX
  8
0
 62
7
 10
24.06835938
 20
3.51252344
  0
VERTEX
  8
0
 62
7
 10
24.09802148
 20
3.50411621
  0
VERTEX
  8
0
 62
7
 10
24.12650000
 20
3.49312500
  0
VERTEX
  8
0
 62
7
 10
24.15366602
 20
3.47969629
  0
VERTEX
  8
0
 62
7
 10
24.17939063
 20
3.46397656
  0
VERTEX
  8
0
 62
7
 10
24.20354492
 20
3.44611230
  0
VERTEX
  8
0
 62
7
 10
24.22600000
 20
3.42625000
  0
VERTEX
  8
0
 62
7
 10
24.24662695
 20
3.40453613
  0
VERTEX
  8
0
 62
7
 10
24.26529688
 20
3.38111719
  0
VERTEX
  8
0
 62
7
 10
24.28188086
 20
3.35613965
  0
VERTEX
  8
0
 62
7
 10
24.29625000
 20
3.32975000
  0
VERTEX
  8
0
 62
7
 10
24.30827539
 20
3.30209473
  0
VERTEX
  8
0
 62
7
 10
24.31782813
 20
3.27332031
  0
VERTEX
  8
0
 62
7
 10
24.32477930
 20
3.24357324
  0
VERTEX
  8
0
 62
7
 10
24.32900000
 20
3.21300000
  0
VERTEX
  8
0
 62
7
 10
24.33030664
 20
3.27354102
  0
VERTEX
  8
0
 62
7
 10
24.33570313
 20
3.33357813
  0
VERTEX
  8
0
 62
7
 10
24.34515430
 20
3.39298242
  0
VERTEX
  8
0
 62
7
 10
24.35862500
 20
3.45162500
  0
VERTEX
  8
0
 62
7
 10
24.37608008
 20
3.50937695
  0
VERTEX
  8
0
 62
7
 10
24.39748438
 20
3.56610938
  0
VERTEX
  8
0
 62
7
 10
24.42280273
 20
3.62169336
  0
VERTEX
  8
0
 62
7
 10
24.45200000
 20
3.67600000
  0
VERTEX
  8
0
 62
7
 10
24.40236133
 20
3.64095703
  0
VERTEX
  8
0
 62
7
 10
24.35039063
 20
3.61015625
  0
VERTEX
  8
0
 62
7
 10
24.29638086
 20
3.58371484
  0
VERTEX
  8
0
 62
7
 10
24.24062500
 20
3.56175000
  0
VERTEX
  8
0
 62
7
 10
24.18341602
 20
3.54437891
  0
VERTEX
  8
0
 62
7
 10
24.12504688
 20
3.53171875
  0
VERTEX
  8
0
 62
7
 10
24.06581055
 20
3.52388672
  0
VERTEX
  8
0
 62
7
 10
24.00600000
 20
3.52100000
  0
VERTEX
  8
0
 62
7
 10
23.95100586
 20
3.52139453
  0
VERTEX
  8
0
 62
7
 10
23.89642188
 20
3.52621875
  0
VERTEX
  8
0
 62
7
 10
23.84247070
 20
3.53530859
  0
VERTEX
  8
0
 62
7
 10
23.78937500
 20
3.54850000
  0
VERTEX
  8
0
 62
7
 10
23.73735742
 20
3.56562891
  0
VERTEX
  8
0
 62
7
 10
23.68664063
 20
3.58653125
  0
VERTEX
  8
0
 62
7
 10
23.63744727
 20
3.61104297
  0
VERTEX
  8
0
 62
7
 10
23.59000000
 20
3.63900000
  0
VERTEX
  8
0
 62
7
 10
23.62190625
 20
3.55929688
  0
VERTEX
  8
0
 62
7
 10
23.64725000
 20
3.47687500
  0
VERTEX
  8
0
 62
7
 10
23.66621875
 20
3.39276563
  0
VERTEX
  8
0
 62
7
 10
23.67900000
 20
3.30800000
  0
SEQEND
  0
POLYLINE
  8
0
 62
7
 66
1
 70
1
  0
VERTEX
  8
0
 62
7
 10
24.32800000
 20
3.16800000
  0
VERTEX
  8
0
 62
7
 10
24.32632788
 20
3.14111816
  0
VERTEX
  8
0
 62
7
 10
24.32249805
 20
3.11489844
  0
VERTEX
  8
0
 62
7
 10
24.31660278
 20
3.08941699
  0
VERTEX
  8
0
 62
7
 10
24.30873438
 20
3.06475000
  0
VERTEX
  8
0
 62
7
 10
24.29898511
 20
3.04097363
  0
VERTEX
  8
0
 62
7
 10
24.28744727
 20
3.01816406
  0
VERTEX
  8
0
 62
7
 10
24.27421313
 20
2.99639746
  0
VERTEX
  8
0
 62
7
 10
24.25937500
 20
2.97575000
  0
VERTEX
  8
0
 62
7
 10
24.24302515
 20
2.95629785
  0
VERTEX
  8
0
 62
7
 10
24.22525586
 20
2.93811719
  0
VERTEX
  8
0
 62
7
 10
24.20615942
 20
2.92128418
  0
VERTEX
  8
0
 62
7
 10
24.18582813
 20
2.90587500
  0
VERTEX
  8
0
 62
7
 10
24.16435425
 20
2.89196582
  0
VERTEX
  8
0
 62
7
 10
24.14183008
 20
2.87963281
  0
VERTEX
  8
0
 62
7
 10
24.11834790
 20
2.86895215
  0
VERTEX
  8
0
 62
7
 10
24.09400000
 20
2.86000000
  0
VERTEX
  8
0
 62
7
 10
24.14175391
 20
2.85358203
  0
VERTEX
  8
0
 62
7
 10
24.18896875
 20
2.84484375
  0
VERTEX
  8
0
 62
7
 10
24.23557422
 20
2.83380859
  0
VERTEX
  8
0
 62
7
 10
24.28150000
 20
2.82050000
  0
VERTEX
  8
0
 62
7
 10
24.32667578
 20
2.80494141
  0
VERTEX
  8
0
 62
7
 10
24.37103125
 20
2.78715625
  0
VERTEX
  8
0
 62
7
 10
24.41449609
 20
2.76716797
  0
VERTEX
  8
0
 62
7
 10
24.45700000
 20
2.74500000
  0
VERTEX
  8
0
 62
7
 10
24.43272070
 20
2.78796680
  0
VERTEX
  8
0
 62
7
 10
24.41089063
 20
2.83204688
  0
VERTEX
  8
0
 62
7
 10
24.39152148
 20
2.87713477
  0
VERTEX
  8
0
 62
7
 10
24.37462500
 20
2.92312500
  0
VERTEX
  8
0
 62
7
 10
24.36021289
 20
2.96991211
  0
VERTEX
  8
0
 62
7
 10
24.34829688
 20
3.01739063
  0
VERTEX
  8
0
 62
7
 10
24.33888867
 20
3.06545508
  0
VERTEX
  8
0
 62
7
 10
24.33200000
 20
3.11400000
  0
VERTEX
  8
0
 62
7
 10
24.32800000
 20
3.16800000
  0
SEQEND
  0
POLYLINE
  8
0
 62
7
 66
1
 70
1
  0
VERTEX
  8
0
 62
7
 10
23.88200000
 20
2.86200000
  0
VERTEX
  8
0
 62
7
 10
23.84694141
 20
2.87696289
  0
VERTEX
  8
0
 62
7
 10
23.81396875
 20
2.89545313
  0
VERTEX
  8
0
 62
7
 10
23.78338672
 20
2.91724805
  0
VERTEX
  8
0
 62
7
 10
23.75550000
 20
2.94212500
  0
VERTEX
  8
0
 62
7
 10
23.73061328
 20
2.96986133
  0
VERTEX
  8
0
 62
7
 10
23.70903125
 20
3.00023438
  0
VERTEX
  8
0
 62
7
 10
23.69105859
 20
3.03302148
  0
VERTEX
  8
0
 62
7
 10
23.67700000
 20
3.06800000
  0
VERTEX
  8
0
 62
7
 10
23.66353125
 20
2.99689063
  0
VERTEX
  8
0
 62
7
 10
23.64650000
 20
2.92662500
  0
VERTEX
  8
0
 62
7
 10
23.62496875
 20
2.85804688
  0
VERTEX
  8
0
 62
7
 10
23.59800000
 20
2.79200000
  0
VERTEX
  8
0
 62
7
 10
23.66796875
 20
2.81714063
  0
VERTEX
  8
0
 62
7
 10
23.73850000
 20
2.83787500
  0
VERTEX
  8
0
 62
7
 10
23.80978125
 20
2.85317188
  0
VERTEX
  8
0
 62
7
 10
23.88200000
 20
2.86200000
  0
SEQEND
  0
POLYLINE
  8
0
 62
7
 66
1
 70
1
  0
VERTEX
  8
0
 62
7
 10
24.55200000
 20
4.28000000
  0
VERTEX
  8
0
 62
7
 10
24.57545313
 20
4.28215625
  0
VERTEX
  8
0
 62
7
 10
24.59862500
 20
4.27925000
  0
VERTEX
  8
0
 62
7
 10
24.62048438
 20
4.27071875
  0
VERTEX
  8
0
 62
7
 10
24.64000000
 20
4.25600000
  0
VERTEX
  8
0
 62
7
 10
24.65073438
 20
4.24335938
  0
VERTEX
  8
0
 62
7
 10
24.65987500
 20
4.22837500
  0
VERTEX
  8
0
 62
7
 10
24.66657813
 20
4.21170313
  0
VERTEX
  8
0
 62
7
 10
24.67000000
 20
4.19400000
  0
VERTEX
  8
0
 62
7
 10
24.69760938
 20
4.22235938
  0
VERTEX
  8
0
 62
7
 10
24.72887500
 20
4.24837500
  0
VERTEX
  8
0
 62
7
 10
24.76295313
 20
4.27120313
  0
VERTEX
  8
0
 62
7
 10
24.79900000
 20
4.29000000
  0
VERTEX
  8
0
 62
7
 10
24.84318359
 20
4.30682617
  0
VERTEX
  8
0
 62
7
 10
24.88846875
 20
4.31717188
  0
VERTEX
  8
0
 62
7
 10
24.93445703
 20
4.32158789
  0
VERTEX
  8
0
 62
7
 10
24.98075000
 20
4.32062500
  0
VERTEX
  8
0
 62
7
 10
25.02694922
 20
4.31483398
  0
VERTEX
  8
0
 62
7
 10
25.07265625
 20
4.30476563
  0
VERTEX
  8
0
 62
7
 10
25.11747266
 20
4.29097070
  0
VERTEX
  8
0
 62
7
 10
25.16100000
 20
4.27400000
  0
VERTEX
  8
0
 62
7
 10
25.21120313
 20
4.25065625
  0
VERTEX
  8
0
 62
7
 10
25.25812500
 20
4.22150000
  0
VERTEX
  8
0
 62
7
 10
25.30148438
 20
4.18709375
  0
VERTEX
  8
0
 62
7
 10
25.34100000
 20
4.14800000
  0
VERTEX
  8
0
 62
7
 10
25.30353516
 20
4.15077344
  0
VERTEX
  8
0
 62
7
 10
25.26628125
 20
4.15012500
  0
VERTEX
  8
0
 62
7
 10
25.22944922
 20
4.14610156
  0
VERTEX
  8
0
 62
7
 10
25.19325000
 20
4.13875000
  0
VERTEX
  8
0
 62
7
 10
25.15789453
 20
4.12811719
  0
VERTEX
  8
0
 62
7
 10
25.12359375
 20
4.11425000
  0
VERTEX
  8
0
 62
7
 10
25.09055859
 20
4.09719531
  0
VERTEX
  8
0
 62
7
 10
25.05900000
 20
4.07700000
  0
VERTEX
  8
0
 62
7
 10
25.02810938
 20
4.05457813
  0
VERTEX
  8
0
 62
7
 10
25.00012500
 20
4.02962500
  0
VERTEX
  8
0
 62
7
 10
24.97532813
 20
4.00260938
  0
VERTEX
  8
0
 62
7
 10
24.95400000
 20
3.97400000
  0
VERTEX
  8
0
 62
7
 10
24.97845313
 20
3.95464063
  0
VERTEX
  8
0
 62
7
 10
25.00187500
 20
3.93387500
  0
VERTEX
  8
0
 62
7
 10
25.02360938
 20
3.91142188
  0
VERTEX
  8
0
 62
7
 10
25.04300000
 20
3.88700000
  0
VERTEX
  8
0
 62
7
 10
25.05863672
 20
3.86367188
  0
VERTEX
  8
0
 62
7
 10
25.07040625
 20
3.83837500
  0
VERTEX
  8
0
 62
7
 10
25.07959766
 20
3.81176563
  0
VERTEX
  8
0
 62
7
 10
25.08750000
 20
3.78450000
  0
VERTEX
  8
0
 62
7
 10
25.09540234
 20
3.75723438
  0
VERTEX
  8
0
 62
7
 10
25.10459375
 20
3.73062500
  0
VERTEX
  8
0
 62
7
 10
25.11636328
 20
3.70532813
  0
VERTEX
  8
0
 62
7
 10
25.13200000
 20
3.68200000
  0
VERTEX
  8
0
 62
7
 10
25.15579688
 20
3.65425000
  0
VERTEX
  8
0
 62
7
 10
25.18212500
 20
3.62950000
  0
VERTEX
  8
0
 62
7
 10
25.21089063
 20
3.60775000
  0
VERTEX
  8
0
 62
7
 10
25.24200000
 20
3.58900000
  0
VERTEX
  8
0
 62
7
 10
25.22114063
 20
3.51264453
  0
VERTEX
  8
0
 62
7
 10
25.20581250
 20
3.43528125
  0
VERTEX
  8
0
 62
7
 10
25.19601563
 20
3.35721484
  0
VERTEX
  8
0
 62
7
 10
25.19175000
 20
3.27875000
  0
VERTEX
  8
0
 62
7
 10
25.19301563
 20
3.20019141
  0
VERTEX
  8
0
 62
7
 10
25.19981250
 20
3.12184375
  0
VERTEX
  8
0
 62
7
 10
25.21214063
 20
3.04401172
  0
VERTEX
  8
0
 62
7
 10
25.23000000
 20
2.96700000
  0
VERTEX
  8
0
 62
7
 10
25.24498828
 20
2.91905859
  0
VERTEX
  8
0
 62
7
 10
25.26215625
 20
2.87203125
  0
VERTEX
  8
0
 62
7
 10
25.28143359
 20
2.82598828
  0
VERTEX
  8
0
 62
7
 10
25.30275000
 20
2.78100000
  0
VERTEX
  8
0
 62
7
 10
25.32603516
 20
2.73713672
  0
VERTEX
  8
0
 62
7
 10
25.35121875
 20
2.69446875
  0
VERTEX
  8
0
 62
7
 10
25.37823047
 20
2.65306641
  0
VERTEX
  8
0
 62
7
 10
25.40700000
 20
2.61300000
  0
VERTEX
  8
0
 62
7
 10
25.46151367
 20
2.65906055
  0
VERTEX
  8
0
 62
7
 10
25.51910938
 20
2.70117188
  0
VERTEX
  8
0
 62
7
 10
25.57949414
 20
2.73922852
  0
VERTEX
  8
0
 62
7
 10
25.64237500
 20
2.77312500
  0
VERTEX
  8
0
 62
7
 10
25.70745898
 20
2.80275586
  0
VERTEX
  8
0
 62
7
 10
25.77445313
 20
2.82801563
  0
VERTEX
  8
0
 62
7
 10
25.84306445
 20
2.84879883
  0
VERTEX
  8
0
 62
7
 10
25.91300000
 20
2.86500000
  0
VERTEX
  8
0
 62
7
 10
25.96188086
 20
2.87221289
  0
VERTEX
  8
0
 62
7
 10
26.01098438
 20
2.87564063
  0
VERTEX
  8
0
 62
7
 10
26.06025195
 20
2.87609180
  0
VERTEX
  8
0
 62
7
 10
26.10962500
 20
2.87437500
  0
VERTEX
  8
0
 62
7
 10
26.15904492
 20
2.87129883
  0
VERTEX
  8
0
 62
7
 10
26.20845313
 20
2.86767188
  0
VERTEX
  8
0
 62
7
 10
26.25779102
 20
2.86430273
  0
VERTEX
  8
0
 62
7
 10
26.30700000
 20
2.86200000
  0
VERTEX
  8
0
 62
7
 10
26.34169897
 20
2.86038745
  0
VERTEX
  8
0
 62
7
 10
26.37641992
 20
2.85758398
  0
VERTEX
  8
0
 62
7
 10
26.41116138
 20
2.85382837
  0
VERTEX
  8
0
 62
7
 10
26.44592188
 20
2.84935938
  0
VERTEX
  8
0
 62
7
 10
26.48069995
 20
2.84441577
  0
VERTEX
  8
0
 62
7
 10
26.51549414
 20
2.83923633
  0
VERTEX
  8
0
 62
7
 10
26.55030298
 20
2.83405981
  0
VERTEX
  8
0
 62
7
 10
26.58512500
 20
2.82912500
  0
VERTEX
  8
0
 62
7
 10
26.61995874
 20
2.82467065
  0
VERTEX
  8
0
 62
7
 10
26.65480273
 20
2.82093555
  0
VERTEX
  8
0
 62
7
 10
26.68965552
 20
2.81815845
  0
VERTEX
  8
0
 62
7
 10
26.72451563
 20
2.81657813
  0
VERTEX
  8
0
 62
7
 10
26.75938159
 20
2.81643335
  0
VERTEX
  8
0
 62
7
 10
26.79425195
 20
2.81796289
  0
VERTEX
  8
0
 62
7
 10
26.82912524
 20
2.82140552
  0
VERTEX
  8
0
 62
7
 10
26.86400000
 20
2.82700000
  0
VERTEX
  8
0
 62
7
 10
26.95464063
 20
2.85040625
  0
VERTEX
  8
0
 62
7
 10
27.04312500
 20
2.88150000
  0
VERTEX
  8
0
 62
7
 10
27.12879688
 20
2.92009375
  0
VERTEX
  8
0
 62
7
 10
27.21100000
 20
2.96600000
  0
VERTEX
  8
0
 62
7
 10
27.17299414
 20
2.97777148
  0
VERTEX
  8
0
 62
7
 10
27.13645313
 20
2.99342188
  0
VERTEX
  8
0
 62
7
 10
27.10171680
 20
3.01270508
  0
VERTEX
  8
0
 62
7
 10
27.06912500
 20
3.03537500
  0
VERTEX
  8
0
 62
7
 10
27.03901758
 20
3.06118555
  0
VERTEX
  8
0
 62
7
 10
27.01173438
 20
3.08989063
  0
VERTEX
  8
0
 62
7
 10
26.98761523
 20
3.12124414
  0
VERTEX
  8
0
 62
7
 10
26.96700000
 20
3.15500000
  0
VERTEX
  8
0
 62
7
 10
26.95336914
 20
3.18307617
  0
VERTEX
  8
0
 62
7
 10
26.94401563
 20
3.21235938
  0
VERTEX
  8
0
 62
7
 10
26.93787305
 20
3.24255664
  0
VERTEX
  8
0
 62
7
 10
26.93387500
 20
3.27337500
  0
VERTEX
  8
0
 62
7
 10
26.93095508
 20
3.30452148
  0
VERTEX
  8
0
 62
7
 10
26.92804688
 20
3.33570313
  0
VERTEX
  8
0
 62
7
 10
26.92408398
 20
3.36662695
  0
VERTEX
  8
0
 62
7
 10
26.91800000
 20
3.39700000
  0
VERTEX
  8
0
 62
7
 10
26.90373438
 20
3.44500000
  0
VERTEX
  8
0
 62
7
 10
26.88787500
 20
3.49225000
  0
VERTEX
  8
0
 62
7
 10
26.87257813
 20
3.53987500
  0
VERTEX
  8
0
 62
7
 10
26.86000000
 20
3.58900000
  0
VERTEX
  8
0
 62
7
 10
26.85288672
 20
3.63938281
  0
VERTEX
  8
0
 62
7
 10
26.84959375
 20
3.69000000
  0
VERTEX
  8
0
 62
7
 10
26.84906641
 20
3.74080469
  0
VERTEX
  8
0
 62
7
 10
26.85025000
 20
3.79175000
  0
VERTEX
  8
0
 62
7
 10
26.85208984
 20
3.84278906
  0
VERTEX
  8
0
 62
7
 10
26.85353125
 20
3.89387500
  0
VERTEX
  8
0
 62
7
 10
26.85351953
 20
3.94496094
  0
VERTEX
  8
0
 62
7
 10
26.85100000
 20
3.99600000
  0
VERTEX
  8
0
 62
7
 10
26.84649805
 20
4.03904297
  0
VERTEX
  8
0
 62
7
 10
26.83917188
 20
4.08196875
  0
VERTEX
  8
0
 62
7
 10
26.83041602
 20
4.12484766
  0
VERTEX
  8
0
 62
7
 10
26.82162500
 20
4.16775000
  0
VERTEX
  8
0
 62
7
 10
26.81419336
 20
4.21074609
  0
VERTEX
  8
0
 62
7
 10
26.80951563
 20
4.25390625
  0
VERTEX
  8
0
 62
7
 10
26.80898633
 20
4.29730078
  0
VERTEX
  8
0
 62
7
 10
26.81400000
 20
4.34100000
  0
VERTEX
  8
0
 62
7
 10
26.82912500
 20
4.40262500
  0
VERTEX
  8
0
 62
7
 10
26.85100000
 20
4.46500000
  0
VERTEX
  8
0
 62
7
 10
26.76836719
 20
4.48018750
  0
VERTEX
  8
0
 62
7
 10
26.68550000
 20
4.49200000
  0
VERTEX
  8
0
 62
7
 10
26.60244531
 20
4.50043750
  0
VERTEX
  8
0
 62
7
 10
26.51925000
 20
4.50550000
  0
VERTEX
  8
0
 62
7
 10
26.43596094
 20
4.50718750
  0
VERTEX
  8
0
 62
7
 10
26.35262500
 20
4.50550000
  0
VERTEX
  8
0
 62
7
 10
26.26928906
 20
4.50043750
  0
VERTEX
  8
0
 62
7
 10
26.18600000
 20
4.49200000
  0
VERTEX
  8
0
 62
7
 10
26.11615625
 20
4.48114063
  0
VERTEX
  8
0
 62
7
 10
26.04650000
 20
4.46887500
  0
VERTEX
  8
0
 62
7
 10
25.97759375
 20
4.45417188
  0
VERTEX
  8
0
 62
7
 10
25.91000000
 20
4.43600000
  0
VERTEX
  8
0
 62
7
 10
25.88184375
 20
4.48226563
  0
VERTEX
  8
0
 62
7
 10
25.84750000
 20
4.52337500
  0
VERTEX
  8
0
 62
7
 10
25.80790625
 20
4.55904688
  0
VERTEX
  8
0
 62
7
 10
25.76400000
 20
4.58900000
  0
VERTEX
  8
0
 62
7
 10
25.72953125
 20
4.60692188
  0
VERTEX
  8
0
 62
7
 10
25.69375000
 20
4.62137500
  0
VERTEX
  8
0
 62
7
 10
25.65684375
 20
4.63189063
  0
VERTEX
  8
0
 62
7
 10
25.61900000
 20
4.63800000
  0
VERTEX
  8
0
 62
7
 10
25.62000000
 20
4.60731250
  0
VERTEX
  8
0
 62
7
 10
25.61725000
 20
4.57700000
  0
VERTEX
  8
0
 62
7
 10
25.61112500
 20
4.54743750
  0
VERTEX
  8
0
 62
7
 10
25.60200000
 20
4.51900000
  0
VERTEX
  8
0
 62
7
 10
25.58675000
 20
4.48675000
  0
VERTEX
  8
0
 62
7
 10
25.56700000
 20
4.45600000
  0
VERTEX
  8
0
 62
7
 10
25.55446484
 20
4.44144336
  0
VERTEX
  8
0
 62
7
 10
25.53984375
 20
4.42879688
  0
VERTEX
  8
0
 62
7
 10
25.52386328
 20
4.41734570
  0
VERTEX
  8
0
 62
7
 10
25.50725000
 20
4.40637500
  0
VERTEX
  8
0
 62
7
 10
25.49073047
 20
4.39516992
  0
VERTEX
  8
0
 62
7
 10
25.47503125
 20
4.38301563
  0
VERTEX
  8
0
 62
7
 10
25.46087891
 20
4.36919727
  0
VERTEX
  8
0
 62
7
 10
25.44900000
 20
4.35300000
  0
VERTEX
  8
0
 62
7
 10
25.43406250
 20
4.32312500
  0
VERTEX
  8
0
 62
7
 10
25.42250000
 20
4.29100000
  0
VERTEX
  8
0
 62
7
 10
25.41468750
 20
4.25737500
  0
VERTEX
  8
0
 62
7
 10
25.41100000
 20
4.22300000
  0
VERTEX
  8
0
 62
7
 10
25.38010547
 20
4.26108594
  0
VERTEX
  8
0
 62
7
 10
25.34609375
 20
4.29650000
  0
VERTEX
  8
0
 62
7
 10
25.30922266
 20
4.32910156
  0
VERTEX
  8
0
 62
7
 10
25.26975000
 20
4.35875000
  0
VERTEX
  8
0
 62
7
 10
25.22793359
 20
4.38530469
  0
VERTEX
  8
0
 62
7
 10
25.18403125
 20
4.40862500
  0
VERTEX
  8
0
 62
7
 10
25.13830078
 20
4.42857031
  0
VERTEX
  8
0
 62
7
 10
25.09100000
 20
4.44500000
  0
VERTEX
  8
0
 62
7
 10
25.03906250
 20
4.45612500
  0
VERTEX
  8
0
 62
7
 10
24.98675000
 20
4.46350000
  0
VERTEX
  8
0
 62
7
 10
24.93406250
 20
4.46637500
  0
VERTEX
  8
0
 62
7
 10
24.88100000
 20
4.46400000
  0
VERTEX
  8
0
 62
7
 10
24.83281250
 20
4.45653125
  0
VERTEX
  8
0
 62
7
 10
24.78575000
 20
4.44550000
  0
VERTEX
  8
0
 62
7
 10
24.73981250
 20
4.42996875
  0
VERTEX
  8
0
 62
7
 10
24.69500000
 20
4.40900000
  0
VERTEX
  8
0
 62
7
 10
24.65493750
 20
4.38167188
  0
VERTEX
  8
0
 62
7
 10
24.61750000
 20
4.35087500
  0
VERTEX
  8
0
 62
7
 10
24.58306250
 20
4.31689063
  0
VERTEX
  8
0
 62
7
 10
24.55200000
 20
4.28000000
  0
SEQEND
  0
POLYLINE
  8
0
 62
7
 66
1
 70
1
  0
VERTEX
  8
0
 62
7
 10
27.01000000
 20
2.78800000
  0
VERTEX
  8
0
 62
7
 10
26.90600000
 20
2.75600000
  0
VERTEX
  8
0
 62
7
 10
26.86187500
 20
2.75012500
  0
VERTEX
  8
0
 62
7
 10
26.81700000
 20
2.74800000
  0
VERTEX
  8
0
 62
7
 10
26.86323242
 20
2.70029492
  0
VERTEX
  8
0
 62
7
 10
26.91179688
 20
2.65473438
  0
VERTEX
  8
0
 62
7
 10
26.96249414
 20
2.61140039
  0
VERTEX
  8
0
 62
7
 10
27.01512500
 20
2.57037500
  0
VERTEX
  8
0
 62
7
 10
27.06949023
 20
2.53174023
  0
VERTEX
  8
0
 62
7
 10
27.12539063
 20
2.49557813
  0
VERTEX
  8
0
 62
7
 10
27.18262695
 20
2.46197070
  0
VERTEX
  8
0
 62
7
 10
27.24100000
 20
2.43100000
  0
VERTEX
  8
0
 62
7
 10
27.30459570
 20
2.40226367
  0
VERTEX
  8
0
 62
7
 10
27.36932813
 20
2.37623438
  0
VERTEX
  8
0
 62
7
 10
27.43511523
 20
2.35318164
  0
VERTEX
  8
0
 62
7
 10
27.50187500
 20
2.33337500
  0
VERTEX
  8
0
 62
7
 10
27.56952539
 20
2.31708398
  0
VERTEX
  8
0
 62
7
 10
27.63798438
 20
2.30457813
  0
VERTEX
  8
0
 62
7
 10
27.70716992
 20
2.29612695
  0
VERTEX
  8
0
 62
7
 10
27.77700000
 20
2.29200000
  0
VERTEX
  8
0
 62
7
 10
27.82386328
 20
2.29121875
  0
VERTEX
  8
0
 62
7
 10
27.87065625
 20
2.29193750
  0
VERTEX
  8
0
 62
7
 10
27.91730859
 20
2.29425000
  0
VERTEX
  8
0
 62
7
 10
27.96375000
 20
2.29825000
  0
VERTEX
  8
0
 62
7
 10
28.00991016
 20
2.30403125
  0
VERTEX
  8
0
 62
7
 10
28.05571875
 20
2.31168750
  0
VERTEX
  8
0
 62
7
 10
28.10110547
 20
2.32131250
  0
VERTEX
  8
0
 62
7
 10
28.14600000
 20
2.33300000
  0
VERTEX
  8
0
 62
7
 10
28.18387402
 20
2.34458374
  0
VERTEX
  8
0
 62
7
 10
28.22089844
 20
2.35765430
  0
VERTEX
  8
0
 62
7
 10
28.25692676
 20
2.37231567
  0
VERTEX
  8
0
 62
7
 10
28.29181250
 20
2.38867188
  0
VERTEX
  8
0
 62
7
 10
28.32540918
 20
2.40682690
  0
VERTEX
  8
0
 62
7
 10
28.35757031
 20
2.42688477
  0
VERTEX
  8
0
 62
7
 10
28.38814941
 20
2.44894946
  0
VERTEX
  8
0
 62
7
 10
28.41700000
 20
2.47312500
  0
VERTEX
  8
0
 62
7
 10
28.44397559
 20
2.49951538
  0
VERTEX
  8
0
 62
7
 10
28.46892969
 20
2.52822461
  0
VERTEX
  8
0
 62
7
 10
28.49171582
 20
2.55935669
  0
VERTEX
  8
0
 62
7
 10
28.51218750
 20
2.59301563
  0
VERTEX
  8
0
 62
7
 10
28.53019824
 20
2.62930542
  0
VERTEX
  8
0
 62
7
 10
28.54560156
 20
2.66833008
  0
VERTEX
  8
0
 62
7
 10
28.55825098
 20
2.71019360
  0
VERTEX
  8
0
 62
7
 10
28.56800000
 20
2.75500000
  0
VERTEX
  8
0
 62
7
 10
28.57352148
 20
2.80044141
  0
VERTEX
  8
0
 62
7
 10
28.57410938
 20
2.84684375
  0
VERTEX
  8
0
 62
7
 10
28.56942383
 20
2.89319922
  0
VERTEX
  8
0
 62
7
 10
28.55912500
 20
2.93850000
  0
VERTEX
  8
0
 62
7
 10
28.54287305
 20
2.98173828
  0
VERTEX
  8
0
 62
7
 10
28.52032813
 20
3.02190625
  0
VERTEX
  8
0
 62
7
 10
28.49115039
 20
3.05799609
  0
VERTEX
  8
0
 62
7
 10
28.45500000
 20
3.08900000
  0
VERTEX
  8
0
 62
7
 10
28.43229297
 20
3.10300977
  0
VERTEX
  8
0
 62
7
 10
28.40853125
 20
3.11501563
  0
VERTEX
  8
0
 62
7
 10
28.38387891
 20
3.12498242
  0
VERTEX
  8
0
 62
7
 10
28.35850000
 20
3.13287500
  0
VERTEX
  8
0
 62
7
 10
28.33255859
 20
3.13865820
  0
VERTEX
  8
0
 62
7
 10
28.30621875
 20
3.14229688
  0
VERTEX
  8
0
 62
7
 10
28.27964453
 20
3.14375586
  0
VERTEX
  8
0
 62
7
 10
28.25300000
 20
3.14300000
  0
VERTEX
  8
0
 62
7
 10
28.22879297
 20
3.13993945
  0
VERTEX
  8
0
 62
7
 10
28.20446875
 20
3.13576563
  0
VERTEX
  8
0
 62
7
 10
28.18047266
 20
3.13011523
  0
VERTEX
  8
0
 62
7
 10
28.15725000
 20
3.12262500
  0
VERTEX
  8
0
 62
7
 10
28.13524609
 20
3.11293164
  0
VERTEX
  8
0
 62
7
 10
28.11490625
 20
3.10067188
  0
VERTEX
  8
0
 62
7
 10
28.09667578
 20
3.08548242
  0
VERTEX
  8
0
 62
7
 10
28.08100000
 20
3.06700000
  0
VERTEX
  8
0
 62
7
 10
28.06228516
 20
3.03769141
  0
VERTEX
  8
0
 62
7
 10
28.04846875
 20
3.00596875
  0
VERTEX
  8
0
 62
7
 10
28.04004297
 20
2.97288672
  0
VERTEX
  8
0
 62
7
 10
28.03750000
 20
2.93950000
  0
VERTEX
  8
0
 62
7
 10
28.04133203
 20
2.90686328
  0
VERTEX
  8
0
 62
7
 10
28.05203125
 20
2.87603125
  0
VERTEX
  8
0
 62
7
 10
28.07008984
 20
2.84805859
  0
VERTEX
  8
0
 62
7
 10
28.09600000
 20
2.82400000
  0
VERTEX
  8
0
 62
7
 10
28.11729688
 20
2.81118750
  0
VERTEX
  8
0
 62
7
 10
28.14037500
 20
2.80175000
  0
VERTEX
  8
0
 62
7
 10
28.16476563
 20
2.79643750
  0
VERTEX
  8
0
 62
7
 10
28.19000000
 20
2.79600000
  0
VERTEX
  8
0
 62
7
 10
28.17646484
 20
2.81408203
  0
VERTEX
  8
0
 62
7
 10
28.16665625
 20
2.83415625
  0
VERTEX
  8
0
 62
7
 10
28.16064453
 20
2.85558984
  0
VERTEX
  8
0
 62
7
 10
28.15850000
 20
2.87775000
  0
VERTEX
  8
0
 62
7
 10
28.16029297
 20
2.90000391
  0
VERTEX
  8
0
 62
7
 10
28.16609375
 20
2.92171875
  0
VERTEX
  8
0
 62
7
 10
28.17597266
 20
2.94226172
  0
VERTEX
  8
0
 62
7
 10
28.19000000
 20
2.96100000
  0
VERTEX
  8
0
 62
7
 10
28.21051172
 20
2.97907031
  0
VERTEX
  8
0
 62
7
 10
28.23334375
 20
2.99025000
  0
VERTEX
  8
0
 62
7
 10
28.25781641
 20
2.99524219
  0
VERTEX
  8
0
 62
7
 10
28.28325000
 20
2.99475000
  0
VERTEX
  8
0
 62
7
 10
28.30896484
 20
2.98947656
  0
VERTEX
  8
0
 62
7
 10
28.33428125
 20
2.98012500
  0
VERTEX
  8
0
 62
7
 10
28.35851953
 20
2.96739844
  0
VERTEX
  8
0
 62
7
 10
28.38100000
 20
2.95200000
  0
VERTEX
  8
0
 62
7
 10
28.40306836
 20
2.92895313
  0
VERTEX
  8
0
 62
7
 10
28.41748438
 20
2.90243750
  0
VERTEX
  8
0
 62
7
 10
28.42531445
 20
2.87339063
  0
VERTEX
  8
0
 62
7
 10
28.42762500
 20
2.84275000
  0
VERTEX
  8
0
 62
7
 10
28.42548242
 20
2.81145313
  0
VERTEX
  8
0
 62
7
 10
28.41995313
 20
2.78043750
  0
VERTEX
  8
0
 62
7
 10
28.41210352
 20
2.75064063
  0
VERTEX
  8
0
 62
7
 10
28.40300000
 20
2.72300000
  0
VERTEX
  8
0
 62
7
 10
28.38280469
 20
2.67744116
  0
VERTEX
  8
0
 62
7
 10
28.35670313
 20
2.63663867
  0
VERTEX
  8
0
 62
7
 10
28.32523438
 20
2.60040356
  0
VERTEX
  8
0
 62
7
 10
28.28893750
 20
2.56854688
  0
VERTEX
  8
0
 62
7
 10
28.24835156
 20
2.54087964
  0
VERTEX
  8
0
 62
7
 10
28.20401563
 20
2.51721289
  0
VERTEX
  8
0
 62
7
 10
28.15646875
 20
2.49735767
  0
VERTEX
  8
0
 62
7
 10
28.10625000
 20
2.48112500
  0
VERTEX
  8
0
 62
7
 10
28.05389844
 20
2.46832593
  0
VERTEX
  8
0
 62
7
 10
27.99995313
 20
2.45877148
  0
VERTEX
  8
0
 62
7
 10
27.94495313
 20
2.45227271
  0
VERTEX
  8
0
 62
7
 10
27.88943750
 20
2.44864063
  0
VERTEX
  8
0
 62
7
 10
27.83394531
 20
2.44768628
  0
VERTEX
  8
0
 62
7
 10
27.77901563
 20
2.44922070
  0
VERTEX
  8
0
 62
7
 10
27.72518750
 20
2.45305493
  0
VERTEX
  8
0
 62
7
 10
27.67300000
 20
2.45900000
  0
VERTEX
  8
0
 62
7
 10
27.61459766
 20
2.46939844
  0
VERTEX
  8
0
 62
7
 10
27.55528125
 20
2.48500000
  0
VERTEX
  8
0
 62
7
 10
27.49563672
 20
2.50491406
  0
VERTEX
  8
0
 62
7
 10
27.43625000
 20
2.52825000
  0
VERTEX
  8
0
 62
7
 10
27.37770703
 20
2.55411719
  0
VERTEX
  8
0
 62
7
 10
27.32059375
 20
2.58162500
  0
VERTEX
  8
0
 62
7
 10
27.26549609
 20
2.60988281
  0
VERTEX
  8
0
 62
7
 10
27.21300000
 20
2.63800000
  0
VERTEX
  8
0
 62
7
 10
27.15835938
 20
2.67339063
  0
VERTEX
  8
0
 62
7
 10
27.10887500
 20
2.71037500
  0
VERTEX
  8
0
 62
7
 10
27.06070313
 20
2.74867188
  0
VERTEX
  8
0
 62
7
 10
27.01000000
 20
2.78800000
  0
SEQEND
  0
POLYLINE
  8
0
 62
7
 66
1
 70
1
  0
VERTEX
  8
0
 62
7
 10
27.16300000
 20
3.05100000
  0
VERTEX
  8
0
 62
7
 10
27.18409375
 20
3.05926563
  0
VERTEX
  8
0
 62
7
 10
27.20500000
 20
3.07437500
  0
VERTEX
  8
0
 62
7
 10
27.22515625
 20
3.09304688
  0
VERTEX
  8
0
 62
7
 10
27.24400000
 20
3.11200000
  0
VERTEX
  8
0
 62
7
 10
27.28450000
 20
3.14950000
  0
VERTEX
  8
0
 62
7
 10
27.32200000
 20
3.19000000
  0
VERTEX
  8
0
 62
7
 10
27.35650000
 20
3.12862500
  0
VERTEX
  8
0
 62
7
 10
27.39700000
 20
3.07100000
  0
VERTEX
  8
0
 62
7
 10
27.42158594
 20
3.04280859
  0
VERTEX
  8
0
 62
7
 10
27.44800000
 20
3.01609375
  0
VERTEX
  8
0
 62
7
 10
27.47610156
 20
2.99101953
  0
VERTEX
  8
0
 62
7
 10
27.50575000
 20
2.96775000
  0
VERTEX
  8
0
 62
7
 10
27.53680469
 20
2.94644922
  0
VERTEX
  8
0
 62
7
 10
27.56912500
 20
2.92728125
  0
VERTEX
  8
0
 62
7
 10
27.60257031
 20
2.91041016
  0
VERTEX
  8
0
 62
7
 10
27.63700000
 20
2.89600000
  0
VERTEX
  8
0
 62
7
 10
27.64525000
 20
2.92387500
  0
VERTEX
  8
0
 62
7
 10
27.65500000
 20
2.94800000
  0
VERTEX
  8
0
 62
7
 10
27.66367773
 20
2.96404688
  0
VERTEX
  8
0
 62
7
 10
27.67435938
 20
2.97868750
  0
VERTEX
  8
0
 62
7
 10
27.68651758
 20
2.99229688
  0
VERTEX
  8
0
 62
7
 10
27.69962500
 20
3.00525000
  0
VERTEX
  8
0
 62
7
 10
27.71315430
 20
3.01792188
  0
VERTEX
  8
0
 62
7
 10
27.72657813
 20
3.03068750
  0
VERTEX
  8
0
 62
7
 10
27.73936914
 20
3.04392188
  0
VERTEX
  8
0
 62
7
 10
27.75100000
 20
3.05800000
  0
VERTEX
  8
0
 62
7
 10
27.79200000
 20
3.10925000
  0
VERTEX
  8
0
 62
7
 10
27.83000000
 20
3.16200000
  0
VERTEX
  8
0
 62
7
 10
27.91564063
 20
3.15467188
  0
VERTEX
  8
0
 62
7
 10
28.00137500
 20
3.15212500
  0
VERTEX
  8
0
 62
7
 10
28.08692188
 20
3.15426563
  0
VERTEX
  8
0
 62
7
 10
28.17200000
 20
3.16100000
  0
VERTEX
  8
0
 62
7
 10
28.27039063
 20
3.17634375
  0
VERTEX
  8
0
 62
7
 10
28.36737500
 20
3.19825000
  0
VERTEX
  8
0
 62
7
 10
28.46267188
 20
3.22653125
  0
VERTEX
  8
0
 62
7
 10
28.55600000
 20
3.26100000
  0
VERTEX
  8
0
 62
7
 10
28.52496875
 20
3.28479688
  0
VERTEX
  8
0
 62
7
 10
28.49825000
 20
3.31262500
  0
VERTEX
  8
0
 62
7
 10
28.47640625
 20
3.34439063
  0
VERTEX
  8
0
 62
7
 10
28.46000000
 20
3.38000000
  0
VERTEX
  8
0
 62
7
 10
28.45478906
 20
3.39987500
  0
VERTEX
  8
0
 62
7
 10
28.45225000
 20
3.41975000
  0
VERTEX
  8
0
 62
7
 10
28.45177344
 20
3.43962500
  0
VERTEX
  8
0
 62
7
 10
28.45275000
 20
3.45950000
  0
VERTEX
  8
0
 62
7
 10
28.45457031
 20
3.47937500
  0
VERTEX
  8
0
 62
7
 10
28.45662500
 20
3.49925000
  0
VERTEX
  8
0
 62
7
 10
28.45830469
 20
3.51912500
  0
VERTEX
  8
0
 62
7
 10
28.45900000
 20
3.53900000
  0
VERTEX
  8
0
 62
7
 10
28.46093750
 20
3.61358203
  0
VERTEX
  8
0
 62
7
 10
28.46550000
 20
3.68809375
  0
VERTEX
  8
0
 62
7
 10
28.47193750
 20
3.76255859
  0
VERTEX
  8
0
 62
7
 10
28.47950000
 20
3.83700000
  0
VERTEX
  8
0
 62
7
 10
28.48743750
 20
3.91144141
  0
VERTEX
  8
0
 62
7
 10
28.49500000
 20
3.98590625
  0
VERTEX
  8
0
 62
7
 10
28.50143750
 20
4.06041797
  0
VERTEX
  8
0
 62
7
 10
28.50600000
 20
4.13500000
  0
VERTEX
  8
0
 62
7
 10
28.50881592
 20
4.17589697
  0
VERTEX
  8
0
 62
7
 10
28.51258984
 20
4.21683203
  0
VERTEX
  8
0
 62
7
 10
28.51706104
 20
4.25779639
  0
VERTEX
  8
0
 62
7
 10
28.52196875
 20
4.29878125
  0
VERTEX
  8
0
 62
7
 10
28.52705225
 20
4.33977783
  0
VERTEX
  8
0
 62
7
 10
28.53205078
 20
4.38077734
  0
VERTEX
  8
0
 62
7
 10
28.53670361
 20
4.42177100
  0
VERTEX
  8
0
 62
7
 10
28.54075000
 20
4.46275000
  0
VERTEX
  8
0
 62
7
 10
28.54392920
 20
4.50370557
  0
VERTEX
  8
0
 62
7
 10
28.54598047
 20
4.54462891
  0
VERTEX
  8
0
 62
7
 10
28.54664307
 20
4.58551123
  0
VERTEX
  8
0
 62
7
 10
28.54565625
 20
4.62634375
  0
VERTEX
  8
0
 62
7
 10
28.54275928
 20
4.66711768
  0
VERTEX
  8
0
 62
7
 10
28.53769141
 20
4.70782422
  0
VERTEX
  8
0
 62
7
 10
28.53019189
 20
4.74845459
  0
VERTEX
  8
0
 62
7
 10
28.52000000
 20
4.78900000
  0
VERTEX
  8
0
 62
7
 10
28.50092773
 20
4.84592383
  0
VERTEX
  8
0
 62
7
 10
28.47898438
 20
4.90182813
  0
VERTEX
  8
0
 62
7
 10
28.45420508
 20
4.95653711
  0
VERTEX
  8
0
 62
7
 10
28.42662500
 20
5.00987500
  0
VERTEX
  8
0
 62
7
 10
28.39627930
 20
5.06166602
  0
VERTEX
  8
0
 62
7
 10
28.36320313
 20
5.11173438
  0
VERTEX
  8
0
 62
7
 10
28.32743164
 20
5.15990430
  0
VERTEX
  8
0
 62
7
 10
28.28900000
 20
5.20600000
  0
VERTEX
  8
0
 62
7
 10
28.27526563
 20
5.15382813
  0
VERTEX
  8
0
 62
7
 10
28.25562500
 20
5.10287500
  0
VERTEX
  8
0
 62
7
 10
28.23092188
 20
5.05398438
  0
VERTEX
  8
0
 62
7
 10
28.20200000
 20
5.00800000
  0
VERTEX
  8
0
 62
7
 10
28.15889063
 20
4.95729688
  0
VERTEX
  8
0
 62
7
 10
28.10987500
 20
4.91287500
  0
VERTEX
  8
0
 62
7
 10
28.05617188
 20
4.87426563
  0
VERTEX
  8
0
 62
7
 10
27.99900000
 20
4.84100000
  0
VERTEX
  8
0
 62
7
 10
27.94978125
 20
4.82053125
  0
VERTEX
  8
0
 62
7
 10
27.89775000
 20
4.80550000
  0
VERTEX
  8
0
 62
7
 10
27.84459375
 20
4.79121875
  0
VERTEX
  8
0
 62
7
 10
27.79200000
 20
4.77300000
  0
VERTEX
  8
0
 62
7
 10
27.76371094
 20
4.76031250
  0
VERTEX
  8
0
 62
7
 10
27.73631250
 20
4.74481250
  0
VERTEX
  8
0
 62
7
 10
27.70938281
 20
4.72771875
  0
VERTEX
  8
0
 62
7
 10
27.68250000
 20
4.71025000
  0
VERTEX
  8
0
 62
7
 10
27.65524219
 20
4.69362500
  0
VERTEX
  8
0
 62
7
 10
27.62718750
 20
4.67906250
  0
VERTEX
  8
0
 62
7
 10
27.59791406
 20
4.66778125
  0
VERTEX
  8
0
 62
7
 10
27.56700000
 20
4.66100000
  0
VERTEX
  8
0
 62
7
 10
27.52203125
 20
4.65892188
  0
VERTEX
  8
0
 62
7
 10
27.47725000
 20
4.66237500
  0
VERTEX
  8
0
 62
7
 10
27.43284375
 20
4.67014063
  0
VERTEX
  8
0
 62
7
 10
27.38900000
 20
4.68100000
  0
VERTEX
  8
0
 62
7
 10
27.35006445
 20
4.69270898
  0
VERTEX
  8
0
 62
7
 10
27.31207813
 20
4.70679688
  0
VERTEX
  8
0
 62
7
 10
27.27514648
 20
4.72320508
  0
VERTEX
  8
0
 62
7
 10
27.23937500
 20
4.74187500
  0
VERTEX
  8
0
 62
7
 10
27.20486914
 20
4.76274805
  0
VERTEX
  8
0
 62
7
 10
27.17173438
 20
4.78576563
  0
VERTEX
  8
0
 62
7
 10
27.14007617
 20
4.81086914
  0
VERTEX
  8
0
 62
7
 10
27.11000000
 20
4.83800000
  0
VERTEX
  8
0
 62
7
 10
27.08556250
 20
4.80560938
  0
VERTEX
  8
0
 62
7
 10
27.06450000
 20
4.77162500
  0
VERTEX
  8
0
 62
7
 10
27.04643750
 20
4.73632813
  0
VERTEX
  8
0
 62
7
 10
27.03100000
 20
4.70000000
  0
VERTEX
  8
0
 62
7
 10
27.01729688
 20
4.65173438
  0
VERTEX
  8
0
 62
7
 10
27.00912500
 20
4.60187500
  0
VERTEX
  8
0
 62
7
 10
27.00414063
 20
4.55107813
  0
VERTEX
  8
0
 62
7
 10
27.00000000
 20
4.50000000
  0
VERTEX
  8
0
 62
7
 10
26.99645313
 20
4.38993750
  0
VERTEX
  8
0
 62
7
 10
26.99937500
 20
4.28025000
  0
VERTEX
  8
0
 62
7
 10
27.00660938
 20
4.17093750
  0
VERTEX
  8
0
 62
7
 10
27.01600000
 20
4.06200000
  0
VERTEX
  8
0
 62
7
 10
27.03237500
 20
3.88550000
  0
VERTEX
  8
0
 62
7
 10
27.05400000
 20
3.70900000
  0
VERTEX
  8
0
 62
7
 10
27.02000000
 20
3.68237500
  0
VERTEX
  8
0
 62
7
 10
26.98900000
 20
3.64900000
  0
VERTEX
  8
0
 62
7
 10
26.97085547
 20
3.62327539
  0
VERTEX
  8
0
 62
7
 10
26.95615625
 20
3.59582813
  0
VERTEX
  8
0
 62
7
 10
26.94487891
 20
3.56699805
  0
VERTEX
  8
0
 62
7
 10
26.93700000
 20
3.53712500
  0
VERTEX
  8
0
 62
7
 10
26.93249609
 20
3.50654883
  0
VERTEX
  8
0
 62
7
 10
26.93134375
 20
3.47560938
  0
VERTEX
  8
0
 62
7
 10
26.93351953
 20
3.44464648
  0
VERTEX
  8
0
 62
7
 10
26.93900000
 20
3.41400000
  0
VERTEX
  8
0
 62
7
 10
26.96150000
 20
3.41725000
  0
VERTEX
  8
0
 62
7
 10
26.98400000
 20
3.41600000
  0
VERTEX
  8
0
 62
7
 10
27.00165039
 20
3.41176758
  0
VERTEX
  8
0
 62
7
 10
27.01682813
 20
3.40351563
  0
VERTEX
  8
0
 62
7
 10
27.03024805
 20
3.39228711
  0
VERTEX
  8
0
 62
7
 10
27.04262500
 20
3.37912500
  0
VERTEX
  8
0
 62
7
 10
27.05467383
 20
3.36507227
  0
VERTEX
  8
0
 62
7
 10
27.06710938
 20
3.35117188
  0
VERTEX
  8
0
 62
7
 10
27.08064648
 20
3.33846680
  0
VERTEX
  8
0
 62
7
 10
27.09600000
 20
3.32800000
  0
VERTEX
  8
0
 62
7
 10
27.12931250
 20
3.31056250
  0
VERTEX
  8
0
 62
7
 10
27.16450000
 20
3.29575000
  0
VERTEX
  8
0
 62
7
 10
27.20118750
 20
3.28356250
  0
VERTEX
  8
0
 62
7
 10
27.23900000
 20
3.27400000
  0
VERTEX
  8
0
 62
7
 10
27.18600000
 20
3.21000000
  0
VERTEX
  8
0
 62
7
 10
27.16148438
 20
3.18475000
  0
VERTEX
  8
0
 62
7
 10
27.13237500
 20
3.15575000
  0
VERTEX
  8
0
 62
7
 10
27.10682813
 20
3.12787500
  0
VERTEX
  8
0
 62
7
 10
27.09300000
 20
3.10600000
  0
VERTEX
  8
0
 62
7
 10
27.09116797
 20
3.09457227
  0
VERTEX
  8
0
 62
7
 10
27.09521875
 20
3.08376563
  0
VERTEX
  8
0
 62
7
 10
27.10372266
 20
3.07391992
  0
VERTEX
  8
0
 62
7
 10
27.11525000
 20
3.06537500
  0
VERTEX
  8
0
 62
7
 10
27.12837109
 20
3.05847070
  0
VERTEX
  8
0
 62
7
 10
27.14165625
 20
3.05354688
  0
VERTEX
  8
0
 62
7
 10
27.15367578
 20
3.05094336
  0
VERTEX
  8
0
 62
7
 10
27.16300000
 20
3.05100000
  0
SEQEND
  0
POLYLINE
  8
0
 62
7
 66
1
 70
1
  0
VERTEX
  8
0
 62
7
 10
28.56700000
 20
4.45100000
  0
VERTEX
  8
0
 62
7
 10
28.57087500
 20
4.42037500
  0
VERTEX
  8
0
 62
7
 10
28.57100000
 20
4.38900000
  0
VERTEX
  8
0
 62
7
 10
28.56812500
 20
4.36512500
  0
VERTEX
  8
0
 62
7
 10
28.56300000
 20
4.34200000
  0
VERTEX
  8
0
 62
7
 10
28.58115625
 20
4.34435938
  0
VERTEX
  8
0
 62
7
 10
28.59950000
 20
4.34437500
  0
VERTEX
  8
0
 62
7
 10
28.61784375
 20
4.34270313
  0
VERTEX
  8
0
 62
7
 10
28.63600000
 20
4.34000000
  0
VERTEX
  8
0
 62
7
 10
28.65712500
 20
4.33225000
  0
VERTEX
  8
0
 62
7
 10
28.67675000
 20
4.32225000
  0
VERTEX
  8
0
 62
7
 10
28.69450000
 20
4.30962500
  0
VERTEX
  8
0
 62
7
 10
28.71000000
 20
4.29400000
  0
VERTEX
  8
0
 62
7
 10
28.67725000
 20
4.27050000
  0
VERTEX
  8
0
 62
7
 10
28.64600000
 20
4.24100000
  0
VERTEX
  8
0
 62
7
 10
28.62421875
 20
4.20906250
  0
VERTEX
  8
0
 62
7
 10
28.60675000
 20
4.17450000
  0
VERTEX
  8
0
 62
7
 10
28.59115625
 20
4.13918750
  0
VERTEX
  8
0
 62
7
 10
28.57500000
 20
4.10500000
  0
VERTEX
  8
0
 62
7
 10
28.54200000
 20
4.02800000
  0
VERTEX
  8
0
 62
7
 10
28.54745313
 20
3.99673438
  0
VERTEX
  8
0
 62
7
 10
28.55637500
 20
3.96612500
  0
VERTEX
  8
0
 62
7
 10
28.56885938
 20
3.93645313
  0
VERTEX
  8
0
 62
7
 10
28.58500000
 20
3.90800000
  0
VERTEX
  8
0
 62
7
 10
28.60489063
 20
3.87518750
  0
VERTEX
  8
0
 62
7
 10
28.62862500
 20
3.84575000
  0
VERTEX
  8
0
 62
7
 10
28.65629688
 20
3.81968750
  0
VERTEX
  8
0
 62
7
 10
28.68800000
 20
3.79700000
  0
VERTEX
  8
0
 62
7
 10
28.66148438
 20
3.72642188
  0
VERTEX
  8
0
 62
7
 10
28.64087500
 20
3.65537500
  0
VERTEX
  8
0
 62
7
 10
28.62682813
 20
3.58339063
  0
VERTEX
  8
0
 62
7
 10
28.62000000
 20
3.51000000
  0
VERTEX
  8
0
 62
7
 10
28.61815820
 20
3.46551563
  0
VERTEX
  8
0
 62
7
 10
28.61857813
 20
3.42131250
  0
VERTEX
  8
0
 62
7
 10
28.62117773
 20
3.37739063
  0
VERTEX
  8
0
 62
7
 10
28.62587500
 20
3.33375000
  0
VERTEX
  8
0
 62
7
 10
28.63258789
 20
3.29039063
  0
VERTEX
  8
0
 62
7
 10
28.64123438
 20
3.24731250
  0
VERTEX
  8
0
 62
7
 10
28.65173242
 20
3.20451563
  0
VERTEX
  8
0
 62
7
 10
28.66400000
 20
3.16200000
  0
VERTEX
  8
0
 62
7
 10
28.68437500
 20
3.09512500
  0
VERTEX
  8
0
 62
7
 10
28.70925000
 20
3.02975000
  0
VERTEX
  8
0
 62
7
 10
28.73825000
 20
2.96625000
  0
VERTEX
  8
0
 62
7
 10
28.77100000
 20
2.90500000
  0
VERTEX
  8
0
 62
7
 10
28.81373828
 20
2.92384570
  0
VERTEX
  8
0
 62
7
 10
28.85715625
 20
2.94064063
  0
VERTEX
  8
0
 62
7
 10
28.90118359
 20
2.95539648
  0
VERTEX
  8
0
 62
7
 10
28.94575000
 20
2.96812500
  0
VERTEX
  8
0
 62
7
 10
28.99078516
 20
2.97883789
  0
VERTEX
  8
0
 62
7
 10
29.03621875
 20
2.98754688
  0
VERTEX
  8
0
 62
7
 10
29.08198047
 20
2.99426367
  0
VERTEX
  8
0
 62
7
 10
29.12800000
 20
2.99900000
  0
VERTEX
  8
0
 62
7
 10
29.17816211
 20
3.00091797
  0
VERTEX
  8
0
 62
7
 10
29.22817188
 20
2.99840625
  0
VERTEX
  8
0
 62
7
 10
29.27806445
 20
2.99256641
  0
VERTEX
  8
0
 62
7
 10
29.32787500
 20
2.98450000
  0
VERTEX
  8
0
 62
7
 10
29.37763867
 20
2.97530859
  0
VERTEX
  8
0
 62
7
 10
29.42739063
 20
2.96609375
  0
VERTEX
  8
0
 62
7
 10
29.47716602
 20
2.95795703
  0
VERTEX
  8
0
 62
7
 10
29.52700000
 20
2.95200000
  0
VERTEX
  8
0
 62
7
 10
29.56649805
 20
2.94999023
  0
VERTEX
  8
0
 62
7
 10
29.60617188
 20
2.94942188
  0
VERTEX
  8
0
 62
7
 10
29.64591602
 20
2.94948633
  0
VERTEX
  8
0
 62
7
 10
29.68562500
 20
2.94937500
  0
VERTEX
  8
0
 62
7
 10
29.72519336
 20
2.94827930
  0
VERTEX
  8
0
 62
7
 10
29.76451563
 20
2.94539063
  0
VERTEX
  8
0
 62
7
 10
29.80348633
 20
2.93990039
  0
VERTEX
  8
0
 62
7
 10
29.84200000
 20
2.93100000
  0
VERTEX
  8
0
 62
7
 10
29.88467188
 20
2.91664063
  0
VERTEX
  8
0
 62
7
 10
29.92687500
 20
2.89937500
  0
VERTEX
  8
0
 62
7
 10
29.96814063
 20
2.87967188
  0
VERTEX
  8
0
 62
7
 10
30.00800000
 20
2.85800000
  0
VERTEX
  8
0
 62
7
 10
30.01287500
 20
3.04342188
  0
VERTEX
  8
0
 62
7
 10
30.01400000
 20
3.22912500
  0
VERTEX
  8
0
 62
7
 10
30.01137500
 20
3.41501563
  0
VERTEX
  8
0
 62
7
 10
30.00500000
 20
3.60100000
  0
VERTEX
  8
0
 62
7
 10
29.99995313
 20
3.68660938
  0
VERTEX
  8
0
 62
7
 10
29.99312500
 20
3.77137500
  0
VERTEX
  8
0
 62
7
 10
29.98798438
 20
3.85595313
  0
VERTEX
  8
0
 62
7
 10
29.98800000
 20
3.94100000
  0
VERTEX
  8
0
 62
7
 10
29.99398438
 20
4.01375000
  0
VERTEX
  8
0
 62
7
 10
30.00362500
 20
4.08650000
  0
VERTEX
  8
0
 62
7
 10
30.01345313
 20
4.15925000
  0
VERTEX
  8
0
 62
7
 10
30.02000000
 20
4.23200000
  0
VERTEX
  8
0
 62
7
 10
30.02196875
 20
4.28943750
  0
VERTEX
  8
0
 62
7
 10
30.02150000
 20
4.34725000
  0
VERTEX
  8
0
 62
7
 10
30.02253125
 20
4.40468750
  0
VERTEX
  8
0
 62
7
 10
30.02900000
 20
4.46100000
  0
VERTEX
  8
0
 62
7
 10
30.05400000
 20
4.55900000
  0
VERTEX
  8
0
 62
7
 10
30.00808203
 20
4.58087891
  0
VERTEX
  8
0
 62
7
 10
29.96115625
 20
4.59996875
  0
VERTEX
  8
0
 62
7
 10
29.91333984
 20
4.61619922
  0
VERTEX
  8
0
 62
7
 10
29.86475000
 20
4.62950000
  0
VERTEX
  8
0
 62
7
 10
29.81550391
 20
4.63980078
  0
VERTEX
  8
0
 62
7
 10
29.76571875
 20
4.64703125
  0
VERTEX
  8
0
 62
7
 10
29.71551172
 20
4.65112109
  0
VERTEX
  8
0
 62
7
 10
29.66500000
 20
4.65200000
  0
VERTEX
  8
0
 62
7
 10
29.62834961
 20
4.65053516
  0
VERTEX
  8
0
 62
7
 10
29.59192188
 20
4.64703125
  0
VERTEX
  8
0
 62
7
 10
29.55575195
 20
4.64169922
  0
VERTEX
  8
0
 62
7
 10
29.51987500
 20
4.63475000
  0
VERTEX
  8
0
 62
7
 10
29.48432617
 20
4.62639453
  0
VERTEX
  8
0
 62
7
 10
29.44914063
 20
4.61684375
  0
VERTEX
  8
0
 62
7
 10
29.41435352
 20
4.60630859
  0
VERTEX
  8
0
 62
7
 10
29.38000000
 20
4.59500000
  0
VERTEX
  8
0
 62
7
 10
29.33046875
 20
4.57718750
  0
VERTEX
  8
0
 62
7
 10
29.28225000
 20
4.55675000
  0
VERTEX
  8
0
 62
7
 10
29.23515625
 20
4.53368750
  0
VERTEX
  8
0
 62
7
 10
29.18900000
 20
4.50800000
  0
VERTEX
  8
0
 62
7
 10
29.15129688
 20
4.54490625
  0
VERTEX
  8
0
 62
7
 10
29.11012500
 20
4.57750000
  0
VERTEX
  8
0
 62
7
 10
29.06539063
 20
4.60559375
  0
VERTEX
  8
0
 62
7
 10
29.01700000
 20
4.62900000
  0
VERTEX
  8
0
 62
7
 10
28.98904688
 20
4.64123438
  0
VERTEX
  8
0
 62
7
 10
28.96062500
 20
4.65112500
  0
VERTEX
  8
0
 62
7
 10
28.93164063
 20
4.65895313
  0
VERTEX
  8
0
 62
7
 10
28.90200000
 20
4.66500000
  0
VERTEX
  8
0
 62
7
 10
28.89814063
 20
4.63960938
  0
VERTEX
  8
0
 62
7
 10
28.89212500
 20
4.61487500
  0
VERTEX
  8
0
 62
7
 10
28.88329688
 20
4.59145313
  0
VERTEX
  8
0
 62
7
 10
28.87100000
 20
4.57000000
  0
VERTEX
  8
0
 62
7
 10
28.86301172
 20
4.55761719
  0
VERTEX
  8
0
 62
7
 10
28.85303125
 20
4.54706250
  0
VERTEX
  8
0
 62
7
 10
28.84178516
 20
4.53772656
  0
VERTEX
  8
0
 62
7
 10
28.83000000
 20
4.52900000
  0
VERTEX
  8
0
 62
7
 10
28.81840234
 20
4.52027344
  0
VERTEX
  8
0
 62
7
 10
28.80771875
 20
4.51093750
  0
VERTEX
  8
0
 62
7
 10
28.79867578
 20
4.50038281
  0
VERTEX
  8
0
 62
7
 10
28.79200000
 20
4.48800000
  0
VERTEX
  8
0
 62
7
 10
28.78220313
 20
4.46425000
  0
VERTEX
  8
0
 62
7
 10
28.77662500
 20
4.43975000
  0
VERTEX
  8
0
 62
7
 10
28.77498438
 20
4.41487500
  0
VERTEX
  8
0
 62
7
 10
28.77700000
 20
4.39000000
  0
VERTEX
  8
0
 62
7
 10
28.74709375
 20
4.41117188
  0
VERTEX
  8
0
 62
7
 10
28.71475000
 20
4.42812500
  0
VERTEX
  8
0
 62
7
 10
28.68053125
 20
4.44076563
  0
VERTEX
  8
0
 62
7
 10
28.64500000
 20
4.44900000
  0
VERTEX
  8
0
 62
7
 10
28.60600000
 20
4.45187500
  0
VERTEX
  8
0
 62
7
 10
28.56700000
 20
4.45100000
  0
SEQEND
  0
POLYLINE
  8
0
 62
7
 66
1
 70
1
  0
VERTEX
  8
0
 62
7
 10
28.58700000
 20
4.55600000
  0
VERTEX
  8
0
 62
7
 10
28.58500000
 20
4.48900000
  0
VERTEX
  8
0
 62
7
 10
28.64700000
 20
4.49200000
  0
VERTEX
  8
0
 62
7
 10
28.73262500
 20
4.57750000
  0
VERTEX
  8
0
 62
7
 10
28.81300000
 20
4.66600000
  0
VERTEX
  8
0
 62
7
 10
28.91100000
 20
4.78600000
  0
VERTEX
  8
0
 62
7
 10
28.92892188
 20
4.75285938
  0
VERTEX
  8
0
 62
7
 10
28.95312500
 20
4.72337500
  0
VERTEX
  8
0
 62
7
 10
28.98201563
 20
4.69895313
  0
VERTEX
  8
0
 62
7
 10
29.01400000
 20
4.68100000
  0
VERTEX
  8
0
 62
7
 10
29.03185938
 20
4.67420313
  0
VERTEX
  8
0
 62
7
 10
29.05037500
 20
4.67087500
  0
VERTEX
  8
0
 62
7
 10
29.06870313
 20
4.66735938
  0
VERTEX
  8
0
 62
7
 10
29.08600000
 20
4.66000000
  0
VERTEX
  8
0
 62
7
 10
29.10170313
 20
4.65031250
  0
VERTEX
  8
0
 62
7
 10
29.11562500
 20
4.63800000
  0
VERTEX
  8
0
 62
7
 10
29.12748438
 20
4.62343750
  0
VERTEX
  8
0
 62
7
 10
29.13700000
 20
4.60700000
  0
VERTEX
  8
0
 62
7
 10
29.14273047
 20
4.60518555
  0
VERTEX
  8
0
 62
7
 10
29.15584375
 20
4.60617188
  0
VERTEX
  8
0
 62
7
 10
29.17472266
 20
4.60947852
  0
VERTEX
  8
0
 62
7
 10
29.19775000
 20
4.61462500
  0
VERTEX
  8
0
 62
7
 10
29.22330859
 20
4.62113086
  0
VERTEX
  8
0
 62
7
 10
29.24978125
 20
4.62851563
  0
VERTEX
  8
0
 62
7
 10
29.27555078
 20
4.63629883
  0
VERTEX
  8
0
 62
7
 10
29.29900000
 20
4.64400000
  0
VERTEX
  8
0
 62
7
 10
29.33178125
 20
4.65871875
  0
VERTEX
  8
0
 62
7
 10
29.36550000
 20
4.67775000
  0
VERTEX
  8
0
 62
7
 10
29.39996875
 20
4.69715625
  0
VERTEX
  8
0
 62
7
 10
29.43500000
 20
4.71300000
  0
VERTEX
  8
0
 62
7
 10
29.47557813
 20
4.71418750
  0
VERTEX
  8
0
 62
7
 10
29.56237500
 20
4.71275000
  0
VERTEX
  8
0
 62
7
 10
29.66773438
 20
4.71018750
  0
VERTEX
  8
0
 62
7
 10
29.76400000
 20
4.70800000
  0
VERTEX
  8
0
 62
7
 10
29.78358081
 20
4.70844507
  0
VERTEX
  8
0
 62
7
 10
29.80491211
 20
4.71006055
  0
VERTEX
  8
0
 62
7
 10
29.82756470
 20
4.71270435
  0
VERTEX
  8
0
 62
7
 10
29.85110938
 20
4.71623438
  0
VERTEX
  8
0
 62
7
 10
29.87511694
 20
4.72050854
  0
VERTEX
  8
0
 62
7
 10
29.89915820
 20
4.72538477
  0
VERTEX
  8
0
 62
7
 10
29.92280396
 20
4.73072095
  0
VERTEX
  8
0
 62
7
 10
29.94562500
 20
4.73637500
  0
VERTEX
  8
0
 62
7
 10
29.96719214
 20
4.74220483
  0
VERTEX
  8
0
 62
7
 10
29.98707617
 20
4.74806836
  0
VERTEX
  8
0
 62
7
 10
30.00484790
 20
4.75382349
  0
VERTEX
  8
0
 62
7
 10
30.02007813
 20
4.75932813
  0
VERTEX
  8
0
 62
7
 10
30.03233765
 20
4.76444019
  0
VERTEX
  8
0
 62
7
 10
30.04119727
 20
4.76901758
  0
VERTEX
  8
0
 62
7
 10
30.04622778
 20
4.77291821
  0
VERTEX
  8
0
 62
7
 10
30.04700000
 20
4.77600000
  0
VERTEX
  8
0
 62
7
 10
30.03053516
 20
4.80818945
  0
VERTEX
  8
0
 62
7
 10
30.01690625
 20
4.84226563
  0
VERTEX
  8
0
 62
7
 10
30.00576172
 20
4.87786523
  0
VERTEX
  8
0
 62
7
 10
29.99675000
 20
4.91462500
  0
VERTEX
  8
0
 62
7
 10
29.98951953
 20
4.95218164
  0
VERTEX
  8
0
 62
7
 10
29.98371875
 20
4.99017188
  0
VERTEX
  8
0
 62
7
 10
29.97899609
 20
5.02823242
  0
VERTEX
  8
0
 62
7
 10
29.97500000
 20
5.06600000
  0
VERTEX
  8
0
 62
7
 10
29.97243359
 20
5.11424609
  0
VERTEX
  8
0
 62
7
 10
29.97378125
 20
5.16228125
  0
VERTEX
  8
0
 62
7
 10
29.97798828
 20
5.21017578
  0
VERTEX
  8
0
 62
7
 10
29.98400000
 20
5.25800000
  0
VERTEX
  8
0
 62
7
 10
29.99076172
 20
5.30582422
  0
VERTEX
  8
0
 62
7
 10
29.99721875
 20
5.35371875
  0
VERTEX
  8
0
 62
7
 10
30.00231641
 20
5.40175391
  0
VERTEX
  8
0
 62
7
 10
30.00500000
 20
5.45000000
  0
VERTEX
  8
0
 62
7
 10
30.00621875
 20
5.52515625
  0
VERTEX
  8
0
 62
7
 10
30.00500000
 20
5.60050000
  0
VERTEX
  8
0
 62
7
 10
30.00303125
 20
5.67584375
  0
VERTEX
  8
0
 62
7
 10
30.00200000
 20
5.75100000
  0
VERTEX
  8
0
 62
7
 10
30.00099414
 20
5.85122656
  0
VERTEX
  8
0
 62
7
 10
30.00351563
 20
5.95037500
  0
VERTEX
  8
0
 62
7
 10
30.00774805
 20
6.04877344
  0
VERTEX
  8
0
 62
7
 10
30.01187500
 20
6.14675000
  0
VERTEX
  8
0
 62
7
 10
30.01408008
 20
6.24463281
  0
VERTEX
  8
0
 62
7
 10
30.01254688
 20
6.34275000
  0
VERTEX
  8
0
 62
7
 10
30.00545898
 20
6.44142969
  0
VERTEX
  8
0
 62
7
 10
29.99100000
 20
6.54100000
  0
VERTEX
  8
0
 62
7
 10
29.97985938
 20
6.58940625
  0
VERTEX
  8
0
 62
7
 10
29.96487500
 20
6.64100000
  0
VERTEX
  8
0
 62
7
 10
29.94895313
 20
6.69259375
  0
VERTEX
  8
0
 62
7
 10
29.93500000
 20
6.74100000
  0
VERTEX
  8
0
 62
7
 10
29.91035938
 20
6.69746289
  0
VERTEX
  8
0
 62
7
 10
29.88112500
 20
6.65501563
  0
VERTEX
  8
0
 62
7
 10
29.84795313
 20
6.61427930
  0
VERTEX
  8
0
 62
7
 10
29.81150000
 20
6.57587500
  0
VERTEX
  8
0
 62
7
 10
29.77242188
 20
6.54042383
  0
VERTEX
  8
0
 62
7
 10
29.73137500
 20
6.50854688
  0
VERTEX
  8
0
 62
7
 10
29.68901563
 20
6.48086523
  0
VERTEX
  8
0
 62
7
 10
29.64600000
 20
6.45800000
  0
VERTEX
  8
0
 62
7
 10
29.60964648
 20
6.43935547
  0
VERTEX
  8
0
 62
7
 10
29.57717188
 20
6.42003125
  0
VERTEX
  8
0
 62
7
 10
29.54758008
 20
6.39981641
  0
VERTEX
  8
0
 62
7
 10
29.51987500
 20
6.37850000
  0
VERTEX
  8
0
 62
7
 10
29.49306055
 20
6.35587109
  0
VERTEX
  8
0
 62
7
 10
29.46614063
 20
6.33171875
  0
VERTEX
  8
0
 62
7
 10
29.43811914
 20
6.30583203
  0
VERTEX
  8
0
 62
7
 10
29.40800000
 20
6.27800000
  0
VERTEX
  8
0
 62
7
 10
29.34537500
 20
6.21537500
  0
VERTEX
  8
0
 62
7
 10
29.28500000
 20
6.14900000
  0
VERTEX
  8
0
 62
7
 10
29.23754688
 20
6.13779688
  0
VERTEX
  8
0
 62
7
 10
29.19862500
 20
6.12837500
  0
VERTEX
  8
0
 62
7
 10
29.15914063
 20
6.12101563
  0
VERTEX
  8
0
 62
7
 10
29.11000000
 20
6.11600000
  0
VERTEX
  8
0
 62
7
 10
29.04834375
 20
6.11282813
  0
VERTEX
  8
0
 62
7
 10
28.98650000
 20
6.11162500
  0
VERTEX
  8
0
 62
7
 10
28.92465625
 20
6.11360938
  0
VERTEX
  8
0
 62
7
 10
28.86300000
 20
6.12000000
  0
VERTEX
  8
0
 62
7
 10
28.80126563
 20
6.13259375
  0
VERTEX
  8
0
 62
7
 10
28.73962500
 20
6.14950000
  0
VERTEX
  8
0
 62
7
 10
28.67892188
 20
6.17090625
  0
VERTEX
  8
0
 62
7
 10
28.62000000
 20
6.19700000
  0
VERTEX
  8
0
 62
7
 10
28.60045313
 20
6.09423242
  0
VERTEX
  8
0
 62
7
 10
28.58606250
 20
5.99079688
  0
VERTEX
  8
0
 62
7
 10
28.57682813
 20
5.88686914
  0
VERTEX
  8
0
 62
7
 10
28.57275000
 20
5.78262500
  0
VERTEX
  8
0
 62
7
 10
28.57382813
 20
5.67824023
  0
VERTEX
  8
0
 62
7
 10
28.58006250
 20
5.57389063
  0
VERTEX
  8
0
 62
7
 10
28.59145313
 20
5.46975195
  0
VERTEX
  8
0
 62
7
 10
28.60800000
 20
5.36600000
  0
VERTEX
  8
0
 62
7
 10
28.62525000
 20
5.27950000
  0
VERTEX
  8
0
 62
7
 10
28.64700000
 20
5.19300000
  0
VERTEX
  8
0
 62
7
 10
28.62539063
 20
5.17676563
  0
VERTEX
  8
0
 62
7
 10
28.60612500
 20
5.15687500
  0
VERTEX
  8
0
 62
7
 10
28.59004688
 20
5.13379688
  0
VERTEX
  8
0
 62
7
 10
28.57800000
 20
5.10800000
  0
VERTEX
  8
0
 62
7
 10
28.57429102
 20
5.09515820
  0
VERTEX
  8
0
 62
7
 10
28.57364063
 20
5.08157813
  0
VERTEX
  8
0
 62
7
 10
28.57488867
 20
5.06755273
  0
VERTEX
  8
0
 62
7
 10
28.57687500
 20
5.05337500
  0
VERTEX
  8
0
 62
7
 10
28.57843945
 20
5.03933789
  0
VERTEX
  8
0
 62
7
 10
28.57842188
 20
5.02573438
  0
VERTEX
  8
0
 62
7
 10
28.57566211
 20
5.01285742
  0
VERTEX
  8
0
 62
7
 10
28.56900000
 20
5.00100000
  0
VERTEX
  8
0
 62
7
 10
28.54875000
 20
4.98412500
  0
VERTEX
  8
0
 62
7
 10
28.52400000
 20
4.97100000
  0
VERTEX
  8
0
 62
7
 10
28.54287305
 20
4.95192969
  0
VERTEX
  8
0
 62
7
 10
28.56210938
 20
4.93262500
  0
VERTEX
  8
0
 62
7
 10
28.58188477
 20
4.91369531
  0
VERTEX
  8
0
 62
7
 10
28.60237500
 20
4.89575000
  0
VERTEX
  8
0
 62
7
 10
28.62375586
 20
4.87939844
  0
VERTEX
  8
0
 62
7
 10
28.64620313
 20
4.86525000
  0
VERTEX
  8
0
 62
7
 10
28.66989258
 20
4.85391406
  0
VERTEX
  8
0
 62
7
 10
28.69500000
 20
4.84600000
  0
VERTEX
  8
0
 62
7
 10
28.73351563
 20
4.83920313
  0
VERTEX
  8
0
 62
7
 10
28.76912500
 20
4.83587500
  0
VERTEX
  8
0
 62
7
 10
28.80117188
 20
4.83235938
  0
VERTEX
  8
0
 62
7
 10
28.82900000
 20
4.82500000
  0
VERTEX
  8
0
 62
7
 10
28.79475000
 20
4.77832813
  0
VERTEX
  8
0
 62
7
 10
28.75375000
 20
4.72837500
  0
VERTEX
  8
0
 62
7
 10
28.71087500
 20
4.67973438
  0
VERTEX
  8
0
 62
7
 10
28.67100000
 20
4.63700000
  0
VERTEX
  8
0
 62
7
 10
28.63050000
 20
4.59425000
  0
VERTEX
  8
0
 62
7
 10
28.58700000
 20
4.55600000
  0
SEQEND
  0
POLYLINE
  8
0
 62
7
 66
1
 70
1
  0
VERTEX
  8
0
 62
7
 10
28.69900000
 20
7.44400000
  0
VERTEX
  8
0
 62
7
 10
28.70307813
 20
7.46739063
  0
VERTEX
  8
0
 62
7
 10
28.70387500
 20
7.49087500
  0
VERTEX
  8
0
 62
7
 10
28.70223438
 20
7.51417188
  0
VERTEX
  8
0
 62
7
 10
28.69900000
 20
7.53700000
  0
VERTEX
  8
0
 62
7
 10
28.68000000
 20
7.58900000
  0
VERTEX
  8
0
 62
7
 10
28.63255469
 20
7.55083789
  0
VERTEX
  8
0
 62
7
 10
28.58787500
 20
7.50926563
  0
VERTEX
  8
0
 62
7
 10
28.54619531
 20
7.46452930
  0
VERTEX
  8
0
 62
7
 10
28.50775000
 20
7.41687500
  0
VERTEX
  8
0
 62
7
 10
28.47277344
 20
7.36654883
  0
VERTEX
  8
0
 62
7
 10
28.44150000
 20
7.31379688
  0
VERTEX
  8
0
 62
7
 10
28.41416406
 20
7.25886523
  0
VERTEX
  8
0
 62
7
 10
28.39100000
 20
7.20200000
  0
VERTEX
  8
0
 62
7
 10
28.37045313
 20
7.14400586
  0
VERTEX
  8
0
 62
7
 10
28.35393750
 20
7.08492188
  0
VERTEX
  8
0
 62
7
 10
28.34164063
 20
7.02497070
  0
VERTEX
  8
0
 62
7
 10
28.33375000
 20
6.96437500
  0
VERTEX
  8
0
 62
7
 10
28.33045313
 20
6.90335742
  0
VERTEX
  8
0
 62
7
 10
28.33193750
 20
6.84214063
  0
VERTEX
  8
0
 62
7
 10
28.33839063
 20
6.78094727
  0
VERTEX
  8
0
 62
7
 10
28.35000000
 20
6.72000000
  0
VERTEX
  8
0
 62
7
 10
28.36437305
 20
6.66913477
  0
VERTEX
  8
0
 62
7
 10
28.38135938
 20
6.61945313
  0
VERTEX
  8
0
 62
7
 10
28.40113477
 20
6.57120117
  0
VERTEX
  8
0
 62
7
 10
28.42387500
 20
6.52462500
  0
VERTEX
  8
0
 62
7
 10
28.44975586
 20
6.47997070
  0
VERTEX
  8
0
 62
7
 10
28.47895313
 20
6.43748438
  0
VERTEX
  8
0
 62
7
 10
28.51164258
 20
6.39741211
  0
VERTEX
  8
0
 62
7
 10
28.54800000
 20
6.36000000
  0
VERTEX
  8
0
 62
7
 10
28.59571094
 20
6.31902124
  0
VERTEX
  8
0
 62
7
 10
28.64726563
 20
6.28220117
  0
VERTEX
  8
0
 62
7
 10
28.70198438
 20
6.24990161
  0
VERTEX
  8
0
 62
7
 10
28.75918750
 20
6.22248438
  0
VERTEX
  8
0
 62
7
 10
28.81819531
 20
6.20031128
  0
VERTEX
  8
0
 62
7
 10
28.87832813
 20
6.18374414
  0
VERTEX
  8
0
 62
7
 10
28.93890625
 20
6.17314478
  0
VERTEX
  8
0
 62
7
 10
28.99925000
 20
6.16887500
  0
VERTEX
  8
0
 62
7
 10
29.05867969
 20
6.17129663
  0
VERTEX
  8
0
 62
7
 10
29.11651563
 20
6.18077148
  0
VERTEX
  8
0
 62
7
 10
29.17207813
 20
6.19766138
  0
VERTEX
  8
0
 62
7
 10
29.22468750
 20
6.22232813
  0
VERTEX
  8
0
 62
7
 10
29.27366406
 20
6.25513354
  0
VERTEX
  8
0
 62
7
 10
29.31832813
 20
6.29643945
  0
VERTEX
  8
0
 62
7
 10
29.35800000
 20
6.34660767
  0
VERTEX
  8
0
 62
7
 10
29.39200000
 20
6.40600000
  0
VERTEX
  8
0
 62
7
 10
29.41093945
 20
6.45271680
  0
VERTEX
  8
0
 62
7
 10
29.42351563
 20
6.50092188
  0
VERTEX
  8
0
 62
7
 10
29.42974023
 20
6.54994727
  0
VERTEX
  8
0
 62
7
 10
29.42962500
 20
6.59912500
  0
VERTEX
  8
0
 62
7
 10
29.42318164
 20
6.64778711
  0
VERTEX
  8
0
 62
7
 10
29.41042188
 20
6.69526563
  0
VERTEX
  8
0
 62
7
 10
29.39135742
 20
6.74089258
  0
VERTEX
  8
0
 62
7
 10
29.36600000
 20
6.78400000
  0
VERTEX
  8
0
 62
7
 10
29.34191211
 20
6.81529102
  0
VERTEX
  8
0
 62
7
 10
29.31485938
 20
6.84382813
  0
VERTEX
  8
0
 62
7
 10
29.28515820
 20
6.86948242
  0
VERTEX
  8
0
 62
7
 10
29.25312500
 20
6.89212500
  0
VERTEX
  8
0
 62
7
 10
29.21907617
 20
6.91162695
  0
VERTEX
  8
0
 62
7
 10
29.18332813
 20
6.92785938
  0
VERTEX
  8
0
 62
7
 10
29.14619727
 20
6.94069336
  0
VERTEX
  8
0
 62
7
 10
29.10800000
 20
6.95000000
  0
VERTEX
  8
0
 62
7
 10
29.08420508
 20
6.95404102
  0
VERTEX
  8
0
 62
7
 10
29.06014063
 20
6.95701563
  0
VERTEX
  8
0
 62
7
 10
29.03591211
 20
6.95870117
  0
VERTEX
  8
0
 62
7
 10
29.01162500
 20
6.95887500
  0
VERTEX
  8
0
 62
7
 10
28.98738477
 20
6.95731445
  0
VERTEX
  8
0
 62
7
 10
28.96329688
 20
6.95379688
  0
VERTEX
  8
0
 62
7
 10
28.93946680
 20
6.94809961
  0
VERTEX
  8
0
 62
7
 10
28.91600000
 20
6.94000000
  0
VERTEX
  8
0
 62
7
 10
28.89056250
 20
6.92716992
  0
VERTEX
  8
0
 62
7
 10
28.86625000
 20
6.91198438
  0
VERTEX
  8
0
 62
7
 10
28.84343750
 20
6.89452539
  0
VERTEX
  8
0
 62
7
 10
28.82250000
 20
6.87487500
  0
VERTEX
  8
0
 62
7
 10
28.80381250
 20
6.85311523
  0
VERTEX
  8
0
 62
7
 10
28.78775000
 20
6.82932813
  0
VERTEX
  8
0
 62
7
 10
28.77468750
 20
6.80359570
  0
VERTEX
  8
0
 62
7
 10
28.76500000
 20
6.77600000
  0
VERTEX
  8
0
 62
7
 10
28.76019727
 20
6.75496289
  0
VERTEX
  8
0
 62
7
 10
28.75657813
 20
6.73332813
  0
VERTEX
  8
0
 62
7
 10
28.75457617
 20
6.71143555
  0
VERTEX
  8
0
 62
7
 10
28.75462500
 20
6.68962500
  0
VERTEX
  8
0
 62
7
 10
28.75715820
 20
6.66823633
  0
VERTEX
  8
0
 62
7
 10
28.76260938
 20
6.64760938
  0
VERTEX
  8
0
 62
7
 10
28.77141211
 20
6.62808398
  0
VERTEX
  8
0
 62
7
 10
28.78400000
 20
6.61000000
  0
VERTEX
  8
0
 62
7
 10
28.80623438
 20
6.59121875
  0
VERTEX
  8
0
 62
7
 10
28.83062500
 20
6.57600000
  0
VERTEX
  8
0
 62
7
 10
28.85670313
 20
6.56528125
  0
VERTEX
  8
0
 62
7
 10
28.88400000
 20
6.56000000
  0
VERTEX
  8
0
 62
7
 10
28.87391016
 20
6.58723438
  0
VERTEX
  8
0
 62
7
 10
28.86834375
 20
6.61531250
  0
VERTEX
  8
0
 62
7
 10
28.86723047
 20
6.64367188
  0
VERTEX
  8
0
 62
7
 10
28.87050000
 20
6.67175000
  0
VERTEX
  8
0
 62
7
 10
28.87808203
 20
6.69898438
  0
VERTEX
  8
0
 62
7
 10
28.88990625
 20
6.72481250
  0
VERTEX
  8
0
 62
7
 10
28.90590234
 20
6.74867188
  0
VERTEX
  8
0
 62
7
 10
28.92600000
 20
6.77000000
  0
VERTEX
  8
0
 62
7
 10
28.95098438
 20
6.78980273
  0
VERTEX
  8
0
 62
7
 10
28.97831250
 20
6.80373438
  0
VERTEX
  8
0
 62
7
 10
29.00742188
 20
6.81220508
  0
VERTEX
  8
0
 62
7
 10
29.03775000
 20
6.81562500
  0
VERTEX
  8
0
 62
7
 10
29.06873438
 20
6.81440430
  0
VERTEX
  8
0
 62
7
 10
29.09981250
 20
6.80895313
  0
VERTEX
  8
0
 62
7
 10
29.13042188
 20
6.79968164
  0
VERTEX
  8
0
 62
7
 10
29.16000000
 20
6.78700000
  0
VERTEX
  8
0
 62
7
 10
29.19413086
 20
6.76485156
  0
VERTEX
  8
0
 62
7
 10
29.22229688
 20
6.73731250
  0
VERTEX
  8
0
 62
7
 10
29.24453320
 20
6.70536719
  0
VERTEX
  8
0
 62
7
 10
29.26087500
 20
6.67000000
  0
VERTEX
  8
0
 62
7
 10
29.27135742
 20
6.63219531
  0
VERTEX
  8
0
 62
7
 10
29.27601563
 20
6.59293750
  0
VERTEX
  8
0
 62
7
 10
29.27488477
 20
6.55321094
  0
VERTEX
  8
0
 62
7
 10
29.26800000
 20
6.51400000
  0
VERTEX
  8
0
 62
7
 10
29.25579297
 20
6.47839648
  0
VERTEX
  8
0
 62
7
 10
29.23840625
 20
6.44592188
  0
VERTEX
  8
0
 62
7
 10
29.21656641
 20
6.41670508
  0
VERTEX
  8
0
 62
7
 10
29.19100000
 20
6.39087500
  0
VERTEX
  8
0
 62
7
 10
29.16243359
 20
6.36856055
  0
VERTEX
  8
0
 62
7
 10
29.13159375
 20
6.34989063
  0
VERTEX
  8
0
 62
7
 10
29.09920703
 20
6.33499414
  0
VERTEX
  8
0
 62
7
 10
29.06600000
 20
6.32400000
  0
VERTEX
  8
0
 62
7
 10
29.02994092
 20
6.31685913
  0
VERTEX
  8
0
 62
7
 10
28.99216797
 20
6.31440430
  0
VERTEX
  8
0
 62
7
 10
28.95310010
 20
6.31639966
  0
VERTEX
  8
0
 62
7
 10
28.91315625
 20
6.32260938
  0
VERTEX
  8
0
 62
7
 10
28.87275537
 20
6.33279761
  0
VERTEX
  8
0
 62
7
 10
28.83231641
 20
6.34672852
  0
VERTEX
  8
0
 62
7
 10
28.79225830
 20
6.36416626
  0
VERTEX
  8
0
 62
7
 10
28.75300000
 20
6.38487500
  0
VERTEX
  8
0
 62
7
 10
28.71496045
 20
6.40861890
  0
VERTEX
  8
0
 62
7
 10
28.67855859
 20
6.43516211
  0
VERTEX
  8
0
 62
7
 10
28.64421338
 20
6.46426880
  0
VERTEX
  8
0
 62
7
 10
28.61234375
 20
6.49570313
  0
VERTEX
  8
0
 62
7
 10
28.58336865
 20
6.52922925
  0
VERTEX
  8
0
 62
7
 10
28.55770703
 20
6.56461133
  0
VERTEX
  8
0
 62
7
 10
28.53577783
 20
6.60161353
  0
VERTEX
  8
0
 62
7
 10
28.51800000
 20
6.64000000
  0
VERTEX
  8
0
 62
7
 10
28.50383032
 20
6.67901074
  0
VERTEX
  8
0
 62
7
 10
28.49239258
 20
6.71836719
  0
VERTEX
  8
0
 62
7
 10
28.48360620
 20
6.75799316
  0
VERTEX
  8
0
 62
7
 10
28.47739063
 20
6.79781250
  0
VERTEX
  8
0
 62
7
 10
28.47366528
 20
6.83774902
  0
VERTEX
  8
0
 62
7
 10
28.47234961
 20
6.87772656
  0
VERTEX
  8
0
 62
7
 10
28.47336304
 20
6.91766895
  0
VERTEX
  8
0
 62
7
 10
28.47662500
 20
6.95750000
  0
VERTEX
  8
0
 62
7
 10
28.48205493
 20
6.99714355
  0
VERTEX
  8
0
 62
7
 10
28.48957227
 20
7.03652344
  0
VERTEX
  8
0
 62
7
 10
28.49909644
 20
7.07556348
  0
VERTEX
  8
0
 62
7
 10
28.51054688
 20
7.11418750
  0
VERTEX
  8
0
 62
7
 10
28.52384302
 20
7.15231934
  0
VERTEX
  8
0
 62
7
 10
28.53890430
 20
7.18988281
  0
VERTEX
  8
0
 62
7
 10
28.55565015
 20
7.22680176
  0
VERTEX
  8
0
 62
7
 10
28.57400000
 20
7.26300000
  0
VERTEX
  8
0
 62
7
 10
28.60028125
 20
7.31251563
  0
VERTEX
  8
0
 62
7
 10
28.62975000
 20
7.35912500
  0
VERTEX
  8
0
 62
7
 10
28.66259375
 20
7.40292188
  0
VERTEX
  8
0
 62
7
 10
28.69900000
 20
7.44400000
  0
SEQEND
  0
POLYLINE
  8
0
 62
7
 66
1
 70
1
  0
VERTEX
  8
0
 62
7
 10
29.83500000
 20
6.70000000
  0
VERTEX
  8
0
 62
7
 10
29.85139063
 20
6.71303125
  0
VERTEX
  8
0
 62
7
 10
29.86712500
 20
6.72700000
  0
VERTEX
  8
0
 62
7
 10
29.88154688
 20
6.74246875
  0
VERTEX
  8
0
 62
7
 10
29.89400000
 20
6.76000000
  0
VERTEX
  8
0
 62
7
 10
29.90987500
 20
6.78450000
  0
VERTEX
  8
0
 62
7
 10
29.92200000
 20
6.80900000
  0
VERTEX
  8
0
 62
7
 10
29.91595313
 20
6.83451563
  0
VERTEX
  8
0
 62
7
 10
29.90737500
 20
6.85862500
  0
VERTEX
  8
0
 62
7
 10
29.89710938
 20
6.88142188
  0
VERTEX
  8
0
 62
7
 10
29.88600000
 20
6.90300000
  0
VERTEX
  8
0
 62
7
 10
29.86225000
 20
6.93950000
  0
VERTEX
  8
0
 62
7
 10
29.83700000
 20
6.97300000
  0
VERTEX
  8
0
 62
7
 10
29.85861133
 20
6.97052930
  0
VERTEX
  8
0
 62
7
 10
29.88051563
 20
6.97273438
  0
VERTEX
  8
0
 62
7
 10
29.90244336
 20
6.97829102
  0
VERTEX
  8
0
 62
7
 10
29.92412500
 20
6.98587500
  0
VERTEX
  8
0
 62
7
 10
29.94529102
 20
6.99416211
  0
VERTEX
  8
0
 62
7
 10
29.96567188
 20
7.00182813
  0
VERTEX
  8
0
 62
7
 10
29.98499805
 20
7.00754883
  0
VERTEX
  8
0
 62
7
 10
30.00300000
 20
7.01000000
  0
VERTEX
  8
0
 62
7
 10
30.01112695
 20
7.01310156
  0
VERTEX
  8
0
 62
7
 10
30.01701563
 20
7.02150000
  0
VERTEX
  8
0
 62
7
 10
30.02105273
 20
7.03383594
  0
VERTEX
  8
0
 62
7
 10
30.02362500
 20
7.04875000
  0
VERTEX
  8
0
 62
7
 10
30.02511914
 20
7.06488281
  0
VERTEX
  8
0
 62
7
 10
30.02592188
 20
7.08087500
  0
VERTEX
  8
0
 62
7
 10
30.02641992
 20
7.09536719
  0
VERTEX
  8
0
 62
7
 10
30.02700000
 20
7.10700000
  0
VERTEX
  8
0
 62
7
 10
30.03011719
 20
7.14183789
  0
VERTEX
  8
0
 62
7
 10
30.03375000
 20
7.17401563
  0
VERTEX
  8
0
 62
7
 10
30.03719531
 20
7.20415430
  0
VERTEX
  8
0
 62
7
 10
30.03975000
 20
7.23287500
  0
VERTEX
  8
0
 62
7
 10
30.04071094
 20
7.26079883
  0
VERTEX
  8
0
 62
7
 10
30.03937500
 20
7.28854688
  0
VERTEX
  8
0
 62
7
 10
30.03503906
 20
7.31674023
  0
VERTEX
  8
0
 62
7
 10
30.02700000
 20
7.34600000
  0
VERTEX
  8
0
 62
7
 10
30.02324414
 20
7.35599414
  0
VERTEX
  8
0
 62
7
 10
30.01701563
 20
7.36576563
  0
VERTEX
  8
0
 62
7
 10
30.00912305
 20
7.37537305
  0
VERTEX
  8
0
 62
7
 10
30.00037500
 20
7.38487500
  0
VERTEX
  8
0
 62
7
 10
29.99158008
 20
7.39433008
  0
VERTEX
  8
0
 62
7
 10
29.98354688
 20
7.40379688
  0
VERTEX
  8
0
 62
7
 10
29.97708398
 20
7.41333398
  0
VERTEX
  8
0
 62
7
 10
29.97300000
 20
7.42300000
  0
VERTEX
  8
0
 62
7
 10
29.96645313
 20
7.44043750
  0
VERTEX
  8
0
 62
7
 10
29.96187500
 20
7.45825000
  0
VERTEX
  8
0
 62
7
 10
29.95935938
 20
7.47643750
  0
VERTEX
  8
0
 62
7
 10
29.95900000
 20
7.49500000
  0
VERTEX
  8
0
 62
7
 10
29.98812500
 20
7.61250000
  0
VERTEX
  8
0
 62
7
 10
30.01500000
 20
7.73000000
  0
VERTEX
  8
0
 62
7
 10
30.03084375
 20
7.80214063
  0
VERTEX
  8
0
 62
7
 10
30.04575000
 20
7.87362500
  0
VERTEX
  8
0
 62
7
 10
30.05803125
 20
7.94529688
  0
VERTEX
  8
0
 62
7
 10
30.06600000
 20
8.01800000
  0
VERTEX
  8
0
 62
7
 10
30.06860547
 20
8.06757813
  0
VERTEX
  8
0
 62
7
 10
30.07015625
 20
8.11725000
  0
VERTEX
  8
0
 62
7
 10
30.07025391
 20
8.16692188
  0
VERTEX
  8
0
 62
7
 10
30.06850000
 20
8.21650000
  0
VERTEX
  8
0
 62
7
 10
30.06449609
 20
8.26589063
  0
VERTEX
  8
0
 62
7
 10
30.05784375
 20
8.31500000
  0
VERTEX
  8
0
 62
7
 10
30.04814453
 20
8.36373438
  0
VERTEX
  8
0
 62
7
 10
30.03500000
 20
8.41200000
  0
VERTEX
  8
0
 62
7
 10
30.02082813
 20
8.45484375
  0
VERTEX
  8
0
 62
7
 10
30.00412500
 20
8.49750000
  0
VERTEX
  8
0
 62
7
 10
29.98535938
 20
8.53940625
  0
VERTEX
  8
0
 62
7
 10
29.96500000
 20
8.58000000
  0
VERTEX
  8
0
 62
7
 10
29.90046875
 20
8.55770313
  0
VERTEX
  8
0
 62
7
 10
29.83575000
 20
8.53887500
  0
VERTEX
  8
0
 62
7
 10
29.77065625
 20
8.52360937
  0
VERTEX
  8
0
 62
7
 10
29.70500000
 20
8.51200000
  0
VERTEX
  8
0
 62
7
 10
29.64067188
 20
8.50354688
  0
VERTEX
  8
0
 62
7
 10
29.57662500
 20
8.49762500
  0
VERTEX
  8
0
 62
7
 10
29.51276563
 20
8.49639063
  0
VERTEX
  8
0
 62
7
 10
29.44900000
 20
8.50200000
  0
VERTEX
  8
0
 62
7
 10
29.38628125
 20
8.51393750
  0
VERTEX
  8
0
 62
7
 10
29.32450000
 20
8.53225000
  0
VERTEX
  8
0
 62
7
 10
29.26421875
 20
8.55543750
  0
VERTEX
  8
0
 62
7
 10
29.20600000
 20
8.58200000
  0
VERTEX
  8
0
 62
7
 10
29.15913672
 20
8.60704883
  0
VERTEX
  8
0
 62
7
 10
29.11384375
 20
8.63482813
  0
VERTEX
  8
0
 62
7
 10
29.07019141
 20
8.66516211
  0
VERTEX
  8
0
 62
7
 10
29.02825000
 20
8.69787500
  0
VERTEX
  8
0
 62
7
 10
28.98808984
 20
8.73279102
  0
VERTEX
  8
0
 62
7
 10
28.94978125
 20
8.76973438
  0
VERTEX
  8
0
 62
7
 10
28.91339453
 20
8.80852930
  0
VERTEX
  8
0
 62
7
 10
28.87900000
 20
8.84900000
  0
VERTEX
  8
0
 62
7
 10
28.84679688
 20
8.89009375
  0
VERTEX
  8
0
 62
7
 10
28.81637500
 20
8.93250000
  0
VERTEX
  8
0
 62
7
 10
28.78801563
 20
8.97640625
  0
VERTEX
  8
0
 62
7
 10
28.76200000
 20
9.02200000
  0
VERTEX
  8
0
 62
7
 10
28.73683594
 20
8.96679102
  0
VERTEX
  8
0
 62
7
 10
28.71387500
 20
8.91070313
  0
VERTEX
  8
0
 62
7
 10
28.69316406
 20
8.85379492
  0
VERTEX
  8
0
 62
7
 10
28.67475000
 20
8.79612500
  0
VERTEX
  8
0
 62
7
 10
28.65867969
 20
8.73775195
  0
VERTEX
  8
0
 62
7
 10
28.64500000
 20
8.67873437
  0
VERTEX
  8
0
 62
7
 10
28.63375781
 20
8.61913086
  0
VERTEX
  8
0
 62
7
 10
28.62500000
 20
8.55900000
  0
VERTEX
  8
0
 62
7
 10
28.61933203
 20
8.48042773
  0
VERTEX
  8
0
 62
7
 10
28.61959375
 20
8.40217188
  0
VERTEX
  8
0
 62
7
 10
28.62468359
 20
8.32417383
  0
VERTEX
  8
0
 62
7
 10
28.63350000
 20
8.24637500
  0
VERTEX
  8
0
 62
7
 10
28.64494141
 20
8.16871680
  0
VERTEX
  8
0
 62
7
 10
28.65790625
 20
8.09114063
  0
VERTEX
  8
0
 62
7
 10
28.67129297
 20
8.01358789
  0
VERTEX
  8
0
 62
7
 10
28.68400000
 20
7.93600000
  0
VERTEX
  8
0
 62
7
 10
28.69146094
 20
7.89679297
  0
VERTEX
  8
0
 62
7
 10
28.70056250
 20
7.85784375
  0
VERTEX
  8
0
 62
7
 10
28.71050781
 20
7.81903516
  0
VERTEX
  8
0
 62
7
 10
28.72050000
 20
7.78025000
  0
VERTEX
  8
0
 62
7
 10
28.72974219
 20
7.74137109
  0
VERTEX
  8
0
 62
7
 10
28.73743750
 20
7.70228125
  0
VERTEX
  8
0
 62
7
 10
28.74278906
 20
7.66286328
  0
VERTEX
  8
0
 62
7
 10
28.74500000
 20
7.62300000
  0
VERTEX
  8
0
 62
7
 10
28.74549414
 20
7.57307813
  0
VERTEX
  8
0
 62
7
 10
28.74482813
 20
7.52268750
  0
VERTEX
  8
0
 62
7
 10
28.74202930
 20
7.47239063
  0
VERTEX
  8
0
 62
7
 10
28.73612500
 20
7.42275000
  0
VERTEX
  8
0
 62
7
 10
28.72614258
 20
7.37432813
  0
VERTEX
  8
0
 62
7
 10
28.71110938
 20
7.32768750
  0
VERTEX
  8
0
 62
7
 10
28.69005273
 20
7.28339063
  0
VERTEX
  8
0
 62
7
 10
28.66200000
 20
7.24200000
  0
VERTEX
  8
0
 62
7
 10
28.62075000
 20
7.19337500
  0
VERTEX
  8
0
 62
7
 10
28.57200000
 20
7.15000000
  0
VERTEX
  8
0
 62
7
 10
28.65032813
 20
7.10985938
  0
VERTEX
  8
0
 62
7
 10
28.73062500
 20
7.07487500
  0
VERTEX
  8
0
 62
7
 10
28.81260938
 20
7.04495313
  0
VERTEX
  8
0
 62
7
 10
28.89600000
 20
7.02000000
  0
VERTEX
  8
0
 62
7
 10
28.99907813
 20
6.99745313
  0
VERTEX
  8
0
 62
7
 10
29.10262500
 20
6.98212500
  0
VERTEX
  8
0
 62
7
 10
29.20635938
 20
6.97373438
  0
VERTEX
  8
0
 62
7
 10
29.31000000
 20
6.97200000
  0
VERTEX
  8
0
 62
7
 10
29.33651563
 20
6.91904688
  0
VERTEX
  8
0
 62
7
 10
29.36912500
 20
6.86862500
  0
VERTEX
  8
0
 62
7
 10
29.40717188
 20
6.82139063
  0
VERTEX
  8
0
 62
7
 10
29.45000000
 20
6.77800000
  0
VERTEX
  8
0
 62
7
 10
29.47784375
 20
6.75351563
  0
VERTEX
  8
0
 62
7
 10
29.50625000
 20
6.73137500
  0
VERTEX
  8
0
 62
7
 10
29.53578125
 20
6.71204688
  0
VERTEX
  8
0
 62
7
 10
29.56700000
 20
6.69600000
  0
VERTEX
  8
0
 62
7
 10
29.57362500
 20
6.72712500
  0
VERTEX
  8
0
 62
7
 10
29.58475000
 20
6.75600000
  0
VERTEX
  8
0
 62
7
 10
29.60075000
 20
6.78262500
  0
VERTEX
  8
0
 62
7
 10
29.62200000
 20
6.80700000
  0
VERTEX
  8
0
 62
7
 10
29.63706250
 20
6.81675000
  0
VERTEX
  8
0
 62
7
 10
29.65400000
 20
6.82500000
  0
VERTEX
  8
0
 62
7
 10
29.67093750
 20
6.83400000
  0
VERTEX
  8
0
 62
7
 10
29.68600000
 20
6.84600000
  0
VERTEX
  8
0
 62
7
 10
29.69806250
 20
6.86015625
  0
VERTEX
  8
0
 62
7
 10
29.70750000
 20
6.87675000
  0
VERTEX
  8
0
 62
7
 10
29.71468750
 20
6.89521875
  0
VERTEX
  8
0
 62
7
 10
29.72000000
 20
6.91500000
  0
VERTEX
  8
0
 62
7
 10
29.74831250
 20
6.89243750
  0
VERTEX
  8
0
 62
7
 10
29.77400000
 20
6.86650000
  0
VERTEX
  8
0
 62
7
 10
29.79593750
 20
6.83681250
  0
VERTEX
  8
0
 62
7
 10
29.81300000
 20
6.80300000
  0
VERTEX
  8
0
 62
7
 10
29.82262500
 20
6.77846875
  0
VERTEX
  8
0
 62
7
 10
29.83000000
 20
6.75300000
  0
VERTEX
  8
0
 62
7
 10
29.83437500
 20
6.72678125
  0
VERTEX
  8
0
 62
7
 10
29.83500000
 20
6.70000000
  0
SEQEND
  0
POLYLINE
  8
0
 62
7
 66
1
 70
1
  0
VERTEX
  8
0
 62
7
 10
29.35500000
 20
8.56600000
  0
VERTEX
  8
0
 62
7
 10
29.40612500
 20
8.55450000
  0
VERTEX
  8
0
 62
7
 10
29.45800000
 20
8.54600000
  0
VERTEX
  8
0
 62
7
 10
29.49450000
 20
8.54137500
  0
VERTEX
  8
0
 62
7
 10
29.53100000
 20
8.53900000
  0
VERTEX
  8
0
 62
7
 10
29.54289063
 20
8.59782812
  0
VERTEX
  8
0
 62
7
 10
29.54887500
 20
8.65712500
  0
VERTEX
  8
0
 62
7
 10
29.54942188
 20
8.71660938
  0
VERTEX
  8
0
 62
7
 10
29.54500000
 20
8.77600000
  0
VERTEX
  8
0
 62
7
 10
29.53322266
 20
8.83611133
  0
VERTEX
  8
0
 62
7
 10
29.51471875
 20
8.89276562
  0
VERTEX
  8
0
 62
7
 10
29.48998047
 20
8.94606836
  0
VERTEX
  8
0
 62
7
 10
29.45950000
 20
8.99612500
  0
VERTEX
  8
0
 62
7
 10
29.42376953
 20
9.04304102
  0
VERTEX
  8
0
 62
7
 10
29.38328125
 20
9.08692188
  0
VERTEX
  8
0
 62
7
 10
29.33852734
 20
9.12787305
  0
VERTEX
  8
0
 62
7
 10
29.29000000
 20
9.16600000
  0
VERTEX
  8
0
 62
7
 10
29.22976367
 20
9.20425439
  0
VERTEX
  8
0
 62
7
 10
29.16712500
 20
9.23512891
  0
VERTEX
  8
0
 62
7
 10
29.10256445
 20
9.25879053
  0
VERTEX
  8
0
 62
7
 10
29.03656250
 20
9.27540625
  0
VERTEX
  8
0
 62
7
 10
28.96959961
 20
9.28514307
  0
VERTEX
  8
0
 62
7
 10
28.90215625
 20
9.28816797
  0
VERTEX
  8
0
 62
7
 10
28.83471289
 20
9.28464795
  0
VERTEX
  8
0
 62
7
 10
28.76775000
 20
9.27475000
  0
VERTEX
  8
0
 62
7
 10
28.70174805
 20
9.25864111
  0
VERTEX
  8
0
 62
7
 10
28.63718750
 20
9.23648828
  0
VERTEX
  8
0
 62
7
 10
28.57454883
 20
9.20845850
  0
VERTEX
  8
0
 62
7
 10
28.51431250
 20
9.17471875
  0
VERTEX
  8
0
 62
7
 10
28.45695898
 20
9.13543604
  0
VERTEX
  8
0
 62
7
 10
28.40296875
 20
9.09077734
  0
VERTEX
  8
0
 62
7
 10
28.35282227
 20
9.04090967
  0
VERTEX
  8
0
 62
7
 10
28.30700000
 20
8.98600000
  0
VERTEX
  8
0
 62
7
 10
28.28084009
 20
8.94952588
  0
VERTEX
  8
0
 62
7
 10
28.25676758
 20
8.91180078
  0
VERTEX
  8
0
 62
7
 10
28.23483081
 20
8.87293311
  0
VERTEX
  8
0
 62
7
 10
28.21507813
 20
8.83303125
  0
VERTEX
  8
0
 62
7
 10
28.19755786
 20
8.79220361
  0
VERTEX
  8
0
 62
7
 10
28.18231836
 20
8.75055859
  0
VERTEX
  8
0
 62
7
 10
28.16940796
 20
8.70820459
  0
VERTEX
  8
0
 62
7
 10
28.15887500
 20
8.66525000
  0
VERTEX
  8
0
 62
7
 10
28.15076782
 20
8.62180322
  0
VERTEX
  8
0
 62
7
 10
28.14513477
 20
8.57797266
  0
VERTEX
  8
0
 62
7
 10
28.14202417
 20
8.53386670
  0
VERTEX
  8
0
 62
7
 10
28.14148438
 20
8.48959375
  0
VERTEX
  8
0
 62
7
 10
28.14356372
 20
8.44526221
  0
VERTEX
  8
0
 62
7
 10
28.14831055
 20
8.40098047
  0
VERTEX
  8
0
 62
7
 10
28.15577319
 20
8.35685693
  0
VERTEX
  8
0
 62
7
 10
28.16600000
 20
8.31300000
  0
VERTEX
  8
0
 62
7
 10
28.18912891
 20
8.24026367
  0
VERTEX
  8
0
 62
7
 10
28.21865625
 20
8.17023438
  0
VERTEX
  8
0
 62
7
 10
28.25441797
 20
8.10355664
  0
VERTEX
  8
0
 62
7
 10
28.29625000
 20
8.04087500
  0
VERTEX
  8
0
 62
7
 10
28.34398828
 20
7.98283398
  0
VERTEX
  8
0
 62
7
 10
28.39746875
 20
7.93007813
  0
VERTEX
  8
0
 62
7
 10
28.45652734
 20
7.88325195
  0
VERTEX
  8
0
 62
7
 10
28.52100000
 20
7.84300000
  0
VERTEX
  8
0
 62
7
 10
28.56081250
 20
7.82404688
  0
VERTEX
  8
0
 62
7
 10
28.60100000
 20
7.80762500
  0
VERTEX
  8
0
 62
7
 10
28.64193750
 20
7.79364063
  0
VERTEX
  8
0
 62
7
 10
28.68400000
 20
7.78200000
  0
VERTEX
  8
0
 62
7
 10
28.64300000
 20
7.90000000
  0
VERTEX
  8
0
 62
7
 10
28.62000000
 20
7.98600000
  0
VERTEX
  8
0
 62
7
 10
28.58592773
 20
8.00233594
  0
VERTEX
  8
0
 62
7
 10
28.55348438
 20
8.02125000
  0
VERTEX
  8
0
 62
7
 10
28.52270508
 20
8.04260156
  0
VERTEX
  8
0
 62
7
 10
28.49362500
 20
8.06625000
  0
VERTEX
  8
0
 62
7
 10
28.46627930
 20
8.09205469
  0
VERTEX
  8
0
 62
7
 10
28.44070313
 20
8.11987500
  0
VERTEX
  8
0
 62
7
 10
28.41693164
 20
8.14957031
  0
VERTEX
  8
0
 62
7
 10
28.39500000
 20
8.18100000
  0
VERTEX
  8
0
 62
7
 10
28.36516602
 20
8.23462500
  0
VERTEX
  8
0
 62
7
 10
28.34345313
 20
8.29087500
  0
VERTEX
  8
0
 62
7
 10
28.32916992
 20
8.34918750
  0
VERTEX
  8
0
 62
7
 10
28.32162500
 20
8.40900000
  0
VERTEX
  8
0
 62
7
 10
28.32012695
 20
8.46975000
  0
VERTEX
  8
0
 62
7
 10
28.32398438
 20
8.53087500
  0
VERTEX
  8
0
 62
7
 10
28.33250586
 20
8.59181250
  0
VERTEX
  8
0
 62
7
 10
28.34500000
 20
8.65200000
  0
VERTEX
  8
0
 62
7
 10
28.36153320
 20
8.70852344
  0
VERTEX
  8
0
 62
7
 10
28.38201563
 20
8.76368750
  0
VERTEX
  8
0
 62
7
 10
28.40664648
 20
8.81688281
  0
VERTEX
  8
0
 62
7
 10
28.43562500
 20
8.86750000
  0
VERTEX
  8
0
 62
7
 10
28.46915039
 20
8.91492969
  0
VERTEX
  8
0
 62
7
 10
28.50742188
 20
8.95856250
  0
VERTEX
  8
0
 62
7
 10
28.55063867
 20
8.99778906
  0
VERTEX
  8
0
 62
7
 10
28.59900000
 20
9.03200000
  0
VERTEX
  8
0
 62
7
 10
28.63217554
 20
9.05172388
  0
VERTEX
  8
0
 62
7
 10
28.66635742
 20
9.06922852
  0
VERTEX
  8
0
 62
7
 10
28.70140356
 20
9.08445093
  0
VERTEX
  8
0
 62
7
 10
28.73717188
 20
9.09732813
  0
VERTEX
  8
0
 62
7
 10
28.77352026
 20
9.10779712
  0
VERTEX
  8
0
 62
7
 10
28.81030664
 20
9.11579492
  0
VERTEX
  8
0
 62
7
 10
28.84738892
 20
9.12125854
  0
VERTEX
  8
0
 62
7
 10
28.88462500
 20
9.12412500
  0
VERTEX
  8
0
 62
7
 10
28.92187280
 20
9.12433130
  0
VERTEX
  8
0
 62
7
 10
28.95899023
 20
9.12181445
  0
VERTEX
  8
0
 62
7
 10
28.99583521
 20
9.11651147
  0
VERTEX
  8
0
 62
7
 10
29.03226563
 20
9.10835937
  0
VERTEX
  8
0
 62
7
 10
29.06813940
 20
9.09729517
  0
VERTEX
  8
0
 62
7
 10
29.10331445
 20
9.08325586
  0
VERTEX
  8
0
 62
7
 10
29.13764868
 20
9.06617847
  0
VERTEX
  8
0
 62
7
 10
29.17100000
 20
9.04600000
  0
VERTEX
  8
0
 62
7
 10
29.20539844
 20
9.02270117
  0
VERTEX
  8
0
 62
7
 10
29.23843750
 20
8.99704688
  0
VERTEX
  8
0
 62
7
 10
29.26950781
 20
8.96902539
  0
VERTEX
  8
0
 62
7
 10
29.29800000
 20
8.93862500
  0
VERTEX
  8
0
 62
7
 10
29.32330469
 20
8.90583398
  0
VERTEX
  8
0
 62
7
 10
29.34481250
 20
8.87064063
  0
VERTEX
  8
0
 62
7
 10
29.36191406
 20
8.83303320
  0
VERTEX
  8
0
 62
7
 10
29.37400000
 20
8.79300000
  0
VERTEX
  8
0
 62
7
 10
29.37954102
 20
8.76384570
  0
VERTEX
  8
0
 62
7
 10
29.38270313
 20
8.73489063
  0
VERTEX
  8
0
 62
7
 10
29.38354492
 20
8.70614648
  0
VERTEX
  8
0
 62
7
 10
29.38212500
 20
8.67762500
  0
VERTEX
  8
0
 62
7
 10
29.37850195
 20
8.64933789
  0
VERTEX
  8
0
 62
7
 10
29.37273438
 20
8.62129688
  0
VERTEX
  8
0
 62
7
 10
29.36488086
 20
8.59351367
  0
VERTEX
  8
0
 62
7
 10
29.35500000
 20
8.56600000
  0
SEQEND
  0
POLYLINE
  8
0
 62
7
 66
1
 70
1
  0
VERTEX
  8
0
 62
7
 10
30.52700000
 20
8.18700000
  0
VERTEX
  8
0
 62
7
 10
30.55400000
 20
3.44500000
  0
VERTEX
  8
0
 62
7
 10
30.13300000
 20
2.93300000
  0
VERTEX
  8
0
 62
7
 10
30.13000000
 20
7.89800000
  0
VERTEX
  8
0
 62
7
 10
30.19434375
 20
7.92325000
  0
VERTEX
  8
0
 62
7
 10
30.25550000
 20
7.95375000
  0
VERTEX
  8
0
 62
7
 10
30.31365625
 20
7.98912500
  0
VERTEX
  8
0
 62
7
 10
30.36900000
 20
8.02900000
  0
VERTEX
  8
0
 62
7
 10
30.41267188
 20
8.06479688
  0
VERTEX
  8
0
 62
7
 10
30.45362500
 20
8.10312500
  0
VERTEX
  8
0
 62
7
 10
30.49176563
 20
8.14389062
  0
VERTEX
  8
0
 62
7
 10
30.52700000
 20
8.18700000
  0
SEQEND
  0
POLYLINE
  8
0
 62
7
 66
1
 70
1
  0
VERTEX
  8
0
 62
7
 10
13.99000000
 20
11.55400000
  0
VERTEX
  8
0
 62
7
 10
13.76300000
 20
11.55900000
  0
VERTEX
  8
0
 62
7
 10
13.65225000
 20
11.56312500
  0
VERTEX
  8
0
 62
7
 10
13.54000000
 20
11.56500000
  0
VERTEX
  8
0
 62
7
 10
13.47700000
 20
11.56400000
  0
VERTEX
  8
0
 62
7
 10
13.42600000
 20
11.56300000
  0
VERTEX
  8
0
 62
7
 10
13.36481250
 20
11.56195313
  0
VERTEX
  8
0
 62
7
 10
13.30175000
 20
11.55912500
  0
VERTEX
  8
0
 62
7
 10
13.23756250
 20
11.55273438
  0
VERTEX
  8
0
 62
7
 10
13.17300000
 20
11.54100000
  0
VERTEX
  8
0
 62
7
 10
13.10412500
 20
11.52212500
  0
VERTEX
  8
0
 62
7
 10
13.03600000
 20
11.49800000
  0
VERTEX
  8
0
 62
7
 10
13.20100000
 20
14.39800000
  0
VERTEX
  8
0
 62
7
 10
13.21322998
 20
14.44785596
  0
VERTEX
  8
0
 62
7
 10
13.22848047
 20
14.49647266
  0
VERTEX
  8
0
 62
7
 10
13.24665479
 20
14.54373584
  0
VERTEX
  8
0
 62
7
 10
13.26765625
 20
14.58953125
  0
VERTEX
  8
0
 62
7
 10
13.29138818
 20
14.63374463
  0
VERTEX
  8
0
 62
7
 10
13.31775391
 20
14.67626172
  0
VERTEX
  8
0
 62
7
 10
13.34665674
 20
14.71696826
  0
VERTEX
  8
0
 62
7
 10
13.37800000
 20
14.75575000
  0
VERTEX
  8
0
 62
7
 10
13.41168701
 20
14.79249268
  0
VERTEX
  8
0
 62
7
 10
13.44762109
 20
14.82708203
  0
VERTEX
  8
0
 62
7
 10
13.48570557
 20
14.85940381
  0
VERTEX
  8
0
 62
7
 10
13.52584375
 20
14.88934375
  0
VERTEX
  8
0
 62
7
 10
13.56793896
 20
14.91678760
  0
VERTEX
  8
0
 62
7
 10
13.61189453
 20
14.94162109
  0
VERTEX
  8
0
 62
7
 10
13.65761377
 20
14.96372998
  0
VERTEX
  8
0
 62
7
 10
13.70500000
 20
14.98300000
  0
VERTEX
  8
0
 62
7
 10
13.76720313
 20
15.00300000
  0
VERTEX
  8
0
 62
7
 10
13.83062500
 20
15.01775000
  0
VERTEX
  8
0
 62
7
 10
13.89498438
 20
15.02687500
  0
VERTEX
  8
0
 62
7
 10
13.96000000
 20
15.03000000
  0
VERTEX
  8
0
 62
7
 10
34.04000000
 20
15.03000000
  0
VERTEX
  8
0
 62
7
 10
34.10501563
 20
15.02687500
  0
VERTEX
  8
0
 62
7
 10
34.16937500
 20
15.01775000
  0
VERTEX
  8
0
 62
7
 10
34.23279688
 20
15.00300000
  0
VERTEX
  8
0
 62
7
 10
34.29500000
 20
14.98300000
  0
VERTEX
  8
0
 62
7
 10
34.34238623
 20
14.96372998
  0
VERTEX
  8
0
 62
7
 10
34.38810547
 20
14.94162109
  0
VERTEX
  8
0
 62
7
 10
34.43206104
 20
14.91678760
  0
VERTEX
  8
0
 62
7
 10
34.47415625
 20
14.88934375
  0
VERTEX
  8
0
 62
7
 10
34.51429443
 20
14.85940381
  0
VERTEX
  8
0
 62
7
 10
34.55237891
 20
14.82708203
  0
VERTEX
  8
0
 62
7
 10
34.58831299
 20
14.79249268
  0
VERTEX
  8
0
 62
7
 10
34.62200000
 20
14.75575000
  0
VERTEX
  8
0
 62
7
 10
34.65334326
 20
14.71696826
  0
VERTEX
  8
0
 62
7
 10
34.68224609
 20
14.67626172
  0
VERTEX
  8
0
 62
7
 10
34.70861182
 20
14.63374463
  0
VERTEX
  8
0
 62
7
 10
34.73234375
 20
14.58953125
  0
VERTEX
  8
0
 62
7
 10
34.75334521
 20
14.54373584
  0
VERTEX
  8
0
 62
7
 10
34.77151953
 20
14.49647266
  0
VERTEX
  8
0
 62
7
 10
34.78677002
 20
14.44785596
  0
VERTEX
  8
0
 62
7
 10
34.79900000
 20
14.39800000
  0
VERTEX
  8
0
 62
7
 10
34.96400000
 20
11.49800000
  0
VERTEX
  8
0
 62
7
 10
34.89587500
 20
11.52212500
  0
VERTEX
  8
0
 62
7
 10
34.82700000
 20
11.54100000
  0
VERTEX
  8
0
 62
7
 10
34.76243750
 20
11.55273438
  0
VERTEX
  8
0
 62
7
 10
34.69825000
 20
11.55912500
  0
VERTEX
  8
0
 62
7
 10
34.63518750
 20
11.56195313
  0
VERTEX
  8
0
 62
7
 10
34.57400000
 20
11.56300000
  0
VERTEX
  8
0
 62
7
 10
34.52300000
 20
11.56400000
  0
VERTEX
  8
0
 62
7
 10
34.46000000
 20
11.56500000
  0
VERTEX
  8
0
 62
7
 10
34.34775000
 20
11.56312500
  0
VERTEX
  8
0
 62
7
 10
34.23700000
 20
11.55900000
  0
VERTEX
  8
0
 62
7
 10
34.01000000
 20
11.55400000
  0
VERTEX
  8
0
 62
7
 10
13.99000000
 20
11.55400000
  0
SEQEND
  0
POLYLINE
  8
0
 62
7
 66
1
 70
1
  0
VERTEX
  8
0
 62
7
 10
35.05700000
 20
11.44500000
  0
VERTEX
  8
0
 62
7
 10
34.89000000
 20
14.38100000
  0
VERTEX
  8
0
 62
7
 10
34.94567188
 20
14.41314063
  0
VERTEX
  8
0
 62
7
 10
35.00312500
 20
14.44087500
  0
VERTEX
  8
0
 62
7
 10
35.06226563
 20
14.46467188
  0
VERTEX
  8
0
 62
7
 10
35.12300000
 20
14.48500000
  0
VERTEX
  8
0
 62
7
 10
35.17904688
 20
14.49896875
  0
VERTEX
  8
0
 62
7
 10
35.23612500
 20
14.50825000
  0
VERTEX
  8
0
 62
7
 10
35.29414063
 20
14.51340625
  0
VERTEX
  8
0
 62
7
 10
35.35300000
 20
14.51500000
  0
VERTEX
  8
0
 62
7
 10
35.42668750
 20
14.51271875
  0
VERTEX
  8
0
 62
7
 10
35.50075000
 20
14.50650000
  0
VERTEX
  8
0
 62
7
 10
35.57518750
 20
14.49728125
  0
VERTEX
  8
0
 62
7
 10
35.65000000
 20
14.48600000
  0
VERTEX
  8
0
 62
7
 10
35.73167578
 20
14.47044336
  0
VERTEX
  8
0
 62
7
 10
35.81234375
 20
14.45079688
  0
VERTEX
  8
0
 62
7
 10
35.89183984
 20
14.42709570
  0
VERTEX
  8
0
 62
7
 10
35.97000000
 20
14.39937500
  0
VERTEX
  8
0
 62
7
 10
36.04666016
 20
14.36766992
  0
VERTEX
  8
0
 62
7
 10
36.12165625
 20
14.33201563
  0
VERTEX
  8
0
 62
7
 10
36.19482422
 20
14.29244727
  0
VERTEX
  8
0
 62
7
 10
36.26600000
 20
14.24900000
  0
VERTEX
  8
0
 62
7
 10
36.27900000
 20
13.51700000
  0
VERTEX
  8
0
 62
7
 10
36.28000000
 20
13.26900000
  0
VERTEX
  8
0
 62
7
 10
36.28000000
 20
13.00300000
  0
VERTEX
  8
0
 62
7
 10
36.27900000
 20
12.73700000
  0
VERTEX
  8
0
 62
7
 10
36.27951563
 20
12.56150000
  0
VERTEX
  8
0
 62
7
 10
36.28162500
 20
12.38600000
  0
VERTEX
  8
0
 62
7
 10
36.28617188
 20
12.21050000
  0
VERTEX
  8
0
 62
7
 10
36.29400000
 20
12.03500000
  0
VERTEX
  8
0
 62
7
 10
36.31081250
 20
11.76537500
  0
VERTEX
  8
0
 62
7
 10
36.33250000
 20
11.49650000
  0
VERTEX
  8
0
 62
7
 10
36.35868750
 20
11.22837500
  0
VERTEX
  8
0
 62
7
 10
36.38900000
 20
10.96100000
  0
VERTEX
  8
0
 62
7
 10
36.29532813
 20
10.98560938
  0
VERTEX
  8
0
 62
7
 10
36.20062500
 20
11.00562500
  0
VERTEX
  8
0
 62
7
 10
36.10535938
 20
11.02132813
  0
VERTEX
  8
0
 62
7
 10
36.01000000
 20
11.03300000
  0
VERTEX
  8
0
 62
7
 10
35.92087500
 20
11.03925000
  0
VERTEX
  8
0
 62
7
 10
35.83100000
 20
11.04100000
  0
VERTEX
  8
0
 62
7
 10
35.76280469
 20
11.03990820
  0
VERTEX
  8
0
 62
7
 10
35.69475000
 20
11.03676563
  0
VERTEX
  8
0
 62
7
 10
35.62688281
 20
11.03177148
  0
VERTEX
  8
0
 62
7
 10
35.55925000
 20
11.02512500
  0
VERTEX
  8
0
 62
7
 10
35.49189844
 20
11.01702539
  0
VERTEX
  8
0
 62
7
 10
35.42487500
 20
11.00767188
  0
VERTEX
  8
0
 62
7
 10
35.35822656
 20
10.99726367
  0
VERTEX
  8
0
 62
7
 10
35.29200000
 20
10.98600000
  0
VERTEX
  8
0
 62
7
 10
35.21623438
 20
10.97087500
  0
VERTEX
  8
0
 62
7
 10
35.14187500
 20
10.95200000
  0
VERTEX
  8
0
 62
7
 10
35.06882813
 20
10.93087500
  0
VERTEX
  8
0
 62
7
 10
34.99700000
 20
10.90900000
  0
VERTEX
  8
0
 62
7
 10
34.93446875
 20
10.88921875
  0
VERTEX
  8
0
 62
7
 10
34.87250000
 20
10.87075000
  0
VERTEX
  8
0
 62
7
 10
34.81053125
 20
10.85415625
  0
VERTEX
  8
0
 62
7
 10
34.74800000
 20
10.84000000
  0
VERTEX
  8
0
 62
7
 10
34.68500000
 20
10.82700000
  0
VERTEX
  8
0
 62
7
 10
34.60731250
 20
10.81054688
  0
VERTEX
  8
0
 62
7
 10
34.53000000
 20
10.79662500
  0
VERTEX
  8
0
 62
7
 10
34.45043750
 20
10.78664063
  0
VERTEX
  8
0
 62
7
 10
34.36600000
 20
10.78200000
  0
VERTEX
  8
0
 62
7
 10
34.34800000
 20
10.78200000
  0
VERTEX
  8
0
 62
7
 10
34.30700000
 20
10.78100000
  0
VERTEX
  8
0
 62
7
 10
34.27629883
 20
10.78166016
  0
VERTEX
  8
0
 62
7
 10
34.24870313
 20
10.78384375
  0
VERTEX
  8
0
 62
7
 10
34.22422461
 20
10.78785547
  0
VERTEX
  8
0
 62
7
 10
34.20287500
 20
10.79400000
  0
VERTEX
  8
0
 62
7
 10
34.18466602
 20
10.80258203
  0
VERTEX
  8
0
 62
7
 10
34.16960938
 20
10.81390625
  0
VERTEX
  8
0
 62
7
 10
34.15771680
 20
10.82827734
  0
VERTEX
  8
0
 62
7
 10
34.14900000
 20
10.84600000
  0
VERTEX
  8
0
 62
7
 10
34.14400000
 20
10.87300000
  0
VERTEX
  8
0
 62
7
 10
34.14522852
 20
10.88511133
  0
VERTEX
  8
0
 62
7
 10
34.14895313
 20
10.89732813
  0
VERTEX
  8
0
 62
7
 10
34.15523242
 20
10.90947461
  0
VERTEX
  8
0
 62
7
 10
34.16412500
 20
10.92137500
  0
VERTEX
  8
0
 62
7
 10
34.17568945
 20
10.93285352
  0
VERTEX
  8
0
 62
7
 10
34.18998438
 20
10.94373438
  0
VERTEX
  8
0
 62
7
 10
34.20706836
 20
10.95384180
  0
VERTEX
  8
0
 62
7
 10
34.22700000
 20
10.96300000
  0
VERTEX
  8
0
 62
7
 10
34.27618750
 20
10.98171875
  0
VERTEX
  8
0
 62
7
 10
34.32500000
 20
10.99800000
  0
VERTEX
  8
0
 62
7
 10
34.37381250
 20
11.01278125
  0
VERTEX
  8
0
 62
7
 10
34.42300000
 20
11.02700000
  0
VERTEX
  8
0
 62
7
 10
34.49875000
 20
11.04912500
  0
VERTEX
  8
0
 62
7
 10
34.57600000
 20
11.07500000
  0
VERTEX
  8
0
 62
7
 10
34.68500000
 20
11.10700000
  0
VERTEX
  8
0
 62
7
 10
34.71675977
 20
11.11545117
  0
VERTEX
  8
0
 62
7
 10
34.74951563
 20
11.12454688
  0
VERTEX
  8
0
 62
7
 10
34.78285742
 20
11.13465039
  0
VERTEX
  8
0
 62
7
 10
34.81637500
 20
11.14612500
  0
VERTEX
  8
0
 62
7
 10
34.84965820
 20
11.15933398
  0
VERTEX
  8
0
 62
7
 10
34.88229688
 20
11.17464063
  0
VERTEX
  8
0
 62
7
 10
34.91388086
 20
11.19240820
  0
VERTEX
  8
0
 62
7
 10
34.94400000
 20
11.21300000
  0
VERTEX
  8
0
 62
7
 10
34.97001953
 20
11.23498633
  0
VERTEX
  8
0
 62
7
 10
34.99315625
 20
11.25951563
  0
VERTEX
  8
0
 62
7
 10
35.01315234
 20
11.28631836
  0
VERTEX
  8
0
 62
7
 10
35.02975000
 20
11.31512500
  0
VERTEX
  8
0
 62
7
 10
35.04269141
 20
11.34566602
  0
VERTEX
  8
0
 62
7
 10
35.05171875
 20
11.37767188
  0
VERTEX
  8
0
 62
7
 10
35.05657422
 20
11.41087305
  0
VERTEX
  8
0
 62
7
 10
35.05700000
 20
11.44500000
  0
SEQEND
  0
POLYLINE
  8
0
 62
7
 66
1
 70
1
  0
VERTEX
  8
0
 62
7
 10
34.12700000
 20
11.00900000
  0
VERTEX
  8
0
 62
7
 10
34.10512500
 20
11.12525000
  0
VERTEX
  8
0
 62
7
 10
34.08700000
 20
11.24300000
  0
VERTEX
  8
0
 62
7
 10
34.07412500
 20
11.35112500
  0
VERTEX
  8
0
 62
7
 10
34.06500000
 20
11.46000000
  0
VERTEX
  8
0
 62
7
 10
34.06500000
 20
11.46400000
  0
VERTEX
  8
0
 62
7
 10
34.24000000
 20
11.46900000
  0
VERTEX
  8
0
 62
7
 10
34.35000000
 20
11.47312500
  0
VERTEX
  8
0
 62
7
 10
34.46000000
 20
11.47500000
  0
VERTEX
  8
0
 62
7
 10
34.52100000
 20
11.47400000
  0
VERTEX
  8
0
 62
7
 10
34.57200000
 20
11.47300000
  0
VERTEX
  8
0
 62
7
 10
34.63318750
 20
11.47198438
  0
VERTEX
  8
0
 62
7
 10
34.69250000
 20
11.46937500
  0
VERTEX
  8
0
 62
7
 10
34.75031250
 20
11.46357813
  0
VERTEX
  8
0
 62
7
 10
34.80700000
 20
11.45300000
  0
VERTEX
  8
0
 62
7
 10
34.88225000
 20
11.43187500
  0
VERTEX
  8
0
 62
7
 10
34.95600000
 20
11.40400000
  0
VERTEX
  8
0
 62
7
 10
34.94259375
 20
11.36557813
  0
VERTEX
  8
0
 62
7
 10
34.92825000
 20
11.33287500
  0
VERTEX
  8
0
 62
7
 10
34.91128125
 20
11.30598438
  0
VERTEX
  8
0
 62
7
 10
34.89000000
 20
11.28500000
  0
VERTEX
  8
0
 62
7
 10
34.86592773
 20
11.26882617
  0
VERTEX
  8
0
 62
7
 10
34.84029688
 20
11.25460938
  0
VERTEX
  8
0
 62
7
 10
34.81323633
 20
11.24205664
  0
VERTEX
  8
0
 62
7
 10
34.78487500
 20
11.23087500
  0
VERTEX
  8
0
 62
7
 10
34.75534180
 20
11.22077148
  0
VERTEX
  8
0
 62
7
 10
34.72476563
 20
11.21145313
  0
VERTEX
  8
0
 62
7
 10
34.69327539
 20
11.20262695
  0
VERTEX
  8
0
 62
7
 10
34.66100000
 20
11.19400000
  0
VERTEX
  8
0
 62
7
 10
34.60312500
 20
11.17762500
  0
VERTEX
  8
0
 62
7
 10
34.54600000
 20
11.15900000
  0
VERTEX
  8
0
 62
7
 10
34.47237500
 20
11.13537500
  0
VERTEX
  8
0
 62
7
 10
34.39800000
 20
11.11400000
  0
VERTEX
  8
0
 62
7
 10
34.29775000
 20
11.08387500
  0
VERTEX
  8
0
 62
7
 10
34.19300000
 20
11.04700000
  0
VERTEX
  8
0
 62
7
 10
34.15887500
 20
11.03025000
  0
VERTEX
  8
0
 62
7
 10
34.12700000
 20
11.00900000
  0
SEQEND
  0
POLYLINE
  8
0
 62
7
 66
1
  0
VERTEX
  8
0
 62
7
 10
25.49400000
 20
4.07300000
  0
VERTEX
  8
0
 62
7
 10
25.55696875
 20
4.04654688
  0
VERTEX
  8
0
 62
7
 10
25.61825000
 20
4.01662500
  0
VERTEX
  8
0
 62
7
 10
25.67765625
 20
3.98314063
  0
VERTEX
  8
0
 62
7
 10
25.73500000
 20
3.94600000
  0
VERTEX
  8
0
 62
7
 10
25.78069531
 20
3.91164648
  0
VERTEX
  8
0
 62
7
 10
25.82362500
 20
3.87423438
  0
VERTEX
  8
0
 62
7
 10
25.86430469
 20
3.83436133
  0
VERTEX
  8
0
 62
7
 10
25.90325000
 20
3.79262500
  0
VERTEX
  8
0
 62
7
 10
25.94097656
 20
3.74962305
  0
VERTEX
  8
0
 62
7
 10
25.97800000
 20
3.70595313
  0
VERTEX
  8
0
 62
7
 10
26.01483594
 20
3.66221289
  0
VERTEX
  8
0
 62
7
 10
26.05200000
 20
3.61900000
  0
VERTEX
  8
0
 62
7
 10
26.09821875
 20
3.56259375
  0
VERTEX
  8
0
 62
7
 10
26.14275000
 20
3.50450000
  0
VERTEX
  8
0
 62
7
 10
26.18840625
 20
3.44715625
  0
VERTEX
  8
0
 62
7
 10
26.23800000
 20
3.39300000
  0
VERTEX
  8
0
 62
7
 10
26.29764258
 20
3.33784375
  0
VERTEX
  8
0
 62
7
 10
26.36020313
 20
3.28643750
  0
VERTEX
  8
0
 62
7
 10
26.42550586
 20
3.23887500
  0
VERTEX
  8
0
 62
7
 10
26.49337500
 20
3.19525000
  0
VERTEX
  8
0
 62
7
 10
26.56363477
 20
3.15565625
  0
VERTEX
  8
0
 62
7
 10
26.63610938
 20
3.12018750
  0
VERTEX
  8
0
 62
7
 10
26.71062305
 20
3.08893750
  0
VERTEX
  8
0
 62
7
 10
26.78700000
 20
3.06200000
  0
SEQEND
  0
POLYLINE
  8
0
 62
7
 66
1
  0
VERTEX
  8
0
 62
7
 10
25.49400000
 20
4.07300000
  0
VERTEX
  8
0
 62
7
 10
25.57004688
 20
4.04584375
  0
VERTEX
  8
0
 62
7
 10
25.64787500
 20
4.02450000
  0
VERTEX
  8
0
 62
7
 10
25.72701563
 20
4.00915625
  0
VERTEX
  8
0
 62
7
 10
25.80700000
 20
4.00000000
  0
VERTEX
  8
0
 62
7
 10
25.85347803
 20
3.99727808
  0
VERTEX
  8
0
 62
7
 10
25.89987109
 20
3.99659961
  0
VERTEX
  8
0
 62
7
 10
25.94611768
 20
3.99794556
  0
VERTEX
  8
0
 62
7
 10
25.99215625
 20
4.00129688
  0
VERTEX
  8
0
 62
7
 10
26.03792529
 20
4.00663452
  0
VERTEX
  8
0
 62
7
 10
26.08336328
 20
4.01393945
  0
VERTEX
  8
0
 62
7
 10
26.12840869
 20
4.02319263
  0
VERTEX
  8
0
 62
7
 10
26.17300000
 20
4.03437500
  0
VERTEX
  8
0
 62
7
 10
26.21707568
 20
4.04746753
  0
VERTEX
  8
0
 62
7
 10
26.26057422
 20
4.06245117
  0
VERTEX
  8
0
 62
7
 10
26.30343408
 20
4.07930688
  0
VERTEX
  8
0
 62
7
 10
26.34559375
 20
4.09801563
  0
VERTEX
  8
0
 62
7
 10
26.38699170
 20
4.11855835
  0
VERTEX
  8
0
 62
7
 10
26.42756641
 20
4.14091602
  0
VERTEX
  8
0
 62
7
 10
26.46725635
 20
4.16506958
  0
VERTEX
  8
0
 62
7
 10
26.50600000
 20
4.19100000
  0
SEQEND
  0
POLYLINE
  8
0
 62
7
 66
1
  0
VERTEX
  8
0
 62
7
 10
25.49900000
 20
4.07300000
  0
VERTEX
  8
0
 62
7
 10
25.52185938
 20
4.03043750
  0
VERTEX
  8
0
 62
7
 10
25.54237500
 20
3.98675000
  0
VERTEX
  8
0
 62
7
 10
25.56045313
 20
3.94193750
  0
VERTEX
  8
0
 62
7
 10
25.57600000
 20
3.89600000
  0
VERTEX
  8
0
 62
7
 10
25.59287500
 20
3.83368945
  0
VERTEX
  8
0
 62
7
 10
25.60468750
 20
3.77064063
  0
VERTEX
  8
0
 62
7
 10
25.61171875
 20
3.70705273
  0
VERTEX
  8
0
 62
7
 10
25.61425000
 20
3.64312500
  0
VERTEX
  8
0
 62
7
 10
25.61256250
 20
3.57905664
  0
VERTEX
  8
0
 62
7
 10
25.60693750
 20
3.51504688
  0
VERTEX
  8
0
 62
7
 10
25.59765625
 20
3.45129492
  0
VERTEX
  8
0
 62
7
 10
25.58500000
 20
3.38800000
  0
VERTEX
  8
0
 62
7
 10
25.56973438
 20
3.33643750
  0
VERTEX
  8
0
 62
7
 10
25.55062500
 20
3.28600000
  0
VERTEX
  8
0
 62
7
 10
25.53170313
 20
3.23556250
  0
VERTEX
  8
0
 62
7
 10
25.51700000
 20
3.18400000
  0
VERTEX
  8
0
 62
7
 10
25.50212500
 20
3.09837500
  0
VERTEX
  8
0
 62
7
 10
25.49400000
 20
3.01200000
  0
SEQEND
  0
POLYLINE
  8
0
 62
7
 66
1
  0
VERTEX
  8
0
 62
7
 10
27.39800000
 20
3.38100000
  0
VERTEX
  8
0
 62
7
 10
27.49225000
 20
3.54275000
  0
VERTEX
  8
0
 62
7
 10
27.59400000
 20
3.70000000
  0
VERTEX
  8
0
 62
7
 10
27.63478711
 20
3.75663672
  0
VERTEX
  8
0
 62
7
 10
27.67785938
 20
3.81146875
  0
VERTEX
  8
0
 62
7
 10
27.72240820
 20
3.86512891
  0
VERTEX
  8
0
 62
7
 10
27.76762500
 20
3.91825000
  0
VERTEX
  8
0
 62
7
 10
27.81270117
 20
3.97146484
  0
VERTEX
  8
0
 62
7
 10
27.85682813
 20
4.02540625
  0
VERTEX
  8
0
 62
7
 10
27.89919727
 20
4.08070703
  0
VERTEX
  8
0
 62
7
 10
27.93900000
 20
4.13800000
  0
VERTEX
  8
0
 62
7
 10
28.02332813
 20
4.27503125
  0
VERTEX
  8
0
 62
7
 10
28.10062500
 20
4.41600000
  0
VERTEX
  8
0
 62
7
 10
28.17060938
 20
4.56071875
  0
VERTEX
  8
0
 62
7
 10
28.23300000
 20
4.70900000
  0
SEQEND
  0
POLYLINE
  8
0
 62
7
 66
1
  0
VERTEX
  8
0
 62
7
 10
27.39300000
 20
3.38100000
  0
VERTEX
  8
0
 62
7
 10
27.42128125
 20
3.44657813
  0
VERTEX
  8
0
 62
7
 10
27.44450000
 20
3.51412500
  0
VERTEX
  8
0
 62
7
 10
27.46246875
 20
3.58335938
  0
VERTEX
  8
0
 62
7
 10
27.47500000
 20
3.65400000
  0
VERTEX
  8
0
 62
7
 10
27.47937720
 20
3.70196631
  0
VERTEX
  8
0
 62
7
 10
27.47931445
 20
3.74916797
  0
VERTEX
  8
0
 62
7
 10
27.47527026
 20
3.79568408
  0
VERTEX
  8
0
 62
7
 10
27.46770313
 20
3.84159375
  0
VERTEX
  8
0
 62
7
 10
27.45707153
 20
3.88697607
  0
VERTEX
  8
0
 62
7
 10
27.44383398
 20
3.93191016
  0
VERTEX
  8
0
 62
7
 10
27.42844897
 20
3.97647510
  0
VERTEX
  8
0
 62
7
 10
27.41137500
 20
4.02075000
  0
VERTEX
  8
0
 62
7
 10
27.39307056
 20
4.06481396
  0
VERTEX
  8
0
 62
7
 10
27.37399414
 20
4.10874609
  0
VERTEX
  8
0
 62
7
 10
27.35460425
 20
4.15262549
  0
VERTEX
  8
0
 62
7
 10
27.33535938
 20
4.19653125
  0
VERTEX
  8
0
 62
7
 10
27.31671802
 20
4.24054248
  0
VERTEX
  8
0
 62
7
 10
27.29913867
 20
4.28473828
  0
VERTEX
  8
0
 62
7
 10
27.28307983
 20
4.32919775
  0
VERTEX
  8
0
 62
7
 10
27.26900000
 20
4.37400000
  0
VERTEX
  8
0
 62
7
 10
27.24300000
 20
4.46700000
  0
SEQEND
  0
POLYLINE
  8
0
 62
7
 66
1
  0
VERTEX
  8
0
 62
7
 10
27.40300000
 20
3.38100000
  0
VERTEX
  8
0
 62
7
 10
27.43854688
 20
3.41432813
  0
VERTEX
  8
0
 62
7
 10
27.47737500
 20
3.44362500
  0
VERTEX
  8
0
 62
7
 10
27.51901563
 20
3.46860938
  0
VERTEX
  8
0
 62
7
 10
27.56300000
 20
3.48900000
  0
VERTEX
  8
0
 62
7
 10
27.59331055
 20
3.49963281
  0
VERTEX
  8
0
 62
7
 10
27.62417188
 20
3.50768750
  0
VERTEX
  8
0
 62
7
 10
27.65547852
 20
3.51339844
  0
VERTEX
  8
0
 62
7
 10
27.68712500
 20
3.51700000
  0
VERTEX
  8
0
 62
7
 10
27.71900586
 20
3.51872656
  0
VERTEX
  8
0
 62
7
 10
27.75101563
 20
3.51881250
  0
VERTEX
  8
0
 62
7
 10
27.78304883
 20
3.51749219
  0
VERTEX
  8
0
 62
7
 10
27.81500000
 20
3.51500000
  0
VERTEX
  8
0
 62
7
 10
27.87339063
 20
3.50481250
  0
VERTEX
  8
0
 62
7
 10
27.93037500
 20
3.48825000
  0
VERTEX
  8
0
 62
7
 10
27.98642188
 20
3.46831250
  0
VERTEX
  8
0
 62
7
 10
28.04200000
 20
3.44800000
  0
VERTEX
  8
0
 62
7
 10
28.10937500
 20
3.42312500
  0
VERTEX
  8
0
 62
7
 10
28.17600000
 20
3.39600000
  0
SEQEND
  0
POLYLINE
  8
0
 62
7
 66
1
  0
VERTEX
  8
0
 62
7
 10
28.83600000
 20
4.29200000
  0
VERTEX
  8
0
 62
7
 10
28.91712500
 20
4.23450000
  0
VERTEX
  8
0
 62
7
 10
28.99600000
 20
4.17400000
  0
VERTEX
  8
0
 62
7
 10
29.05913574
 20
4.12249146
  0
VERTEX
  8
0
 62
7
 10
29.12064844
 20
4.06924414
  0
VERTEX
  8
0
 62
7
 10
29.18050879
 20
4.01430054
  0
VERTEX
  8
0
 62
7
 10
29.23868750
 20
3.95770313
  0
VERTEX
  8
0
 62
7
 10
29.29515527
 20
3.89949438
  0
VERTEX
  8
0
 62
7
 10
29.34988281
 20
3.83971680
  0
VERTEX
  8
0
 62
7
 10
29.40284082
 20
3.77841284
  0
VERTEX
  8
0
 62
7
 10
29.45400000
 20
3.71562500
  0
VERTEX
  8
0
 62
7
 10
29.50333105
 20
3.65139575
  0
VERTEX
  8
0
 62
7
 10
29.55080469
 20
3.58576758
  0
VERTEX
  8
0
 62
7
 10
29.59639160
 20
3.51878296
  0
VERTEX
  8
0
 62
7
 10
29.64006250
 20
3.45048438
  0
VERTEX
  8
0
 62
7
 10
29.68178809
 20
3.38091431
  0
VERTEX
  8
0
 62
7
 10
29.72153906
 20
3.31011523
  0
VERTEX
  8
0
 62
7
 10
29.75928613
 20
3.23812964
  0
VERTEX
  8
0
 62
7
 10
29.79500000
 20
3.16500000
  0
SEQEND
  0
POLYLINE
  8
0
 62
7
 66
1
  0
VERTEX
  8
0
 62
7
 10
28.84600000
 20
4.28700000
  0
VERTEX
  8
0
 62
7
 10
28.90464063
 20
4.26281250
  0
VERTEX
  8
0
 62
7
 10
28.96487500
 20
4.24275000
  0
VERTEX
  8
0
 62
7
 10
29.02642188
 20
4.22681250
  0
VERTEX
  8
0
 62
7
 10
29.08900000
 20
4.21500000
  0
VERTEX
  8
0
 62
7
 10
29.16117773
 20
4.20697656
  0
VERTEX
  8
0
 62
7
 10
29.23348438
 20
4.20462500
  0
VERTEX
  8
0
 62
7
 10
29.30558008
 20
4.20789844
  0
VERTEX
  8
0
 62
7
 10
29.37712500
 20
4.21675000
  0
VERTEX
  8
0
 62
7
 10
29.44777930
 20
4.23113281
  0
VERTEX
  8
0
 62
7
 10
29.51720313
 20
4.25100000
  0
VERTEX
  8
0
 62
7
 10
29.58505664
 20
4.27630469
  0
VERTEX
  8
0
 62
7
 10
29.65100000
 20
4.30700000
  0
SEQEND
  0
POLYLINE
  8
0
 62
7
 66
1
  0
VERTEX
  8
0
 62
7
 10
28.84100000
 20
4.28700000
  0
VERTEX
  8
0
 62
7
 10
28.88296875
 20
4.22254688
  0
VERTEX
  8
0
 62
7
 10
28.92025000
 20
4.15537500
  0
VERTEX
  8
0
 62
7
 10
28.95265625
 20
4.08576563
  0
VERTEX
  8
0
 62
7
 10
28.98000000
 20
4.01400000
  0
VERTEX
  8
0
 62
7
 10
28.99520020
 20
3.96668018
  0
VERTEX
  8
0
 62
7
 10
29.00817969
 20
3.91889453
  0
VERTEX
  8
0
 62
7
 10
29.01894434
 20
3.87071631
  0
VERTEX
  8
0
 62
7
 10
29.02750000
 20
3.82221875
  0
VERTEX
  8
0
 62
7
 10
29.03385254
 20
3.77347510
  0
VERTEX
  8
0
 62
7
 10
29.03800781
 20
3.72455859
  0
VERTEX
  8
0
 62
7
 10
29.03997168
 20
3.67554248
  0
VERTEX
  8
0
 62
7
 10
29.03975000
 20
3.62650000
  0
VERTEX
  8
0
 62
7
 10
29.03734863
 20
3.57750439
  0
VERTEX
  8
0
 62
7
 10
29.03277344
 20
3.52862891
  0
VERTEX
  8
0
 62
7
 10
29.02603027
 20
3.47994678
  0
VERTEX
  8
0
 62
7
 10
29.01712500
 20
3.43153125
  0
VERTEX
  8
0
 62
7
 10
29.00606348
 20
3.38345557
  0
VERTEX
  8
0
 62
7
 10
28.99285156
 20
3.33579297
  0
VERTEX
  8
0
 62
7
 10
28.97749512
 20
3.28861670
  0
VERTEX
  8
0
 62
7
 10
28.96000000
 20
3.24200000
  0
SEQEND
  0
POLYLINE
  8
0
 62
7
 66
1
  0
VERTEX
  8
0
 62
7
 10
28.95900000
 20
4.89000000
  0
VERTEX
  8
0
 62
7
 10
29.04614063
 20
4.98223438
  0
VERTEX
  8
0
 62
7
 10
29.13037500
 20
5.07737500
  0
VERTEX
  8
0
 62
7
 10
29.21142188
 20
5.17532813
  0
VERTEX
  8
0
 62
7
 10
29.28900000
 20
5.27600000
  0
VERTEX
  8
0
 62
7
 10
29.37378125
 20
5.39414844
  0
VERTEX
  8
0
 62
7
 10
29.45406250
 20
5.51525000
  0
VERTEX
  8
0
 62
7
 10
29.52975000
 20
5.63916406
  0
VERTEX
  8
0
 62
7
 10
29.60075000
 20
5.76575000
  0
VERTEX
  8
0
 62
7
 10
29.66696875
 20
5.89486719
  0
VERTEX
  8
0
 62
7
 10
29.72831250
 20
6.02637500
  0
VERTEX
  8
0
 62
7
 10
29.78468750
 20
6.16013281
  0
VERTEX
  8
0
 62
7
 10
29.83600000
 20
6.29600000
  0
SEQEND
  0
POLYLINE
  8
0
 62
7
 66
1
  0
VERTEX
  8
0
 62
7
 10
28.96400000
 20
4.88500000
  0
VERTEX
  8
0
 62
7
 10
29.01070313
 20
4.91480273
  0
VERTEX
  8
0
 62
7
 10
29.05918750
 20
4.94117188
  0
VERTEX
  8
0
 62
7
 10
29.10926563
 20
4.96404883
  0
VERTEX
  8
0
 62
7
 10
29.16075000
 20
4.98337500
  0
VERTEX
  8
0
 62
7
 10
29.21345313
 20
4.99909180
  0
VERTEX
  8
0
 62
7
 10
29.26718750
 20
5.01114063
  0
VERTEX
  8
0
 62
7
 10
29.32176563
 20
5.01946289
  0
VERTEX
  8
0
 62
7
 10
29.37700000
 20
5.02400000
  0
VERTEX
  8
0
 62
7
 10
29.42713672
 20
5.02466016
  0
VERTEX
  8
0
 62
7
 10
29.47696875
 20
5.02215625
  0
VERTEX
  8
0
 62
7
 10
29.52637891
 20
5.01651172
  0
VERTEX
  8
0
 62
7
 10
29.57525000
 20
5.00775000
  0
VERTEX
  8
0
 62
7
 10
29.62346484
 20
4.99589453
  0
VERTEX
  8
0
 62
7
 10
29.67090625
 20
4.98096875
  0
VERTEX
  8
0
 62
7
 10
29.71745703
 20
4.96299609
  0
VERTEX
  8
0
 62
7
 10
29.76300000
 20
4.94200000
  0
SEQEND
  0
POLYLINE
  8
0
 62
7
 66
1
  0
VERTEX
  8
0
 62
7
 10
28.95900000
 20
4.89000000
  0
VERTEX
  8
0
 62
7
 10
28.98389063
 20
4.95239063
  0
VERTEX
  8
0
 62
7
 10
29.00437500
 20
5.01637500
  0
VERTEX
  8
0
 62
7
 10
29.02017188
 20
5.08167188
  0
VERTEX
  8
0
 62
7
 10
29.03100000
 20
5.14800000
  0
VERTEX
  8
0
 62
7
 10
29.03617505
 20
5.20142822
  0
VERTEX
  8
0
 62
7
 10
29.03822852
 20
5.25475391
  0
VERTEX
  8
0
 62
7
 10
29.03720288
 20
5.30785107
  0
VERTEX
  8
0
 62
7
 10
29.03314063
 20
5.36059375
  0
VERTEX
  8
0
 62
7
 10
29.02608423
 20
5.41285596
  0
VERTEX
  8
0
 62
7
 10
29.01607617
 20
5.46451172
  0
VERTEX
  8
0
 62
7
 10
29.00315894
 20
5.51543506
  0
VERTEX
  8
0
 62
7
 10
28.98737500
 20
5.56550000
  0
VERTEX
  8
0
 62
7
 10
28.96876685
 20
5.61458057
  0
VERTEX
  8
0
 62
7
 10
28.94737695
 20
5.66255078
  0
VERTEX
  8
0
 62
7
 10
28.92324780
 20
5.70928467
  0
VERTEX
  8
0
 62
7
 10
28.89642188
 20
5.75465625
  0
VERTEX
  8
0
 62
7
 10
28.86694165
 20
5.79853955
  0
VERTEX
  8
0
 62
7
 10
28.83484961
 20
5.84080859
  0
VERTEX
  8
0
 62
7
 10
28.80018823
 20
5.88133740
  0
VERTEX
  8
0
 62
7
 10
28.76300000
 20
5.92000000
  0
SEQEND
  0
POLYLINE
  8
0
 62
7
 66
1
  0
VERTEX
  8
0
 62
7
 10
29.70400000
 20
7.06700000
  0
VERTEX
  8
0
 62
7
 10
29.59100000
 20
7.23300000
  0
VERTEX
  8
0
 62
7
 10
29.53781836
 20
7.30665820
  0
VERTEX
  8
0
 62
7
 10
29.48242188
 20
7.37882813
  0
VERTEX
  8
0
 62
7
 10
29.42578320
 20
7.45017773
  0
VERTEX
  8
0
 62
7
 10
29.36887500
 20
7.52137500
  0
VERTEX
  8
0
 62
7
 10
29.31266992
 20
7.59308789
  0
VERTEX
  8
0
 62
7
 10
29.25814063
 20
7.66598438
  0
VERTEX
  8
0
 62
7
 10
29.20625977
 20
7.74073242
  0
VERTEX
  8
0
 62
7
 10
29.15800000
 20
7.81800000
  0
VERTEX
  8
0
 62
7
 10
29.11047070
 20
7.90189648
  0
VERTEX
  8
0
 62
7
 10
29.06539063
 20
7.98704688
  0
VERTEX
  8
0
 62
7
 10
29.02277148
 20
8.07339258
  0
VERTEX
  8
0
 62
7
 10
28.98262500
 20
8.16087500
  0
VERTEX
  8
0
 62
7
 10
28.94496289
 20
8.24943555
  0
VERTEX
  8
0
 62
7
 10
28.90979688
 20
8.33901563
  0
VERTEX
  8
0
 62
7
 10
28.87713867
 20
8.42955664
  0
VERTEX
  8
0
 62
7
 10
28.84700000
 20
8.52100000
  0
SEQEND
  0
POLYLINE
  8
0
 62
7
 66
1
  0
VERTEX
  8
0
 62
7
 10
29.64300000
 20
7.15200000
  0
VERTEX
  8
0
 62
7
 10
29.62126563
 20
7.20895313
  0
VERTEX
  8
0
 62
7
 10
29.60262500
 20
7.26712500
  0
VERTEX
  8
0
 62
7
 10
29.58717188
 20
7.32623438
  0
VERTEX
  8
0
 62
7
 10
29.57500000
 20
7.38600000
  0
VERTEX
  8
0
 62
7
 10
29.56711011
 20
7.43914136
  0
VERTEX
  8
0
 62
7
 10
29.56180273
 20
7.49238086
  0
VERTEX
  8
0
 62
7
 10
29.55905884
 20
7.54562915
  0
VERTEX
  8
0
 62
7
 10
29.55885938
 20
7.59879688
  0
VERTEX
  8
0
 62
7
 10
29.56118530
 20
7.65179468
  0
VERTEX
  8
0
 62
7
 10
29.56601758
 20
7.70453320
  0
VERTEX
  8
0
 62
7
 10
29.57333716
 20
7.75692310
  0
VERTEX
  8
0
 62
7
 10
29.58312500
 20
7.80887500
  0
VERTEX
  8
0
 62
7
 10
29.59536206
 20
7.86029956
  0
VERTEX
  8
0
 62
7
 10
29.61002930
 20
7.91110742
  0
VERTEX
  8
0
 62
7
 10
29.62710767
 20
7.96120923
  0
VERTEX
  8
0
 62
7
 10
29.64657813
 20
8.01051563
  0
VERTEX
  8
0
 62
7
 10
29.66842163
 20
8.05893726
  0
VERTEX
  8
0
 62
7
 10
29.69261914
 20
8.10638477
  0
VERTEX
  8
0
 62
7
 10
29.71915161
 20
8.15276880
  0
VERTEX
  8
0
 62
7
 10
29.74800000
 20
8.19800000
  0
SEQEND
  0
POLYLINE
  8
0
 62
7
 66
1
  0
VERTEX
  8
0
 62
7
 10
29.63500000
 20
7.16000000
  0
VERTEX
  8
0
 62
7
 10
29.60068750
 20
7.19521875
  0
VERTEX
  8
0
 62
7
 10
29.56375000
 20
7.22725000
  0
VERTEX
  8
0
 62
7
 10
29.52418750
 20
7.25590625
  0
VERTEX
  8
0
 62
7
 10
29.48200000
 20
7.28100000
  0
VERTEX
  8
0
 62
7
 10
29.44343872
 20
7.29985864
  0
VERTEX
  8
0
 62
7
 10
29.40399414
 20
7.31557227
  0
VERTEX
  8
0
 62
7
 10
29.36383765
 20
7.32815991
  0
VERTEX
  8
0
 62
7
 10
29.32314063
 20
7.33764063
  0
VERTEX
  8
0
 62
7
 10
29.28207446
 20
7.34403345
  0
VERTEX
  8
0
 62
7
 10
29.24081055
 20
7.34735742
  0
VERTEX
  8
0
 62
7
 10
29.19952026
 20
7.34763159
  0
VERTEX
  8
0
 62
7
 10
29.15837500
 20
7.34487500
  0
VERTEX
  8
0
 62
7
 10
29.11754614
 20
7.33910669
  0
VERTEX
  8
0
 62
7
 10
29.07720508
 20
7.33034570
  0
VERTEX
  8
0
 62
7
 10
29.03752319
 20
7.31861108
  0
VERTEX
  8
0
 62
7
 10
28.99867188
 20
7.30392188
  0
VERTEX
  8
0
 62
7
 10
28.96082251
 20
7.28629712
  0
VERTEX
  8
0
 62
7
 10
28.92414648
 20
7.26575586
  0
VERTEX
  8
0
 62
7
 10
28.88881519
 20
7.24231714
  0
VERTEX
  8
0
 62
7
 10
28.85500000
 20
7.21600000
  0
SEQEND
  0
POLYLINE
  8
0
 62
7
 66
1
 70
1
  0
VERTEX
  8
0
 62
7
 10
41.92700000
 20
8.18700000
  0
VERTEX
  8
0
 62
7
 10
41.90000000
 20
3.44500000
  0
VERTEX
  8
0
 62
7
 10
42.32100000
 20
2.93300000
  0
VERTEX
  8
0
 62
7
 10
42.32400000
 20
7.89800000
  0
VERTEX
  8
0
 62
7
 10
42.25965625
 20
7.92325000
  0
VERTEX
  8
0
 62
7
 10
42.19850000
 20
7.95375000
  0
VERTEX
  8
0
 62
7
 10
42.14034375
 20
7.98912500
  0
VERTEX
  8
0
 62
7
 10
42.08500000
 20
8.02900000
  0
VERTEX
  8
0
 62
7
 10
42.04132813
 20
8.06479688
  0
VERTEX
  8
0
 62
7
 10
42.00037500
 20
8.10312500
  0
VERTEX
  8
0
 62
7
 10
41.96223438
 20
8.14389062
  0
VERTEX
  8
0
 62
7
 10
41.92700000
 20
8.18700000
  0
SEQEND
  0
POLYLINE
  8
0
 62
7
 66
1
 70
1
  0
VERTEX
  8
0
 62
7
 10
36.22500000
 20
8.23600000
  0
VERTEX
  8
0
 62
7
 10
36.13607813
 20
8.30139063
  0
VERTEX
  8
0
 62
7
 10
36.04387500
 20
8.36387500
  0
VERTEX
  8
0
 62
7
 10
35.94923438
 20
8.42317188
  0
VERTEX
  8
0
 62
7
 10
35.85300000
 20
8.47900000
  0
VERTEX
  8
0
 62
7
 10
35.77500903
 20
8.52079688
  0
VERTEX
  8
0
 62
7
 10
35.69594727
 20
8.56029688
  0
VERTEX
  8
0
 62
7
 10
35.61586890
 20
8.59747656
  0
VERTEX
  8
0
 62
7
 10
35.53482813
 20
8.63231250
  0
VERTEX
  8
0
 62
7
 10
35.45287915
 20
8.66478125
  0
VERTEX
  8
0
 62
7
 10
35.37007617
 20
8.69485938
  0
VERTEX
  8
0
 62
7
 10
35.28647339
 20
8.72252344
  0
VERTEX
  8
0
 62
7
 10
35.20212500
 20
8.74775000
  0
VERTEX
  8
0
 62
7
 10
35.11708521
 20
8.77051563
  0
VERTEX
  8
0
 62
7
 10
35.03140820
 20
8.79079688
  0
VERTEX
  8
0
 62
7
 10
34.94514819
 20
8.80857031
  0
VERTEX
  8
0
 62
7
 10
34.85835938
 20
8.82381250
  0
VERTEX
  8
0
 62
7
 10
34.77109595
 20
8.83650000
  0
VERTEX
  8
0
 62
7
 10
34.68341211
 20
8.84660938
  0
VERTEX
  8
0
 62
7
 10
34.59536206
 20
8.85411719
  0
VERTEX
  8
0
 62
7
 10
34.50700000
 20
8.85900000
  0
VERTEX
  8
0
 62
7
 10
34.40613257
 20
8.86105884
  0
VERTEX
  8
0
 62
7
 10
34.30563867
 20
8.85920508
  0
VERTEX
  8
0
 62
7
 10
34.20549341
 20
8.85376831
  0
VERTEX
  8
0
 62
7
 10
34.10567188
 20
8.84507813
  0
VERTEX
  8
0
 62
7
 10
34.00614917
 20
8.83346411
  0
VERTEX
  8
0
 62
7
 10
33.90690039
 20
8.81925586
  0
VERTEX
  8
0
 62
7
 10
33.80790063
 20
8.80278296
  0
VERTEX
  8
0
 62
7
 10
33.70912500
 20
8.78437500
  0
VERTEX
  8
0
 62
7
 10
33.61054858
 20
8.76436157
  0
VERTEX
  8
0
 62
7
 10
33.51214648
 20
8.74307227
  0
VERTEX
  8
0
 62
7
 10
33.41389380
 20
8.72083667
  0
VERTEX
  8
0
 62
7
 10
33.31576563
 20
8.69798438
  0
VERTEX
  8
0
 62
7
 10
33.21773706
 20
8.67484497
  0
VERTEX
  8
0
 62
7
 10
33.11978320
 20
8.65174805
  0
VERTEX
  8
0
 62
7
 10
33.02187915
 20
8.62902319
  0
VERTEX
  8
0
 62
7
 10
32.92400000
 20
8.60700000
  0
VERTEX
  8
0
 62
7
 10
32.76078516
 20
8.56927539
  0
VERTEX
  8
0
 62
7
 10
32.59796875
 20
8.52907813
  0
VERTEX
  8
0
 62
7
 10
32.43529297
 20
8.48787305
  0
VERTEX
  8
0
 62
7
 10
32.27250000
 20
8.44712500
  0
VERTEX
  8
0
 62
7
 10
32.10933203
 20
8.40829883
  0
VERTEX
  8
0
 62
7
 10
31.94553125
 20
8.37285938
  0
VERTEX
  8
0
 62
7
 10
31.78083984
 20
8.34227148
  0
VERTEX
  8
0
 62
7
 10
31.61500000
 20
8.31800000
  0
VERTEX
  8
0
 62
7
 10
31.42581250
 20
8.29742188
  0
VERTEX
  8
0
 62
7
 10
31.23625000
 20
8.28237500
  0
VERTEX
  8
0
 62
7
 10
31.04631250
 20
8.27314063
  0
VERTEX
  8
0
 62
7
 10
30.85600000
 20
8.27000000
  0
VERTEX
  8
0
 62
7
 10
30.73900000
 20
8.27137500
  0
VERTEX
  8
0
 62
7
 10
30.62200000
 20
8.27500000
  0
VERTEX
  8
0
 62
7
 10
30.65000000
 20
3.48000000
  0
VERTEX
  8
0
 62
7
 10
30.71121680
 20
3.46430273
  0
VERTEX
  8
0
 62
7
 10
30.77298438
 20
3.44967188
  0
VERTEX
  8
0
 62
7
 10
30.83472852
 20
3.43642383
  0
VERTEX
  8
0
 62
7
 10
30.89587500
 20
3.42487500
  0
VERTEX
  8
0
 62
7
 10
30.95584961
 20
3.41534180
  0
VERTEX
  8
0
 62
7
 10
31.01407813
 20
3.40814063
  0
VERTEX
  8
0
 62
7
 10
31.06998633
 20
3.40358789
  0
VERTEX
  8
0
 62
7
 10
31.12300000
 20
3.40200000
  0
VERTEX
  8
0
 62
7
 10
31.24695313
 20
3.40469727
  0
VERTEX
  8
0
 62
7
 10
31.37062500
 20
3.41232813
  0
VERTEX
  8
0
 62
7
 10
31.49410938
 20
3.42420117
  0
VERTEX
  8
0
 62
7
 10
31.61750000
 20
3.43962500
  0
VERTEX
  8
0
 62
7
 10
31.74089063
 20
3.45790820
  0
VERTEX
  8
0
 62
7
 10
31.86437500
 20
3.47835938
  0
VERTEX
  8
0
 62
7
 10
31.98804688
 20
3.50028711
  0
VERTEX
  8
0
 62
7
 10
32.11200000
 20
3.52300000
  0
VERTEX
  8
0
 62
7
 10
32.30400000
 20
3.55800000
  0
VERTEX
  8
0
 62
7
 10
32.41767188
 20
3.58014063
  0
VERTEX
  8
0
 62
7
 10
32.53087500
 20
3.60537500
  0
VERTEX
  8
0
 62
7
 10
32.64389063
 20
3.63267188
  0
VERTEX
  8
0
 62
7
 10
32.75700000
 20
3.66100000
  0
VERTEX
  8
0
 62
7
 10
32.88715625
 20
3.69301563
  0
VERTEX
  8
0
 62
7
 10
33.01825000
 20
3.72362500
  0
VERTEX
  8
0
 62
7
 10
33.15046875
 20
3.75142188
  0
VERTEX
  8
0
 62
7
 10
33.28400000
 20
3.77500000
  0
VERTEX
  8
0
 62
7
 10
33.40732031
 20
3.79444141
  0
VERTEX
  8
0
 62
7
 10
33.53125000
 20
3.81334375
  0
VERTEX
  8
0
 62
7
 10
33.65574219
 20
3.83107422
  0
VERTEX
  8
0
 62
7
 10
33.78075000
 20
3.84700000
  0
VERTEX
  8
0
 62
7
 10
33.90622656
 20
3.86048828
  0
VERTEX
  8
0
 62
7
 10
34.03212500
 20
3.87090625
  0
VERTEX
  8
0
 62
7
 10
34.15839844
 20
3.87762109
  0
VERTEX
  8
0
 62
7
 10
34.28500000
 20
3.88000000
  0
VERTEX
  8
0
 62
7
 10
34.37200000
 20
3.87862500
  0
VERTEX
  8
0
 62
7
 10
34.45900000
 20
3.87500000
  0
VERTEX
  8
0
 62
7
 10
34.59292578
 20
3.86529297
  0
VERTEX
  8
0
 62
7
 10
34.72678125
 20
3.85171875
  0
VERTEX
  8
0
 62
7
 10
34.86030859
 20
3.83397266
  0
VERTEX
  8
0
 62
7
 10
34.99325000
 20
3.81175000
  0
VERTEX
  8
0
 62
7
 10
35.12534766
 20
3.78474609
  0
VERTEX
  8
0
 62
7
 10
35.25634375
 20
3.75265625
  0
VERTEX
  8
0
 62
7
 10
35.38598047
 20
3.71517578
  0
VERTEX
  8
0
 62
7
 10
35.51400000
 20
3.67200000
  0
VERTEX
  8
0
 62
7
 10
35.60768359
 20
3.63652344
  0
VERTEX
  8
0
 62
7
 10
35.70040625
 20
3.59837500
  0
VERTEX
  8
0
 62
7
 10
35.79205078
 20
3.55760156
  0
VERTEX
  8
0
 62
7
 10
35.88250000
 20
3.51425000
  0
VERTEX
  8
0
 62
7
 10
35.97163672
 20
3.46836719
  0
VERTEX
  8
0
 62
7
 10
36.05934375
 20
3.42000000
  0
VERTEX
  8
0
 62
7
 10
36.14550391
 20
3.36919531
  0
VERTEX
  8
0
 62
7
 10
36.23000000
 20
3.31600000
  0
VERTEX
  8
0
 62
7
 10
36.31378711
 20
3.36894922
  0
VERTEX
  8
0
 62
7
 10
36.39929688
 20
3.41971875
  0
VERTEX
  8
0
 62
7
 10
36.48637695
 20
3.46819141
  0
VERTEX
  8
0
 62
7
 10
36.57487500
 20
3.51425000
  0
VERTEX
  8
0
 62
7
 10
36.66463867
 20
3.55777734
  0
VERTEX
  8
0
 62
7
 10
36.75551563
 20
3.59865625
  0
VERTEX
  8
0
 62
7
 10
36.84735352
 20
3.63676953
  0
VERTEX
  8
0
 62
7
 10
36.94000000
 20
3.67200000
  0
VERTEX
  8
0
 62
7
 10
37.06801953
 20
3.71517578
  0
VERTEX
  8
0
 62
7
 10
37.19765625
 20
3.75265625
  0
VERTEX
  8
0
 62
7
 10
37.32865234
 20
3.78474609
  0
VERTEX
  8
0
 62
7
 10
37.46075000
 20
3.81175000
  0
VERTEX
  8
0
 62
7
 10
37.59369141
 20
3.83397266
  0
VERTEX
  8
0
 62
7
 10
37.72721875
 20
3.85171875
  0
VERTEX
  8
0
 62
7
 10
37.86107422
 20
3.86529297
  0
VERTEX
  8
0
 62
7
 10
37.99500000
 20
3.87500000
  0
VERTEX
  8
0
 62
7
 10
38.08200000
 20
3.87862500
  0
VERTEX
  8
0
 62
7
 10
38.16900000
 20
3.88000000
  0
VERTEX
  8
0
 62
7
 10
38.29560156
 20
3.87762109
  0
VERTEX
  8
0
 62
7
 10
38.42187500
 20
3.87090625
  0
VERTEX
  8
0
 62
7
 10
38.54777344
 20
3.86048828
  0
VERTEX
  8
0
 62
7
 10
38.67325000
 20
3.84700000
  0
VERTEX
  8
0
 62
7
 10
38.79825781
 20
3.83107422
  0
VERTEX
  8
0
 62
7
 10
38.92275000
 20
3.81334375
  0
VERTEX
  8
0
 62
7
 10
39.04667969
 20
3.79444141
  0
VERTEX
  8
0
 62
7
 10
39.17000000
 20
3.77500000
  0
VERTEX
  8
0
 62
7
 10
39.30353125
 20
3.75142188
  0
VERTEX
  8
0
 62
7
 10
39.43575000
 20
3.72362500
  0
VERTEX
  8
0
 62
7
 10
39.56684375
 20
3.69301563
  0
VERTEX
  8
0
 62
7
 10
39.69700000
 20
3.66100000
  0
VERTEX
  8
0
 62
7
 10
39.81010938
 20
3.63267188
  0
VERTEX
  8
0
 62
7
 10
39.92312500
 20
3.60537500
  0
VERTEX
  8
0
 62
7
 10
40.03632813
 20
3.58014063
  0
VERTEX
  8
0
 62
7
 10
40.15000000
 20
3.55800000
  0
VERTEX
  8
0
 62
7
 10
40.34200000
 20
3.52300000
  0
VERTEX
  8
0
 62
7
 10
40.46595313
 20
3.50028711
  0
VERTEX
  8
0
 62
7
 10
40.58962500
 20
3.47835938
  0
VERTEX
  8
0
 62
7
 10
40.71310938
 20
3.45790820
  0
VERTEX
  8
0
 62
7
 10
40.83650000
 20
3.43962500
  0
VERTEX
  8
0
 62
7
 10
40.95989063
 20
3.42420117
  0
VERTEX
  8
0
 62
7
 10
41.08337500
 20
3.41232813
  0
VERTEX
  8
0
 62
7
 10
41.20704688
 20
3.40469727
  0
VERTEX
  8
0
 62
7
 10
41.33100000
 20
3.40200000
  0
VERTEX
  8
0
 62
7
 10
41.38401367
 20
3.40358789
  0
VERTEX
  8
0
 62
7
 10
41.43992188
 20
3.40814063
  0
VERTEX
  8
0
 62
7
 10
41.49815039
 20
3.41534180
  0
VERTEX
  8
0
 62
7
 10
41.55812500
 20
3.42487500
  0
VERTEX
  8
0
 62
7
 10
41.61927148
 20
3.43642383
  0
VERTEX
  8
0
 62
7
 10
41.68101563
 20
3.44967188
  0
VERTEX
  8
0
 62
7
 10
41.74278320
 20
3.46430273
  0
VERTEX
  8
0
 62
7
 10
41.80400000
 20
3.48000000
  0
VERTEX
  8
0
 62
7
 10
41.83200000
 20
8.27500000
  0
VERTEX
  8
0
 62
7
 10
41.71500000
 20
8.27137500
  0
VERTEX
  8
0
 62
7
 10
41.59800000
 20
8.27000000
  0
VERTEX
  8
0
 62
7
 10
41.40768750
 20
8.27314063
  0
VERTEX
  8
0
 62
7
 10
41.21775000
 20
8.28237500
  0
VERTEX
  8
0
 62
7
 10
41.02818750
 20
8.29742188
  0
VERTEX
  8
0
 62
7
 10
40.83900000
 20
8.31800000
  0
VERTEX
  8
0
 62
7
 10
40.67316016
 20
8.34227148
  0
VERTEX
  8
0
 62
7
 10
40.50846875
 20
8.37285938
  0
VERTEX
  8
0
 62
7
 10
40.34466797
 20
8.40829883
  0
VERTEX
  8
0
 62
7
 10
40.18150000
 20
8.44712500
  0
VERTEX
  8
0
 62
7
 10
40.01870703
 20
8.48787305
  0
VERTEX
  8
0
 62
7
 10
39.85603125
 20
8.52907813
  0
VERTEX
  8
0
 62
7
 10
39.69321484
 20
8.56927539
  0
VERTEX
  8
0
 62
7
 10
39.53000000
 20
8.60700000
  0
VERTEX
  8
0
 62
7
 10
39.43212085
 20
8.62902319
  0
VERTEX
  8
0
 62
7
 10
39.33421680
 20
8.65174805
  0
VERTEX
  8
0
 62
7
 10
39.23626294
 20
8.67484497
  0
VERTEX
  8
0
 62
7
 10
39.13823438
 20
8.69798438
  0
VERTEX
  8
0
 62
7
 10
39.04010620
 20
8.72083667
  0
VERTEX
  8
0
 62
7
 10
38.94185352
 20
8.74307227
  0
VERTEX
  8
0
 62
7
 10
38.84345142
 20
8.76436157
  0
VERTEX
  8
0
 62
7
 10
38.74487500
 20
8.78437500
  0
VERTEX
  8
0
 62
7
 10
38.64609937
 20
8.80278296
  0
VERTEX
  8
0
 62
7
 10
38.54709961
 20
8.81925586
  0
VERTEX
  8
0
 62
7
 10
38.44785083
 20
8.83346411
  0
VERTEX
  8
0
 62
7
 10
38.34832813
 20
8.84507813
  0
VERTEX
  8
0
 62
7
 10
38.24850659
 20
8.85376831
  0
VERTEX
  8
0
 62
7
 10
38.14836133
 20
8.85920508
  0
VERTEX
  8
0
 62
7
 10
38.04786743
 20
8.86105884
  0
VERTEX
  8
0
 62
7
 10
37.94700000
 20
8.85900000
  0
VERTEX
  8
0
 62
7
 10
37.85863794
 20
8.85411719
  0
VERTEX
  8
0
 62
7
 10
37.77058789
 20
8.84660938
  0
VERTEX
  8
0
 62
7
 10
37.68290405
 20
8.83650000
  0
VERTEX
  8
0
 62
7
 10
37.59564063
 20
8.82381250
  0
VERTEX
  8
0
 62
7
 10
37.50885181
 20
8.80857031
  0
VERTEX
  8
0
 62
7
 10
37.42259180
 20
8.79079688
  0
VERTEX
  8
0
 62
7
 10
37.33691479
 20
8.77051563
  0
VERTEX
  8
0
 62
7
 10
37.25187500
 20
8.74775000
  0
VERTEX
  8
0
 62
7
 10
37.16752661
 20
8.72252344
  0
VERTEX
  8
0
 62
7
 10
37.08392383
 20
8.69485938
  0
VERTEX
  8
0
 62
7
 10
37.00112085
 20
8.66478125
  0
VERTEX
  8
0
 62
7
 10
36.91917188
 20
8.63231250
  0
VERTEX
  8
0
 62
7
 10
36.83813110
 20
8.59747656
  0
VERTEX
  8
0
 62
7
 10
36.75805273
 20
8.56029688
  0
VERTEX
  8
0
 62
7
 10
36.67899097
 20
8.52079688
  0
VERTEX
  8
0
 62
7
 10
36.60100000
 20
8.47900000
  0
VERTEX
  8
0
 62
7
 10
36.50357813
 20
8.42275000
  0
VERTEX
  8
0
 62
7
 10
36.40812500
 20
8.36350000
  0
VERTEX
  8
0
 62
7
 10
36.31510938
 20
8.30125000
  0
VERTEX
  8
0
 62
7
 10
36.22500000
 20
8.23600000
  0
SEQEND
  0
POLYLINE
  8
0
 62
7
 66
1
 70
1
  0
VERTEX
  8
0
 62
7
 10
36.74400000
 20
2.83500000
  0
VERTEX
  8
0
 62
7
 10
36.74000000
 20
2.88200000
  0
VERTEX
  8
0
 62
7
 10
36.73000000
 20
2.92900000
  0
VERTEX
  8
0
 62
7
 10
36.72305151
 20
2.95022632
  0
VERTEX
  8
0
 62
7
 10
36.71430273
 20
2.97009180
  0
VERTEX
  8
0
 62
7
 10
36.70389868
 20
2.98868872
  0
VERTEX
  8
0
 62
7
 10
36.69198438
 20
3.00610938
  0
VERTEX
  8
0
 62
7
 10
36.67870483
 20
3.02244604
  0
VERTEX
  8
0
 62
7
 10
36.66420508
 20
3.03779102
  0
VERTEX
  8
0
 62
7
 10
36.64863013
 20
3.05223657
  0
VERTEX
  8
0
 62
7
 10
36.63212500
 20
3.06587500
  0
VERTEX
  8
0
 62
7
 10
36.61483472
 20
3.07879858
  0
VERTEX
  8
0
 62
7
 10
36.59690430
 20
3.09109961
  0
VERTEX
  8
0
 62
7
 10
36.57847876
 20
3.10287036
  0
VERTEX
  8
0
 62
7
 10
36.55970313
 20
3.11420313
  0
VERTEX
  8
0
 62
7
 10
36.54072241
 20
3.12519019
  0
VERTEX
  8
0
 62
7
 10
36.52168164
 20
3.13592383
  0
VERTEX
  8
0
 62
7
 10
36.50272583
 20
3.14649634
  0
VERTEX
  8
0
 62
7
 10
36.48400000
 20
3.15700000
  0
VERTEX
  8
0
 62
7
 10
36.43350000
 20
3.18298438
  0
VERTEX
  8
0
 62
7
 10
36.38225000
 20
3.20512500
  0
VERTEX
  8
0
 62
7
 10
36.32987500
 20
3.22295313
  0
VERTEX
  8
0
 62
7
 10
36.27600000
 20
3.23600000
  0
VERTEX
  8
0
 62
7
 10
36.35820117
 20
3.28741211
  0
VERTEX
  8
0
 62
7
 10
36.44198438
 20
3.33660938
  0
VERTEX
  8
0
 62
7
 10
36.52724414
 20
3.38353320
  0
VERTEX
  8
0
 62
7
 10
36.61387500
 20
3.42812500
  0
VERTEX
  8
0
 62
7
 10
36.70177148
 20
3.47032617
  0
VERTEX
  8
0
 62
7
 10
36.79082813
 20
3.51007813
  0
VERTEX
  8
0
 62
7
 10
36.88093945
 20
3.54732227
  0
VERTEX
  8
0
 62
7
 10
36.97200000
 20
3.58200000
  0
VERTEX
  8
0
 62
7
 10
37.09627734
 20
3.62381055
  0
VERTEX
  8
0
 62
7
 10
37.22221875
 20
3.66017188
  0
VERTEX
  8
0
 62
7
 10
37.34961328
 20
3.69135352
  0
VERTEX
  8
0
 62
7
 10
37.47825000
 20
3.71762500
  0
VERTEX
  8
0
 62
7
 10
37.60791797
 20
3.73925586
  0
VERTEX
  8
0
 62
7
 10
37.73840625
 20
3.75651563
  0
VERTEX
  8
0
 62
7
 10
37.86950391
 20
3.76967383
  0
VERTEX
  8
0
 62
7
 10
38.00100000
 20
3.77900000
  0
VERTEX
  8
0
 62
7
 10
38.08500000
 20
3.78262500
  0
VERTEX
  8
0
 62
7
 10
38.16900000
 20
3.78400000
  0
VERTEX
  8
0
 62
7
 10
38.29229297
 20
3.78170703
  0
VERTEX
  8
0
 62
7
 10
38.41546875
 20
3.77521875
  0
VERTEX
  8
0
 62
7
 10
38.53859766
 20
3.76512109
  0
VERTEX
  8
0
 62
7
 10
38.66175000
 20
3.75200000
  0
VERTEX
  8
0
 62
7
 10
38.78499609
 20
3.73644141
  0
VERTEX
  8
0
 62
7
 10
38.90840625
 20
3.71903125
  0
VERTEX
  8
0
 62
7
 10
39.03205078
 20
3.70035547
  0
VERTEX
  8
0
 62
7
 10
39.15600000
 20
3.68100000
  0
VERTEX
  8
0
 62
7
 10
39.28543750
 20
3.65756250
  0
VERTEX
  8
0
 62
7
 10
39.41450000
 20
3.63000000
  0
VERTEX
  8
0
 62
7
 10
39.54356250
 20
3.59943750
  0
VERTEX
  8
0
 62
7
 10
39.67300000
 20
3.56700000
  0
VERTEX
  8
0
 62
7
 10
39.78721875
 20
3.53909375
  0
VERTEX
  8
0
 62
7
 10
39.90200000
 20
3.51175000
  0
VERTEX
  8
0
 62
7
 10
40.01753125
 20
3.48628125
  0
VERTEX
  8
0
 62
7
 10
40.13400000
 20
3.46400000
  0
VERTEX
  8
0
 62
7
 10
40.32500000
 20
3.42900000
  0
VERTEX
  8
0
 62
7
 10
40.44865820
 20
3.40620117
  0
VERTEX
  8
0
 62
7
 10
40.57289063
 20
3.38404688
  0
VERTEX
  8
0
 62
7
 10
40.69770898
 20
3.36327539
  0
VERTEX
  8
0
 62
7
 10
40.82312500
 20
3.34462500
  0
VERTEX
  8
0
 62
7
 10
40.94915039
 20
3.32883398
  0
VERTEX
  8
0
 62
7
 10
41.07579688
 20
3.31664063
  0
VERTEX
  8
0
 62
7
 10
41.20307617
 20
3.30878320
  0
VERTEX
  8
0
 62
7
 10
41.33100000
 20
3.30600000
  0
VERTEX
  8
0
 62
7
 10
41.39176563
 20
3.30775586
  0
VERTEX
  8
0
 62
7
 10
41.45543750
 20
3.31273438
  0
VERTEX
  8
0
 62
7
 10
41.52070313
 20
3.32050195
  0
VERTEX
  8
0
 62
7
 10
41.58625000
 20
3.33062500
  0
VERTEX
  8
0
 62
7
 10
41.65076563
 20
3.34266992
  0
VERTEX
  8
0
 62
7
 10
41.71293750
 20
3.35620313
  0
VERTEX
  8
0
 62
7
 10
41.77145313
 20
3.37079102
  0
VERTEX
  8
0
 62
7
 10
41.82500000
 20
3.38600000
  0
VERTEX
  8
0
 62
7
 10
42.27700000
 20
2.83500000
  0
VERTEX
  8
0
 62
7
 10
36.74400000
 20
2.83500000
  0
SEQEND
  0
POLYLINE
  8
0
 62
7
 66
1
 70
1
  0
VERTEX
  8
0
 62
7
 10
36.18400000
 20
3.23400000
  0
VERTEX
  8
0
 62
7
 10
36.12953125
 20
3.22112500
  0
VERTEX
  8
0
 62
7
 10
36.07600000
 20
3.20375000
  0
VERTEX
  8
0
 62
7
 10
36.02396875
 20
3.18225000
  0
VERTEX
  8
0
 62
7
 10
35.97400000
 20
3.15700000
  0
VERTEX
  8
0
 62
7
 10
35.95527417
 20
3.14649634
  0
VERTEX
  8
0
 62
7
 10
35.93631836
 20
3.13592383
  0
VERTEX
  8
0
 62
7
 10
35.91727759
 20
3.12519019
  0
VERTEX
  8
0
 62
7
 10
35.89829688
 20
3.11420313
  0
VERTEX
  8
0
 62
7
 10
35.87952124
 20
3.10287036
  0
VERTEX
  8
0
 62
7
 10
35.86109570
 20
3.09109961
  0
VERTEX
  8
0
 62
7
 10
35.84316528
 20
3.07879858
  0
VERTEX
  8
0
 62
7
 10
35.82587500
 20
3.06587500
  0
VERTEX
  8
0
 62
7
 10
35.80936987
 20
3.05223657
  0
VERTEX
  8
0
 62
7
 10
35.79379492
 20
3.03779102
  0
VERTEX
  8
0
 62
7
 10
35.77929517
 20
3.02244604
  0
VERTEX
  8
0
 62
7
 10
35.76601563
 20
3.00610938
  0
VERTEX
  8
0
 62
7
 10
35.75410132
 20
2.98868872
  0
VERTEX
  8
0
 62
7
 10
35.74369727
 20
2.97009180
  0
VERTEX
  8
0
 62
7
 10
35.73494849
 20
2.95022632
  0
VERTEX
  8
0
 62
7
 10
35.72800000
 20
2.92900000
  0
VERTEX
  8
0
 62
7
 10
35.71800000
 20
2.88200000
  0
VERTEX
  8
0
 62
7
 10
35.71400000
 20
2.83500000
  0
VERTEX
  8
0
 62
7
 10
30.17700000
 20
2.83500000
  0
VERTEX
  8
0
 62
7
 10
30.62900000
 20
3.38600000
  0
VERTEX
  8
0
 62
7
 10
30.68254688
 20
3.37079102
  0
VERTEX
  8
0
 62
7
 10
30.74106250
 20
3.35620313
  0
VERTEX
  8
0
 62
7
 10
30.80323438
 20
3.34266992
  0
VERTEX
  8
0
 62
7
 10
30.86775000
 20
3.33062500
  0
VERTEX
  8
0
 62
7
 10
30.93329688
 20
3.32050195
  0
VERTEX
  8
0
 62
7
 10
30.99856250
 20
3.31273438
  0
VERTEX
  8
0
 62
7
 10
31.06223438
 20
3.30775586
  0
VERTEX
  8
0
 62
7
 10
31.12300000
 20
3.30600000
  0
VERTEX
  8
0
 62
7
 10
31.25092383
 20
3.30878320
  0
VERTEX
  8
0
 62
7
 10
31.37820313
 20
3.31664063
  0
VERTEX
  8
0
 62
7
 10
31.50484961
 20
3.32883398
  0
VERTEX
  8
0
 62
7
 10
31.63087500
 20
3.34462500
  0
VERTEX
  8
0
 62
7
 10
31.75629102
 20
3.36327539
  0
VERTEX
  8
0
 62
7
 10
31.88110938
 20
3.38404688
  0
VERTEX
  8
0
 62
7
 10
32.00534180
 20
3.40620117
  0
VERTEX
  8
0
 62
7
 10
32.12900000
 20
3.42900000
  0
VERTEX
  8
0
 62
7
 10
32.32000000
 20
3.46400000
  0
VERTEX
  8
0
 62
7
 10
32.43646875
 20
3.48628125
  0
VERTEX
  8
0
 62
7
 10
32.55200000
 20
3.51175000
  0
VERTEX
  8
0
 62
7
 10
32.66678125
 20
3.53909375
  0
VERTEX
  8
0
 62
7
 10
32.78100000
 20
3.56700000
  0
VERTEX
  8
0
 62
7
 10
32.91043750
 20
3.59943750
  0
VERTEX
  8
0
 62
7
 10
33.03950000
 20
3.63000000
  0
VERTEX
  8
0
 62
7
 10
33.16856250
 20
3.65756250
  0
VERTEX
  8
0
 62
7
 10
33.29800000
 20
3.68100000
  0
VERTEX
  8
0
 62
7
 10
33.42194922
 20
3.70035547
  0
VERTEX
  8
0
 62
7
 10
33.54559375
 20
3.71903125
  0
VERTEX
  8
0
 62
7
 10
33.66900391
 20
3.73644141
  0
VERTEX
  8
0
 62
7
 10
33.79225000
 20
3.75200000
  0
VERTEX
  8
0
 62
7
 10
33.91540234
 20
3.76512109
  0
VERTEX
  8
0
 62
7
 10
34.03853125
 20
3.77521875
  0
VERTEX
  8
0
 62
7
 10
34.16170703
 20
3.78170703
  0
VERTEX
  8
0
 62
7
 10
34.28500000
 20
3.78400000
  0
VERTEX
  8
0
 62
7
 10
34.36900000
 20
3.78262500
  0
VERTEX
  8
0
 62
7
 10
34.45300000
 20
3.77900000
  0
VERTEX
  8
0
 62
7
 10
34.58449609
 20
3.76967383
  0
VERTEX
  8
0
 62
7
 10
34.71559375
 20
3.75651563
  0
VERTEX
  8
0
 62
7
 10
34.84608203
 20
3.73925586
  0
VERTEX
  8
0
 62
7
 10
34.97575000
 20
3.71762500
  0
VERTEX
  8
0
 62
7
 10
35.10438672
 20
3.69135352
  0
VERTEX
  8
0
 62
7
 10
35.23178125
 20
3.66017188
  0
VERTEX
  8
0
 62
7
 10
35.35772266
 20
3.62381055
  0
VERTEX
  8
0
 62
7
 10
35.48200000
 20
3.58200000
  0
VERTEX
  8
0
 62
7
 10
35.57385156
 20
3.54703125
  0
VERTEX
  8
0
 62
7
 10
35.66481250
 20
3.50962500
  0
VERTEX
  8
0
 62
7
 10
35.75474219
 20
3.46978125
  0
VERTEX
  8
0
 62
7
 10
35.84350000
 20
3.42750000
  0
VERTEX
  8
0
 62
7
 10
35.93094531
 20
3.38278125
  0
VERTEX
  8
0
 62
7
 10
36.01693750
 20
3.33562500
  0
VERTEX
  8
0
 62
7
 10
36.10133594
 20
3.28603125
  0
VERTEX
  8
0
 62
7
 10
36.18400000
 20
3.23400000
  0
SEQEND
  0
POLYLINE
  8
0
 62
7
 66
1
 70
1
  0
VERTEX
  8
0
 62
7
 10
23.44800000
 20
4.28000000
  0
VERTEX
  8
0
 62
7
 10
23.42454688
 20
4.28215625
  0
VERTEX
  8
0
 62
7
 10
23.40137500
 20
4.27925000
  0
VERTEX
  8
0
 62
7
 10
23.37951563
 20
4.27071875
  0
VERTEX
  8
0
 62
7
 10
23.36000000
 20
4.25600000
  0
VERTEX
  8
0
 62
7
 10
23.34926563
 20
4.24335938
  0
VERTEX
  8
0
 62
7
 10
23.34012500
 20
4.22837500
  0
VERTEX
  8
0
 62
7
 10
23.33342188
 20
4.21170313
  0
VERTEX
  8
0
 62
7
 10
23.33000000
 20
4.19400000
  0
VERTEX
  8
0
 62
7
 10
23.30239063
 20
4.22235938
  0
VERTEX
  8
0
 62
7
 10
23.27112500
 20
4.24837500
  0
VERTEX
  8
0
 62
7
 10
23.23704688
 20
4.27120313
  0
VERTEX
  8
0
 62
7
 10
23.20100000
 20
4.29000000
  0
VERTEX
  8
0
 62
7
 10
23.15681641
 20
4.30682617
  0
VERTEX
  8
0
 62
7
 10
23.11153125
 20
4.31717188
  0
VERTEX
  8
0
 62
7
 10
23.06554297
 20
4.32158789
  0
VERTEX
  8
0
 62
7
 10
23.01925000
 20
4.32062500
  0
VERTEX
  8
0
 62
7
 10
22.97305078
 20
4.31483398
  0
VERTEX
  8
0
 62
7
 10
22.92734375
 20
4.30476563
  0
VERTEX
  8
0
 62
7
 10
22.88252734
 20
4.29097070
  0
VERTEX
  8
0
 62
7
 10
22.83900000
 20
4.27400000
  0
VERTEX
  8
0
 62
7
 10
22.78879688
 20
4.25065625
  0
VERTEX
  8
0
 62
7
 10
22.74187500
 20
4.22150000
  0
VERTEX
  8
0
 62
7
 10
22.69851563
 20
4.18709375
  0
VERTEX
  8
0
 62
7
 10
22.65900000
 20
4.14800000
  0
VERTEX
  8
0
 62
7
 10
22.69646484
 20
4.15077344
  0
VERTEX
  8
0
 62
7
 10
22.73371875
 20
4.15012500
  0
VERTEX
  8
0
 62
7
 10
22.77055078
 20
4.14610156
  0
VERTEX
  8
0
 62
7
 10
22.80675000
 20
4.13875000
  0
VERTEX
  8
0
 62
7
 10
22.84210547
 20
4.12811719
  0
VERTEX
  8
0
 62
7
 10
22.87640625
 20
4.11425000
  0
VERTEX
  8
0
 62
7
 10
22.90944141
 20
4.09719531
  0
VERTEX
  8
0
 62
7
 10
22.94100000
 20
4.07700000
  0
VERTEX
  8
0
 62
7
 10
22.97189063
 20
4.05457813
  0
VERTEX
  8
0
 62
7
 10
22.99987500
 20
4.02962500
  0
VERTEX
  8
0
 62
7
 10
23.02467188
 20
4.00260938
  0
VERTEX
  8
0
 62
7
 10
23.04600000
 20
3.97400000
  0
VERTEX
  8
0
 62
7
 10
23.02154688
 20
3.95464063
  0
VERTEX
  8
0
 62
7
 10
22.99812500
 20
3.93387500
  0
VERTEX
  8
0
 62
7
 10
22.97639063
 20
3.91142188
  0
VERTEX
  8
0
 62
7
 10
22.95700000
 20
3.88700000
  0
VERTEX
  8
0
 62
7
 10
22.94136328
 20
3.86367188
  0
VERTEX
  8
0
 62
7
 10
22.92959375
 20
3.83837500
  0
VERTEX
  8
0
 62
7
 10
22.92040234
 20
3.81176563
  0
VERTEX
  8
0
 62
7
 10
22.91250000
 20
3.78450000
  0
VERTEX
  8
0
 62
7
 10
22.90459766
 20
3.75723438
  0
VERTEX
  8
0
 62
7
 10
22.89540625
 20
3.73062500
  0
VERTEX
  8
0
 62
7
 10
22.88363672
 20
3.70532813
  0
VERTEX
  8
0
 62
7
 10
22.86800000
 20
3.68200000
  0
VERTEX
  8
0
 62
7
 10
22.84420313
 20
3.65425000
  0
VERTEX
  8
0
 62
7
 10
22.81787500
 20
3.62950000
  0
VERTEX
  8
0
 62
7
 10
22.78910938
 20
3.60775000
  0
VERTEX
  8
0
 62
7
 10
22.75800000
 20
3.58900000
  0
VERTEX
  8
0
 62
7
 10
22.77885938
 20
3.51264453
  0
VERTEX
  8
0
 62
7
 10
22.79418750
 20
3.43528125
  0
VERTEX
  8
0
 62
7
 10
22.80398438
 20
3.35721484
  0
VERTEX
  8
0
 62
7
 10
22.80825000
 20
3.27875000
  0
VERTEX
  8
0
 62
7
 10
22.80698438
 20
3.20019141
  0
VERTEX
  8
0
 62
7
 10
22.80018750
 20
3.12184375
  0
VERTEX
  8
0
 62
7
 10
22.78785938
 20
3.04401172
  0
VERTEX
  8
0
 62
7
 10
22.77000000
 20
2.96700000
  0
VERTEX
  8
0
 62
7
 10
22.75501172
 20
2.91905859
  0
VERTEX
  8
0
 62
7
 10
22.73784375
 20
2.87203125
  0
VERTEX
  8
0
 62
7
 10
22.71856641
 20
2.82598828
  0
VERTEX
  8
0
 62
7
 10
22.69725000
 20
2.78100000
  0
VERTEX
  8
0
 62
7
 10
22.67396484
 20
2.73713672
  0
VERTEX
  8
0
 62
7
 10
22.64878125
 20
2.69446875
  0
VERTEX
  8
0
 62
7
 10
22.62176953
 20
2.65306641
  0
VERTEX
  8
0
 62
7
 10
22.59300000
 20
2.61300000
  0
VERTEX
  8
0
 62
7
 10
22.53848633
 20
2.65906055
  0
VERTEX
  8
0
 62
7
 10
22.48089063
 20
2.70117188
  0
VERTEX
  8
0
 62
7
 10
22.42050586
 20
2.73922852
  0
VERTEX
  8
0
 62
7
 10
22.35762500
 20
2.77312500
  0
VERTEX
  8
0
 62
7
 10
22.29254102
 20
2.80275586
  0
VERTEX
  8
0
 62
7
 10
22.22554688
 20
2.82801563
  0
VERTEX
  8
0
 62
7
 10
22.15693555
 20
2.84879883
  0
VERTEX
  8
0
 62
7
 10
22.08700000
 20
2.86500000
  0
VERTEX
  8
0
 62
7
 10
22.03811914
 20
2.87221289
  0
VERTEX
  8
0
 62
7
 10
21.98901563
 20
2.87564063
  0
VERTEX
  8
0
 62
7
 10
21.93974805
 20
2.87609180
  0
VERTEX
  8
0
 62
7
 10
21.89037500
 20
2.87437500
  0
VERTEX
  8
0
 62
7
 10
21.84095508
 20
2.87129883
  0
VERTEX
  8
0
 62
7
 10
21.79154688
 20
2.86767188
  0
VERTEX
  8
0
 62
7
 10
21.74220898
 20
2.86430273
  0
VERTEX
  8
0
 62
7
 10
21.69300000
 20
2.86200000
  0
VERTEX
  8
0
 62
7
 10
21.65830103
 20
2.86038745
  0
VERTEX
  8
0
 62
7
 10
21.62358008
 20
2.85758398
  0
VERTEX
  8
0
 62
7
 10
21.58883862
 20
2.85382837
  0
VERTEX
  8
0
 62
7
 10
21.55407813
 20
2.84935938
  0
VERTEX
  8
0
 62
7
 10
21.51930005
 20
2.84441577
  0
VERTEX
  8
0
 62
7
 10
21.48450586
 20
2.83923633
  0
VERTEX
  8
0
 62
7
 10
21.44969702
 20
2.83405981
  0
VERTEX
  8
0
 62
7
 10
21.41487500
 20
2.82912500
  0
VERTEX
  8
0
 62
7
 10
21.38004126
 20
2.82467065
  0
VERTEX
  8
0
 62
7
 10
21.34519727
 20
2.82093555
  0
VERTEX
  8
0
 62
7
 10
21.31034448
 20
2.81815845
  0
VERTEX
  8
0
 62
7
 10
21.27548438
 20
2.81657813
  0
VERTEX
  8
0
 62
7
 10
21.24061841
 20
2.81643335
  0
VERTEX
  8
0
 62
7
 10
21.20574805
 20
2.81796289
  0
VERTEX
  8
0
 62
7
 10
21.17087476
 20
2.82140552
  0
VERTEX
  8
0
 62
7
 10
21.13600000
 20
2.82700000
  0
VERTEX
  8
0
 62
7
 10
21.04535938
 20
2.85040625
  0
VERTEX
  8
0
 62
7
 10
20.95687500
 20
2.88150000
  0
VERTEX
  8
0
 62
7
 10
20.87120313
 20
2.92009375
  0
VERTEX
  8
0
 62
7
 10
20.78900000
 20
2.96600000
  0
VERTEX
  8
0
 62
7
 10
20.82700586
 20
2.97777148
  0
VERTEX
  8
0
 62
7
 10
20.86354688
 20
2.99342188
  0
VERTEX
  8
0
 62
7
 10
20.89828320
 20
3.01270508
  0
VERTEX
  8
0
 62
7
 10
20.93087500
 20
3.03537500
  0
VERTEX
  8
0
 62
7
 10
20.96098242
 20
3.06118555
  0
VERTEX
  8
0
 62
7
 10
20.98826563
 20
3.08989063
  0
VERTEX
  8
0
 62
7
 10
21.01238477
 20
3.12124414
  0
VERTEX
  8
0
 62
7
 10
21.03300000
 20
3.15500000
  0
VERTEX
  8
0
 62
7
 10
21.04663086
 20
3.18307617
  0
VERTEX
  8
0
 62
7
 10
21.05598438
 20
3.21235938
  0
VERTEX
  8
0
 62
7
 10
21.06212695
 20
3.24255664
  0
VERTEX
  8
0
 62
7
 10
21.06612500
 20
3.27337500
  0
VERTEX
  8
0
 62
7
 10
21.06904492
 20
3.30452148
  0
VERTEX
  8
0
 62
7
 10
21.07195313
 20
3.33570313
  0
VERTEX
  8
0
 62
7
 10
21.07591602
 20
3.36662695
  0
VERTEX
  8
0
 62
7
 10
21.08200000
 20
3.39700000
  0
VERTEX
  8
0
 62
7
 10
21.09626563
 20
3.44500000
  0
VERTEX
  8
0
 62
7
 10
21.11212500
 20
3.49225000
  0
VERTEX
  8
0
 62
7
 10
21.12742188
 20
3.53987500
  0
VERTEX
  8
0
 62
7
 10
21.14000000
 20
3.58900000
  0
VERTEX
  8
0
 62
7
 10
21.14711328
 20
3.63938281
  0
VERTEX
  8
0
 62
7
 10
21.15040625
 20
3.69000000
  0
VERTEX
  8
0
 62
7
 10
21.15093359
 20
3.74080469
  0
VERTEX
  8
0
 62
7
 10
21.14975000
 20
3.79175000
  0
VERTEX
  8
0
 62
7
 10
21.14791016
 20
3.84278906
  0
VERTEX
  8
0
 62
7
 10
21.14646875
 20
3.89387500
  0
VERTEX
  8
0
 62
7
 10
21.14648047
 20
3.94496094
  0
VERTEX
  8
0
 62
7
 10
21.14900000
 20
3.99600000
  0
VERTEX
  8
0
 62
7
 10
21.15350195
 20
4.03904297
  0
VERTEX
  8
0
 62
7
 10
21.16082813
 20
4.08196875
  0
VERTEX
  8
0
 62
7
 10
21.16958398
 20
4.12484766
  0
VERTEX
  8
0
 62
7
 10
21.17837500
 20
4.16775000
  0
VERTEX
  8
0
 62
7
 10
21.18580664
 20
4.21074609
  0
VERTEX
  8
0
 62
7
 10
21.19048438
 20
4.25390625
  0
VERTEX
  8
0
 62
7
 10
21.19101367
 20
4.29730078
  0
VERTEX
  8
0
 62
7
 10
21.18600000
 20
4.34100000
  0
VERTEX
  8
0
 62
7
 10
21.17087500
 20
4.40262500
  0
VERTEX
  8
0
 62
7
 10
21.14900000
 20
4.46500000
  0
VERTEX
  8
0
 62
7
 10
21.23163281
 20
4.48018750
  0
VERTEX
  8
0
 62
7
 10
21.31450000
 20
4.49200000
  0
VERTEX
  8
0
 62
7
 10
21.39755469
 20
4.50043750
  0
VERTEX
  8
0
 62
7
 10
21.48075000
 20
4.50550000
  0
VERTEX
  8
0
 62
7
 10
21.56403906
 20
4.50718750
  0
VERTEX
  8
0
 62
7
 10
21.64737500
 20
4.50550000
  0
VERTEX
  8
0
 62
7
 10
21.73071094
 20
4.50043750
  0
VERTEX
  8
0
 62
7
 10
21.81400000
 20
4.49200000
  0
VERTEX
  8
0
 62
7
 10
21.88384375
 20
4.48114063
  0
VERTEX
  8
0
 62
7
 10
21.95350000
 20
4.46887500
  0
VERTEX
  8
0
 62
7
 10
22.02240625
 20
4.45417188
  0
VERTEX
  8
0
 62
7
 10
22.09000000
 20
4.43600000
  0
VERTEX
  8
0
 62
7
 10
22.11815625
 20
4.48226563
  0
VERTEX
  8
0
 62
7
 10
22.15250000
 20
4.52337500
  0
VERTEX
  8
0
 62
7
 10
22.19209375
 20
4.55904688
  0
VERTEX
  8
0
 62
7
 10
22.23600000
 20
4.58900000
  0
VERTEX
  8
0
 62
7
 10
22.27046875
 20
4.60692188
  0
VERTEX
  8
0
 62
7
 10
22.30625000
 20
4.62137500
  0
VERTEX
  8
0
 62
7
 10
22.34315625
 20
4.63189063
  0
VERTEX
  8
0
 62
7
 10
22.38100000
 20
4.63800000
  0
VERTEX
  8
0
 62
7
 10
22.38000000
 20
4.60731250
  0
VERTEX
  8
0
 62
7
 10
22.38275000
 20
4.57700000
  0
VERTEX
  8
0
 62
7
 10
22.38887500
 20
4.54743750
  0
VERTEX
  8
0
 62
7
 10
22.39800000
 20
4.51900000
  0
VERTEX
  8
0
 62
7
 10
22.41325000
 20
4.48675000
  0
VERTEX
  8
0
 62
7
 10
22.43300000
 20
4.45600000
  0
VERTEX
  8
0
 62
7
 10
22.44553516
 20
4.44144336
  0
VERTEX
  8
0
 62
7
 10
22.46015625
 20
4.42879688
  0
VERTEX
  8
0
 62
7
 10
22.47613672
 20
4.41734570
  0
VERTEX
  8
0
 62
7
 10
22.49275000
 20
4.40637500
  0
VERTEX
  8
0
 62
7
 10
22.50926953
 20
4.39516992
  0
VERTEX
  8
0
 62
7
 10
22.52496875
 20
4.38301563
  0
VERTEX
  8
0
 62
7
 10
22.53912109
 20
4.36919727
  0
VERTEX
  8
0
 62
7
 10
22.55100000
 20
4.35300000
  0
VERTEX
  8
0
 62
7
 10
22.56593750
 20
4.32312500
  0
VERTEX
  8
0
 62
7
 10
22.57750000
 20
4.29100000
  0
VERTEX
  8
0
 62
7
 10
22.58531250
 20
4.25737500
  0
VERTEX
  8
0
 62
7
 10
22.58900000
 20
4.22300000
  0
VERTEX
  8
0
 62
7
 10
22.61989453
 20
4.26108594
  0
VERTEX
  8
0
 62
7
 10
22.65390625
 20
4.29650000
  0
VERTEX
  8
0
 62
7
 10
22.69077734
 20
4.32910156
  0
VERTEX
  8
0
 62
7
 10
22.73025000
 20
4.35875000
  0
VERTEX
  8
0
 62
7
 10
22.77206641
 20
4.38530469
  0
VERTEX
  8
0
 62
7
 10
22.81596875
 20
4.40862500
  0
VERTEX
  8
0
 62
7
 10
22.86169922
 20
4.42857031
  0
VERTEX
  8
0
 62
7
 10
22.90900000
 20
4.44500000
  0
VERTEX
  8
0
 62
7
 10
22.96093750
 20
4.45612500
  0
VERTEX
  8
0
 62
7
 10
23.01325000
 20
4.46350000
  0
VERTEX
  8
0
 62
7
 10
23.06593750
 20
4.46637500
  0
VERTEX
  8
0
 62
7
 10
23.11900000
 20
4.46400000
  0
VERTEX
  8
0
 62
7
 10
23.16718750
 20
4.45653125
  0
VERTEX
  8
0
 62
7
 10
23.21425000
 20
4.44550000
  0
VERTEX
  8
0
 62
7
 10
23.26018750
 20
4.42996875
  0
VERTEX
  8
0
 62
7
 10
23.30500000
 20
4.40900000
  0
VERTEX
  8
0
 62
7
 10
23.34506250
 20
4.38167188
  0
VERTEX
  8
0
 62
7
 10
23.38250000
 20
4.35087500
  0
VERTEX
  8
0
 62
7
 10
23.41693750
 20
4.31689063
  0
VERTEX
  8
0
 62
7
 10
23.44800000
 20
4.28000000
  0
SEQEND
  0
POLYLINE
  8
0
 62
7
 66
1
 70
1
  0
VERTEX
  8
0
 62
7
 10
20.99000000
 20
2.78800000
  0
VERTEX
  8
0
 62
7
 10
21.09400000
 20
2.75600000
  0
VERTEX
  8
0
 62
7
 10
21.13812500
 20
2.75012500
  0
VERTEX
  8
0
 62
7
 10
21.18300000
 20
2.74800000
  0
VERTEX
  8
0
 62
7
 10
21.13676758
 20
2.70029492
  0
VERTEX
  8
0
 62
7
 10
21.08820313
 20
2.65473438
  0
VERTEX
  8
0
 62
7
 10
21.03750586
 20
2.61140039
  0
VERTEX
  8
0
 62
7
 10
20.98487500
 20
2.57037500
  0
VERTEX
  8
0
 62
7
 10
20.93050977
 20
2.53174023
  0
VERTEX
  8
0
 62
7
 10
20.87460938
 20
2.49557813
  0
VERTEX
  8
0
 62
7
 10
20.81737305
 20
2.46197070
  0
VERTEX
  8
0
 62
7
 10
20.75900000
 20
2.43100000
  0
VERTEX
  8
0
 62
7
 10
20.69540430
 20
2.40226367
  0
VERTEX
  8
0
 62
7
 10
20.63067188
 20
2.37623438
  0
VERTEX
  8
0
 62
7
 10
20.56488477
 20
2.35318164
  0
VERTEX
  8
0
 62
7
 10
20.49812500
 20
2.33337500
  0
VERTEX
  8
0
 62
7
 10
20.43047461
 20
2.31708398
  0
VERTEX
  8
0
 62
7
 10
20.36201563
 20
2.30457813
  0
VERTEX
  8
0
 62
7
 10
20.29283008
 20
2.29612695
  0
VERTEX
  8
0
 62
7
 10
20.22300000
 20
2.29200000
  0
VERTEX
  8
0
 62
7
 10
20.17613672
 20
2.29121875
  0
VERTEX
  8
0
 62
7
 10
20.12934375
 20
2.29193750
  0
VERTEX
  8
0
 62
7
 10
20.08269141
 20
2.29425000
  0
VERTEX
  8
0
 62
7
 10
20.03625000
 20
2.29825000
  0
VERTEX
  8
0
 62
7
 10
19.99008984
 20
2.30403125
  0
VERTEX
  8
0
 62
7
 10
19.94428125
 20
2.31168750
  0
VERTEX
  8
0
 62
7
 10
19.89889453
 20
2.32131250
  0
VERTEX
  8
0
 62
7
 10
19.85400000
 20
2.33300000
  0
VERTEX
  8
0
 62
7
 10
19.81612598
 20
2.34458374
  0
VERTEX
  8
0
 62
7
 10
19.77910156
 20
2.35765430
  0
VERTEX
  8
0
 62
7
 10
19.74307324
 20
2.37231567
  0
VERTEX
  8
0
 62
7
 10
19.70818750
 20
2.38867188
  0
VERTEX
  8
0
 62
7
 10
19.67459082
 20
2.40682690
  0
VERTEX
  8
0
 62
7
 10
19.64242969
 20
2.42688477
  0
VERTEX
  8
0
 62
7
 10
19.61185059
 20
2.44894946
  0
VERTEX
  8
0
 62
7
 10
19.58300000
 20
2.47312500
  0
VERTEX
  8
0
 62
7
 10
19.55602441
 20
2.49951538
  0
VERTEX
  8
0
 62
7
 10
19.53107031
 20
2.52822461
  0
VERTEX
  8
0
 62
7
 10
19.50828418
 20
2.55935669
  0
VERTEX
  8
0
 62
7
 10
19.48781250
 20
2.59301563
  0
VERTEX
  8
0
 62
7
 10
19.46980176
 20
2.62930542
  0
VERTEX
  8
0
 62
7
 10
19.45439844
 20
2.66833008
  0
VERTEX
  8
0
 62
7
 10
19.44174902
 20
2.71019360
  0
VERTEX
  8
0
 62
7
 10
19.43200000
 20
2.75500000
  0
VERTEX
  8
0
 62
7
 10
19.42647852
 20
2.80044141
  0
VERTEX
  8
0
 62
7
 10
19.42589063
 20
2.84684375
  0
VERTEX
  8
0
 62
7
 10
19.43057617
 20
2.89319922
  0
VERTEX
  8
0
 62
7
 10
19.44087500
 20
2.93850000
  0
VERTEX
  8
0
 62
7
 10
19.45712695
 20
2.98173828
  0
VERTEX
  8
0
 62
7
 10
19.47967188
 20
3.02190625
  0
VERTEX
  8
0
 62
7
 10
19.50884961
 20
3.05799609
  0
VERTEX
  8
0
 62
7
 10
19.54500000
 20
3.08900000
  0
VERTEX
  8
0
 62
7
 10
19.56770703
 20
3.10300977
  0
VERTEX
  8
0
 62
7
 10
19.59146875
 20
3.11501563
  0
VERTEX
  8
0
 62
7
 10
19.61612109
 20
3.12498242
  0
VERTEX
  8
0
 62
7
 10
19.64150000
 20
3.13287500
  0
VERTEX
  8
0
 62
7
 10
19.66744141
 20
3.13865820
  0
VERTEX
  8
0
 62
7
 10
19.69378125
 20
3.14229688
  0
VERTEX
  8
0
 62
7
 10
19.72035547
 20
3.14375586
  0
VERTEX
  8
0
 62
7
 10
19.74700000
 20
3.14300000
  0
VERTEX
  8
0
 62
7
 10
19.77120703
 20
3.13993945
  0
VERTEX
  8
0
 62
7
 10
19.79553125
 20
3.13576563
  0
VERTEX
  8
0
 62
7
 10
19.81952734
 20
3.13011523
  0
VERTEX
  8
0
 62
7
 10
19.84275000
 20
3.12262500
  0
VERTEX
  8
0
 62
7
 10
19.86475391
 20
3.11293164
  0
VERTEX
  8
0
 62
7
 10
19.88509375
 20
3.10067188
  0
VERTEX
  8
0
 62
7
 10
19.90332422
 20
3.08548242
  0
VERTEX
  8
0
 62
7
 10
19.91900000
 20
3.06700000
  0
VERTEX
  8
0
 62
7
 10
19.93771484
 20
3.03769141
  0
VERTEX
  8
0
 62
7
 10
19.95153125
 20
3.00596875
  0
VERTEX
  8
0
 62
7
 10
19.95995703
 20
2.97288672
  0
VERTEX
  8
0
 62
7
 10
19.96250000
 20
2.93950000
  0
VERTEX
  8
0
 62
7
 10
19.95866797
 20
2.90686328
  0
VERTEX
  8
0
 62
7
 10
19.94796875
 20
2.87603125
  0
VERTEX
  8
0
 62
7
 10
19.92991016
 20
2.84805859
  0
VERTEX
  8
0
 62
7
 10
19.90400000
 20
2.82400000
  0
VERTEX
  8
0
 62
7
 10
19.88270313
 20
2.81118750
  0
VERTEX
  8
0
 62
7
 10
19.85962500
 20
2.80175000
  0
VERTEX
  8
0
 62
7
 10
19.83523438
 20
2.79643750
  0
VERTEX
  8
0
 62
7
 10
19.81000000
 20
2.79600000
  0
VERTEX
  8
0
 62
7
 10
19.82353516
 20
2.81408203
  0
VERTEX
  8
0
 62
7
 10
19.83334375
 20
2.83415625
  0
VERTEX
  8
0
 62
7
 10
19.83935547
 20
2.85558984
  0
VERTEX
  8
0
 62
7
 10
19.84150000
 20
2.87775000
  0
VERTEX
  8
0
 62
7
 10
19.83970703
 20
2.90000391
  0
VERTEX
  8
0
 62
7
 10
19.83390625
 20
2.92171875
  0
VERTEX
  8
0
 62
7
 10
19.82402734
 20
2.94226172
  0
VERTEX
  8
0
 62
7
 10
19.81000000
 20
2.96100000
  0
VERTEX
  8
0
 62
7
 10
19.78948828
 20
2.97907031
  0
VERTEX
  8
0
 62
7
 10
19.76665625
 20
2.99025000
  0
VERTEX
  8
0
 62
7
 10
19.74218359
 20
2.99524219
  0
VERTEX
  8
0
 62
7
 10
19.71675000
 20
2.99475000
  0
VERTEX
  8
0
 62
7
 10
19.69103516
 20
2.98947656
  0
VERTEX
  8
0
 62
7
 10
19.66571875
 20
2.98012500
  0
VERTEX
  8
0
 62
7
 10
19.64148047
 20
2.96739844
  0
VERTEX
  8
0
 62
7
 10
19.61900000
 20
2.95200000
  0
VERTEX
  8
0
 62
7
 10
19.59693164
 20
2.92895313
  0
VERTEX
  8
0
 62
7
 10
19.58251563
 20
2.90243750
  0
VERTEX
  8
0
 62
7
 10
19.57468555
 20
2.87339063
  0
VERTEX
  8
0
 62
7
 10
19.57237500
 20
2.84275000
  0
VERTEX
  8
0
 62
7
 10
19.57451758
 20
2.81145313
  0
VERTEX
  8
0
 62
7
 10
19.58004688
 20
2.78043750
  0
VERTEX
  8
0
 62
7
 10
19.58789648
 20
2.75064063
  0
VERTEX
  8
0
 62
7
 10
19.59700000
 20
2.72300000
  0
VERTEX
  8
0
 62
7
 10
19.61719531
 20
2.67744116
  0
VERTEX
  8
0
 62
7
 10
19.64329688
 20
2.63663867
  0
VERTEX
  8
0
 62
7
 10
19.67476563
 20
2.60040356
  0
VERTEX
  8
0
 62
7
 10
19.71106250
 20
2.56854688
  0
VERTEX
  8
0
 62
7
 10
19.75164844
 20
2.54087964
  0
VERTEX
  8
0
 62
7
 10
19.79598438
 20
2.51721289
  0
VERTEX
  8
0
 62
7
 10
19.84353125
 20
2.49735767
  0
VERTEX
  8
0
 62
7
 10
19.89375000
 20
2.48112500
  0
VERTEX
  8
0
 62
7
 10
19.94610156
 20
2.46832593
  0
VERTEX
  8
0
 62
7
 10
20.00004688
 20
2.45877148
  0
VERTEX
  8
0
 62
7
 10
20.05504688
 20
2.45227271
  0
VERTEX
  8
0
 62
7
 10
20.11056250
 20
2.44864063
  0
VERTEX
  8
0
 62
7
 10
20.16605469
 20
2.44768628
  0
VERTEX
  8
0
 62
7
 10
20.22098438
 20
2.44922070
  0
VERTEX
  8
0
 62
7
 10
20.27481250
 20
2.45305493
  0
VERTEX
  8
0
 62
7
 10
20.32700000
 20
2.45900000
  0
VERTEX
  8
0
 62
7
 10
20.38540234
 20
2.46939844
  0
VERTEX
  8
0
 62
7
 10
20.44471875
 20
2.48500000
  0
VERTEX
  8
0
 62
7
 10
20.50436328
 20
2.50491406
  0
VERTEX
  8
0
 62
7
 10
20.56375000
 20
2.52825000
  0
VERTEX
  8
0
 62
7
 10
20.62229297
 20
2.55411719
  0
VERTEX
  8
0
 62
7
 10
20.67940625
 20
2.58162500
  0
VERTEX
  8
0
 62
7
 10
20.73450391
 20
2.60988281
  0
VERTEX
  8
0
 62
7
 10
20.78700000
 20
2.63800000
  0
VERTEX
  8
0
 62
7
 10
20.84164063
 20
2.67339063
  0
VERTEX
  8
0
 62
7
 10
20.89112500
 20
2.71037500
  0
VERTEX
  8
0
 62
7
 10
20.93929688
 20
2.74867188
  0
VERTEX
  8
0
 62
7
 10
20.99000000
 20
2.78800000
  0
SEQEND
  0
POLYLINE
  8
0
 62
7
 66
1
 70
1
  0
VERTEX
  8
0
 62
7
 10
20.83700000
 20
3.05100000
  0
VERTEX
  8
0
 62
7
 10
20.81590625
 20
3.05926563
  0
VERTEX
  8
0
 62
7
 10
20.79500000
 20
3.07437500
  0
VERTEX
  8
0
 62
7
 10
20.77484375
 20
3.09304688
  0
VERTEX
  8
0
 62
7
 10
20.75600000
 20
3.11200000
  0
VERTEX
  8
0
 62
7
 10
20.71550000
 20
3.14950000
  0
VERTEX
  8
0
 62
7
 10
20.67800000
 20
3.19000000
  0
VERTEX
  8
0
 62
7
 10
20.64350000
 20
3.12862500
  0
VERTEX
  8
0
 62
7
 10
20.60300000
 20
3.07100000
  0
VERTEX
  8
0
 62
7
 10
20.57841406
 20
3.04280859
  0
VERTEX
  8
0
 62
7
 10
20.55200000
 20
3.01609375
  0
VERTEX
  8
0
 62
7
 10
20.52389844
 20
2.99101953
  0
VERTEX
  8
0
 62
7
 10
20.49425000
 20
2.96775000
  0
VERTEX
  8
0
 62
7
 10
20.46319531
 20
2.94644922
  0
VERTEX
  8
0
 62
7
 10
20.43087500
 20
2.92728125
  0
VERTEX
  8
0
 62
7
 10
20.39742969
 20
2.91041016
  0
VERTEX
  8
0
 62
7
 10
20.36300000
 20
2.89600000
  0
VERTEX
  8
0
 62
7
 10
20.35475000
 20
2.92387500
  0
VERTEX
  8
0
 62
7
 10
20.34500000
 20
2.94800000
  0
VERTEX
  8
0
 62
7
 10
20.33632227
 20
2.96404688
  0
VERTEX
  8
0
 62
7
 10
20.32564063
 20
2.97868750
  0
VERTEX
  8
0
 62
7
 10
20.31348242
 20
2.99229688
  0
VERTEX
  8
0
 62
7
 10
20.30037500
 20
3.00525000
  0
VERTEX
  8
0
 62
7
 10
20.28684570
 20
3.01792188
  0
VERTEX
  8
0
 62
7
 10
20.27342188
 20
3.03068750
  0
VERTEX
  8
0
 62
7
 10
20.26063086
 20
3.04392188
  0
VERTEX
  8
0
 62
7
 10
20.24900000
 20
3.05800000
  0
VERTEX
  8
0
 62
7
 10
20.20800000
 20
3.10925000
  0
VERTEX
  8
0
 62
7
 10
20.17000000
 20
3.16200000
  0
VERTEX
  8
0
 62
7
 10
20.08435938
 20
3.15467188
  0
VERTEX
  8
0
 62
7
 10
19.99862500
 20
3.15212500
  0
VERTEX
  8
0
 62
7
 10
19.91307813
 20
3.15426563
  0
VERTEX
  8
0
 62
7
 10
19.82800000
 20
3.16100000
  0
VERTEX
  8
0
 62
7
 10
19.72960938
 20
3.17634375
  0
VERTEX
  8
0
 62
7
 10
19.63262500
 20
3.19825000
  0
VERTEX
  8
0
 62
7
 10
19.53732813
 20
3.22653125
  0
VERTEX
  8
0
 62
7
 10
19.44400000
 20
3.26100000
  0
VERTEX
  8
0
 62
7
 10
19.47503125
 20
3.28479688
  0
VERTEX
  8
0
 62
7
 10
19.50175000
 20
3.31262500
  0
VERTEX
  8
0
 62
7
 10
19.52359375
 20
3.34439063
  0
VERTEX
  8
0
 62
7
 10
19.54000000
 20
3.38000000
  0
VERTEX
  8
0
 62
7
 10
19.54521094
 20
3.39987500
  0
VERTEX
  8
0
 62
7
 10
19.54775000
 20
3.41975000
  0
VERTEX
  8
0
 62
7
 10
19.54822656
 20
3.43962500
  0
VERTEX
  8
0
 62
7
 10
19.54725000
 20
3.45950000
  0
VERTEX
  8
0
 62
7
 10
19.54542969
 20
3.47937500
  0
VERTEX
  8
0
 62
7
 10
19.54337500
 20
3.49925000
  0
VERTEX
  8
0
 62
7
 10
19.54169531
 20
3.51912500
  0
VERTEX
  8
0
 62
7
 10
19.54100000
 20
3.53900000
  0
VERTEX
  8
0
 62
7
 10
19.53906250
 20
3.61358203
  0
VERTEX
  8
0
 62
7
 10
19.53450000
 20
3.68809375
  0
VERTEX
  8
0
 62
7
 10
19.52806250
 20
3.76255859
  0
VERTEX
  8
0
 62
7
 10
19.52050000
 20
3.83700000
  0
VERTEX
  8
0
 62
7
 10
19.51256250
 20
3.91144141
  0
VERTEX
  8
0
 62
7
 10
19.50500000
 20
3.98590625
  0
VERTEX
  8
0
 62
7
 10
19.49856250
 20
4.06041797
  0
VERTEX
  8
0
 62
7
 10
19.49400000
 20
4.13500000
  0
VERTEX
  8
0
 62
7
 10
19.49118408
 20
4.17589697
  0
VERTEX
  8
0
 62
7
 10
19.48741016
 20
4.21683203
  0
VERTEX
  8
0
 62
7
 10
19.48293896
 20
4.25779639
  0
VERTEX
  8
0
 62
7
 10
19.47803125
 20
4.29878125
  0
VERTEX
  8
0
 62
7
 10
19.47294775
 20
4.33977783
  0
VERTEX
  8
0
 62
7
 10
19.46794922
 20
4.38077734
  0
VERTEX
  8
0
 62
7
 10
19.46329639
 20
4.42177100
  0
VERTEX
  8
0
 62
7
 10
19.45925000
 20
4.46275000
  0
VERTEX
  8
0
 62
7
 10
19.45607080
 20
4.50370557
  0
VERTEX
  8
0
 62
7
 10
19.45401953
 20
4.54462891
  0
VERTEX
  8
0
 62
7
 10
19.45335693
 20
4.58551123
  0
VERTEX
  8
0
 62
7
 10
19.45434375
 20
4.62634375
  0
VERTEX
  8
0
 62
7
 10
19.45724072
 20
4.66711768
  0
VERTEX
  8
0
 62
7
 10
19.46230859
 20
4.70782422
  0
VERTEX
  8
0
 62
7
 10
19.46980811
 20
4.74845459
  0
VERTEX
  8
0
 62
7
 10
19.48000000
 20
4.78900000
  0
VERTEX
  8
0
 62
7
 10
19.49907227
 20
4.84592383
  0
VERTEX
  8
0
 62
7
 10
19.52101563
 20
4.90182813
  0
VERTEX
  8
0
 62
7
 10
19.54579492
 20
4.95653711
  0
VERTEX
  8
0
 62
7
 10
19.57337500
 20
5.00987500
  0
VERTEX
  8
0
 62
7
 10
19.60372070
 20
5.06166602
  0
VERTEX
  8
0
 62
7
 10
19.63679688
 20
5.11173438
  0
VERTEX
  8
0
 62
7
 10
19.67256836
 20
5.15990430
  0
VERTEX
  8
0
 62
7
 10
19.71100000
 20
5.20600000
  0
VERTEX
  8
0
 62
7
 10
19.72473438
 20
5.15382813
  0
VERTEX
  8
0
 62
7
 10
19.74437500
 20
5.10287500
  0
VERTEX
  8
0
 62
7
 10
19.76907813
 20
5.05398438
  0
VERTEX
  8
0
 62
7
 10
19.79800000
 20
5.00800000
  0
VERTEX
  8
0
 62
7
 10
19.84110938
 20
4.95729688
  0
VERTEX
  8
0
 62
7
 10
19.89012500
 20
4.91287500
  0
VERTEX
  8
0
 62
7
 10
19.94382813
 20
4.87426563
  0
VERTEX
  8
0
 62
7
 10
20.00100000
 20
4.84100000
  0
VERTEX
  8
0
 62
7
 10
20.05021875
 20
4.82053125
  0
VERTEX
  8
0
 62
7
 10
20.10225000
 20
4.80550000
  0
VERTEX
  8
0
 62
7
 10
20.15540625
 20
4.79121875
  0
VERTEX
  8
0
 62
7
 10
20.20800000
 20
4.77300000
  0
VERTEX
  8
0
 62
7
 10
20.23628906
 20
4.76031250
  0
VERTEX
  8
0
 62
7
 10
20.26368750
 20
4.74481250
  0
VERTEX
  8
0
 62
7
 10
20.29061719
 20
4.72771875
  0
VERTEX
  8
0
 62
7
 10
20.31750000
 20
4.71025000
  0
VERTEX
  8
0
 62
7
 10
20.34475781
 20
4.69362500
  0
VERTEX
  8
0
 62
7
 10
20.37281250
 20
4.67906250
  0
VERTEX
  8
0
 62
7
 10
20.40208594
 20
4.66778125
  0
VERTEX
  8
0
 62
7
 10
20.43300000
 20
4.66100000
  0
VERTEX
  8
0
 62
7
 10
20.47796875
 20
4.65892188
  0
VERTEX
  8
0
 62
7
 10
20.52275000
 20
4.66237500
  0
VERTEX
  8
0
 62
7
 10
20.56715625
 20
4.67014063
  0
VERTEX
  8
0
 62
7
 10
20.61100000
 20
4.68100000
  0
VERTEX
  8
0
 62
7
 10
20.64993555
 20
4.69270898
  0
VERTEX
  8
0
 62
7
 10
20.68792188
 20
4.70679688
  0
VERTEX
  8
0
 62
7
 10
20.72485352
 20
4.72320508
  0
VERTEX
  8
0
 62
7
 10
20.76062500
 20
4.74187500
  0
VERTEX
  8
0
 62
7
 10
20.79513086
 20
4.76274805
  0
VERTEX
  8
0
 62
7
 10
20.82826563
 20
4.78576563
  0
VERTEX
  8
0
 62
7
 10
20.85992383
 20
4.81086914
  0
VERTEX
  8
0
 62
7
 10
20.89000000
 20
4.83800000
  0
VERTEX
  8
0
 62
7
 10
20.91443750
 20
4.80560938
  0
VERTEX
  8
0
 62
7
 10
20.93550000
 20
4.77162500
  0
VERTEX
  8
0
 62
7
 10
20.95356250
 20
4.73632813
  0
VERTEX
  8
0
 62
7
 10
20.96900000
 20
4.70000000
  0
VERTEX
  8
0
 62
7
 10
20.98270313
 20
4.65173438
  0
VERTEX
  8
0
 62
7
 10
20.99087500
 20
4.60187500
  0
VERTEX
  8
0
 62
7
 10
20.99585938
 20
4.55107813
  0
VERTEX
  8
0
 62
7
 10
21.00000000
 20
4.50000000
  0
VERTEX
  8
0
 62
7
 10
21.00354688
 20
4.38993750
  0
VERTEX
  8
0
 62
7
 10
21.00062500
 20
4.28025000
  0
VERTEX
  8
0
 62
7
 10
20.99339063
 20
4.17093750
  0
VERTEX
  8
0
 62
7
 10
20.98400000
 20
4.06200000
  0
VERTEX
  8
0
 62
7
 10
20.96762500
 20
3.88550000
  0
VERTEX
  8
0
 62
7
 10
20.94600000
 20
3.70900000
  0
VERTEX
  8
0
 62
7
 10
20.98000000
 20
3.68237500
  0
VERTEX
  8
0
 62
7
 10
21.01100000
 20
3.64900000
  0
VERTEX
  8
0
 62
7
 10
21.02914453
 20
3.62327539
  0
VERTEX
  8
0
 62
7
 10
21.04384375
 20
3.59582813
  0
VERTEX
  8
0
 62
7
 10
21.05512109
 20
3.56699805
  0
VERTEX
  8
0
 62
7
 10
21.06300000
 20
3.53712500
  0
VERTEX
  8
0
 62
7
 10
21.06750391
 20
3.50654883
  0
VERTEX
  8
0
 62
7
 10
21.06865625
 20
3.47560938
  0
VERTEX
  8
0
 62
7
 10
21.06648047
 20
3.44464648
  0
VERTEX
  8
0
 62
7
 10
21.06100000
 20
3.41400000
  0
VERTEX
  8
0
 62
7
 10
21.03850000
 20
3.41725000
  0
VERTEX
  8
0
 62
7
 10
21.01600000
 20
3.41600000
  0
VERTEX
  8
0
 62
7
 10
20.99834961
 20
3.41176758
  0
VERTEX
  8
0
 62
7
 10
20.98317188
 20
3.40351563
  0
VERTEX
  8
0
 62
7
 10
20.96975195
 20
3.39228711
  0
VERTEX
  8
0
 62
7
 10
20.95737500
 20
3.37912500
  0
VERTEX
  8
0
 62
7
 10
20.94532617
 20
3.36507227
  0
VERTEX
  8
0
 62
7
 10
20.93289063
 20
3.35117188
  0
VERTEX
  8
0
 62
7
 10
20.91935352
 20
3.33846680
  0
VERTEX
  8
0
 62
7
 10
20.90400000
 20
3.32800000
  0
VERTEX
  8
0
 62
7
 10
20.87068750
 20
3.31056250
  0
VERTEX
  8
0
 62
7
 10
20.83550000
 20
3.29575000
  0
VERTEX
  8
0
 62
7
 10
20.79881250
 20
3.28356250
  0
VERTEX
  8
0
 62
7
 10
20.76100000
 20
3.27400000
  0
VERTEX
  8
0
 62
7
 10
20.81400000
 20
3.21000000
  0
VERTEX
  8
0
 62
7
 10
20.83851563
 20
3.18475000
  0
VERTEX
  8
0
 62
7
 10
20.86762500
 20
3.15575000
  0
VERTEX
  8
0
 62
7
 10
20.89317188
 20
3.12787500
  0
VERTEX
  8
0
 62
7
 10
20.90700000
 20
3.10600000
  0
VERTEX
  8
0
 62
7
 10
20.90883203
 20
3.09457227
  0
VERTEX
  8
0
 62
7
 10
20.90478125
 20
3.08376563
  0
VERTEX
  8
0
 62
7
 10
20.89627734
 20
3.07391992
  0
VERTEX
  8
0
 62
7
 10
20.88475000
 20
3.06537500
  0
VERTEX
  8
0
 62
7
 10
20.87162891
 20
3.05847070
  0
VERTEX
  8
0
 62
7
 10
20.85834375
 20
3.05354688
  0
VERTEX
  8
0
 62
7
 10
20.84632422
 20
3.05094336
  0
VERTEX
  8
0
 62
7
 10
20.83700000
 20
3.05100000
  0
SEQEND
  0
POLYLINE
  8
0
 62
7
 66
1
 70
1
  0
VERTEX
  8
0
 62
7
 10
19.43300000
 20
4.45100000
  0
VERTEX
  8
0
 62
7
 10
19.42912500
 20
4.42037500
  0
VERTEX
  8
0
 62
7
 10
19.42900000
 20
4.38900000
  0
VERTEX
  8
0
 62
7
 10
19.43187500
 20
4.36512500
  0
VERTEX
  8
0
 62
7
 10
19.43700000
 20
4.34200000
  0
VERTEX
  8
0
 62
7
 10
19.41884375
 20
4.34435938
  0
VERTEX
  8
0
 62
7
 10
19.40050000
 20
4.34437500
  0
VERTEX
  8
0
 62
7
 10
19.38215625
 20
4.34270313
  0
VERTEX
  8
0
 62
7
 10
19.36400000
 20
4.34000000
  0
VERTEX
  8
0
 62
7
 10
19.34287500
 20
4.33225000
  0
VERTEX
  8
0
 62
7
 10
19.32325000
 20
4.32225000
  0
VERTEX
  8
0
 62
7
 10
19.30550000
 20
4.30962500
  0
VERTEX
  8
0
 62
7
 10
19.29000000
 20
4.29400000
  0
VERTEX
  8
0
 62
7
 10
19.32275000
 20
4.27050000
  0
VERTEX
  8
0
 62
7
 10
19.35400000
 20
4.24100000
  0
VERTEX
  8
0
 62
7
 10
19.37578125
 20
4.20906250
  0
VERTEX
  8
0
 62
7
 10
19.39325000
 20
4.17450000
  0
VERTEX
  8
0
 62
7
 10
19.40884375
 20
4.13918750
  0
VERTEX
  8
0
 62
7
 10
19.42500000
 20
4.10500000
  0
VERTEX
  8
0
 62
7
 10
19.45800000
 20
4.02800000
  0
VERTEX
  8
0
 62
7
 10
19.45254688
 20
3.99673438
  0
VERTEX
  8
0
 62
7
 10
19.44362500
 20
3.96612500
  0
VERTEX
  8
0
 62
7
 10
19.43114063
 20
3.93645313
  0
VERTEX
  8
0
 62
7
 10
19.41500000
 20
3.90800000
  0
VERTEX
  8
0
 62
7
 10
19.39510938
 20
3.87518750
  0
VERTEX
  8
0
 62
7
 10
19.37137500
 20
3.84575000
  0
VERTEX
  8
0
 62
7
 10
19.34370313
 20
3.81968750
  0
VERTEX
  8
0
 62
7
 10
19.31200000
 20
3.79700000
  0
VERTEX
  8
0
 62
7
 10
19.33851563
 20
3.72642188
  0
VERTEX
  8
0
 62
7
 10
19.35912500
 20
3.65537500
  0
VERTEX
  8
0
 62
7
 10
19.37317188
 20
3.58339063
  0
VERTEX
  8
0
 62
7
 10
19.38000000
 20
3.51000000
  0
VERTEX
  8
0
 62
7
 10
19.38184180
 20
3.46551563
  0
VERTEX
  8
0
 62
7
 10
19.38142188
 20
3.42131250
  0
VERTEX
  8
0
 62
7
 10
19.37882227
 20
3.37739063
  0
VERTEX
  8
0
 62
7
 10
19.37412500
 20
3.33375000
  0
VERTEX
  8
0
 62
7
 10
19.36741211
 20
3.29039063
  0
VERTEX
  8
0
 62
7
 10
19.35876563
 20
3.24731250
  0
VERTEX
  8
0
 62
7
 10
19.34826758
 20
3.20451563
  0
VERTEX
  8
0
 62
7
 10
19.33600000
 20
3.16200000
  0
VERTEX
  8
0
 62
7
 10
19.31562500
 20
3.09512500
  0
VERTEX
  8
0
 62
7
 10
19.29075000
 20
3.02975000
  0
VERTEX
  8
0
 62
7
 10
19.26175000
 20
2.96625000
  0
VERTEX
  8
0
 62
7
 10
19.22900000
 20
2.90500000
  0
VERTEX
  8
0
 62
7
 10
19.18626172
 20
2.92384570
  0
VERTEX
  8
0
 62
7
 10
19.14284375
 20
2.94064063
  0
VERTEX
  8
0
 62
7
 10
19.09881641
 20
2.95539648
  0
VERTEX
  8
0
 62
7
 10
19.05425000
 20
2.96812500
  0
VERTEX
  8
0
 62
7
 10
19.00921484
 20
2.97883789
  0
VERTEX
  8
0
 62
7
 10
18.96378125
 20
2.98754688
  0
VERTEX
  8
0
 62
7
 10
18.91801953
 20
2.99426367
  0
VERTEX
  8
0
 62
7
 10
18.87200000
 20
2.99900000
  0
VERTEX
  8
0
 62
7
 10
18.82183789
 20
3.00091797
  0
VERTEX
  8
0
 62
7
 10
18.77182813
 20
2.99840625
  0
VERTEX
  8
0
 62
7
 10
18.72193555
 20
2.99256641
  0
VERTEX
  8
0
 62
7
 10
18.67212500
 20
2.98450000
  0
VERTEX
  8
0
 62
7
 10
18.62236133
 20
2.97530859
  0
VERTEX
  8
0
 62
7
 10
18.57260938
 20
2.96609375
  0
VERTEX
  8
0
 62
7
 10
18.52283398
 20
2.95795703
  0
VERTEX
  8
0
 62
7
 10
18.47300000
 20
2.95200000
  0
VERTEX
  8
0
 62
7
 10
18.43350195
 20
2.94999023
  0
VERTEX
  8
0
 62
7
 10
18.39382813
 20
2.94942188
  0
VERTEX
  8
0
 62
7
 10
18.35408398
 20
2.94948633
  0
VERTEX
  8
0
 62
7
 10
18.31437500
 20
2.94937500
  0
VERTEX
  8
0
 62
7
 10
18.27480664
 20
2.94827930
  0
VERTEX
  8
0
 62
7
 10
18.23548438
 20
2.94539063
  0
VERTEX
  8
0
 62
7
 10
18.19651367
 20
2.93990039
  0
VERTEX
  8
0
 62
7
 10
18.15800000
 20
2.93100000
  0
VERTEX
  8
0
 62
7
 10
18.11532813
 20
2.91664063
  0
VERTEX
  8
0
 62
7
 10
18.07312500
 20
2.89937500
  0
VERTEX
  8
0
 62
7
 10
18.03185938
 20
2.87967188
  0
VERTEX
  8
0
 62
7
 10
17.99200000
 20
2.85800000
  0
VERTEX
  8
0
 62
7
 10
17.98712500
 20
3.04342188
  0
VERTEX
  8
0
 62
7
 10
17.98600000
 20
3.22912500
  0
VERTEX
  8
0
 62
7
 10
17.98862500
 20
3.41501563
  0
VERTEX
  8
0
 62
7
 10
17.99500000
 20
3.60100000
  0
VERTEX
  8
0
 62
7
 10
18.00004688
 20
3.68660938
  0
VERTEX
  8
0
 62
7
 10
18.00687500
 20
3.77137500
  0
VERTEX
  8
0
 62
7
 10
18.01201563
 20
3.85595313
  0
VERTEX
  8
0
 62
7
 10
18.01200000
 20
3.94100000
  0
VERTEX
  8
0
 62
7
 10
18.00601563
 20
4.01375000
  0
VERTEX
  8
0
 62
7
 10
17.99637500
 20
4.08650000
  0
VERTEX
  8
0
 62
7
 10
17.98654688
 20
4.15925000
  0
VERTEX
  8
0
 62
7
 10
17.98000000
 20
4.23200000
  0
VERTEX
  8
0
 62
7
 10
17.97803125
 20
4.28943750
  0
VERTEX
  8
0
 62
7
 10
17.97850000
 20
4.34725000
  0
VERTEX
  8
0
 62
7
 10
17.97746875
 20
4.40468750
  0
VERTEX
  8
0
 62
7
 10
17.97100000
 20
4.46100000
  0
VERTEX
  8
0
 62
7
 10
17.94600000
 20
4.55900000
  0
VERTEX
  8
0
 62
7
 10
17.99191797
 20
4.58087891
  0
VERTEX
  8
0
 62
7
 10
18.03884375
 20
4.59996875
  0
VERTEX
  8
0
 62
7
 10
18.08666016
 20
4.61619922
  0
VERTEX
  8
0
 62
7
 10
18.13525000
 20
4.62950000
  0
VERTEX
  8
0
 62
7
 10
18.18449609
 20
4.63980078
  0
VERTEX
  8
0
 62
7
 10
18.23428125
 20
4.64703125
  0
VERTEX
  8
0
 62
7
 10
18.28448828
 20
4.65112109
  0
VERTEX
  8
0
 62
7
 10
18.33500000
 20
4.65200000
  0
VERTEX
  8
0
 62
7
 10
18.37165039
 20
4.65053516
  0
VERTEX
  8
0
 62
7
 10
18.40807813
 20
4.64703125
  0
VERTEX
  8
0
 62
7
 10
18.44424805
 20
4.64169922
  0
VERTEX
  8
0
 62
7
 10
18.48012500
 20
4.63475000
  0
VERTEX
  8
0
 62
7
 10
18.51567383
 20
4.62639453
  0
VERTEX
  8
0
 62
7
 10
18.55085938
 20
4.61684375
  0
VERTEX
  8
0
 62
7
 10
18.58564648
 20
4.60630859
  0
VERTEX
  8
0
 62
7
 10
18.62000000
 20
4.59500000
  0
VERTEX
  8
0
 62
7
 10
18.66953125
 20
4.57718750
  0
VERTEX
  8
0
 62
7
 10
18.71775000
 20
4.55675000
  0
VERTEX
  8
0
 62
7
 10
18.76484375
 20
4.53368750
  0
VERTEX
  8
0
 62
7
 10
18.81100000
 20
4.50800000
  0
VERTEX
  8
0
 62
7
 10
18.84870313
 20
4.54490625
  0
VERTEX
  8
0
 62
7
 10
18.88987500
 20
4.57750000
  0
VERTEX
  8
0
 62
7
 10
18.93460938
 20
4.60559375
  0
VERTEX
  8
0
 62
7
 10
18.98300000
 20
4.62900000
  0
VERTEX
  8
0
 62
7
 10
19.01095313
 20
4.64123438
  0
VERTEX
  8
0
 62
7
 10
19.03937500
 20
4.65112500
  0
VERTEX
  8
0
 62
7
 10
19.06835938
 20
4.65895313
  0
VERTEX
  8
0
 62
7
 10
19.09800000
 20
4.66500000
  0
VERTEX
  8
0
 62
7
 10
19.10185938
 20
4.63960938
  0
VERTEX
  8
0
 62
7
 10
19.10787500
 20
4.61487500
  0
VERTEX
  8
0
 62
7
 10
19.11670313
 20
4.59145313
  0
VERTEX
  8
0
 62
7
 10
19.12900000
 20
4.57000000
  0
VERTEX
  8
0
 62
7
 10
19.13698828
 20
4.55761719
  0
VERTEX
  8
0
 62
7
 10
19.14696875
 20
4.54706250
  0
VERTEX
  8
0
 62
7
 10
19.15821484
 20
4.53772656
  0
VERTEX
  8
0
 62
7
 10
19.17000000
 20
4.52900000
  0
VERTEX
  8
0
 62
7
 10
19.18159766
 20
4.52027344
  0
VERTEX
  8
0
 62
7
 10
19.19228125
 20
4.51093750
  0
VERTEX
  8
0
 62
7
 10
19.20132422
 20
4.50038281
  0
VERTEX
  8
0
 62
7
 10
19.20800000
 20
4.48800000
  0
VERTEX
  8
0
 62
7
 10
19.21779688
 20
4.46425000
  0
VERTEX
  8
0
 62
7
 10
19.22337500
 20
4.43975000
  0
VERTEX
  8
0
 62
7
 10
19.22501563
 20
4.41487500
  0
VERTEX
  8
0
 62
7
 10
19.22300000
 20
4.39000000
  0
VERTEX
  8
0
 62
7
 10
19.25290625
 20
4.41117188
  0
VERTEX
  8
0
 62
7
 10
19.28525000
 20
4.42812500
  0
VERTEX
  8
0
 62
7
 10
19.31946875
 20
4.44076563
  0
VERTEX
  8
0
 62
7
 10
19.35500000
 20
4.44900000
  0
VERTEX
  8
0
 62
7
 10
19.39400000
 20
4.45187500
  0
VERTEX
  8
0
 62
7
 10
19.43300000
 20
4.45100000
  0
SEQEND
  0
POLYLINE
  8
0
 62
7
 66
1
 70
1
  0
VERTEX
  8
0
 62
7
 10
19.41300000
 20
4.55600000
  0
VERTEX
  8
0
 62
7
 10
19.41500000
 20
4.48900000
  0
VERTEX
  8
0
 62
7
 10
19.35300000
 20
4.49200000
  0
VERTEX
  8
0
 62
7
 10
19.26737500
 20
4.57750000
  0
VERTEX
  8
0
 62
7
 10
19.18700000
 20
4.66600000
  0
VERTEX
  8
0
 62
7
 10
19.08900000
 20
4.78600000
  0
VERTEX
  8
0
 62
7
 10
19.07107813
 20
4.75285938
  0
VERTEX
  8
0
 62
7
 10
19.04687500
 20
4.72337500
  0
VERTEX
  8
0
 62
7
 10
19.01798438
 20
4.69895313
  0
VERTEX
  8
0
 62
7
 10
18.98600000
 20
4.68100000
  0
VERTEX
  8
0
 62
7
 10
18.96814063
 20
4.67420313
  0
VERTEX
  8
0
 62
7
 10
18.94962500
 20
4.67087500
  0
VERTEX
  8
0
 62
7
 10
18.93129688
 20
4.66735938
  0
VERTEX
  8
0
 62
7
 10
18.91400000
 20
4.66000000
  0
VERTEX
  8
0
 62
7
 10
18.89829688
 20
4.65031250
  0
VERTEX
  8
0
 62
7
 10
18.88437500
 20
4.63800000
  0
VERTEX
  8
0
 62
7
 10
18.87251563
 20
4.62343750
  0
VERTEX
  8
0
 62
7
 10
18.86300000
 20
4.60700000
  0
VERTEX
  8
0
 62
7
 10
18.85726953
 20
4.60518555
  0
VERTEX
  8
0
 62
7
 10
18.84415625
 20
4.60617188
  0
VERTEX
  8
0
 62
7
 10
18.82527734
 20
4.60947852
  0
VERTEX
  8
0
 62
7
 10
18.80225000
 20
4.61462500
  0
VERTEX
  8
0
 62
7
 10
18.77669141
 20
4.62113086
  0
VERTEX
  8
0
 62
7
 10
18.75021875
 20
4.62851563
  0
VERTEX
  8
0
 62
7
 10
18.72444922
 20
4.63629883
  0
VERTEX
  8
0
 62
7
 10
18.70100000
 20
4.64400000
  0
VERTEX
  8
0
 62
7
 10
18.66821875
 20
4.65871875
  0
VERTEX
  8
0
 62
7
 10
18.63450000
 20
4.67775000
  0
VERTEX
  8
0
 62
7
 10
18.60003125
 20
4.69715625
  0
VERTEX
  8
0
 62
7
 10
18.56500000
 20
4.71300000
  0
VERTEX
  8
0
 62
7
 10
18.52442188
 20
4.71418750
  0
VERTEX
  8
0
 62
7
 10
18.43762500
 20
4.71275000
  0
VERTEX
  8
0
 62
7
 10
18.33226563
 20
4.71018750
  0
VERTEX
  8
0
 62
7
 10
18.23600000
 20
4.70800000
  0
VERTEX
  8
0
 62
7
 10
18.21641919
 20
4.70844507
  0
VERTEX
  8
0
 62
7
 10
18.19508789
 20
4.71006055
  0
VERTEX
  8
0
 62
7
 10
18.17243530
 20
4.71270435
  0
VERTEX
  8
0
 62
7
 10
18.14889063
 20
4.71623438
  0
VERTEX
  8
0
 62
7
 10
18.12488306
 20
4.72050854
  0
VERTEX
  8
0
 62
7
 10
18.10084180
 20
4.72538477
  0
VERTEX
  8
0
 62
7
 10
18.07719604
 20
4.73072095
  0
VERTEX
  8
0
 62
7
 10
18.05437500
 20
4.73637500
  0
VERTEX
  8
0
 62
7
 10
18.03280786
 20
4.74220483
  0
VERTEX
  8
0
 62
7
 10
18.01292383
 20
4.74806836
  0
VERTEX
  8
0
 62
7
 10
17.99515210
 20
4.75382349
  0
VERTEX
  8
0
 62
7
 10
17.97992188
 20
4.75932813
  0
VERTEX
  8
0
 62
7
 10
17.96766235
 20
4.76444019
  0
VERTEX
  8
0
 62
7
 10
17.95880273
 20
4.76901758
  0
VERTEX
  8
0
 62
7
 10
17.95377222
 20
4.77291821
  0
VERTEX
  8
0
 62
7
 10
17.95300000
 20
4.77600000
  0
VERTEX
  8
0
 62
7
 10
17.96946484
 20
4.80818945
  0
VERTEX
  8
0
 62
7
 10
17.98309375
 20
4.84226563
  0
VERTEX
  8
0
 62
7
 10
17.99423828
 20
4.87786523
  0
VERTEX
  8
0
 62
7
 10
18.00325000
 20
4.91462500
  0
VERTEX
  8
0
 62
7
 10
18.01048047
 20
4.95218164
  0
VERTEX
  8
0
 62
7
 10
18.01628125
 20
4.99017188
  0
VERTEX
  8
0
 62
7
 10
18.02100391
 20
5.02823242
  0
VERTEX
  8
0
 62
7
 10
18.02500000
 20
5.06600000
  0
VERTEX
  8
0
 62
7
 10
18.02756641
 20
5.11424609
  0
VERTEX
  8
0
 62
7
 10
18.02621875
 20
5.16228125
  0
VERTEX
  8
0
 62
7
 10
18.02201172
 20
5.21017578
  0
VERTEX
  8
0
 62
7
 10
18.01600000
 20
5.25800000
  0
VERTEX
  8
0
 62
7
 10
18.00923828
 20
5.30582422
  0
VERTEX
  8
0
 62
7
 10
18.00278125
 20
5.35371875
  0
VERTEX
  8
0
 62
7
 10
17.99768359
 20
5.40175391
  0
VERTEX
  8
0
 62
7
 10
17.99500000
 20
5.45000000
  0
VERTEX
  8
0
 62
7
 10
17.99378125
 20
5.52515625
  0
VERTEX
  8
0
 62
7
 10
17.99500000
 20
5.60050000
  0
VERTEX
  8
0
 62
7
 10
17.99696875
 20
5.67584375
  0
VERTEX
  8
0
 62
7
 10
17.99800000
 20
5.75100000
  0
VERTEX
  8
0
 62
7
 10
17.99900586
 20
5.85122656
  0
VERTEX
  8
0
 62
7
 10
17.99648438
 20
5.95037500
  0
VERTEX
  8
0
 62
7
 10
17.99225195
 20
6.04877344
  0
VERTEX
  8
0
 62
7
 10
17.98812500
 20
6.14675000
  0
VERTEX
  8
0
 62
7
 10
17.98591992
 20
6.24463281
  0
VERTEX
  8
0
 62
7
 10
17.98745313
 20
6.34275000
  0
VERTEX
  8
0
 62
7
 10
17.99454102
 20
6.44142969
  0
VERTEX
  8
0
 62
7
 10
18.00900000
 20
6.54100000
  0
VERTEX
  8
0
 62
7
 10
18.02014063
 20
6.58940625
  0
VERTEX
  8
0
 62
7
 10
18.03512500
 20
6.64100000
  0
VERTEX
  8
0
 62
7
 10
18.05104688
 20
6.69259375
  0
VERTEX
  8
0
 62
7
 10
18.06500000
 20
6.74100000
  0
VERTEX
  8
0
 62
7
 10
18.08964063
 20
6.69746289
  0
VERTEX
  8
0
 62
7
 10
18.11887500
 20
6.65501563
  0
VERTEX
  8
0
 62
7
 10
18.15204688
 20
6.61427930
  0
VERTEX
  8
0
 62
7
 10
18.18850000
 20
6.57587500
  0
VERTEX
  8
0
 62
7
 10
18.22757813
 20
6.54042383
  0
VERTEX
  8
0
 62
7
 10
18.26862500
 20
6.50854688
  0
VERTEX
  8
0
 62
7
 10
18.31098438
 20
6.48086523
  0
VERTEX
  8
0
 62
7
 10
18.35400000
 20
6.45800000
  0
VERTEX
  8
0
 62
7
 10
18.39035352
 20
6.43935547
  0
VERTEX
  8
0
 62
7
 10
18.42282813
 20
6.42003125
  0
VERTEX
  8
0
 62
7
 10
18.45241992
 20
6.39981641
  0
VERTEX
  8
0
 62
7
 10
18.48012500
 20
6.37850000
  0
VERTEX
  8
0
 62
7
 10
18.50693945
 20
6.35587109
  0
VERTEX
  8
0
 62
7
 10
18.53385938
 20
6.33171875
  0
VERTEX
  8
0
 62
7
 10
18.56188086
 20
6.30583203
  0
VERTEX
  8
0
 62
7
 10
18.59200000
 20
6.27800000
  0
VERTEX
  8
0
 62
7
 10
18.65462500
 20
6.21537500
  0
VERTEX
  8
0
 62
7
 10
18.71500000
 20
6.14900000
  0
VERTEX
  8
0
 62
7
 10
18.76245313
 20
6.13779688
  0
VERTEX
  8
0
 62
7
 10
18.80137500
 20
6.12837500
  0
VERTEX
  8
0
 62
7
 10
18.84085938
 20
6.12101563
  0
VERTEX
  8
0
 62
7
 10
18.89000000
 20
6.11600000
  0
VERTEX
  8
0
 62
7
 10
18.95165625
 20
6.11282813
  0
VERTEX
  8
0
 62
7
 10
19.01350000
 20
6.11162500
  0
VERTEX
  8
0
 62
7
 10
19.07534375
 20
6.11360938
  0
VERTEX
  8
0
 62
7
 10
19.13700000
 20
6.12000000
  0
VERTEX
  8
0
 62
7
 10
19.19873438
 20
6.13259375
  0
VERTEX
  8
0
 62
7
 10
19.26037500
 20
6.14950000
  0
VERTEX
  8
0
 62
7
 10
19.32107813
 20
6.17090625
  0
VERTEX
  8
0
 62
7
 10
19.38000000
 20
6.19700000
  0
VERTEX
  8
0
 62
7
 10
19.39954688
 20
6.09423242
  0
VERTEX
  8
0
 62
7
 10
19.41393750
 20
5.99079688
  0
VERTEX
  8
0
 62
7
 10
19.42317188
 20
5.88686914
  0
VERTEX
  8
0
 62
7
 10
19.42725000
 20
5.78262500
  0
VERTEX
  8
0
 62
7
 10
19.42617188
 20
5.67824023
  0
VERTEX
  8
0
 62
7
 10
19.41993750
 20
5.57389063
  0
VERTEX
  8
0
 62
7
 10
19.40854688
 20
5.46975195
  0
VERTEX
  8
0
 62
7
 10
19.39200000
 20
5.36600000
  0
VERTEX
  8
0
 62
7
 10
19.37475000
 20
5.27950000
  0
VERTEX
  8
0
 62
7
 10
19.35300000
 20
5.19300000
  0
VERTEX
  8
0
 62
7
 10
19.37460938
 20
5.17676563
  0
VERTEX
  8
0
 62
7
 10
19.39387500
 20
5.15687500
  0
VERTEX
  8
0
 62
7
 10
19.40995313
 20
5.13379688
  0
VERTEX
  8
0
 62
7
 10
19.42200000
 20
5.10800000
  0
VERTEX
  8
0
 62
7
 10
19.42570898
 20
5.09515820
  0
VERTEX
  8
0
 62
7
 10
19.42635938
 20
5.08157813
  0
VERTEX
  8
0
 62
7
 10
19.42511133
 20
5.06755273
  0
VERTEX
  8
0
 62
7
 10
19.42312500
 20
5.05337500
  0
VERTEX
  8
0
 62
7
 10
19.42156055
 20
5.03933789
  0
VERTEX
  8
0
 62
7
 10
19.42157813
 20
5.02573438
  0
VERTEX
  8
0
 62
7
 10
19.42433789
 20
5.01285742
  0
VERTEX
  8
0
 62
7
 10
19.43100000
 20
5.00100000
  0
VERTEX
  8
0
 62
7
 10
19.45125000
 20
4.98412500
  0
VERTEX
  8
0
 62
7
 10
19.47600000
 20
4.97100000
  0
VERTEX
  8
0
 62
7
 10
19.45712695
 20
4.95192969
  0
VERTEX
  8
0
 62
7
 10
19.43789063
 20
4.93262500
  0
VERTEX
  8
0
 62
7
 10
19.41811523
 20
4.91369531
  0
VERTEX
  8
0
 62
7
 10
19.39762500
 20
4.89575000
  0
VERTEX
  8
0
 62
7
 10
19.37624414
 20
4.87939844
  0
VERTEX
  8
0
 62
7
 10
19.35379688
 20
4.86525000
  0
VERTEX
  8
0
 62
7
 10
19.33010742
 20
4.85391406
  0
VERTEX
  8
0
 62
7
 10
19.30500000
 20
4.84600000
  0
VERTEX
  8
0
 62
7
 10
19.26648438
 20
4.83920313
  0
VERTEX
  8
0
 62
7
 10
19.23087500
 20
4.83587500
  0
VERTEX
  8
0
 62
7
 10
19.19882813
 20
4.83235938
  0
VERTEX
  8
0
 62
7
 10
19.17100000
 20
4.82500000
  0
VERTEX
  8
0
 62
7
 10
19.20525000
 20
4.77832813
  0
VERTEX
  8
0
 62
7
 10
19.24625000
 20
4.72837500
  0
VERTEX
  8
0
 62
7
 10
19.28912500
 20
4.67973438
  0
VERTEX
  8
0
 62
7
 10
19.32900000
 20
4.63700000
  0
VERTEX
  8
0
 62
7
 10
19.36950000
 20
4.59425000
  0
VERTEX
  8
0
 62
7
 10
19.41300000
 20
4.55600000
  0
SEQEND
  0
POLYLINE
  8
0
 62
7
 66
1
 70
1
  0
VERTEX
  8
0
 62
7
 10
19.30100000
 20
7.44400000
  0
VERTEX
  8
0
 62
7
 10
19.29692188
 20
7.46739063
  0
VERTEX
  8
0
 62
7
 10
19.29612500
 20
7.49087500
  0
VERTEX
  8
0
 62
7
 10
19.29776563
 20
7.51417188
  0
VERTEX
  8
0
 62
7
 10
19.30100000
 20
7.53700000
  0
VERTEX
  8
0
 62
7
 10
19.32000000
 20
7.58900000
  0
VERTEX
  8
0
 62
7
 10
19.36744531
 20
7.55083789
  0
VERTEX
  8
0
 62
7
 10
19.41212500
 20
7.50926563
  0
VERTEX
  8
0
 62
7
 10
19.45380469
 20
7.46452930
  0
VERTEX
  8
0
 62
7
 10
19.49225000
 20
7.41687500
  0
VERTEX
  8
0
 62
7
 10
19.52722656
 20
7.36654883
  0
VERTEX
  8
0
 62
7
 10
19.55850000
 20
7.31379688
  0
VERTEX
  8
0
 62
7
 10
19.58583594
 20
7.25886523
  0
VERTEX
  8
0
 62
7
 10
19.60900000
 20
7.20200000
  0
VERTEX
  8
0
 62
7
 10
19.62954688
 20
7.14400586
  0
VERTEX
  8
0
 62
7
 10
19.64606250
 20
7.08492188
  0
VERTEX
  8
0
 62
7
 10
19.65835938
 20
7.02497070
  0
VERTEX
  8
0
 62
7
 10
19.66625000
 20
6.96437500
  0
VERTEX
  8
0
 62
7
 10
19.66954688
 20
6.90335742
  0
VERTEX
  8
0
 62
7
 10
19.66806250
 20
6.84214063
  0
VERTEX
  8
0
 62
7
 10
19.66160938
 20
6.78094727
  0
VERTEX
  8
0
 62
7
 10
19.65000000
 20
6.72000000
  0
VERTEX
  8
0
 62
7
 10
19.63562695
 20
6.66913477
  0
VERTEX
  8
0
 62
7
 10
19.61864063
 20
6.61945313
  0
VERTEX
  8
0
 62
7
 10
19.59886523
 20
6.57120117
  0
VERTEX
  8
0
 62
7
 10
19.57612500
 20
6.52462500
  0
VERTEX
  8
0
 62
7
 10
19.55024414
 20
6.47997070
  0
VERTEX
  8
0
 62
7
 10
19.52104688
 20
6.43748438
  0
VERTEX
  8
0
 62
7
 10
19.48835742
 20
6.39741211
  0
VERTEX
  8
0
 62
7
 10
19.45200000
 20
6.36000000
  0
VERTEX
  8
0
 62
7
 10
19.40428906
 20
6.31902124
  0
VERTEX
  8
0
 62
7
 10
19.35273438
 20
6.28220117
  0
VERTEX
  8
0
 62
7
 10
19.29801563
 20
6.24990161
  0
VERTEX
  8
0
 62
7
 10
19.24081250
 20
6.22248438
  0
VERTEX
  8
0
 62
7
 10
19.18180469
 20
6.20031128
  0
VERTEX
  8
0
 62
7
 10
19.12167188
 20
6.18374414
  0
VERTEX
  8
0
 62
7
 10
19.06109375
 20
6.17314478
  0
VERTEX
  8
0
 62
7
 10
19.00075000
 20
6.16887500
  0
VERTEX
  8
0
 62
7
 10
18.94132031
 20
6.17129663
  0
VERTEX
  8
0
 62
7
 10
18.88348438
 20
6.18077148
  0
VERTEX
  8
0
 62
7
 10
18.82792188
 20
6.19766138
  0
VERTEX
  8
0
 62
7
 10
18.77531250
 20
6.22232813
  0
VERTEX
  8
0
 62
7
 10
18.72633594
 20
6.25513354
  0
VERTEX
  8
0
 62
7
 10
18.68167188
 20
6.29643945
  0
VERTEX
  8
0
 62
7
 10
18.64200000
 20
6.34660767
  0
VERTEX
  8
0
 62
7
 10
18.60800000
 20
6.40600000
  0
VERTEX
  8
0
 62
7
 10
18.58906055
 20
6.45271680
  0
VERTEX
  8
0
 62
7
 10
18.57648438
 20
6.50092188
  0
VERTEX
  8
0
 62
7
 10
18.57025977
 20
6.54994727
  0
VERTEX
  8
0
 62
7
 10
18.57037500
 20
6.59912500
  0
VERTEX
  8
0
 62
7
 10
18.57681836
 20
6.64778711
  0
VERTEX
  8
0
 62
7
 10
18.58957813
 20
6.69526563
  0
VERTEX
  8
0
 62
7
 10
18.60864258
 20
6.74089258
  0
VERTEX
  8
0
 62
7
 10
18.63400000
 20
6.78400000
  0
VERTEX
  8
0
 62
7
 10
18.65808789
 20
6.81529102
  0
VERTEX
  8
0
 62
7
 10
18.68514063
 20
6.84382813
  0
VERTEX
  8
0
 62
7
 10
18.71484180
 20
6.86948242
  0
VERTEX
  8
0
 62
7
 10
18.74687500
 20
6.89212500
  0
VERTEX
  8
0
 62
7
 10
18.78092383
 20
6.91162695
  0
VERTEX
  8
0
 62
7
 10
18.81667188
 20
6.92785938
  0
VERTEX
  8
0
 62
7
 10
18.85380273
 20
6.94069336
  0
VERTEX
  8
0
 62
7
 10
18.89200000
 20
6.95000000
  0
VERTEX
  8
0
 62
7
 10
18.91579492
 20
6.95404102
  0
VERTEX
  8
0
 62
7
 10
18.93985938
 20
6.95701563
  0
VERTEX
  8
0
 62
7
 10
18.96408789
 20
6.95870117
  0
VERTEX
  8
0
 62
7
 10
18.98837500
 20
6.95887500
  0
VERTEX
  8
0
 62
7
 10
19.01261523
 20
6.95731445
  0
VERTEX
  8
0
 62
7
 10
19.03670313
 20
6.95379688
  0
VERTEX
  8
0
 62
7
 10
19.06053320
 20
6.94809961
  0
VERTEX
  8
0
 62
7
 10
19.08400000
 20
6.94000000
  0
VERTEX
  8
0
 62
7
 10
19.10943750
 20
6.92716992
  0
VERTEX
  8
0
 62
7
 10
19.13375000
 20
6.91198438
  0
VERTEX
  8
0
 62
7
 10
19.15656250
 20
6.89452539
  0
VERTEX
  8
0
 62
7
 10
19.17750000
 20
6.87487500
  0
VERTEX
  8
0
 62
7
 10
19.19618750
 20
6.85311523
  0
VERTEX
  8
0
 62
7
 10
19.21225000
 20
6.82932813
  0
VERTEX
  8
0
 62
7
 10
19.22531250
 20
6.80359570
  0
VERTEX
  8
0
 62
7
 10
19.23500000
 20
6.77600000
  0
VERTEX
  8
0
 62
7
 10
19.23980273
 20
6.75496289
  0
VERTEX
  8
0
 62
7
 10
19.24342188
 20
6.73332813
  0
VERTEX
  8
0
 62
7
 10
19.24542383
 20
6.71143555
  0
VERTEX
  8
0
 62
7
 10
19.24537500
 20
6.68962500
  0
VERTEX
  8
0
 62
7
 10
19.24284180
 20
6.66823633
  0
VERTEX
  8
0
 62
7
 10
19.23739063
 20
6.64760938
  0
VERTEX
  8
0
 62
7
 10
19.22858789
 20
6.62808398
  0
VERTEX
  8
0
 62
7
 10
19.21600000
 20
6.61000000
  0
VERTEX
  8
0
 62
7
 10
19.19376563
 20
6.59121875
  0
VERTEX
  8
0
 62
7
 10
19.16937500
 20
6.57600000
  0
VERTEX
  8
0
 62
7
 10
19.14329688
 20
6.56528125
  0
VERTEX
  8
0
 62
7
 10
19.11600000
 20
6.56000000
  0
VERTEX
  8
0
 62
7
 10
19.12608984
 20
6.58723438
  0
VERTEX
  8
0
 62
7
 10
19.13165625
 20
6.61531250
  0
VERTEX
  8
0
 62
7
 10
19.13276953
 20
6.64367188
  0
VERTEX
  8
0
 62
7
 10
19.12950000
 20
6.67175000
  0
VERTEX
  8
0
 62
7
 10
19.12191797
 20
6.69898438
  0
VERTEX
  8
0
 62
7
 10
19.11009375
 20
6.72481250
  0
VERTEX
  8
0
 62
7
 10
19.09409766
 20
6.74867188
  0
VERTEX
  8
0
 62
7
 10
19.07400000
 20
6.77000000
  0
VERTEX
  8
0
 62
7
 10
19.04901563
 20
6.78980273
  0
VERTEX
  8
0
 62
7
 10
19.02168750
 20
6.80373438
  0
VERTEX
  8
0
 62
7
 10
18.99257813
 20
6.81220508
  0
VERTEX
  8
0
 62
7
 10
18.96225000
 20
6.81562500
  0
VERTEX
  8
0
 62
7
 10
18.93126563
 20
6.81440430
  0
VERTEX
  8
0
 62
7
 10
18.90018750
 20
6.80895313
  0
VERTEX
  8
0
 62
7
 10
18.86957813
 20
6.79968164
  0
VERTEX
  8
0
 62
7
 10
18.84000000
 20
6.78700000
  0
VERTEX
  8
0
 62
7
 10
18.80586914
 20
6.76485156
  0
VERTEX
  8
0
 62
7
 10
18.77770313
 20
6.73731250
  0
VERTEX
  8
0
 62
7
 10
18.75546680
 20
6.70536719
  0
VERTEX
  8
0
 62
7
 10
18.73912500
 20
6.67000000
  0
VERTEX
  8
0
 62
7
 10
18.72864258
 20
6.63219531
  0
VERTEX
  8
0
 62
7
 10
18.72398438
 20
6.59293750
  0
VERTEX
  8
0
 62
7
 10
18.72511523
 20
6.55321094
  0
VERTEX
  8
0
 62
7
 10
18.73200000
 20
6.51400000
  0
VERTEX
  8
0
 62
7
 10
18.74420703
 20
6.47839648
  0
VERTEX
  8
0
 62
7
 10
18.76159375
 20
6.44592188
  0
VERTEX
  8
0
 62
7
 10
18.78343359
 20
6.41670508
  0
VERTEX
  8
0
 62
7
 10
18.80900000
 20
6.39087500
  0
VERTEX
  8
0
 62
7
 10
18.83756641
 20
6.36856055
  0
VERTEX
  8
0
 62
7
 10
18.86840625
 20
6.34989063
  0
VERTEX
  8
0
 62
7
 10
18.90079297
 20
6.33499414
  0
VERTEX
  8
0
 62
7
 10
18.93400000
 20
6.32400000
  0
VERTEX
  8
0
 62
7
 10
18.97005908
 20
6.31685913
  0
VERTEX
  8
0
 62
7
 10
19.00783203
 20
6.31440430
  0
VERTEX
  8
0
 62
7
 10
19.04689990
 20
6.31639966
  0
VERTEX
  8
0
 62
7
 10
19.08684375
 20
6.32260938
  0
VERTEX
  8
0
 62
7
 10
19.12724463
 20
6.33279761
  0
VERTEX
  8
0
 62
7
 10
19.16768359
 20
6.34672852
  0
VERTEX
  8
0
 62
7
 10
19.20774170
 20
6.36416626
  0
VERTEX
  8
0
 62
7
 10
19.24700000
 20
6.38487500
  0
VERTEX
  8
0
 62
7
 10
19.28503955
 20
6.40861890
  0
VERTEX
  8
0
 62
7
 10
19.32144141
 20
6.43516211
  0
VERTEX
  8
0
 62
7
 10
19.35578662
 20
6.46426880
  0
VERTEX
  8
0
 62
7
 10
19.38765625
 20
6.49570313
  0
VERTEX
  8
0
 62
7
 10
19.41663135
 20
6.52922925
  0
VERTEX
  8
0
 62
7
 10
19.44229297
 20
6.56461133
  0
VERTEX
  8
0
 62
7
 10
19.46422217
 20
6.60161353
  0
VERTEX
  8
0
 62
7
 10
19.48200000
 20
6.64000000
  0
VERTEX
  8
0
 62
7
 10
19.49616968
 20
6.67901074
  0
VERTEX
  8
0
 62
7
 10
19.50760742
 20
6.71836719
  0
VERTEX
  8
0
 62
7
 10
19.51639380
 20
6.75799316
  0
VERTEX
  8
0
 62
7
 10
19.52260938
 20
6.79781250
  0
VERTEX
  8
0
 62
7
 10
19.52633472
 20
6.83774902
  0
VERTEX
  8
0
 62
7
 10
19.52765039
 20
6.87772656
  0
VERTEX
  8
0
 62
7
 10
19.52663696
 20
6.91766895
  0
VERTEX
  8
0
 62
7
 10
19.52337500
 20
6.95750000
  0
VERTEX
  8
0
 62
7
 10
19.51794507
 20
6.99714355
  0
VERTEX
  8
0
 62
7
 10
19.51042773
 20
7.03652344
  0
VERTEX
  8
0
 62
7
 10
19.50090356
 20
7.07556348
  0
VERTEX
  8
0
 62
7
 10
19.48945313
 20
7.11418750
  0
VERTEX
  8
0
 62
7
 10
19.47615698
 20
7.15231934
  0
VERTEX
  8
0
 62
7
 10
19.46109570
 20
7.18988281
  0
VERTEX
  8
0
 62
7
 10
19.44434985
 20
7.22680176
  0
VERTEX
  8
0
 62
7
 10
19.42600000
 20
7.26300000
  0
VERTEX
  8
0
 62
7
 10
19.39971875
 20
7.31251563
  0
VERTEX
  8
0
 62
7
 10
19.37025000
 20
7.35912500
  0
VERTEX
  8
0
 62
7
 10
19.33740625
 20
7.40292188
  0
VERTEX
  8
0
 62
7
 10
19.30100000
 20
7.44400000
  0
SEQEND
  0
POLYLINE
  8
0
 62
7
 66
1
 70
1
  0
VERTEX
  8
0
 62
7
 10
18.16500000
 20
6.70000000
  0
VERTEX
  8
0
 62
7
 10
18.14860938
 20
6.71303125
  0
VERTEX
  8
0
 62
7
 10
18.13287500
 20
6.72700000
  0
VERTEX
  8
0
 62
7
 10
18.11845313
 20
6.74246875
  0
VERTEX
  8
0
 62
7
 10
18.10600000
 20
6.76000000
  0
VERTEX
  8
0
 62
7
 10
18.09012500
 20
6.78450000
  0
VERTEX
  8
0
 62
7
 10
18.07800000
 20
6.80900000
  0
VERTEX
  8
0
 62
7
 10
18.08404688
 20
6.83451563
  0
VERTEX
  8
0
 62
7
 10
18.09262500
 20
6.85862500
  0
VERTEX
  8
0
 62
7
 10
18.10289063
 20
6.88142188
  0
VERTEX
  8
0
 62
7
 10
18.11400000
 20
6.90300000
  0
VERTEX
  8
0
 62
7
 10
18.13775000
 20
6.93950000
  0
VERTEX
  8
0
 62
7
 10
18.16300000
 20
6.97300000
  0
VERTEX
  8
0
 62
7
 10
18.14138867
 20
6.97052930
  0
VERTEX
  8
0
 62
7
 10
18.11948438
 20
6.97273438
  0
VERTEX
  8
0
 62
7
 10
18.09755664
 20
6.97829102
  0
VERTEX
  8
0
 62
7
 10
18.07587500
 20
6.98587500
  0
VERTEX
  8
0
 62
7
 10
18.05470898
 20
6.99416211
  0
VERTEX
  8
0
 62
7
 10
18.03432813
 20
7.00182813
  0
VERTEX
  8
0
 62
7
 10
18.01500195
 20
7.00754883
  0
VERTEX
  8
0
 62
7
 10
17.99700000
 20
7.01000000
  0
VERTEX
  8
0
 62
7
 10
17.98887305
 20
7.01310156
  0
VERTEX
  8
0
 62
7
 10
17.98298438
 20
7.02150000
  0
VERTEX
  8
0
 62
7
 10
17.97894727
 20
7.03383594
  0
VERTEX
  8
0
 62
7
 10
17.97637500
 20
7.04875000
  0
VERTEX
  8
0
 62
7
 10
17.97488086
 20
7.06488281
  0
VERTEX
  8
0
 62
7
 10
17.97407813
 20
7.08087500
  0
VERTEX
  8
0
 62
7
 10
17.97358008
 20
7.09536719
  0
VERTEX
  8
0
 62
7
 10
17.97300000
 20
7.10700000
  0
VERTEX
  8
0
 62
7
 10
17.96988281
 20
7.14183789
  0
VERTEX
  8
0
 62
7
 10
17.96625000
 20
7.17401563
  0
VERTEX
  8
0
 62
7
 10
17.96280469
 20
7.20415430
  0
VERTEX
  8
0
 62
7
 10
17.96025000
 20
7.23287500
  0
VERTEX
  8
0
 62
7
 10
17.95928906
 20
7.26079883
  0
VERTEX
  8
0
 62
7
 10
17.96062500
 20
7.28854688
  0
VERTEX
  8
0
 62
7
 10
17.96496094
 20
7.31674023
  0
VERTEX
  8
0
 62
7
 10
17.97300000
 20
7.34600000
  0
VERTEX
  8
0
 62
7
 10
17.97675586
 20
7.35599414
  0
VERTEX
  8
0
 62
7
 10
17.98298438
 20
7.36576563
  0
VERTEX
  8
0
 62
7
 10
17.99087695
 20
7.37537305
  0
VERTEX
  8
0
 62
7
 10
17.99962500
 20
7.38487500
  0
VERTEX
  8
0
 62
7
 10
18.00841992
 20
7.39433008
  0
VERTEX
  8
0
 62
7
 10
18.01645313
 20
7.40379688
  0
VERTEX
  8
0
 62
7
 10
18.02291602
 20
7.41333398
  0
VERTEX
  8
0
 62
7
 10
18.02700000
 20
7.42300000
  0
VERTEX
  8
0
 62
7
 10
18.03354688
 20
7.44043750
  0
VERTEX
  8
0
 62
7
 10
18.03812500
 20
7.45825000
  0
VERTEX
  8
0
 62
7
 10
18.04064063
 20
7.47643750
  0
VERTEX
  8
0
 62
7
 10
18.04100000
 20
7.49500000
  0
VERTEX
  8
0
 62
7
 10
18.01187500
 20
7.61250000
  0
VERTEX
  8
0
 62
7
 10
17.98500000
 20
7.73000000
  0
VERTEX
  8
0
 62
7
 10
17.96915625
 20
7.80214063
  0
VERTEX
  8
0
 62
7
 10
17.95425000
 20
7.87362500
  0
VERTEX
  8
0
 62
7
 10
17.94196875
 20
7.94529688
  0
VERTEX
  8
0
 62
7
 10
17.93400000
 20
8.01800000
  0
VERTEX
  8
0
 62
7
 10
17.93139453
 20
8.06757813
  0
VERTEX
  8
0
 62
7
 10
17.92984375
 20
8.11725000
  0
VERTEX
  8
0
 62
7
 10
17.92974609
 20
8.16692188
  0
VERTEX
  8
0
 62
7
 10
17.93150000
 20
8.21650000
  0
VERTEX
  8
0
 62
7
 10
17.93550391
 20
8.26589063
  0
VERTEX
  8
0
 62
7
 10
17.94215625
 20
8.31500000
  0
VERTEX
  8
0
 62
7
 10
17.95185547
 20
8.36373438
  0
VERTEX
  8
0
 62
7
 10
17.96500000
 20
8.41200000
  0
VERTEX
  8
0
 62
7
 10
17.97917188
 20
8.45484375
  0
VERTEX
  8
0
 62
7
 10
17.99587500
 20
8.49750000
  0
VERTEX
  8
0
 62
7
 10
18.01464063
 20
8.53940625
  0
VERTEX
  8
0
 62
7
 10
18.03500000
 20
8.58000000
  0
VERTEX
  8
0
 62
7
 10
18.09953125
 20
8.55770313
  0
VERTEX
  8
0
 62
7
 10
18.16425000
 20
8.53887500
  0
VERTEX
  8
0
 62
7
 10
18.22934375
 20
8.52360937
  0
VERTEX
  8
0
 62
7
 10
18.29500000
 20
8.51200000
  0
VERTEX
  8
0
 62
7
 10
18.35932813
 20
8.50354688
  0
VERTEX
  8
0
 62
7
 10
18.42337500
 20
8.49762500
  0
VERTEX
  8
0
 62
7
 10
18.48723438
 20
8.49639063
  0
VERTEX
  8
0
 62
7
 10
18.55100000
 20
8.50200000
  0
VERTEX
  8
0
 62
7
 10
18.61371875
 20
8.51393750
  0
VERTEX
  8
0
 62
7
 10
18.67550000
 20
8.53225000
  0
VERTEX
  8
0
 62
7
 10
18.73578125
 20
8.55543750
  0
VERTEX
  8
0
 62
7
 10
18.79400000
 20
8.58200000
  0
VERTEX
  8
0
 62
7
 10
18.84086328
 20
8.60704883
  0
VERTEX
  8
0
 62
7
 10
18.88615625
 20
8.63482813
  0
VERTEX
  8
0
 62
7
 10
18.92980859
 20
8.66516211
  0
VERTEX
  8
0
 62
7
 10
18.97175000
 20
8.69787500
  0
VERTEX
  8
0
 62
7
 10
19.01191016
 20
8.73279102
  0
VERTEX
  8
0
 62
7
 10
19.05021875
 20
8.76973438
  0
VERTEX
  8
0
 62
7
 10
19.08660547
 20
8.80852930
  0
VERTEX
  8
0
 62
7
 10
19.12100000
 20
8.84900000
  0
VERTEX
  8
0
 62
7
 10
19.15320313
 20
8.89009375
  0
VERTEX
  8
0
 62
7
 10
19.18362500
 20
8.93250000
  0
VERTEX
  8
0
 62
7
 10
19.21198438
 20
8.97640625
  0
VERTEX
  8
0
 62
7
 10
19.23800000
 20
9.02200000
  0
VERTEX
  8
0
 62
7
 10
19.26316406
 20
8.96679102
  0
VERTEX
  8
0
 62
7
 10
19.28612500
 20
8.91070313
  0
VERTEX
  8
0
 62
7
 10
19.30683594
 20
8.85379492
  0
VERTEX
  8
0
 62
7
 10
19.32525000
 20
8.79612500
  0
VERTEX
  8
0
 62
7
 10
19.34132031
 20
8.73775195
  0
VERTEX
  8
0
 62
7
 10
19.35500000
 20
8.67873437
  0
VERTEX
  8
0
 62
7
 10
19.36624219
 20
8.61913086
  0
VERTEX
  8
0
 62
7
 10
19.37500000
 20
8.55900000
  0
VERTEX
  8
0
 62
7
 10
19.38066797
 20
8.48042773
  0
VERTEX
  8
0
 62
7
 10
19.38040625
 20
8.40217188
  0
VERTEX
  8
0
 62
7
 10
19.37531641
 20
8.32417383
  0
VERTEX
  8
0
 62
7
 10
19.36650000
 20
8.24637500
  0
VERTEX
  8
0
 62
7
 10
19.35505859
 20
8.16871680
  0
VERTEX
  8
0
 62
7
 10
19.34209375
 20
8.09114063
  0
VERTEX
  8
0
 62
7
 10
19.32870703
 20
8.01358789
  0
VERTEX
  8
0
 62
7
 10
19.31600000
 20
7.93600000
  0
VERTEX
  8
0
 62
7
 10
19.30853906
 20
7.89679297
  0
VERTEX
  8
0
 62
7
 10
19.29943750
 20
7.85784375
  0
VERTEX
  8
0
 62
7
 10
19.28949219
 20
7.81903516
  0
VERTEX
  8
0
 62
7
 10
19.27950000
 20
7.78025000
  0
VERTEX
  8
0
 62
7
 10
19.27025781
 20
7.74137109
  0
VERTEX
  8
0
 62
7
 10
19.26256250
 20
7.70228125
  0
VERTEX
  8
0
 62
7
 10
19.25721094
 20
7.66286328
  0
VERTEX
  8
0
 62
7
 10
19.25500000
 20
7.62300000
  0
VERTEX
  8
0
 62
7
 10
19.25450586
 20
7.57307813
  0
VERTEX
  8
0
 62
7
 10
19.25517188
 20
7.52268750
  0
VERTEX
  8
0
 62
7
 10
19.25797070
 20
7.47239063
  0
VERTEX
  8
0
 62
7
 10
19.26387500
 20
7.42275000
  0
VERTEX
  8
0
 62
7
 10
19.27385742
 20
7.37432813
  0
VERTEX
  8
0
 62
7
 10
19.28889063
 20
7.32768750
  0
VERTEX
  8
0
 62
7
 10
19.30994727
 20
7.28339063
  0
VERTEX
  8
0
 62
7
 10
19.33800000
 20
7.24200000
  0
VERTEX
  8
0
 62
7
 10
19.37925000
 20
7.19337500
  0
VERTEX
  8
0
 62
7
 10
19.42800000
 20
7.15000000
  0
VERTEX
  8
0
 62
7
 10
19.34967188
 20
7.10985938
  0
VERTEX
  8
0
 62
7
 10
19.26937500
 20
7.07487500
  0
VERTEX
  8
0
 62
7
 10
19.18739063
 20
7.04495313
  0
VERTEX
  8
0
 62
7
 10
19.10400000
 20
7.02000000
  0
VERTEX
  8
0
 62
7
 10
19.00092188
 20
6.99745313
  0
VERTEX
  8
0
 62
7
 10
18.89737500
 20
6.98212500
  0
VERTEX
  8
0
 62
7
 10
18.79364063
 20
6.97373438
  0
VERTEX
  8
0
 62
7
 10
18.69000000
 20
6.97200000
  0
VERTEX
  8
0
 62
7
 10
18.66348438
 20
6.91904688
  0
VERTEX
  8
0
 62
7
 10
18.63087500
 20
6.86862500
  0
VERTEX
  8
0
 62
7
 10
18.59282813
 20
6.82139063
  0
VERTEX
  8
0
 62
7
 10
18.55000000
 20
6.77800000
  0
VERTEX
  8
0
 62
7
 10
18.52215625
 20
6.75351563
  0
VERTEX
  8
0
 62
7
 10
18.49375000
 20
6.73137500
  0
VERTEX
  8
0
 62
7
 10
18.46421875
 20
6.71204688
  0
VERTEX
  8
0
 62
7
 10
18.43300000
 20
6.69600000
  0
VERTEX
  8
0
 62
7
 10
18.42637500
 20
6.72712500
  0
VERTEX
  8
0
 62
7
 10
18.41525000
 20
6.75600000
  0
VERTEX
  8
0
 62
7
 10
18.39925000
 20
6.78262500
  0
VERTEX
  8
0
 62
7
 10
18.37800000
 20
6.80700000
  0
VERTEX
  8
0
 62
7
 10
18.36293750
 20
6.81675000
  0
VERTEX
  8
0
 62
7
 10
18.34600000
 20
6.82500000
  0
VERTEX
  8
0
 62
7
 10
18.32906250
 20
6.83400000
  0
VERTEX
  8
0
 62
7
 10
18.31400000
 20
6.84600000
  0
VERTEX
  8
0
 62
7
 10
18.30193750
 20
6.86015625
  0
VERTEX
  8
0
 62
7
 10
18.29250000
 20
6.87675000
  0
VERTEX
  8
0
 62
7
 10
18.28531250
 20
6.89521875
  0
VERTEX
  8
0
 62
7
 10
18.28000000
 20
6.91500000
  0
VERTEX
  8
0
 62
7
 10
18.25168750
 20
6.89243750
  0
VERTEX
  8
0
 62
7
 10
18.22600000
 20
6.86650000
  0
VERTEX
  8
0
 62
7
 10
18.20406250
 20
6.83681250
  0
VERTEX
  8
0
 62
7
 10
18.18700000
 20
6.80300000
  0
VERTEX
  8
0
 62
7
 10
18.17737500
 20
6.77846875
  0
VERTEX
  8
0
 62
7
 10
18.17000000
 20
6.75300000
  0
VERTEX
  8
0
 62
7
 10
18.16562500
 20
6.72678125
  0
VERTEX
  8
0
 62
7
 10
18.16500000
 20
6.70000000
  0
SEQEND
  0
POLYLINE
  8
0
 62
7
 66
1
 70
1
  0
VERTEX
  8
0
 62
7
 10
18.64500000
 20
8.56600000
  0
VERTEX
  8
0
 62
7
 10
18.59387500
 20
8.55450000
  0
VERTEX
  8
0
 62
7
 10
18.54200000
 20
8.54600000
  0
VERTEX
  8
0
 62
7
 10
18.50550000
 20
8.54137500
  0
VERTEX
  8
0
 62
7
 10
18.46900000
 20
8.53900000
  0
VERTEX
  8
0
 62
7
 10
18.45710938
 20
8.59782812
  0
VERTEX
  8
0
 62
7
 10
18.45112500
 20
8.65712500
  0
VERTEX
  8
0
 62
7
 10
18.45057813
 20
8.71660938
  0
VERTEX
  8
0
 62
7
 10
18.45500000
 20
8.77600000
  0
VERTEX
  8
0
 62
7
 10
18.46677734
 20
8.83611133
  0
VERTEX
  8
0
 62
7
 10
18.48528125
 20
8.89276562
  0
VERTEX
  8
0
 62
7
 10
18.51001953
 20
8.94606836
  0
VERTEX
  8
0
 62
7
 10
18.54050000
 20
8.99612500
  0
VERTEX
  8
0
 62
7
 10
18.57623047
 20
9.04304102
  0
VERTEX
  8
0
 62
7
 10
18.61671875
 20
9.08692188
  0
VERTEX
  8
0
 62
7
 10
18.66147266
 20
9.12787305
  0
VERTEX
  8
0
 62
7
 10
18.71000000
 20
9.16600000
  0
VERTEX
  8
0
 62
7
 10
18.77023633
 20
9.20425439
  0
VERTEX
  8
0
 62
7
 10
18.83287500
 20
9.23512891
  0
VERTEX
  8
0
 62
7
 10
18.89743555
 20
9.25879053
  0
VERTEX
  8
0
 62
7
 10
18.96343750
 20
9.27540625
  0
VERTEX
  8
0
 62
7
 10
19.03040039
 20
9.28514307
  0
VERTEX
  8
0
 62
7
 10
19.09784375
 20
9.28816797
  0
VERTEX
  8
0
 62
7
 10
19.16528711
 20
9.28464795
  0
VERTEX
  8
0
 62
7
 10
19.23225000
 20
9.27475000
  0
VERTEX
  8
0
 62
7
 10
19.29825195
 20
9.25864111
  0
VERTEX
  8
0
 62
7
 10
19.36281250
 20
9.23648828
  0
VERTEX
  8
0
 62
7
 10
19.42545117
 20
9.20845850
  0
VERTEX
  8
0
 62
7
 10
19.48568750
 20
9.17471875
  0
VERTEX
  8
0
 62
7
 10
19.54304102
 20
9.13543604
  0
VERTEX
  8
0
 62
7
 10
19.59703125
 20
9.09077734
  0
VERTEX
  8
0
 62
7
 10
19.64717773
 20
9.04090967
  0
VERTEX
  8
0
 62
7
 10
19.69300000
 20
8.98600000
  0
VERTEX
  8
0
 62
7
 10
19.71915991
 20
8.94952588
  0
VERTEX
  8
0
 62
7
 10
19.74323242
 20
8.91180078
  0
VERTEX
  8
0
 62
7
 10
19.76516919
 20
8.87293311
  0
VERTEX
  8
0
 62
7
 10
19.78492188
 20
8.83303125
  0
VERTEX
  8
0
 62
7
 10
19.80244214
 20
8.79220361
  0
VERTEX
  8
0
 62
7
 10
19.81768164
 20
8.75055859
  0
VERTEX
  8
0
 62
7
 10
19.83059204
 20
8.70820459
  0
VERTEX
  8
0
 62
7
 10
19.84112500
 20
8.66525000
  0
VERTEX
  8
0
 62
7
 10
19.84923218
 20
8.62180322
  0
VERTEX
  8
0
 62
7
 10
19.85486523
 20
8.57797266
  0
VERTEX
  8
0
 62
7
 10
19.85797583
 20
8.53386670
  0
VERTEX
  8
0
 62
7
 10
19.85851563
 20
8.48959375
  0
VERTEX
  8
0
 62
7
 10
19.85643628
 20
8.44526221
  0
VERTEX
  8
0
 62
7
 10
19.85168945
 20
8.40098047
  0
VERTEX
  8
0
 62
7
 10
19.84422681
 20
8.35685693
  0
VERTEX
  8
0
 62
7
 10
19.83400000
 20
8.31300000
  0
VERTEX
  8
0
 62
7
 10
19.81087109
 20
8.24026367
  0
VERTEX
  8
0
 62
7
 10
19.78134375
 20
8.17023438
  0
VERTEX
  8
0
 62
7
 10
19.74558203
 20
8.10355664
  0
VERTEX
  8
0
 62
7
 10
19.70375000
 20
8.04087500
  0
VERTEX
  8
0
 62
7
 10
19.65601172
 20
7.98283398
  0
VERTEX
  8
0
 62
7
 10
19.60253125
 20
7.93007813
  0
VERTEX
  8
0
 62
7
 10
19.54347266
 20
7.88325195
  0
VERTEX
  8
0
 62
7
 10
19.47900000
 20
7.84300000
  0
VERTEX
  8
0
 62
7
 10
19.43918750
 20
7.82404688
  0
VERTEX
  8
0
 62
7
 10
19.39900000
 20
7.80762500
  0
VERTEX
  8
0
 62
7
 10
19.35806250
 20
7.79364063
  0
VERTEX
  8
0
 62
7
 10
19.31600000
 20
7.78200000
  0
VERTEX
  8
0
 62
7
 10
19.35700000
 20
7.90000000
  0
VERTEX
  8
0
 62
7
 10
19.38000000
 20
7.98600000
  0
VERTEX
  8
0
 62
7
 10
19.41407227
 20
8.00233594
  0
VERTEX
  8
0
 62
7
 10
19.44651563
 20
8.02125000
  0
VERTEX
  8
0
 62
7
 10
19.47729492
 20
8.04260156
  0
VERTEX
  8
0
 62
7
 10
19.50637500
 20
8.06625000
  0
VERTEX
  8
0
 62
7
 10
19.53372070
 20
8.09205469
  0
VERTEX
  8
0
 62
7
 10
19.55929688
 20
8.11987500
  0
VERTEX
  8
0
 62
7
 10
19.58306836
 20
8.14957031
  0
VERTEX
  8
0
 62
7
 10
19.60500000
 20
8.18100000
  0
VERTEX
  8
0
 62
7
 10
19.63483398
 20
8.23462500
  0
VERTEX
  8
0
 62
7
 10
19.65654688
 20
8.29087500
  0
VERTEX
  8
0
 62
7
 10
19.67083008
 20
8.34918750
  0
VERTEX
  8
0
 62
7
 10
19.67837500
 20
8.40900000
  0
VERTEX
  8
0
 62
7
 10
19.67987305
 20
8.46975000
  0
VERTEX
  8
0
 62
7
 10
19.67601563
 20
8.53087500
  0
VERTEX
  8
0
 62
7
 10
19.66749414
 20
8.59181250
  0
VERTEX
  8
0
 62
7
 10
19.65500000
 20
8.65200000
  0
VERTEX
  8
0
 62
7
 10
19.63846680
 20
8.70852344
  0
VERTEX
  8
0
 62
7
 10
19.61798438
 20
8.76368750
  0
VERTEX
  8
0
 62
7
 10
19.59335352
 20
8.81688281
  0
VERTEX
  8
0
 62
7
 10
19.56437500
 20
8.86750000
  0
VERTEX
  8
0
 62
7
 10
19.53084961
 20
8.91492969
  0
VERTEX
  8
0
 62
7
 10
19.49257813
 20
8.95856250
  0
VERTEX
  8
0
 62
7
 10
19.44936133
 20
8.99778906
  0
VERTEX
  8
0
 62
7
 10
19.40100000
 20
9.03200000
  0
VERTEX
  8
0
 62
7
 10
19.36782446
 20
9.05172388
  0
VERTEX
  8
0
 62
7
 10
19.33364258
 20
9.06922852
  0
VERTEX
  8
0
 62
7
 10
19.29859644
 20
9.08445093
  0
VERTEX
  8
0
 62
7
 10
19.26282813
 20
9.09732813
  0
VERTEX
  8
0
 62
7
 10
19.22647974
 20
9.10779712
  0
VERTEX
  8
0
 62
7
 10
19.18969336
 20
9.11579492
  0
VERTEX
  8
0
 62
7
 10
19.15261108
 20
9.12125854
  0
VERTEX
  8
0
 62
7
 10
19.11537500
 20
9.12412500
  0
VERTEX
  8
0
 62
7
 10
19.07812720
 20
9.12433130
  0
VERTEX
  8
0
 62
7
 10
19.04100977
 20
9.12181445
  0
VERTEX
  8
0
 62
7
 10
19.00416479
 20
9.11651147
  0
VERTEX
  8
0
 62
7
 10
18.96773438
 20
9.10835937
  0
VERTEX
  8
0
 62
7
 10
18.93186060
 20
9.09729517
  0
VERTEX
  8
0
 62
7
 10
18.89668555
 20
9.08325586
  0
VERTEX
  8
0
 62
7
 10
18.86235132
 20
9.06617847
  0
VERTEX
  8
0
 62
7
 10
18.82900000
 20
9.04600000
  0
VERTEX
  8
0
 62
7
 10
18.79460156
 20
9.02270117
  0
VERTEX
  8
0
 62
7
 10
18.76156250
 20
8.99704688
  0
VERTEX
  8
0
 62
7
 10
18.73049219
 20
8.96902539
  0
VERTEX
  8
0
 62
7
 10
18.70200000
 20
8.93862500
  0
VERTEX
  8
0
 62
7
 10
18.67669531
 20
8.90583398
  0
VERTEX
  8
0
 62
7
 10
18.65518750
 20
8.87064063
  0
VERTEX
  8
0
 62
7
 10
18.63808594
 20
8.83303320
  0
VERTEX
  8
0
 62
7
 10
18.62600000
 20
8.79300000
  0
VERTEX
  8
0
 62
7
 10
18.62045898
 20
8.76384570
  0
VERTEX
  8
0
 62
7
 10
18.61729688
 20
8.73489063
  0
VERTEX
  8
0
 62
7
 10
18.61645508
 20
8.70614648
  0
VERTEX
  8
0
 62
7
 10
18.61787500
 20
8.67762500
  0
VERTEX
  8
0
 62
7
 10
18.62149805
 20
8.64933789
  0
VERTEX
  8
0
 62
7
 10
18.62726563
 20
8.62129688
  0
VERTEX
  8
0
 62
7
 10
18.63511914
 20
8.59351367
  0
VERTEX
  8
0
 62
7
 10
18.64500000
 20
8.56600000
  0
SEQEND
  0
POLYLINE
  8
0
 62
7
 66
1
 70
1
  0
VERTEX
  8
0
 62
7
 10
17.47300000
 20
8.18700000
  0
VERTEX
  8
0
 62
7
 10
17.44600000
 20
3.44500000
  0
VERTEX
  8
0
 62
7
 10
17.86700000
 20
2.93300000
  0
VERTEX
  8
0
 62
7
 10
17.87000000
 20
7.89800000
  0
VERTEX
  8
0
 62
7
 10
17.80565625
 20
7.92325000
  0
VERTEX
  8
0
 62
7
 10
17.74450000
 20
7.95375000
  0
VERTEX
  8
0
 62
7
 10
17.68634375
 20
7.98912500
  0
VERTEX
  8
0
 62
7
 10
17.63100000
 20
8.02900000
  0
VERTEX
  8
0
 62
7
 10
17.58732813
 20
8.06479688
  0
VERTEX
  8
0
 62
7
 10
17.54637500
 20
8.10312500
  0
VERTEX
  8
0
 62
7
 10
17.50823438
 20
8.14389062
  0
VERTEX
  8
0
 62
7
 10
17.47300000
 20
8.18700000
  0
SEQEND
  0
POLYLINE
  8
0
 62
7
 66
1
  0
VERTEX
  8
0
 62
7
 10
22.50600000
 20
4.07300000
  0
VERTEX
  8
0
 62
7
 10
22.44303125
 20
4.04654688
  0
VERTEX
  8
0
 62
7
 10
22.38175000
 20
4.01662500
  0
VERTEX
  8
0
 62
7
 10
22.32234375
 20
3.98314063
  0
VERTEX
  8
0
 62
7
 10
22.26500000
 20
3.94600000
  0
VERTEX
  8
0
 62
7
 10
22.21930469
 20
3.91164648
  0
VERTEX
  8
0
 62
7
 10
22.17637500
 20
3.87423438
  0
VERTEX
  8
0
 62
7
 10
22.13569531
 20
3.83436133
  0
VERTEX
  8
0
 62
7
 10
22.09675000
 20
3.79262500
  0
VERTEX
  8
0
 62
7
 10
22.05902344
 20
3.74962305
  0
VERTEX
  8
0
 62
7
 10
22.02200000
 20
3.70595313
  0
VERTEX
  8
0
 62
7
 10
21.98516406
 20
3.66221289
  0
VERTEX
  8
0
 62
7
 10
21.94800000
 20
3.61900000
  0
VERTEX
  8
0
 62
7
 10
21.90178125
 20
3.56259375
  0
VERTEX
  8
0
 62
7
 10
21.85725000
 20
3.50450000
  0
VERTEX
  8
0
 62
7
 10
21.81159375
 20
3.44715625
  0
VERTEX
  8
0
 62
7
 10
21.76200000
 20
3.39300000
  0
VERTEX
  8
0
 62
7
 10
21.70235742
 20
3.33784375
  0
VERTEX
  8
0
 62
7
 10
21.63979688
 20
3.28643750
  0
VERTEX
  8
0
 62
7
 10
21.57449414
 20
3.23887500
  0
VERTEX
  8
0
 62
7
 10
21.50662500
 20
3.19525000
  0
VERTEX
  8
0
 62
7
 10
21.43636523
 20
3.15565625
  0
VERTEX
  8
0
 62
7
 10
21.36389063
 20
3.12018750
  0
VERTEX
  8
0
 62
7
 10
21.28937695
 20
3.08893750
  0
VERTEX
  8
0
 62
7
 10
21.21300000
 20
3.06200000
  0
SEQEND
  0
POLYLINE
  8
0
 62
7
 66
1
  0
VERTEX
  8
0
 62
7
 10
22.50600000
 20
4.07300000
  0
VERTEX
  8
0
 62
7
 10
22.42995313
 20
4.04584375
  0
VERTEX
  8
0
 62
7
 10
22.35212500
 20
4.02450000
  0
VERTEX
  8
0
 62
7
 10
22.27298438
 20
4.00915625
  0
VERTEX
  8
0
 62
7
 10
22.19300000
 20
4.00000000
  0
VERTEX
  8
0
 62
7
 10
22.14652197
 20
3.99727808
  0
VERTEX
  8
0
 62
7
 10
22.10012891
 20
3.99659961
  0
VERTEX
  8
0
 62
7
 10
22.05388232
 20
3.99794556
  0
VERTEX
  8
0
 62
7
 10
22.00784375
 20
4.00129688
  0
VERTEX
  8
0
 62
7
 10
21.96207471
 20
4.00663452
  0
VERTEX
  8
0
 62
7
 10
21.91663672
 20
4.01393945
  0
VERTEX
  8
0
 62
7
 10
21.87159131
 20
4.02319263
  0
VERTEX
  8
0
 62
7
 10
21.82700000
 20
4.03437500
  0
VERTEX
  8
0
 62
7
 10
21.78292432
 20
4.04746753
  0
VERTEX
  8
0
 62
7
 10
21.73942578
 20
4.06245117
  0
VERTEX
  8
0
 62
7
 10
21.69656592
 20
4.07930688
  0
VERTEX
  8
0
 62
7
 10
21.65440625
 20
4.09801563
  0
VERTEX
  8
0
 62
7
 10
21.61300830
 20
4.11855835
  0
VERTEX
  8
0
 62
7
 10
21.57243359
 20
4.14091602
  0
VERTEX
  8
0
 62
7
 10
21.53274365
 20
4.16506958
  0
VERTEX
  8
0
 62
7
 10
21.49400000
 20
4.19100000
  0
SEQEND
  0
POLYLINE
  8
0
 62
7
 66
1
  0
VERTEX
  8
0
 62
7
 10
22.50100000
 20
4.07300000
  0
VERTEX
  8
0
 62
7
 10
22.47814063
 20
4.03043750
  0
VERTEX
  8
0
 62
7
 10
22.45762500
 20
3.98675000
  0
VERTEX
  8
0
 62
7
 10
22.43954688
 20
3.94193750
  0
VERTEX
  8
0
 62
7
 10
22.42400000
 20
3.89600000
  0
VERTEX
  8
0
 62
7
 10
22.40712500
 20
3.83368945
  0
VERTEX
  8
0
 62
7
 10
22.39531250
 20
3.77064063
  0
VERTEX
  8
0
 62
7
 10
22.38828125
 20
3.70705273
  0
VERTEX
  8
0
 62
7
 10
22.38575000
 20
3.64312500
  0
VERTEX
  8
0
 62
7
 10
22.38743750
 20
3.57905664
  0
VERTEX
  8
0
 62
7
 10
22.39306250
 20
3.51504688
  0
VERTEX
  8
0
 62
7
 10
22.40234375
 20
3.45129492
  0
VERTEX
  8
0
 62
7
 10
22.41500000
 20
3.38800000
  0
VERTEX
  8
0
 62
7
 10
22.43026563
 20
3.33643750
  0
VERTEX
  8
0
 62
7
 10
22.44937500
 20
3.28600000
  0
VERTEX
  8
0
 62
7
 10
22.46829688
 20
3.23556250
  0
VERTEX
  8
0
 62
7
 10
22.48300000
 20
3.18400000
  0
VERTEX
  8
0
 62
7
 10
22.49787500
 20
3.09837500
  0
VERTEX
  8
0
 62
7
 10
22.50600000
 20
3.01200000
  0
SEQEND
  0
POLYLINE
  8
0
 62
7
 66
1
  0
VERTEX
  8
0
 62
7
 10
20.60200000
 20
3.38100000
  0
VERTEX
  8
0
 62
7
 10
20.50775000
 20
3.54275000
  0
VERTEX
  8
0
 62
7
 10
20.40600000
 20
3.70000000
  0
VERTEX
  8
0
 62
7
 10
20.36521289
 20
3.75663672
  0
VERTEX
  8
0
 62
7
 10
20.32214063
 20
3.81146875
  0
VERTEX
  8
0
 62
7
 10
20.27759180
 20
3.86512891
  0
VERTEX
  8
0
 62
7
 10
20.23237500
 20
3.91825000
  0
VERTEX
  8
0
 62
7
 10
20.18729883
 20
3.97146484
  0
VERTEX
  8
0
 62
7
 10
20.14317188
 20
4.02540625
  0
VERTEX
  8
0
 62
7
 10
20.10080273
 20
4.08070703
  0
VERTEX
  8
0
 62
7
 10
20.06100000
 20
4.13800000
  0
VERTEX
  8
0
 62
7
 10
19.97667188
 20
4.27503125
  0
VERTEX
  8
0
 62
7
 10
19.89937500
 20
4.41600000
  0
VERTEX
  8
0
 62
7
 10
19.82939063
 20
4.56071875
  0
VERTEX
  8
0
 62
7
 10
19.76700000
 20
4.70900000
  0
SEQEND
  0
POLYLINE
  8
0
 62
7
 66
1
  0
VERTEX
  8
0
 62
7
 10
20.60700000
 20
3.38100000
  0
VERTEX
  8
0
 62
7
 10
20.57871875
 20
3.44657813
  0
VERTEX
  8
0
 62
7
 10
20.55550000
 20
3.51412500
  0
VERTEX
  8
0
 62
7
 10
20.53753125
 20
3.58335938
  0
VERTEX
  8
0
 62
7
 10
20.52500000
 20
3.65400000
  0
VERTEX
  8
0
 62
7
 10
20.52062280
 20
3.70196631
  0
VERTEX
  8
0
 62
7
 10
20.52068555
 20
3.74916797
  0
VERTEX
  8
0
 62
7
 10
20.52472974
 20
3.79568408
  0
VERTEX
  8
0
 62
7
 10
20.53229688
 20
3.84159375
  0
VERTEX
  8
0
 62
7
 10
20.54292847
 20
3.88697607
  0
VERTEX
  8
0
 62
7
 10
20.55616602
 20
3.93191016
  0
VERTEX
  8
0
 62
7
 10
20.57155103
 20
3.97647510
  0
VERTEX
  8
0
 62
7
 10
20.58862500
 20
4.02075000
  0
VERTEX
  8
0
 62
7
 10
20.60692944
 20
4.06481396
  0
VERTEX
  8
0
 62
7
 10
20.62600586
 20
4.10874609
  0
VERTEX
  8
0
 62
7
 10
20.64539575
 20
4.15262549
  0
VERTEX
  8
0
 62
7
 10
20.66464063
 20
4.19653125
  0
VERTEX
  8
0
 62
7
 10
20.68328198
 20
4.24054248
  0
VERTEX
  8
0
 62
7
 10
20.70086133
 20
4.28473828
  0
VERTEX
  8
0
 62
7
 10
20.71692017
 20
4.32919775
  0
VERTEX
  8
0
 62
7
 10
20.73100000
 20
4.37400000
  0
VERTEX
  8
0
 62
7
 10
20.75700000
 20
4.46700000
  0
SEQEND
  0
POLYLINE
  8
0
 62
7
 66
1
  0
VERTEX
  8
0
 62
7
 10
20.59700000
 20
3.38100000
  0
VERTEX
  8
0
 62
7
 10
20.56145313
 20
3.41432813
  0
VERTEX
  8
0
 62
7
 10
20.52262500
 20
3.44362500
  0
VERTEX
  8
0
 62
7
 10
20.48098438
 20
3.46860938
  0
VERTEX
  8
0
 62
7
 10
20.43700000
 20
3.48900000
  0
VERTEX
  8
0
 62
7
 10
20.40668945
 20
3.49963281
  0
VERTEX
  8
0
 62
7
 10
20.37582813
 20
3.50768750
  0
VERTEX
  8
0
 62
7
 10
20.34452148
 20
3.51339844
  0
VERTEX
  8
0
 62
7
 10
20.31287500
 20
3.51700000
  0
VERTEX
  8
0
 62
7
 10
20.28099414
 20
3.51872656
  0
VERTEX
  8
0
 62
7
 10
20.24898438
 20
3.51881250
  0
VERTEX
  8
0
 62
7
 10
20.21695117
 20
3.51749219
  0
VERTEX
  8
0
 62
7
 10
20.18500000
 20
3.51500000
  0
VERTEX
  8
0
 62
7
 10
20.12660938
 20
3.50481250
  0
VERTEX
  8
0
 62
7
 10
20.06962500
 20
3.48825000
  0
VERTEX
  8
0
 62
7
 10
20.01357813
 20
3.46831250
  0
VERTEX
  8
0
 62
7
 10
19.95800000
 20
3.44800000
  0
VERTEX
  8
0
 62
7
 10
19.89062500
 20
3.42312500
  0
VERTEX
  8
0
 62
7
 10
19.82400000
 20
3.39600000
  0
SEQEND
  0
POLYLINE
  8
0
 62
7
 66
1
  0
VERTEX
  8
0
 62
7
 10
19.16400000
 20
4.29200000
  0
VERTEX
  8
0
 62
7
 10
19.08287500
 20
4.23450000
  0
VERTEX
  8
0
 62
7
 10
19.00400000
 20
4.17400000
  0
VERTEX
  8
0
 62
7
 10
18.94086426
 20
4.12249146
  0
VERTEX
  8
0
 62
7
 10
18.87935156
 20
4.06924414
  0
VERTEX
  8
0
 62
7
 10
18.81949121
 20
4.01430054
  0
VERTEX
  8
0
 62
7
 10
18.76131250
 20
3.95770313
  0
VERTEX
  8
0
 62
7
 10
18.70484473
 20
3.89949438
  0
VERTEX
  8
0
 62
7
 10
18.65011719
 20
3.83971680
  0
VERTEX
  8
0
 62
7
 10
18.59715918
 20
3.77841284
  0
VERTEX
  8
0
 62
7
 10
18.54600000
 20
3.71562500
  0
VERTEX
  8
0
 62
7
 10
18.49666895
 20
3.65139575
  0
VERTEX
  8
0
 62
7
 10
18.44919531
 20
3.58576758
  0
VERTEX
  8
0
 62
7
 10
18.40360840
 20
3.51878296
  0
VERTEX
  8
0
 62
7
 10
18.35993750
 20
3.45048438
  0
VERTEX
  8
0
 62
7
 10
18.31821191
 20
3.38091431
  0
VERTEX
  8
0
 62
7
 10
18.27846094
 20
3.31011523
  0
VERTEX
  8
0
 62
7
 10
18.24071387
 20
3.23812964
  0
VERTEX
  8
0
 62
7
 10
18.20500000
 20
3.16500000
  0
SEQEND
  0
POLYLINE
  8
0
 62
7
 66
1
  0
VERTEX
  8
0
 62
7
 10
19.15400000
 20
4.28700000
  0
VERTEX
  8
0
 62
7
 10
19.09535938
 20
4.26281250
  0
VERTEX
  8
0
 62
7
 10
19.03512500
 20
4.24275000
  0
VERTEX
  8
0
 62
7
 10
18.97357813
 20
4.22681250
  0
VERTEX
  8
0
 62
7
 10
18.91100000
 20
4.21500000
  0
VERTEX
  8
0
 62
7
 10
18.83882227
 20
4.20697656
  0
VERTEX
  8
0
 62
7
 10
18.76651563
 20
4.20462500
  0
VERTEX
  8
0
 62
7
 10
18.69441992
 20
4.20789844
  0
VERTEX
  8
0
 62
7
 10
18.62287500
 20
4.21675000
  0
VERTEX
  8
0
 62
7
 10
18.55222070
 20
4.23113281
  0
VERTEX
  8
0
 62
7
 10
18.48279688
 20
4.25100000
  0
VERTEX
  8
0
 62
7
 10
18.41494336
 20
4.27630469
  0
VERTEX
  8
0
 62
7
 10
18.34900000
 20
4.30700000
  0
SEQEND
  0
POLYLINE
  8
0
 62
7
 66
1
  0
VERTEX
  8
0
 62
7
 10
19.15900000
 20
4.28700000
  0
VERTEX
  8
0
 62
7
 10
19.11703125
 20
4.22254688
  0
VERTEX
  8
0
 62
7
 10
19.07975000
 20
4.15537500
  0
VERTEX
  8
0
 62
7
 10
19.04734375
 20
4.08576563
  0
VERTEX
  8
0
 62
7
 10
19.02000000
 20
4.01400000
  0
VERTEX
  8
0
 62
7
 10
19.00479980
 20
3.96668018
  0
VERTEX
  8
0
 62
7
 10
18.99182031
 20
3.91889453
  0
VERTEX
  8
0
 62
7
 10
18.98105566
 20
3.87071631
  0
VERTEX
  8
0
 62
7
 10
18.97250000
 20
3.82221875
  0
VERTEX
  8
0
 62
7
 10
18.96614746
 20
3.77347510
  0
VERTEX
  8
0
 62
7
 10
18.96199219
 20
3.72455859
  0
VERTEX
  8
0
 62
7
 10
18.96002832
 20
3.67554248
  0
VERTEX
  8
0
 62
7
 10
18.96025000
 20
3.62650000
  0
VERTEX
  8
0
 62
7
 10
18.96265137
 20
3.57750439
  0
VERTEX
  8
0
 62
7
 10
18.96722656
 20
3.52862891
  0
VERTEX
  8
0
 62
7
 10
18.97396973
 20
3.47994678
  0
VERTEX
  8
0
 62
7
 10
18.98287500
 20
3.43153125
  0
VERTEX
  8
0
 62
7
 10
18.99393652
 20
3.38345557
  0
VERTEX
  8
0
 62
7
 10
19.00714844
 20
3.33579297
  0
VERTEX
  8
0
 62
7
 10
19.02250488
 20
3.28861670
  0
VERTEX
  8
0
 62
7
 10
19.04000000
 20
3.24200000
  0
SEQEND
  0
POLYLINE
  8
0
 62
7
 66
1
  0
VERTEX
  8
0
 62
7
 10
19.04100000
 20
4.89000000
  0
VERTEX
  8
0
 62
7
 10
18.95385938
 20
4.98223438
  0
VERTEX
  8
0
 62
7
 10
18.86962500
 20
5.07737500
  0
VERTEX
  8
0
 62
7
 10
18.78857813
 20
5.17532813
  0
VERTEX
  8
0
 62
7
 10
18.71100000
 20
5.27600000
  0
VERTEX
  8
0
 62
7
 10
18.62621875
 20
5.39414844
  0
VERTEX
  8
0
 62
7
 10
18.54593750
 20
5.51525000
  0
VERTEX
  8
0
 62
7
 10
18.47025000
 20
5.63916406
  0
VERTEX
  8
0
 62
7
 10
18.39925000
 20
5.76575000
  0
VERTEX
  8
0
 62
7
 10
18.33303125
 20
5.89486719
  0
VERTEX
  8
0
 62
7
 10
18.27168750
 20
6.02637500
  0
VERTEX
  8
0
 62
7
 10
18.21531250
 20
6.16013281
  0
VERTEX
  8
0
 62
7
 10
18.16400000
 20
6.29600000
  0
SEQEND
  0
POLYLINE
  8
0
 62
7
 66
1
  0
VERTEX
  8
0
 62
7
 10
19.03600000
 20
4.88500000
  0
VERTEX
  8
0
 62
7
 10
18.98929688
 20
4.91480273
  0
VERTEX
  8
0
 62
7
 10
18.94081250
 20
4.94117188
  0
VERTEX
  8
0
 62
7
 10
18.89073438
 20
4.96404883
  0
VERTEX
  8
0
 62
7
 10
18.83925000
 20
4.98337500
  0
VERTEX
  8
0
 62
7
 10
18.78654688
 20
4.99909180
  0
VERTEX
  8
0
 62
7
 10
18.73281250
 20
5.01114063
  0
VERTEX
  8
0
 62
7
 10
18.67823438
 20
5.01946289
  0
VERTEX
  8
0
 62
7
 10
18.62300000
 20
5.02400000
  0
VERTEX
  8
0
 62
7
 10
18.57286328
 20
5.02466016
  0
VERTEX
  8
0
 62
7
 10
18.52303125
 20
5.02215625
  0
VERTEX
  8
0
 62
7
 10
18.47362109
 20
5.01651172
  0
VERTEX
  8
0
 62
7
 10
18.42475000
 20
5.00775000
  0
VERTEX
  8
0
 62
7
 10
18.37653516
 20
4.99589453
  0
VERTEX
  8
0
 62
7
 10
18.32909375
 20
4.98096875
  0
VERTEX
  8
0
 62
7
 10
18.28254297
 20
4.96299609
  0
VERTEX
  8
0
 62
7
 10
18.23700000
 20
4.94200000
  0
SEQEND
  0
POLYLINE
  8
0
 62
7
 66
1
  0
VERTEX
  8
0
 62
7
 10
19.04100000
 20
4.89000000
  0
VERTEX
  8
0
 62
7
 10
19.01610938
 20
4.95239063
  0
VERTEX
  8
0
 62
7
 10
18.99562500
 20
5.01637500
  0
VERTEX
  8
0
 62
7
 10
18.97982813
 20
5.08167188
  0
VERTEX
  8
0
 62
7
 10
18.96900000
 20
5.14800000
  0
VERTEX
  8
0
 62
7
 10
18.96382495
 20
5.20142822
  0
VERTEX
  8
0
 62
7
 10
18.96177148
 20
5.25475391
  0
VERTEX
  8
0
 62
7
 10
18.96279712
 20
5.30785107
  0
VERTEX
  8
0
 62
7
 10
18.96685938
 20
5.36059375
  0
VERTEX
  8
0
 62
7
 10
18.97391577
 20
5.41285596
  0
VERTEX
  8
0
 62
7
 10
18.98392383
 20
5.46451172
  0
VERTEX
  8
0
 62
7
 10
18.99684106
 20
5.51543506
  0
VERTEX
  8
0
 62
7
 10
19.01262500
 20
5.56550000
  0
VERTEX
  8
0
 62
7
 10
19.03123315
 20
5.61458057
  0
VERTEX
  8
0
 62
7
 10
19.05262305
 20
5.66255078
  0
VERTEX
  8
0
 62
7
 10
19.07675220
 20
5.70928467
  0
VERTEX
  8
0
 62
7
 10
19.10357813
 20
5.75465625
  0
VERTEX
  8
0
 62
7
 10
19.13305835
 20
5.79853955
  0
VERTEX
  8
0
 62
7
 10
19.16515039
 20
5.84080859
  0
VERTEX
  8
0
 62
7
 10
19.19981177
 20
5.88133740
  0
VERTEX
  8
0
 62
7
 10
19.23700000
 20
5.92000000
  0
SEQEND
  0
POLYLINE
  8
0
 62
7
 66
1
  0
VERTEX
  8
0
 62
7
 10
18.29600000
 20
7.06700000
  0
VERTEX
  8
0
 62
7
 10
18.40900000
 20
7.23300000
  0
VERTEX
  8
0
 62
7
 10
18.46218164
 20
7.30665820
  0
VERTEX
  8
0
 62
7
 10
18.51757813
 20
7.37882813
  0
VERTEX
  8
0
 62
7
 10
18.57421680
 20
7.45017773
  0
VERTEX
  8
0
 62
7
 10
18.63112500
 20
7.52137500
  0
VERTEX
  8
0
 62
7
 10
18.68733008
 20
7.59308789
  0
VERTEX
  8
0
 62
7
 10
18.74185938
 20
7.66598438
  0
VERTEX
  8
0
 62
7
 10
18.79374023
 20
7.74073242
  0
VERTEX
  8
0
 62
7
 10
18.84200000
 20
7.81800000
  0
VERTEX
  8
0
 62
7
 10
18.88952930
 20
7.90189648
  0
VERTEX
  8
0
 62
7
 10
18.93460938
 20
7.98704688
  0
VERTEX
  8
0
 62
7
 10
18.97722852
 20
8.07339258
  0
VERTEX
  8
0
 62
7
 10
19.01737500
 20
8.16087500
  0
VERTEX
  8
0
 62
7
 10
19.05503711
 20
8.24943555
  0
VERTEX
  8
0
 62
7
 10
19.09020313
 20
8.33901563
  0
VERTEX
  8
0
 62
7
 10
19.12286133
 20
8.42955664
  0
VERTEX
  8
0
 62
7
 10
19.15300000
 20
8.52100000
  0
SEQEND
  0
POLYLINE
  8
0
 62
7
 66
1
  0
VERTEX
  8
0
 62
7
 10
18.35700000
 20
7.15200000
  0
VERTEX
  8
0
 62
7
 10
18.37873438
 20
7.20895313
  0
VERTEX
  8
0
 62
7
 10
18.39737500
 20
7.26712500
  0
VERTEX
  8
0
 62
7
 10
18.41282813
 20
7.32623438
  0
VERTEX
  8
0
 62
7
 10
18.42500000
 20
7.38600000
  0
VERTEX
  8
0
 62
7
 10
18.43288989
 20
7.43914136
  0
VERTEX
  8
0
 62
7
 10
18.43819727
 20
7.49238086
  0
VERTEX
  8
0
 62
7
 10
18.44094116
 20
7.54562915
  0
VERTEX
  8
0
 62
7
 10
18.44114063
 20
7.59879688
  0
VERTEX
  8
0
 62
7
 10
18.43881470
 20
7.65179468
  0
VERTEX
  8
0
 62
7
 10
18.43398242
 20
7.70453320
  0
VERTEX
  8
0
 62
7
 10
18.42666284
 20
7.75692310
  0
VERTEX
  8
0
 62
7
 10
18.41687500
 20
7.80887500
  0
VERTEX
  8
0
 62
7
 10
18.40463794
 20
7.86029956
  0
VERTEX
  8
0
 62
7
 10
18.38997070
 20
7.91110742
  0
VERTEX
  8
0
 62
7
 10
18.37289233
 20
7.96120923
  0
VERTEX
  8
0
 62
7
 10
18.35342188
 20
8.01051563
  0
VERTEX
  8
0
 62
7
 10
18.33157837
 20
8.05893726
  0
VERTEX
  8
0
 62
7
 10
18.30738086
 20
8.10638477
  0
VERTEX
  8
0
 62
7
 10
18.28084839
 20
8.15276880
  0
VERTEX
  8
0
 62
7
 10
18.25200000
 20
8.19800000
  0
SEQEND
  0
POLYLINE
  8
0
 62
7
 66
1
  0
VERTEX
  8
0
 62
7
 10
18.36500000
 20
7.16000000
  0
VERTEX
  8
0
 62
7
 10
18.39931250
 20
7.19521875
  0
VERTEX
  8
0
 62
7
 10
18.43625000
 20
7.22725000
  0
VERTEX
  8
0
 62
7
 10
18.47581250
 20
7.25590625
  0
VERTEX
  8
0
 62
7
 10
18.51800000
 20
7.28100000
  0
VERTEX
  8
0
 62
7
 10
18.55656128
 20
7.29985864
  0
VERTEX
  8
0
 62
7
 10
18.59600586
 20
7.31557227
  0
VERTEX
  8
0
 62
7
 10
18.63616235
 20
7.32815991
  0
VERTEX
  8
0
 62
7
 10
18.67685938
 20
7.33764063
  0
VERTEX
  8
0
 62
7
 10
18.71792554
 20
7.34403345
  0
VERTEX
  8
0
 62
7
 10
18.75918945
 20
7.34735742
  0
VERTEX
  8
0
 62
7
 10
18.80047974
 20
7.34763159
  0
VERTEX
  8
0
 62
7
 10
18.84162500
 20
7.34487500
  0
VERTEX
  8
0
 62
7
 10
18.88245386
 20
7.33910669
  0
VERTEX
  8
0
 62
7
 10
18.92279492
 20
7.33034570
  0
VERTEX
  8
0
 62
7
 10
18.96247681
 20
7.31861108
  0
VERTEX
  8
0
 62
7
 10
19.00132813
 20
7.30392188
  0
VERTEX
  8
0
 62
7
 10
19.03917749
 20
7.28629712
  0
VERTEX
  8
0
 62
7
 10
19.07585352
 20
7.26575586
  0
VERTEX
  8
0
 62
7
 10
19.11118481
 20
7.24231714
  0
VERTEX
  8
0
 62
7
 10
19.14500000
 20
7.21600000
  0
SEQEND
  0
POLYLINE
  8
0
 62
7
 66
1
 70
1
  0
VERTEX
  8
0
 62
7
 10
6.07300000
 20
8.18700000
  0
VERTEX
  8
0
 62
7
 10
6.10000000
 20
3.44500000
  0
VERTEX
  8
0
 62
7
 10
5.67900000
 20
2.93300000
  0
VERTEX
  8
0
 62
7
 10
5.67600000
 20
7.89800000
  0
VERTEX
  8
0
 62
7
 10
5.74034375
 20
7.92325000
  0
VERTEX
  8
0
 62
7
 10
5.80150000
 20
7.95375000
  0
VERTEX
  8
0
 62
7
 10
5.85965625
 20
7.98912500
  0
VERTEX
  8
0
 62
7
 10
5.91500000
 20
8.02900000
  0
VERTEX
  8
0
 62
7
 10
5.95867188
 20
8.06479688
  0
VERTEX
  8
0
 62
7
 10
5.99962500
 20
8.10312500
  0
VERTEX
  8
0
 62
7
 10
6.03776563
 20
8.14389062
  0
VERTEX
  8
0
 62
7
 10
6.07300000
 20
8.18700000
  0
SEQEND
  0
POLYLINE
  8
0
 62
7
 66
1
 70
1
  0
VERTEX
  8
0
 62
7
 10
11.77500000
 20
8.23600000
  0
VERTEX
  8
0
 62
7
 10
11.86392188
 20
8.30139063
  0
VERTEX
  8
0
 62
7
 10
11.95612500
 20
8.36387500
  0
VERTEX
  8
0
 62
7
 10
12.05076563
 20
8.42317188
  0
VERTEX
  8
0
 62
7
 10
12.14700000
 20
8.47900000
  0
VERTEX
  8
0
 62
7
 10
12.22499097
 20
8.52079688
  0
VERTEX
  8
0
 62
7
 10
12.30405273
 20
8.56029688
  0
VERTEX
  8
0
 62
7
 10
12.38413110
 20
8.59747656
  0
VERTEX
  8
0
 62
7
 10
12.46517188
 20
8.63231250
  0
VERTEX
  8
0
 62
7
 10
12.54712085
 20
8.66478125
  0
VERTEX
  8
0
 62
7
 10
12.62992383
 20
8.69485938
  0
VERTEX
  8
0
 62
7
 10
12.71352661
 20
8.72252344
  0
VERTEX
  8
0
 62
7
 10
12.79787500
 20
8.74775000
  0
VERTEX
  8
0
 62
7
 10
12.88291479
 20
8.77051563
  0
VERTEX
  8
0
 62
7
 10
12.96859180
 20
8.79079688
  0
VERTEX
  8
0
 62
7
 10
13.05485181
 20
8.80857031
  0
VERTEX
  8
0
 62
7
 10
13.14164063
 20
8.82381250
  0
VERTEX
  8
0
 62
7
 10
13.22890405
 20
8.83650000
  0
VERTEX
  8
0
 62
7
 10
13.31658789
 20
8.84660938
  0
VERTEX
  8
0
 62
7
 10
13.40463794
 20
8.85411719
  0
VERTEX
  8
0
 62
7
 10
13.49300000
 20
8.85900000
  0
VERTEX
  8
0
 62
7
 10
13.59386743
 20
8.86105884
  0
VERTEX
  8
0
 62
7
 10
13.69436133
 20
8.85920508
  0
VERTEX
  8
0
 62
7
 10
13.79450659
 20
8.85376831
  0
VERTEX
  8
0
 62
7
 10
13.89432813
 20
8.84507813
  0
VERTEX
  8
0
 62
7
 10
13.99385083
 20
8.83346411
  0
VERTEX
  8
0
 62
7
 10
14.09309961
 20
8.81925586
  0
VERTEX
  8
0
 62
7
 10
14.19209937
 20
8.80278296
  0
VERTEX
  8
0
 62
7
 10
14.29087500
 20
8.78437500
  0
VERTEX
  8
0
 62
7
 10
14.38945142
 20
8.76436157
  0
VERTEX
  8
0
 62
7
 10
14.48785352
 20
8.74307227
  0
VERTEX
  8
0
 62
7
 10
14.58610620
 20
8.72083667
  0
VERTEX
  8
0
 62
7
 10
14.68423438
 20
8.69798438
  0
VERTEX
  8
0
 62
7
 10
14.78226294
 20
8.67484497
  0
VERTEX
  8
0
 62
7
 10
14.88021680
 20
8.65174805
  0
VERTEX
  8
0
 62
7
 10
14.97812085
 20
8.62902319
  0
VERTEX
  8
0
 62
7
 10
15.07600000
 20
8.60700000
  0
VERTEX
  8
0
 62
7
 10
15.23921484
 20
8.56927539
  0
VERTEX
  8
0
 62
7
 10
15.40203125
 20
8.52907813
  0
VERTEX
  8
0
 62
7
 10
15.56470703
 20
8.48787305
  0
VERTEX
  8
0
 62
7
 10
15.72750000
 20
8.44712500
  0
VERTEX
  8
0
 62
7
 10
15.89066797
 20
8.40829883
  0
VERTEX
  8
0
 62
7
 10
16.05446875
 20
8.37285938
  0
VERTEX
  8
0
 62
7
 10
16.21916016
 20
8.34227148
  0
VERTEX
  8
0
 62
7
 10
16.38500000
 20
8.31800000
  0
VERTEX
  8
0
 62
7
 10
16.57418750
 20
8.29742188
  0
VERTEX
  8
0
 62
7
 10
16.76375000
 20
8.28237500
  0
VERTEX
  8
0
 62
7
 10
16.95368750
 20
8.27314063
  0
VERTEX
  8
0
 62
7
 10
17.14400000
 20
8.27000000
  0
VERTEX
  8
0
 62
7
 10
17.26100000
 20
8.27137500
  0
VERTEX
  8
0
 62
7
 10
17.37800000
 20
8.27500000
  0
VERTEX
  8
0
 62
7
 10
17.35000000
 20
3.48000000
  0
VERTEX
  8
0
 62
7
 10
17.28878320
 20
3.46430273
  0
VERTEX
  8
0
 62
7
 10
17.22701563
 20
3.44967188
  0
VERTEX
  8
0
 62
7
 10
17.16527148
 20
3.43642383
  0
VERTEX
  8
0
 62
7
 10
17.10412500
 20
3.42487500
  0
VERTEX
  8
0
 62
7
 10
17.04415039
 20
3.41534180
  0
VERTEX
  8
0
 62
7
 10
16.98592188
 20
3.40814063
  0
VERTEX
  8
0
 62
7
 10
16.93001367
 20
3.40358789
  0
VERTEX
  8
0
 62
7
 10
16.87700000
 20
3.40200000
  0
VERTEX
  8
0
 62
7
 10
16.75304688
 20
3.40469727
  0
VERTEX
  8
0
 62
7
 10
16.62937500
 20
3.41232813
  0
VERTEX
  8
0
 62
7
 10
16.50589063
 20
3.42420117
  0
VERTEX
  8
0
 62
7
 10
16.38250000
 20
3.43962500
  0
VERTEX
  8
0
 62
7
 10
16.25910938
 20
3.45790820
  0
VERTEX
  8
0
 62
7
 10
16.13562500
 20
3.47835938
  0
VERTEX
  8
0
 62
7
 10
16.01195313
 20
3.50028711
  0
VERTEX
  8
0
 62
7
 10
15.88800000
 20
3.52300000
  0
VERTEX
  8
0
 62
7
 10
15.69600000
 20
3.55800000
  0
VERTEX
  8
0
 62
7
 10
15.58232813
 20
3.58014063
  0
VERTEX
  8
0
 62
7
 10
15.46912500
 20
3.60537500
  0
VERTEX
  8
0
 62
7
 10
15.35610938
 20
3.63267188
  0
VERTEX
  8
0
 62
7
 10
15.24300000
 20
3.66100000
  0
VERTEX
  8
0
 62
7
 10
15.11284375
 20
3.69301563
  0
VERTEX
  8
0
 62
7
 10
14.98175000
 20
3.72362500
  0
VERTEX
  8
0
 62
7
 10
14.84953125
 20
3.75142188
  0
VERTEX
  8
0
 62
7
 10
14.71600000
 20
3.77500000
  0
VERTEX
  8
0
 62
7
 10
14.59267969
 20
3.79444141
  0
VERTEX
  8
0
 62
7
 10
14.46875000
 20
3.81334375
  0
VERTEX
  8
0
 62
7
 10
14.34425781
 20
3.83107422
  0
VERTEX
  8
0
 62
7
 10
14.21925000
 20
3.84700000
  0
VERTEX
  8
0
 62
7
 10
14.09377344
 20
3.86048828
  0
VERTEX
  8
0
 62
7
 10
13.96787500
 20
3.87090625
  0
VERTEX
  8
0
 62
7
 10
13.84160156
 20
3.87762109
  0
VERTEX
  8
0
 62
7
 10
13.71500000
 20
3.88000000
  0
VERTEX
  8
0
 62
7
 10
13.62800000
 20
3.87862500
  0
VERTEX
  8
0
 62
7
 10
13.54100000
 20
3.87500000
  0
VERTEX
  8
0
 62
7
 10
13.40707422
 20
3.86529297
  0
VERTEX
  8
0
 62
7
 10
13.27321875
 20
3.85171875
  0
VERTEX
  8
0
 62
7
 10
13.13969141
 20
3.83397266
  0
VERTEX
  8
0
 62
7
 10
13.00675000
 20
3.81175000
  0
VERTEX
  8
0
 62
7
 10
12.87465234
 20
3.78474609
  0
VERTEX
  8
0
 62
7
 10
12.74365625
 20
3.75265625
  0
VERTEX
  8
0
 62
7
 10
12.61401953
 20
3.71517578
  0
VERTEX
  8
0
 62
7
 10
12.48600000
 20
3.67200000
  0
VERTEX
  8
0
 62
7
 10
12.39231641
 20
3.63652344
  0
VERTEX
  8
0
 62
7
 10
12.29959375
 20
3.59837500
  0
VERTEX
  8
0
 62
7
 10
12.20794922
 20
3.55760156
  0
VERTEX
  8
0
 62
7
 10
12.11750000
 20
3.51425000
  0
VERTEX
  8
0
 62
7
 10
12.02836328
 20
3.46836719
  0
VERTEX
  8
0
 62
7
 10
11.94065625
 20
3.42000000
  0
VERTEX
  8
0
 62
7
 10
11.85449609
 20
3.36919531
  0
VERTEX
  8
0
 62
7
 10
11.77000000
 20
3.31600000
  0
VERTEX
  8
0
 62
7
 10
11.68621289
 20
3.36894922
  0
VERTEX
  8
0
 62
7
 10
11.60070313
 20
3.41971875
  0
VERTEX
  8
0
 62
7
 10
11.51362305
 20
3.46819141
  0
VERTEX
  8
0
 62
7
 10
11.42512500
 20
3.51425000
  0
VERTEX
  8
0
 62
7
 10
11.33536133
 20
3.55777734
  0
VERTEX
  8
0
 62
7
 10
11.24448438
 20
3.59865625
  0
VERTEX
  8
0
 62
7
 10
11.15264648
 20
3.63676953
  0
VERTEX
  8
0
 62
7
 10
11.06000000
 20
3.67200000
  0
VERTEX
  8
0
 62
7
 10
10.93198047
 20
3.71517578
  0
VERTEX
  8
0
 62
7
 10
10.80234375
 20
3.75265625
  0
VERTEX
  8
0
 62
7
 10
10.67134766
 20
3.78474609
  0
VERTEX
  8
0
 62
7
 10
10.53925000
 20
3.81175000
  0
VERTEX
  8
0
 62
7
 10
10.40630859
 20
3.83397266
  0
VERTEX
  8
0
 62
7
 10
10.27278125
 20
3.85171875
  0
VERTEX
  8
0
 62
7
 10
10.13892578
 20
3.86529297
  0
VERTEX
  8
0
 62
7
 10
10.00500000
 20
3.87500000
  0
VERTEX
  8
0
 62
7
 10
9.91800000
 20
3.87862500
  0
VERTEX
  8
0
 62
7
 10
9.83100000
 20
3.88000000
  0
VERTEX
  8
0
 62
7
 10
9.70439844
 20
3.87762109
  0
VERTEX
  8
0
 62
7
 10
9.57812500
 20
3.87090625
  0
VERTEX
  8
0
 62
7
 10
9.45222656
 20
3.86048828
  0
VERTEX
  8
0
 62
7
 10
9.32675000
 20
3.84700000
  0
VERTEX
  8
0
 62
7
 10
9.20174219
 20
3.83107422
  0
VERTEX
  8
0
 62
7
 10
9.07725000
 20
3.81334375
  0
VERTEX
  8
0
 62
7
 10
8.95332031
 20
3.79444141
  0
VERTEX
  8
0
 62
7
 10
8.83000000
 20
3.77500000
  0
VERTEX
  8
0
 62
7
 10
8.69646875
 20
3.75142188
  0
VERTEX
  8
0
 62
7
 10
8.56425000
 20
3.72362500
  0
VERTEX
  8
0
 62
7
 10
8.43315625
 20
3.69301563
  0
VERTEX
  8
0
 62
7
 10
8.30300000
 20
3.66100000
  0
VERTEX
  8
0
 62
7
 10
8.18989063
 20
3.63267188
  0
VERTEX
  8
0
 62
7
 10
8.07687500
 20
3.60537500
  0
VERTEX
  8
0
 62
7
 10
7.96367188
 20
3.58014063
  0
VERTEX
  8
0
 62
7
 10
7.85000000
 20
3.55800000
  0
VERTEX
  8
0
 62
7
 10
7.65800000
 20
3.52300000
  0
VERTEX
  8
0
 62
7
 10
7.53404688
 20
3.50028711
  0
VERTEX
  8
0
 62
7
 10
7.41037500
 20
3.47835938
  0
VERTEX
  8
0
 62
7
 10
7.28689063
 20
3.45790820
  0
VERTEX
  8
0
 62
7
 10
7.16350000
 20
3.43962500
  0
VERTEX
  8
0
 62
7
 10
7.04010938
 20
3.42420117
  0
VERTEX
  8
0
 62
7
 10
6.91662500
 20
3.41232813
  0
VERTEX
  8
0
 62
7
 10
6.79295313
 20
3.40469727
  0
VERTEX
  8
0
 62
7
 10
6.66900000
 20
3.40200000
  0
VERTEX
  8
0
 62
7
 10
6.61598633
 20
3.40358789
  0
VERTEX
  8
0
 62
7
 10
6.56007813
 20
3.40814063
  0
VERTEX
  8
0
 62
7
 10
6.50184961
 20
3.41534180
  0
VERTEX
  8
0
 62
7
 10
6.44187500
 20
3.42487500
  0
VERTEX
  8
0
 62
7
 10
6.38072852
 20
3.43642383
  0
VERTEX
  8
0
 62
7
 10
6.31898438
 20
3.44967188
  0
VERTEX
  8
0
 62
7
 10
6.25721680
 20
3.46430273
  0
VERTEX
  8
0
 62
7
 10
6.19600000
 20
3.48000000
  0
VERTEX
  8
0
 62
7
 10
6.16800000
 20
8.27500000
  0
VERTEX
  8
0
 62
7
 10
6.28500000
 20
8.27137500
  0
VERTEX
  8
0
 62
7
 10
6.40200000
 20
8.27000000
  0
VERTEX
  8
0
 62
7
 10
6.59231250
 20
8.27314063
  0
VERTEX
  8
0
 62
7
 10
6.78225000
 20
8.28237500
  0
VERTEX
  8
0
 62
7
 10
6.97181250
 20
8.29742188
  0
VERTEX
  8
0
 62
7
 10
7.16100000
 20
8.31800000
  0
VERTEX
  8
0
 62
7
 10
7.32683984
 20
8.34227148
  0
VERTEX
  8
0
 62
7
 10
7.49153125
 20
8.37285938
  0
VERTEX
  8
0
 62
7
 10
7.65533203
 20
8.40829883
  0
VERTEX
  8
0
 62
7
 10
7.81850000
 20
8.44712500
  0
VERTEX
  8
0
 62
7
 10
7.98129297
 20
8.48787305
  0
VERTEX
  8
0
 62
7
 10
8.14396875
 20
8.52907813
  0
VERTEX
  8
0
 62
7
 10
8.30678516
 20
8.56927539
  0
VERTEX
  8
0
 62
7
 10
8.47000000
 20
8.60700000
  0
VERTEX
  8
0
 62
7
 10
8.56787915
 20
8.62902319
  0
VERTEX
  8
0
 62
7
 10
8.66578320
 20
8.65174805
  0
VERTEX
  8
0
 62
7
 10
8.76373706
 20
8.67484497
  0
VERTEX
  8
0
 62
7
 10
8.86176563
 20
8.69798438
  0
VERTEX
  8
0
 62
7
 10
8.95989380
 20
8.72083667
  0
VERTEX
  8
0
 62
7
 10
9.05814648
 20
8.74307227
  0
VERTEX
  8
0
 62
7
 10
9.15654858
 20
8.76436157
  0
VERTEX
  8
0
 62
7
 10
9.25512500
 20
8.78437500
  0
VERTEX
  8
0
 62
7
 10
9.35390063
 20
8.80278296
  0
VERTEX
  8
0
 62
7
 10
9.45290039
 20
8.81925586
  0
VERTEX
  8
0
 62
7
 10
9.55214917
 20
8.83346411
  0
VERTEX
  8
0
 62
7
 10
9.65167188
 20
8.84507813
  0
VERTEX
  8
0
 62
7
 10
9.75149341
 20
8.85376831
  0
VERTEX
  8
0
 62
7
 10
9.85163867
 20
8.85920508
  0
VERTEX
  8
0
 62
7
 10
9.95213257
 20
8.86105884
  0
VERTEX
  8
0
 62
7
 10
10.05300000
 20
8.85900000
  0
VERTEX
  8
0
 62
7
 10
10.14136206
 20
8.85411719
  0
VERTEX
  8
0
 62
7
 10
10.22941211
 20
8.84660938
  0
VERTEX
  8
0
 62
7
 10
10.31709595
 20
8.83650000
  0
VERTEX
  8
0
 62
7
 10
10.40435938
 20
8.82381250
  0
VERTEX
  8
0
 62
7
 10
10.49114819
 20
8.80857031
  0
VERTEX
  8
0
 62
7
 10
10.57740820
 20
8.79079688
  0
VERTEX
  8
0
 62
7
 10
10.66308521
 20
8.77051563
  0
VERTEX
  8
0
 62
7
 10
10.74812500
 20
8.74775000
  0
VERTEX
  8
0
 62
7
 10
10.83247339
 20
8.72252344
  0
VERTEX
  8
0
 62
7
 10
10.91607617
 20
8.69485938
  0
VERTEX
  8
0
 62
7
 10
10.99887915
 20
8.66478125
  0
VERTEX
  8
0
 62
7
 10
11.08082813
 20
8.63231250
  0
VERTEX
  8
0
 62
7
 10
11.16186890
 20
8.59747656
  0
VERTEX
  8
0
 62
7
 10
11.24194727
 20
8.56029688
  0
VERTEX
  8
0
 62
7
 10
11.32100903
 20
8.52079688
  0
VERTEX
  8
0
 62
7
 10
11.39900000
 20
8.47900000
  0
VERTEX
  8
0
 62
7
 10
11.49642188
 20
8.42275000
  0
VERTEX
  8
0
 62
7
 10
11.59187500
 20
8.36350000
  0
VERTEX
  8
0
 62
7
 10
11.68489063
 20
8.30125000
  0
VERTEX
  8
0
 62
7
 10
11.77500000
 20
8.23600000
  0
SEQEND
  0
POLYLINE
  8
0
 62
7
 66
1
 70
1
  0
VERTEX
  8
0
 62
7
 10
11.25600000
 20
2.83500000
  0
VERTEX
  8
0
 62
7
 10
11.26000000
 20
2.88200000
  0
VERTEX
  8
0
 62
7
 10
11.27000000
 20
2.92900000
  0
VERTEX
  8
0
 62
7
 10
11.27694849
 20
2.95022632
  0
VERTEX
  8
0
 62
7
 10
11.28569727
 20
2.97009180
  0
VERTEX
  8
0
 62
7
 10
11.29610132
 20
2.98868872
  0
VERTEX
  8
0
 62
7
 10
11.30801563
 20
3.00610938
  0
VERTEX
  8
0
 62
7
 10
11.32129517
 20
3.02244604
  0
VERTEX
  8
0
 62
7
 10
11.33579492
 20
3.03779102
  0
VERTEX
  8
0
 62
7
 10
11.35136987
 20
3.05223657
  0
VERTEX
  8
0
 62
7
 10
11.36787500
 20
3.06587500
  0
VERTEX
  8
0
 62
7
 10
11.38516528
 20
3.07879858
  0
VERTEX
  8
0
 62
7
 10
11.40309570
 20
3.09109961
  0
VERTEX
  8
0
 62
7
 10
11.42152124
 20
3.10287036
  0
VERTEX
  8
0
 62
7
 10
11.44029688
 20
3.11420313
  0
VERTEX
  8
0
 62
7
 10
11.45927759
 20
3.12519019
  0
VERTEX
  8
0
 62
7
 10
11.47831836
 20
3.13592383
  0
VERTEX
  8
0
 62
7
 10
11.49727417
 20
3.14649634
  0
VERTEX
  8
0
 62
7
 10
11.51600000
 20
3.15700000
  0
VERTEX
  8
0
 62
7
 10
11.56650000
 20
3.18298438
  0
VERTEX
  8
0
 62
7
 10
11.61775000
 20
3.20512500
  0
VERTEX
  8
0
 62
7
 10
11.67012500
 20
3.22295313
  0
VERTEX
  8
0
 62
7
 10
11.72400000
 20
3.23600000
  0
VERTEX
  8
0
 62
7
 10
11.64179883
 20
3.28741211
  0
VERTEX
  8
0
 62
7
 10
11.55801563
 20
3.33660938
  0
VERTEX
  8
0
 62
7
 10
11.47275586
 20
3.38353320
  0
VERTEX
  8
0
 62
7
 10
11.38612500
 20
3.42812500
  0
VERTEX
  8
0
 62
7
 10
11.29822852
 20
3.47032617
  0
VERTEX
  8
0
 62
7
 10
11.20917188
 20
3.51007813
  0
VERTEX
  8
0
 62
7
 10
11.11906055
 20
3.54732227
  0
VERTEX
  8
0
 62
7
 10
11.02800000
 20
3.58200000
  0
VERTEX
  8
0
 62
7
 10
10.90372266
 20
3.62381055
  0
VERTEX
  8
0
 62
7
 10
10.77778125
 20
3.66017188
  0
VERTEX
  8
0
 62
7
 10
10.65038672
 20
3.69135352
  0
VERTEX
  8
0
 62
7
 10
10.52175000
 20
3.71762500
  0
VERTEX
  8
0
 62
7
 10
10.39208203
 20
3.73925586
  0
VERTEX
  8
0
 62
7
 10
10.26159375
 20
3.75651563
  0
VERTEX
  8
0
 62
7
 10
10.13049609
 20
3.76967383
  0
VERTEX
  8
0
 62
7
 10
9.99900000
 20
3.77900000
  0
VERTEX
  8
0
 62
7
 10
9.91500000
 20
3.78262500
  0
VERTEX
  8
0
 62
7
 10
9.83100000
 20
3.78400000
  0
VERTEX
  8
0
 62
7
 10
9.70770703
 20
3.78170703
  0
VERTEX
  8
0
 62
7
 10
9.58453125
 20
3.77521875
  0
VERTEX
  8
0
 62
7
 10
9.46140234
 20
3.76512109
  0
VERTEX
  8
0
 62
7
 10
9.33825000
 20
3.75200000
  0
VERTEX
  8
0
 62
7
 10
9.21500391
 20
3.73644141
  0
VERTEX
  8
0
 62
7
 10
9.09159375
 20
3.71903125
  0
VERTEX
  8
0
 62
7
 10
8.96794922
 20
3.70035547
  0
VERTEX
  8
0
 62
7
 10
8.84400000
 20
3.68100000
  0
VERTEX
  8
0
 62
7
 10
8.71456250
 20
3.65756250
  0
VERTEX
  8
0
 62
7
 10
8.58550000
 20
3.63000000
  0
VERTEX
  8
0
 62
7
 10
8.45643750
 20
3.59943750
  0
VERTEX
  8
0
 62
7
 10
8.32700000
 20
3.56700000
  0
VERTEX
  8
0
 62
7
 10
8.21278125
 20
3.53909375
  0
VERTEX
  8
0
 62
7
 10
8.09800000
 20
3.51175000
  0
VERTEX
  8
0
 62
7
 10
7.98246875
 20
3.48628125
  0
VERTEX
  8
0
 62
7
 10
7.86600000
 20
3.46400000
  0
VERTEX
  8
0
 62
7
 10
7.67500000
 20
3.42900000
  0
VERTEX
  8
0
 62
7
 10
7.55134180
 20
3.40620117
  0
VERTEX
  8
0
 62
7
 10
7.42710938
 20
3.38404688
  0
VERTEX
  8
0
 62
7
 10
7.30229102
 20
3.36327539
  0
VERTEX
  8
0
 62
7
 10
7.17687500
 20
3.34462500
  0
VERTEX
  8
0
 62
7
 10
7.05084961
 20
3.32883398
  0
VERTEX
  8
0
 62
7
 10
6.92420313
 20
3.31664063
  0
VERTEX
  8
0
 62
7
 10
6.79692383
 20
3.30878320
  0
VERTEX
  8
0
 62
7
 10
6.66900000
 20
3.30600000
  0
VERTEX
  8
0
 62
7
 10
6.60823438
 20
3.30775586
  0
VERTEX
  8
0
 62
7
 10
6.54456250
 20
3.31273438
  0
VERTEX
  8
0
 62
7
 10
6.47929688
 20
3.32050195
  0
VERTEX
  8
0
 62
7
 10
6.41375000
 20
3.33062500
  0
VERTEX
  8
0
 62
7
 10
6.34923438
 20
3.34266992
  0
VERTEX
  8
0
 62
7
 10
6.28706250
 20
3.35620313
  0
VERTEX
  8
0
 62
7
 10
6.22854688
 20
3.37079102
  0
VERTEX
  8
0
 62
7
 10
6.17500000
 20
3.38600000
  0
VERTEX
  8
0
 62
7
 10
5.72300000
 20
2.83500000
  0
VERTEX
  8
0
 62
7
 10
11.25600000
 20
2.83500000
  0
SEQEND
  0
POLYLINE
  8
0
 62
7
 66
1
 70
1
  0
VERTEX
  8
0
 62
7
 10
11.81600000
 20
3.23400000
  0
VERTEX
  8
0
 62
7
 10
11.87046875
 20
3.22112500
  0
VERTEX
  8
0
 62
7
 10
11.92400000
 20
3.20375000
  0
VERTEX
  8
0
 62
7
 10
11.97603125
 20
3.18225000
  0
VERTEX
  8
0
 62
7
 10
12.02600000
 20
3.15700000
  0
VERTEX
  8
0
 62
7
 10
12.04472583
 20
3.14649634
  0
VERTEX
  8
0
 62
7
 10
12.06368164
 20
3.13592383
  0
VERTEX
  8
0
 62
7
 10
12.08272241
 20
3.12519019
  0
VERTEX
  8
0
 62
7
 10
12.10170313
 20
3.11420313
  0
VERTEX
  8
0
 62
7
 10
12.12047876
 20
3.10287036
  0
VERTEX
  8
0
 62
7
 10
12.13890430
 20
3.09109961
  0
VERTEX
  8
0
 62
7
 10
12.15683472
 20
3.07879858
  0
VERTEX
  8
0
 62
7
 10
12.17412500
 20
3.06587500
  0
VERTEX
  8
0
 62
7
 10
12.19063013
 20
3.05223657
  0
VERTEX
  8
0
 62
7
 10
12.20620508
 20
3.03779102
  0
VERTEX
  8
0
 62
7
 10
12.22070483
 20
3.02244604
  0
VERTEX
  8
0
 62
7
 10
12.23398438
 20
3.00610938
  0
VERTEX
  8
0
 62
7
 10
12.24589868
 20
2.98868872
  0
VERTEX
  8
0
 62
7
 10
12.25630273
 20
2.97009180
  0
VERTEX
  8
0
 62
7
 10
12.26505151
 20
2.95022632
  0
VERTEX
  8
0
 62
7
 10
12.27200000
 20
2.92900000
  0
VERTEX
  8
0
 62
7
 10
12.28200000
 20
2.88200000
  0
VERTEX
  8
0
 62
7
 10
12.28600000
 20
2.83500000
  0
VERTEX
  8
0
 62
7
 10
17.82300000
 20
2.83500000
  0
VERTEX
  8
0
 62
7
 10
17.37100000
 20
3.38600000
  0
VERTEX
  8
0
 62
7
 10
17.31745313
 20
3.37079102
  0
VERTEX
  8
0
 62
7
 10
17.25893750
 20
3.35620313
  0
VERTEX
  8
0
 62
7
 10
17.19676563
 20
3.34266992
  0
VERTEX
  8
0
 62
7
 10
17.13225000
 20
3.33062500
  0
VERTEX
  8
0
 62
7
 10
17.06670313
 20
3.32050195
  0
VERTEX
  8
0
 62
7
 10
17.00143750
 20
3.31273438
  0
VERTEX
  8
0
 62
7
 10
16.93776563
 20
3.30775586
  0
VERTEX
  8
0
 62
7
 10
16.87700000
 20
3.30600000
  0
VERTEX
  8
0
 62
7
 10
16.74907617
 20
3.30878320
  0
VERTEX
  8
0
 62
7
 10
16.62179688
 20
3.31664063
  0
VERTEX
  8
0
 62
7
 10
16.49515039
 20
3.32883398
  0
VERTEX
  8
0
 62
7
 10
16.36912500
 20
3.34462500
  0
VERTEX
  8
0
 62
7
 10
16.24370898
 20
3.36327539
  0
VERTEX
  8
0
 62
7
 10
16.11889063
 20
3.38404688
  0
VERTEX
  8
0
 62
7
 10
15.99465820
 20
3.40620117
  0
VERTEX
  8
0
 62
7
 10
15.87100000
 20
3.42900000
  0
VERTEX
  8
0
 62
7
 10
15.68000000
 20
3.46400000
  0
VERTEX
  8
0
 62
7
 10
15.56353125
 20
3.48628125
  0
VERTEX
  8
0
 62
7
 10
15.44800000
 20
3.51175000
  0
VERTEX
  8
0
 62
7
 10
15.33321875
 20
3.53909375
  0
VERTEX
  8
0
 62
7
 10
15.21900000
 20
3.56700000
  0
VERTEX
  8
0
 62
7
 10
15.08956250
 20
3.59943750
  0
VERTEX
  8
0
 62
7
 10
14.96050000
 20
3.63000000
  0
VERTEX
  8
0
 62
7
 10
14.83143750
 20
3.65756250
  0
VERTEX
  8
0
 62
7
 10
14.70200000
 20
3.68100000
  0
VERTEX
  8
0
 62
7
 10
14.57805078
 20
3.70035547
  0
VERTEX
  8
0
 62
7
 10
14.45440625
 20
3.71903125
  0
VERTEX
  8
0
 62
7
 10
14.33099609
 20
3.73644141
  0
VERTEX
  8
0
 62
7
 10
14.20775000
 20
3.75200000
  0
VERTEX
  8
0
 62
7
 10
14.08459766
 20
3.76512109
  0
VERTEX
  8
0
 62
7
 10
13.96146875
 20
3.77521875
  0
VERTEX
  8
0
 62
7
 10
13.83829297
 20
3.78170703
  0
VERTEX
  8
0
 62
7
 10
13.71500000
 20
3.78400000
  0
VERTEX
  8
0
 62
7
 10
13.63100000
 20
3.78262500
  0
VERTEX
  8
0
 62
7
 10
13.54700000
 20
3.77900000
  0
VERTEX
  8
0
 62
7
 10
13.41550391
 20
3.76967383
  0
VERTEX
  8
0
 62
7
 10
13.28440625
 20
3.75651563
  0
VERTEX
  8
0
 62
7
 10
13.15391797
 20
3.73925586
  0
VERTEX
  8
0
 62
7
 10
13.02425000
 20
3.71762500
  0
VERTEX
  8
0
 62
7
 10
12.89561328
 20
3.69135352
  0
VERTEX
  8
0
 62
7
 10
12.76821875
 20
3.66017188
  0
VERTEX
  8
0
 62
7
 10
12.64227734
 20
3.62381055
  0
VERTEX
  8
0
 62
7
 10
12.51800000
 20
3.58200000
  0
VERTEX
  8
0
 62
7
 10
12.42614844
 20
3.54703125
  0
VERTEX
  8
0
 62
7
 10
12.33518750
 20
3.50962500
  0
VERTEX
  8
0
 62
7
 10
12.24525781
 20
3.46978125
  0
VERTEX
  8
0
 62
7
 10
12.15650000
 20
3.42750000
  0
VERTEX
  8
0
 62
7
 10
12.06905469
 20
3.38278125
  0
VERTEX
  8
0
 62
7
 10
11.98306250
 20
3.33562500
  0
VERTEX
  8
0
 62
7
 10
11.89866406
 20
3.28603125
  0
VERTEX
  8
0
 62
7
 10
11.81600000
 20
3.23400000
  0
SEQEND
  0
POLYLINE
  8
0
 62
7
 66
1
 70
1
  0
VERTEX
  8
0
 62
7
 10
14.02600000
 20
11.46400000
  0
VERTEX
  8
0
 62
7
 10
14.02500000
 20
11.45300000
  0
VERTEX
  8
0
 62
7
 10
14.01550000
 20
11.34275000
  0
VERTEX
  8
0
 62
7
 10
14.00300000
 20
11.23100000
  0
VERTEX
  8
0
 62
7
 10
13.99037500
 20
11.14971875
  0
VERTEX
  8
0
 62
7
 10
13.97625000
 20
11.06900000
  0
VERTEX
  8
0
 62
7
 10
13.96025000
 20
10.98828125
  0
VERTEX
  8
0
 62
7
 10
13.94200000
 20
10.90700000
  0
VERTEX
  8
0
 62
7
 10
13.94512500
 20
10.89075000
  0
VERTEX
  8
0
 62
7
 10
13.94600000
 20
10.87300000
  0
VERTEX
  8
0
 62
7
 10
13.94312500
 20
10.84350000
  0
VERTEX
  8
0
 62
7
 10
13.93500000
 20
10.81400000
  0
VERTEX
  8
0
 62
7
 10
13.92622876
 20
10.79366724
  0
VERTEX
  8
0
 62
7
 10
13.91578320
 20
10.77569727
  0
VERTEX
  8
0
 62
7
 10
13.90384058
 20
10.75994507
  0
VERTEX
  8
0
 62
7
 10
13.89057813
 20
10.74626563
  0
VERTEX
  8
0
 62
7
 10
13.87617310
 20
10.73451392
  0
VERTEX
  8
0
 62
7
 10
13.86080273
 20
10.72454492
  0
VERTEX
  8
0
 62
7
 10
13.84464429
 20
10.71621362
  0
VERTEX
  8
0
 62
7
 10
13.82787500
 20
10.70937500
  0
VERTEX
  8
0
 62
7
 10
13.81067212
 20
10.70388403
  0
VERTEX
  8
0
 62
7
 10
13.79321289
 20
10.69959570
  0
VERTEX
  8
0
 62
7
 10
13.77567456
 20
10.69636499
  0
VERTEX
  8
0
 62
7
 10
13.75823438
 20
10.69404688
  0
VERTEX
  8
0
 62
7
 10
13.74106958
 20
10.69249634
  0
VERTEX
  8
0
 62
7
 10
13.72435742
 20
10.69156836
  0
VERTEX
  8
0
 62
7
 10
13.70827515
 20
10.69111792
  0
VERTEX
  8
0
 62
7
 10
13.69300000
 20
10.69100000
  0
VERTEX
  8
0
 62
7
 10
13.65000000
 20
10.69200000
  0
VERTEX
  8
0
 62
7
 10
13.63200000
 20
10.69200000
  0
VERTEX
  8
0
 62
7
 10
13.54068750
 20
10.69709375
  0
VERTEX
  8
0
 62
7
 10
13.45575000
 20
10.70800000
  0
VERTEX
  8
0
 62
7
 10
13.37493750
 20
10.72265625
  0
VERTEX
  8
0
 62
7
 10
13.29600000
 20
10.73900000
  0
VERTEX
  8
0
 62
7
 10
13.23400000
 20
10.75200000
  0
VERTEX
  8
0
 62
7
 10
13.16796875
 20
10.76703125
  0
VERTEX
  8
0
 62
7
 10
13.10325000
 20
10.78450000
  0
VERTEX
  8
0
 62
7
 10
13.03965625
 20
10.80346875
  0
VERTEX
  8
0
 62
7
 10
12.97700000
 20
10.82300000
  0
VERTEX
  8
0
 62
7
 10
12.90546875
 20
10.84456250
  0
VERTEX
  8
0
 62
7
 10
12.83450000
 20
10.86500000
  0
VERTEX
  8
0
 62
7
 10
12.76353125
 20
10.88318750
  0
VERTEX
  8
0
 62
7
 10
12.69200000
 20
10.89800000
  0
VERTEX
  8
0
 62
7
 10
12.56134375
 20
10.91893750
  0
VERTEX
  8
0
 62
7
 10
12.43050000
 20
10.93575000
  0
VERTEX
  8
0
 62
7
 10
12.29965625
 20
10.94693750
  0
VERTEX
  8
0
 62
7
 10
12.16900000
 20
10.95100000
  0
VERTEX
  8
0
 62
7
 10
12.08350000
 20
10.94925000
  0
VERTEX
  8
0
 62
7
 10
11.99800000
 20
10.94300000
  0
VERTEX
  8
0
 62
7
 10
11.89023438
 20
10.92967188
  0
VERTEX
  8
0
 62
7
 10
11.78312500
 20
10.91062500
  0
VERTEX
  8
0
 62
7
 10
11.67695313
 20
10.88576563
  0
VERTEX
  8
0
 62
7
 10
11.57200000
 20
10.85500000
  0
VERTEX
  8
0
 62
7
 10
11.50500000
 20
10.83300000
  0
VERTEX
  8
0
 62
7
 10
11.51300000
 20
10.90400000
  0
VERTEX
  8
0
 62
7
 10
11.54610938
 20
11.18653125
  0
VERTEX
  8
0
 62
7
 10
11.57462500
 20
11.47000000
  0
VERTEX
  8
0
 62
7
 10
11.59807813
 20
11.75421875
  0
VERTEX
  8
0
 62
7
 10
11.61600000
 20
12.03900000
  0
VERTEX
  8
0
 62
7
 10
11.62382813
 20
12.21317188
  0
VERTEX
  8
0
 62
7
 10
11.62837500
 20
12.38762500
  0
VERTEX
  8
0
 62
7
 10
11.63048438
 20
12.56226563
  0
VERTEX
  8
0
 62
7
 10
11.63100000
 20
12.73700000
  0
VERTEX
  8
0
 62
7
 10
11.63000000
 20
13.00300000
  0
VERTEX
  8
0
 62
7
 10
11.63000000
 20
13.26900000
  0
VERTEX
  8
0
 62
7
 10
11.63100000
 20
13.51900000
  0
VERTEX
  8
0
 62
7
 10
11.64400000
 20
14.27500000
  0
VERTEX
  8
0
 62
7
 10
11.64400000
 20
14.29900000
  0
VERTEX
  8
0
 62
7
 10
11.66400000
 20
14.31200000
  0
VERTEX
  8
0
 62
7
 10
11.74164258
 20
14.36013086
  0
VERTEX
  8
0
 62
7
 10
11.82145313
 20
14.40398438
  0
VERTEX
  8
0
 62
7
 10
11.90325586
 20
14.44350195
  0
VERTEX
  8
0
 62
7
 10
11.98687500
 20
14.47862500
  0
VERTEX
  8
0
 62
7
 10
12.07213477
 20
14.50929492
  0
VERTEX
  8
0
 62
7
 10
12.15885938
 20
14.53545313
  0
VERTEX
  8
0
 62
7
 10
12.24687305
 20
14.55704102
  0
VERTEX
  8
0
 62
7
 10
12.33600000
 20
14.57400000
  0
VERTEX
  8
0
 62
7
 10
12.41201563
 20
14.58601563
  0
VERTEX
  8
0
 62
7
 10
12.48962500
 20
14.59587500
  0
VERTEX
  8
0
 62
7
 10
12.56817188
 20
14.60254688
  0
VERTEX
  8
0
 62
7
 10
12.64700000
 20
14.60500000
  0
VERTEX
  8
0
 62
7
 10
12.71090625
 20
14.60320313
  0
VERTEX
  8
0
 62
7
 10
12.77500000
 20
14.59737500
  0
VERTEX
  8
0
 62
7
 10
12.83909375
 20
14.58685938
  0
VERTEX
  8
0
 62
7
 10
12.90300000
 20
14.57100000
  0
VERTEX
  8
0
 62
7
 10
12.96092188
 20
14.55220313
  0
VERTEX
  8
0
 62
7
 10
13.01762500
 20
14.53012500
  0
VERTEX
  8
0
 62
7
 10
13.07301563
 20
14.50448438
  0
VERTEX
  8
0
 62
7
 10
13.12700000
 20
14.47500000
  0
VERTEX
  8
0
 62
7
 10
13.14305249
 20
14.52539600
  0
VERTEX
  8
0
 62
7
 10
13.16190430
 20
14.57451172
  0
VERTEX
  8
0
 62
7
 10
13.18347192
 20
14.62223877
  0
VERTEX
  8
0
 62
7
 10
13.20767188
 20
14.66846875
  0
VERTEX
  8
0
 62
7
 10
13.23442065
 20
14.71309326
  0
VERTEX
  8
0
 62
7
 10
13.26363477
 20
14.75600391
  0
VERTEX
  8
0
 62
7
 10
13.29523071
 20
14.79709229
  0
VERTEX
  8
0
 62
7
 10
13.32912500
 20
14.83625000
  0
VERTEX
  8
0
 62
7
 10
13.36523413
 20
14.87336865
  0
VERTEX
  8
0
 62
7
 10
13.40347461
 20
14.90833984
  0
VERTEX
  8
0
 62
7
 10
13.44376294
 20
14.94105518
  0
VERTEX
  8
0
 62
7
 10
13.48601563
 20
14.97140625
  0
VERTEX
  8
0
 62
7
 10
13.53014917
 20
14.99928467
  0
VERTEX
  8
0
 62
7
 10
13.57608008
 20
15.02458203
  0
VERTEX
  8
0
 62
7
 10
13.62372485
 20
15.04718994
  0
VERTEX
  8
0
 62
7
 10
13.67300000
 20
15.06700000
  0
VERTEX
  8
0
 62
7
 10
13.74273438
 20
15.08962500
  0
VERTEX
  8
0
 62
7
 10
13.81387500
 20
15.10625000
  0
VERTEX
  8
0
 62
7
 10
13.88632813
 20
15.11650000
  0
VERTEX
  8
0
 62
7
 10
13.96000000
 20
15.12000000
  0
VERTEX
  8
0
 62
7
 10
34.04000000
 20
15.12000000
  0
VERTEX
  8
0
 62
7
 10
34.11367188
 20
15.11650000
  0
VERTEX
  8
0
 62
7
 10
34.18612500
 20
15.10625000
  0
VERTEX
  8
0
 62
7
 10
34.25726563
 20
15.08962500
  0
VERTEX
  8
0
 62
7
 10
34.32700000
 20
15.06700000
  0
VERTEX
  8
0
 62
7
 10
34.37627515
 20
15.04718994
  0
VERTEX
  8
0
 62
7
 10
34.42391992
 20
15.02458203
  0
VERTEX
  8
0
 62
7
 10
34.46985083
 20
14.99928467
  0
VERTEX
  8
0
 62
7
 10
34.51398438
 20
14.97140625
  0
VERTEX
  8
0
 62
7
 10
34.55623706
 20
14.94105518
  0
VERTEX
  8
0
 62
7
 10
34.59652539
 20
14.90833984
  0
VERTEX
  8
0
 62
7
 10
34.63476587
 20
14.87336865
  0
VERTEX
  8
0
 62
7
 10
34.67087500
 20
14.83625000
  0
VERTEX
  8
0
 62
7
 10
34.70476929
 20
14.79709229
  0
VERTEX
  8
0
 62
7
 10
34.73636523
 20
14.75600391
  0
VERTEX
  8
0
 62
7
 10
34.76557935
 20
14.71309326
  0
VERTEX
  8
0
 62
7
 10
34.79232813
 20
14.66846875
  0
VERTEX
  8
0
 62
7
 10
34.81652808
 20
14.62223877
  0
VERTEX
  8
0
 62
7
 10
34.83809570
 20
14.57451172
  0
VERTEX
  8
0
 62
7
 10
34.85694751
 20
14.52539600
  0
VERTEX
  8
0
 62
7
 10
34.87300000
 20
14.47500000
  0
VERTEX
  8
0
 62
7
 10
34.92698438
 20
14.50448438
  0
VERTEX
  8
0
 62
7
 10
34.98237500
 20
14.53012500
  0
VERTEX
  8
0
 62
7
 10
35.03907813
 20
14.55220313
  0
VERTEX
  8
0
 62
7
 10
35.09700000
 20
14.57100000
  0
VERTEX
  8
0
 62
7
 10
35.16090625
 20
14.58685938
  0
VERTEX
  8
0
 62
7
 10
35.22500000
 20
14.59737500
  0
VERTEX
  8
0
 62
7
 10
35.28909375
 20
14.60320313
  0
VERTEX
  8
0
 62
7
 10
35.35300000
 20
14.60500000
  0
VERTEX
  8
0
 62
7
 10
35.43182813
 20
14.60254688
  0
VERTEX
  8
0
 62
7
 10
35.51037500
 20
14.59587500
  0
VERTEX
  8
0
 62
7
 10
35.58798438
 20
14.58601563
  0
VERTEX
  8
0
 62
7
 10
35.66400000
 20
14.57400000
  0
VERTEX
  8
0
 62
7
 10
35.75312695
 20
14.55704102
  0
VERTEX
  8
0
 62
7
 10
35.84114063
 20
14.53545313
  0
VERTEX
  8
0
 62
7
 10
35.92786523
 20
14.50929492
  0
VERTEX
  8
0
 62
7
 10
36.01312500
 20
14.47862500
  0
VERTEX
  8
0
 62
7
 10
36.09674414
 20
14.44350195
  0
VERTEX
  8
0
 62
7
 10
36.17854688
 20
14.40398438
  0
VERTEX
  8
0
 62
7
 10
36.25835742
 20
14.36013086
  0
VERTEX
  8
0
 62
7
 10
36.33600000
 20
14.31200000
  0
VERTEX
  8
0
 62
7
 10
36.35600000
 20
14.29900000
  0
VERTEX
  8
0
 62
7
 10
36.35600000
 20
14.27500000
  0
VERTEX
  8
0
 62
7
 10
36.36900000
 20
13.51900000
  0
VERTEX
  8
0
 62
7
 10
36.37000000
 20
13.26900000
  0
VERTEX
  8
0
 62
7
 10
36.37000000
 20
13.00300000
  0
VERTEX
  8
0
 62
7
 10
36.36900000
 20
12.73700000
  0
VERTEX
  8
0
 62
7
 10
36.36951563
 20
12.56226563
  0
VERTEX
  8
0
 62
7
 10
36.37162500
 20
12.38762500
  0
VERTEX
  8
0
 62
7
 10
36.37617188
 20
12.21317188
  0
VERTEX
  8
0
 62
7
 10
36.38400000
 20
12.03900000
  0
VERTEX
  8
0
 62
7
 10
36.40192188
 20
11.75421875
  0
VERTEX
  8
0
 62
7
 10
36.42537500
 20
11.47000000
  0
VERTEX
  8
0
 62
7
 10
36.45389063
 20
11.18653125
  0
VERTEX
  8
0
 62
7
 10
36.48700000
 20
10.90400000
  0
VERTEX
  8
0
 62
7
 10
36.49500000
 20
10.83300000
  0
VERTEX
  8
0
 62
7
 10
36.42800000
 20
10.85500000
  0
VERTEX
  8
0
 62
7
 10
36.32304688
 20
10.88576563
  0
VERTEX
  8
0
 62
7
 10
36.21687500
 20
10.91062500
  0
VERTEX
  8
0
 62
7
 10
36.10976563
 20
10.92967188
  0
VERTEX
  8
0
 62
7
 10
36.00200000
 20
10.94300000
  0
VERTEX
  8
0
 62
7
 10
35.91650000
 20
10.94925000
  0
VERTEX
  8
0
 62
7
 10
35.83100000
 20
10.95100000
  0
VERTEX
  8
0
 62
7
 10
35.70034375
 20
10.94693750
  0
VERTEX
  8
0
 62
7
 10
35.56950000
 20
10.93575000
  0
VERTEX
  8
0
 62
7
 10
35.43865625
 20
10.91893750
  0
VERTEX
  8
0
 62
7
 10
35.30800000
 20
10.89800000
  0
VERTEX
  8
0
 62
7
 10
35.23646875
 20
10.88318750
  0
VERTEX
  8
0
 62
7
 10
35.16550000
 20
10.86500000
  0
VERTEX
  8
0
 62
7
 10
35.09453125
 20
10.84456250
  0
VERTEX
  8
0
 62
7
 10
35.02300000
 20
10.82300000
  0
VERTEX
  8
0
 62
7
 10
34.96034375
 20
10.80346875
  0
VERTEX
  8
0
 62
7
 10
34.89675000
 20
10.78450000
  0
VERTEX
  8
0
 62
7
 10
34.83203125
 20
10.76703125
  0
VERTEX
  8
0
 62
7
 10
34.76600000
 20
10.75200000
  0
VERTEX
  8
0
 62
7
 10
34.70400000
 20
10.73900000
  0
VERTEX
  8
0
 62
7
 10
34.62506250
 20
10.72265625
  0
VERTEX
  8
0
 62
7
 10
34.54425000
 20
10.70800000
  0
VERTEX
  8
0
 62
7
 10
34.45931250
 20
10.69709375
  0
VERTEX
  8
0
 62
7
 10
34.36800000
 20
10.69200000
  0
VERTEX
  8
0
 62
7
 10
34.35000000
 20
10.69200000
  0
VERTEX
  8
0
 62
7
 10
34.30700000
 20
10.69100000
  0
VERTEX
  8
0
 62
7
 10
34.29172485
 20
10.69111792
  0
VERTEX
  8
0
 62
7
 10
34.27564258
 20
10.69156836
  0
VERTEX
  8
0
 62
7
 10
34.25893042
 20
10.69249634
  0
VERTEX
  8
0
 62
7
 10
34.24176563
 20
10.69404688
  0
VERTEX
  8
0
 62
7
 10
34.22432544
 20
10.69636499
  0
VERTEX
  8
0
 62
7
 10
34.20678711
 20
10.69959570
  0
VERTEX
  8
0
 62
7
 10
34.18932788
 20
10.70388403
  0
VERTEX
  8
0
 62
7
 10
34.17212500
 20
10.70937500
  0
VERTEX
  8
0
 62
7
 10
34.15535571
 20
10.71621362
  0
VERTEX
  8
0
 62
7
 10
34.13919727
 20
10.72454492
  0
VERTEX
  8
0
 62
7
 10
34.12382690
 20
10.73451392
  0
VERTEX
  8
0
 62
7
 10
34.10942188
 20
10.74626563
  0
VERTEX
  8
0
 62
7
 10
34.09615942
 20
10.75994507
  0
VERTEX
  8
0
 62
7
 10
34.08421680
 20
10.77569727
  0
VERTEX
  8
0
 62
7
 10
34.07377124
 20
10.79366724
  0
VERTEX
  8
0
 62
7
 10
34.06500000
 20
10.81400000
  0
VERTEX
  8
0
 62
7
 10
34.05687500
 20
10.84350000
  0
VERTEX
  8
0
 62
7
 10
34.05400000
 20
10.87300000
  0
VERTEX
  8
0
 62
7
 10
34.05487500
 20
10.89075000
  0
VERTEX
  8
0
 62
7
 10
34.05800000
 20
10.90700000
  0
VERTEX
  8
0
 62
7
 10
34.03975000
 20
10.98828125
  0
VERTEX
  8
0
 62
7
 10
34.02375000
 20
11.06900000
  0
VERTEX
  8
0
 62
7
 10
34.00962500
 20
11.14971875
  0
VERTEX
  8
0
 62
7
 10
33.99700000
 20
11.23100000
  0
VERTEX
  8
0
 62
7
 10
33.98450000
 20
11.34275000
  0
VERTEX
  8
0
 62
7
 10
33.97500000
 20
11.45300000
  0
VERTEX
  8
0
 62
7
 10
33.97400000
 20
11.46400000
  0
VERTEX
  8
0
 62
7
 10
14.02600000
 20
11.46400000
  0
SEQEND
  0
POLYLINE
  8
0
 62
7
 66
1
 70
1
  0
VERTEX
  8
0
 62
7
 10
12.94300000
 20
11.44500000
  0
VERTEX
  8
0
 62
7
 10
13.11000000
 20
14.38100000
  0
VERTEX
  8
0
 62
7
 10
13.05432813
 20
14.41314063
  0
VERTEX
  8
0
 62
7
 10
12.99687500
 20
14.44087500
  0
VERTEX
  8
0
 62
7
 10
12.93773438
 20
14.46467188
  0
VERTEX
  8
0
 62
7
 10
12.87700000
 20
14.48500000
  0
VERTEX
  8
0
 62
7
 10
12.82095313
 20
14.49896875
  0
VERTEX
  8
0
 62
7
 10
12.76387500
 20
14.50825000
  0
VERTEX
  8
0
 62
7
 10
12.70585938
 20
14.51340625
  0
VERTEX
  8
0
 62
7
 10
12.64700000
 20
14.51500000
  0
VERTEX
  8
0
 62
7
 10
12.57331250
 20
14.51271875
  0
VERTEX
  8
0
 62
7
 10
12.49925000
 20
14.50650000
  0
VERTEX
  8
0
 62
7
 10
12.42481250
 20
14.49728125
  0
VERTEX
  8
0
 62
7
 10
12.35000000
 20
14.48600000
  0
VERTEX
  8
0
 62
7
 10
12.26832422
 20
14.47044336
  0
VERTEX
  8
0
 62
7
 10
12.18765625
 20
14.45079688
  0
VERTEX
  8
0
 62
7
 10
12.10816016
 20
14.42709570
  0
VERTEX
  8
0
 62
7
 10
12.03000000
 20
14.39937500
  0
VERTEX
  8
0
 62
7
 10
11.95333984
 20
14.36766992
  0
VERTEX
  8
0
 62
7
 10
11.87834375
 20
14.33201563
  0
VERTEX
  8
0
 62
7
 10
11.80517578
 20
14.29244727
  0
VERTEX
  8
0
 62
7
 10
11.73400000
 20
14.24900000
  0
VERTEX
  8
0
 62
7
 10
11.72100000
 20
13.51700000
  0
VERTEX
  8
0
 62
7
 10
11.72000000
 20
13.26900000
  0
VERTEX
  8
0
 62
7
 10
11.72000000
 20
13.00300000
  0
VERTEX
  8
0
 62
7
 10
11.72100000
 20
12.73700000
  0
VERTEX
  8
0
 62
7
 10
11.72048438
 20
12.56150000
  0
VERTEX
  8
0
 62
7
 10
11.71837500
 20
12.38600000
  0
VERTEX
  8
0
 62
7
 10
11.71382813
 20
12.21050000
  0
VERTEX
  8
0
 62
7
 10
11.70600000
 20
12.03500000
  0
VERTEX
  8
0
 62
7
 10
11.68918750
 20
11.76537500
  0
VERTEX
  8
0
 62
7
 10
11.66750000
 20
11.49650000
  0
VERTEX
  8
0
 62
7
 10
11.64131250
 20
11.22837500
  0
VERTEX
  8
0
 62
7
 10
11.61100000
 20
10.96100000
  0
VERTEX
  8
0
 62
7
 10
11.70467188
 20
10.98560938
  0
VERTEX
  8
0
 62
7
 10
11.79937500
 20
11.00562500
  0
VERTEX
  8
0
 62
7
 10
11.89464063
 20
11.02132813
  0
VERTEX
  8
0
 62
7
 10
11.99000000
 20
11.03300000
  0
VERTEX
  8
0
 62
7
 10
12.07912500
 20
11.03925000
  0
VERTEX
  8
0
 62
7
 10
12.16900000
 20
11.04100000
  0
VERTEX
  8
0
 62
7
 10
12.23719531
 20
11.03990820
  0
VERTEX
  8
0
 62
7
 10
12.30525000
 20
11.03676563
  0
VERTEX
  8
0
 62
7
 10
12.37311719
 20
11.03177148
  0
VERTEX
  8
0
 62
7
 10
12.44075000
 20
11.02512500
  0
VERTEX
  8
0
 62
7
 10
12.50810156
 20
11.01702539
  0
VERTEX
  8
0
 62
7
 10
12.57512500
 20
11.00767188
  0
VERTEX
  8
0
 62
7
 10
12.64177344
 20
10.99726367
  0
VERTEX
  8
0
 62
7
 10
12.70800000
 20
10.98600000
  0
VERTEX
  8
0
 62
7
 10
12.78376563
 20
10.97087500
  0
VERTEX
  8
0
 62
7
 10
12.85812500
 20
10.95200000
  0
VERTEX
  8
0
 62
7
 10
12.93117188
 20
10.93087500
  0
VERTEX
  8
0
 62
7
 10
13.00300000
 20
10.90900000
  0
VERTEX
  8
0
 62
7
 10
13.06553125
 20
10.88921875
  0
VERTEX
  8
0
 62
7
 10
13.12750000
 20
10.87075000
  0
VERTEX
  8
0
 62
7
 10
13.18946875
 20
10.85415625
  0
VERTEX
  8
0
 62
7
 10
13.25200000
 20
10.84000000
  0
VERTEX
  8
0
 62
7
 10
13.31500000
 20
10.82700000
  0
VERTEX
  8
0
 62
7
 10
13.39268750
 20
10.81054688
  0
VERTEX
  8
0
 62
7
 10
13.47000000
 20
10.79662500
  0
VERTEX
  8
0
 62
7
 10
13.54956250
 20
10.78664063
  0
VERTEX
  8
0
 62
7
 10
13.63400000
 20
10.78200000
  0
VERTEX
  8
0
 62
7
 10
13.65200000
 20
10.78200000
  0
VERTEX
  8
0
 62
7
 10
13.69300000
 20
10.78100000
  0
VERTEX
  8
0
 62
7
 10
13.72370117
 20
10.78166016
  0
VERTEX
  8
0
 62
7
 10
13.75129688
 20
10.78384375
  0
VERTEX
  8
0
 62
7
 10
13.77577539
 20
10.78785547
  0
VERTEX
  8
0
 62
7
 10
13.79712500
 20
10.79400000
  0
VERTEX
  8
0
 62
7
 10
13.81533398
 20
10.80258203
  0
VERTEX
  8
0
 62
7
 10
13.83039063
 20
10.81390625
  0
VERTEX
  8
0
 62
7
 10
13.84228320
 20
10.82827734
  0
VERTEX
  8
0
 62
7
 10
13.85100000
 20
10.84600000
  0
VERTEX
  8
0
 62
7
 10
13.85600000
 20
10.87300000
  0
VERTEX
  8
0
 62
7
 10
13.85477148
 20
10.88511133
  0
VERTEX
  8
0
 62
7
 10
13.85104688
 20
10.89732813
  0
VERTEX
  8
0
 62
7
 10
13.84476758
 20
10.90947461
  0
VERTEX
  8
0
 62
7
 10
13.83587500
 20
10.92137500
  0
VERTEX
  8
0
 62
7
 10
13.82431055
 20
10.93285352
  0
VERTEX
  8
0
 62
7
 10
13.81001563
 20
10.94373438
  0
VERTEX
  8
0
 62
7
 10
13.79293164
 20
10.95384180
  0
VERTEX
  8
0
 62
7
 10
13.77300000
 20
10.96300000
  0
VERTEX
  8
0
 62
7
 10
13.72381250
 20
10.98171875
  0
VERTEX
  8
0
 62
7
 10
13.67500000
 20
10.99800000
  0
VERTEX
  8
0
 62
7
 10
13.62618750
 20
11.01278125
  0
VERTEX
  8
0
 62
7
 10
13.57700000
 20
11.02700000
  0
VERTEX
  8
0
 62
7
 10
13.50125000
 20
11.04912500
  0
VERTEX
  8
0
 62
7
 10
13.42400000
 20
11.07500000
  0
VERTEX
  8
0
 62
7
 10
13.31500000
 20
11.10700000
  0
VERTEX
  8
0
 62
7
 10
13.28324023
 20
11.11545117
  0
VERTEX
  8
0
 62
7
 10
13.25048438
 20
11.12454688
  0
VERTEX
  8
0
 62
7
 10
13.21714258
 20
11.13465039
  0
VERTEX
  8
0
 62
7
 10
13.18362500
 20
11.14612500
  0
VERTEX
  8
0
 62
7
 10
13.15034180
 20
11.15933398
  0
VERTEX
  8
0
 62
7
 10
13.11770313
 20
11.17464063
  0
VERTEX
  8
0
 62
7
 10
13.08611914
 20
11.19240820
  0
VERTEX
  8
0
 62
7
 10
13.05600000
 20
11.21300000
  0
VERTEX
  8
0
 62
7
 10
13.02998047
 20
11.23498633
  0
VERTEX
  8
0
 62
7
 10
13.00684375
 20
11.25951563
  0
VERTEX
  8
0
 62
7
 10
12.98684766
 20
11.28631836
  0
VERTEX
  8
0
 62
7
 10
12.97025000
 20
11.31512500
  0
VERTEX
  8
0
 62
7
 10
12.95730859
 20
11.34566602
  0
VERTEX
  8
0
 62
7
 10
12.94828125
 20
11.37767188
  0
VERTEX
  8
0
 62
7
 10
12.94342578
 20
11.41087305
  0
VERTEX
  8
0
 62
7
 10
12.94300000
 20
11.44500000
  0
SEQEND
  0
POLYLINE
  8
0
 62
7
 66
1
 70
1
  0
VERTEX
  8
0
 62
7
 10
13.87300000
 20
11.00900000
  0
VERTEX
  8
0
 62
7
 10
13.89487500
 20
11.12525000
  0
VERTEX
  8
0
 62
7
 10
13.91300000
 20
11.24300000
  0
VERTEX
  8
0
 62
7
 10
13.92587500
 20
11.35112500
  0
VERTEX
  8
0
 62
7
 10
13.93500000
 20
11.46000000
  0
VERTEX
  8
0
 62
7
 10
13.93500000
 20
11.46400000
  0
VERTEX
  8
0
 62
7
 10
13.76000000
 20
11.46900000
  0
VERTEX
  8
0
 62
7
 10
13.65000000
 20
11.47312500
  0
VERTEX
  8
0
 62
7
 10
13.54000000
 20
11.47500000
  0
VERTEX
  8
0
 62
7
 10
13.47900000
 20
11.47400000
  0
VERTEX
  8
0
 62
7
 10
13.42800000
 20
11.47300000
  0
VERTEX
  8
0
 62
7
 10
13.36681250
 20
11.47198438
  0
VERTEX
  8
0
 62
7
 10
13.30750000
 20
11.46937500
  0
VERTEX
  8
0
 62
7
 10
13.24968750
 20
11.46357813
  0
VERTEX
  8
0
 62
7
 10
13.19300000
 20
11.45300000
  0
VERTEX
  8
0
 62
7
 10
13.11775000
 20
11.43187500
  0
VERTEX
  8
0
 62
7
 10
13.04400000
 20
11.40400000
  0
VERTEX
  8
0
 62
7
 10
13.05740625
 20
11.36557813
  0
VERTEX
  8
0
 62
7
 10
13.07175000
 20
11.33287500
  0
VERTEX
  8
0
 62
7
 10
13.08871875
 20
11.30598438
  0
VERTEX
  8
0
 62
7
 10
13.11000000
 20
11.28500000
  0
VERTEX
  8
0
 62
7
 10
13.13407227
 20
11.26882617
  0
VERTEX
  8
0
 62
7
 10
13.15970313
 20
11.25460938
  0
VERTEX
  8
0
 62
7
 10
13.18676367
 20
11.24205664
  0
VERTEX
  8
0
 62
7
 10
13.21512500
 20
11.23087500
  0
VERTEX
  8
0
 62
7
 10
13.24465820
 20
11.22077148
  0
VERTEX
  8
0
 62
7
 10
13.27523438
 20
11.21145313
  0
VERTEX
  8
0
 62
7
 10
13.30672461
 20
11.20262695
  0
VERTEX
  8
0
 62
7
 10
13.33900000
 20
11.19400000
  0
VERTEX
  8
0
 62
7
 10
13.39687500
 20
11.17762500
  0
VERTEX
  8
0
 62
7
 10
13.45400000
 20
11.15900000
  0
VERTEX
  8
0
 62
7
 10
13.52762500
 20
11.13537500
  0
VERTEX
  8
0
 62
7
 10
13.60200000
 20
11.11400000
  0
VERTEX
  8
0
 62
7
 10
13.70225000
 20
11.08387500
  0
VERTEX
  8
0
 62
7
 10
13.80700000
 20
11.04700000
  0
VERTEX
  8
0
 62
7
 10
13.84112500
 20
11.03025000
  0
VERTEX
  8
0
 62
7
 10
13.87300000
 20
11.00900000
  0
SEQEND
  0
ENDSEC
  0
EOF
