  0
SECTION
  2
ENTITIES
  0
POLYLINE
  8
0
 62
7
 66
1
 70
1
  0
VERTEX
  8
0
 62
7
 10
17.00000000
 20
0.000
  0
VERTEX
  8
0
 62
7
 10
33.99000000
 20
0.000
  0
VERTEX
  8
0
 62
7
 10
33.99064850
 20
.50374600
  0
VERTEX
  8
0
 62
7
 10
33.99225830
 20
1.02996802
  0
VERTEX
  8
0
 62
7
 10
33.99432587
 20
1.57770456
  0
VERTEX
  8
0
 62
7
 10
33.99634766
 20
2.14599414
  0
VERTEX
  8
0
 62
7
 10
33.99782013
 20
2.73387527
  0
VERTEX
  8
0
 62
7
 10
33.99823975
 20
3.34038647
  0
VERTEX
  8
0
 62
7
 10
33.99710297
 20
3.96456625
  0
VERTEX
  8
0
 62
7
 10
33.99390625
 20
4.60545313
  0
VERTEX
  8
0
 62
7
 10
33.98814606
 20
5.26208560
  0
VERTEX
  8
0
 62
7
 10
33.97931885
 20
5.93350220
  0
VERTEX
  8
0
 62
7
 10
33.96692108
 20
6.61874142
  0
VERTEX
  8
0
 62
7
 10
33.95044922
 20
7.31684180
  0
VERTEX
  8
0
 62
7
 10
33.92939972
 20
8.02684183
  0
VERTEX
  8
0
 62
7
 10
33.90326904
 20
8.74778003
  0
VERTEX
  8
0
 62
7
 10
33.87155365
 20
9.47869492
  0
VERTEX
  8
0
 62
7
 10
33.83375000
 20
10.21862500
  0
VERTEX
  8
0
 62
7
 10
33.78935455
 20
10.96660880
  0
VERTEX
  8
0
 62
7
 10
33.73786377
 20
11.72168481
  0
VERTEX
  8
0
 62
7
 10
33.67877411
 20
12.48289157
  0
VERTEX
  8
0
 62
7
 10
33.61158203
 20
13.24926758
  0
VERTEX
  8
0
 62
7
 10
33.53578400
 20
14.01985135
  0
VERTEX
  8
0
 62
7
 10
33.45087646
 20
14.79368140
  0
VERTEX
  8
0
 62
7
 10
33.35635590
 20
15.56979623
  0
VERTEX
  8
0
 62
7
 10
33.25171875
 20
16.34723438
  0
VERTEX
  8
0
 62
7
 10
33.13646149
 20
17.12503433
  0
VERTEX
  8
0
 62
7
 10
33.01008057
 20
17.90223462
  0
VERTEX
  8
0
 62
7
 10
32.87207245
 20
18.67787375
  0
VERTEX
  8
0
 62
7
 10
32.72193359
 20
19.45099023
  0
VERTEX
  8
0
 62
7
 10
32.55916046
 20
20.22062259
  0
VERTEX
  8
0
 62
7
 10
32.38324951
 20
20.98580933
  0
VERTEX
  8
0
 62
7
 10
32.19369720
 20
21.74558896
  0
VERTEX
  8
0
 62
7
 10
31.99000000
 20
22.49900000
  0
VERTEX
  8
0
 62
7
 10
31.50738965
 20
22.50200562
  0
VERTEX
  8
0
 62
7
 10
31.02636719
 20
22.51099805
  0
VERTEX
  8
0
 62
7
 10
30.54702051
 20
22.52594067
  0
VERTEX
  8
0
 62
7
 10
30.06943750
 20
22.54679688
  0
VERTEX
  8
0
 62
7
 10
29.59370605
 20
22.57353003
  0
VERTEX
  8
0
 62
7
 10
29.11991406
 20
22.60610352
  0
VERTEX
  8
0
 62
7
 10
28.64814941
 20
22.64448071
  0
VERTEX
  8
0
 62
7
 10
28.17850000
 20
22.68862500
  0
VERTEX
  8
0
 62
7
 10
27.71105371
 20
22.73849976
  0
VERTEX
  8
0
 62
7
 10
27.24589844
 20
22.79406836
  0
VERTEX
  8
0
 62
7
 10
26.78312207
 20
22.85529419
  0
VERTEX
  8
0
 62
7
 10
26.32281250
 20
22.92214063
  0
VERTEX
  8
0
 62
7
 10
25.86505762
 20
22.99457104
  0
VERTEX
  8
0
 62
7
 10
25.40994531
 20
23.07254883
  0
VERTEX
  8
0
 62
7
 10
24.95756348
 20
23.15603735
  0
VERTEX
  8
0
 62
7
 10
24.50800000
 20
23.24500000
  0
VERTEX
  8
0
 62
7
 10
24.05860840
 20
23.33405249
  0
VERTEX
  8
0
 62
7
 10
23.60602344
 20
23.41779492
  0
VERTEX
  8
0
 62
7
 10
23.15037988
 20
23.49616724
  0
VERTEX
  8
0
 62
7
 10
22.69181250
 20
23.56910938
  0
VERTEX
  8
0
 62
7
 10
22.23045605
 20
23.63656128
  0
VERTEX
  8
0
 62
7
 10
21.76644531
 20
23.69846289
  0
VERTEX
  8
0
 62
7
 10
21.29991504
 20
23.75475415
  0
VERTEX
  8
0
 62
7
 10
20.83100000
 20
23.80537500
  0
VERTEX
  8
0
 62
7
 10
20.35983496
 20
23.85026538
  0
VERTEX
  8
0
 62
7
 10
19.88655469
 20
23.88936523
  0
VERTEX
  8
0
 62
7
 10
19.41129395
 20
23.92261450
  0
VERTEX
  8
0
 62
7
 10
18.93418750
 20
23.94995313
  0
VERTEX
  8
0
 62
7
 10
18.45537012
 20
23.97132104
  0
VERTEX
  8
0
 62
7
 10
17.97497656
 20
23.98665820
  0
VERTEX
  8
0
 62
7
 10
17.49314160
 20
23.99590454
  0
VERTEX
  8
0
 62
7
 10
17.01000000
 20
23.99900000
  0
VERTEX
  8
0
 62
7
 10
16.52663379
 20
23.99590454
  0
VERTEX
  8
0
 62
7
 10
16.04416406
 20
23.98665820
  0
VERTEX
  8
0
 62
7
 10
15.56278418
 20
23.97132104
  0
VERTEX
  8
0
 62
7
 10
15.08268750
 20
23.94995313
  0
VERTEX
  8
0
 62
7
 10
14.60406738
 20
23.92261450
  0
VERTEX
  8
0
 62
7
 10
14.12711719
 20
23.88936523
  0
VERTEX
  8
0
 62
7
 10
13.65203027
 20
23.85026538
  0
VERTEX
  8
0
 62
7
 10
13.17900000
 20
23.80537500
  0
VERTEX
  8
0
 62
7
 10
12.70821973
 20
23.75475415
  0
VERTEX
  8
0
 62
7
 10
12.23988281
 20
23.69846289
  0
VERTEX
  8
0
 62
7
 10
11.77418262
 20
23.63656128
  0
VERTEX
  8
0
 62
7
 10
11.31131250
 20
23.56910938
  0
VERTEX
  8
0
 62
7
 10
10.85146582
 20
23.49616724
  0
VERTEX
  8
0
 62
7
 10
10.39483594
 20
23.41779492
  0
VERTEX
  8
0
 62
7
 10
9.94161621
 20
23.33405249
  0
VERTEX
  8
0
 62
7
 10
9.49200000
 20
23.24500000
  0
VERTEX
  8
0
 62
7
 10
9.04243652
 20
23.15603735
  0
VERTEX
  8
0
 62
7
 10
8.59005469
 20
23.07254883
  0
VERTEX
  8
0
 62
7
 10
8.13494238
 20
22.99457104
  0
VERTEX
  8
0
 62
7
 10
7.67718750
 20
22.92214063
  0
VERTEX
  8
0
 62
7
 10
7.21687793
 20
22.85529419
  0
VERTEX
  8
0
 62
7
 10
6.75410156
 20
22.79406836
  0
VERTEX
  8
0
 62
7
 10
6.28894629
 20
22.73849976
  0
VERTEX
  8
0
 62
7
 10
5.82150000
 20
22.68862500
  0
VERTEX
  8
0
 62
7
 10
5.35185059
 20
22.64448071
  0
VERTEX
  8
0
 62
7
 10
4.88008594
 20
22.60610352
  0
VERTEX
  8
0
 62
7
 10
4.40629395
 20
22.57353003
  0
VERTEX
  8
0
 62
7
 10
3.93056250
 20
22.54679688
  0
VERTEX
  8
0
 62
7
 10
3.45297949
 20
22.52594067
  0
VERTEX
  8
0
 62
7
 10
2.97363281
 20
22.51099805
  0
VERTEX
  8
0
 62
7
 10
2.49261035
 20
22.50200562
  0
VERTEX
  8
0
 62
7
 10
2.01000000
 20
22.49900000
  0
VERTEX
  8
0
 62
7
 10
1.80630280
 20
21.74558896
  0
VERTEX
  8
0
 62
7
 10
1.61675049
 20
20.98580933
  0
VERTEX
  8
0
 62
7
 10
1.44083954
 20
20.22062259
  0
VERTEX
  8
0
 62
7
 10
1.27806641
 20
19.45099023
  0
VERTEX
  8
0
 62
7
 10
1.12792755
 20
18.67787375
  0
VERTEX
  8
0
 62
7
 10
.98991943
 20
17.90223462
  0
VERTEX
  8
0
 62
7
 10
.86353851
 20
17.12503433
  0
VERTEX
  8
0
 62
7
 10
.74828125
 20
16.34723438
  0
VERTEX
  8
0
 62
7
 10
.64364410
 20
15.56979623
  0
VERTEX
  8
0
 62
7
 10
.54912354
 20
14.79368140
  0
VERTEX
  8
0
 62
7
 10
.46421600
 20
14.01985135
  0
VERTEX
  8
0
 62
7
 10
.38841797
 20
13.24926758
  0
VERTEX
  8
0
 62
7
 10
.32122589
 20
12.48289157
  0
VERTEX
  8
0
 62
7
 10
.26213623
 20
11.72168481
  0
VERTEX
  8
0
 62
7
 10
.21064545
 20
10.96660880
  0
VERTEX
  8
0
 62
7
 10
.16625000
 20
10.21862500
  0
VERTEX
  8
0
 62
7
 10
.12844635
 20
9.47869492
  0
VERTEX
  8
0
 62
7
 10
.09673096
 20
8.74778003
  0
VERTEX
  8
0
 62
7
 10
.07060028
 20
8.02684183
  0
VERTEX
  8
0
 62
7
 10
.04955078
 20
7.31684180
  0
VERTEX
  8
0
 62
7
 10
.03307892
 20
6.61874142
  0
VERTEX
  8
0
 62
7
 10
.02068115
 20
5.93350220
  0
VERTEX
  8
0
 62
7
 10
.01185394
 20
5.26208560
  0
VERTEX
  8
0
 62
7
 10
.00609375
 20
4.60545313
  0
VERTEX
  8
0
 62
7
 10
.00289703
 20
3.96456625
  0
VERTEX
  8
0
 62
7
 10
.00176025
 20
3.34038647
  0
VERTEX
  8
0
 62
7
 10
.00217987
 20
2.73387527
  0
VERTEX
  8
0
 62
7
 10
.00365234
 20
2.14599414
  0
VERTEX
  8
0
 62
7
 10
.00567413
 20
1.57770456
  0
VERTEX
  8
0
 62
7
 10
.00774170
 20
1.02996802
  0
VERTEX
  8
0
 62
7
 10
.00935150
 20
.50374600
  0
VERTEX
  8
0
 62
7
 10
.01000000
 20
0.000
  0
VERTEX
  8
0
 62
7
 10
17.00000000
 20
0.000
  0
SEQEND
  0
POLYLINE
  8
0
 62
7
 66
1
 70
1
  0
VERTEX
  8
0
 62
7
 10
17.35500000
 20
.04000000
  0
VERTEX
  8
0
 62
7
 10
17.35500000
 20
10.74200000
  0
VERTEX
  8
0
 62
7
 10
17.35400000
 20
10.83200000
  0
VERTEX
  8
0
 62
7
 10
17.35300000
 20
10.95100000
  0
VERTEX
  8
0
 62
7
 10
17.35400000
 20
11.07200000
  0
VERTEX
  8
0
 62
7
 10
17.39679688
 20
11.01910938
  0
VERTEX
  8
0
 62
7
 10
17.44587500
 20
10.97287500
  0
VERTEX
  8
0
 62
7
 10
17.49926563
 20
10.93320313
  0
VERTEX
  8
0
 62
7
 10
17.55500000
 20
10.90000000
  0
VERTEX
  8
0
 62
7
 10
17.60875000
 20
10.87548438
  0
VERTEX
  8
0
 62
7
 10
17.66475000
 20
10.85762500
  0
VERTEX
  8
0
 62
7
 10
17.72262500
 20
10.84670313
  0
VERTEX
  8
0
 62
7
 10
17.78200000
 20
10.84300000
  0
VERTEX
  8
0
 62
7
 10
17.80760156
 20
10.84622070
  0
VERTEX
  8
0
 62
7
 10
17.83118750
 20
10.85526563
  0
VERTEX
  8
0
 62
7
 10
17.85167969
 20
10.86920898
  0
VERTEX
  8
0
 62
7
 10
17.86800000
 20
10.88712500
  0
VERTEX
  8
0
 62
7
 10
17.87907031
 20
10.90808789
  0
VERTEX
  8
0
 62
7
 10
17.88381250
 20
10.93117188
  0
VERTEX
  8
0
 62
7
 10
17.88114844
 20
10.95545117
  0
VERTEX
  8
0
 62
7
 10
17.87000000
 20
10.98000000
  0
VERTEX
  8
0
 62
7
 10
17.86285938
 20
10.99325000
  0
VERTEX
  8
0
 62
7
 10
17.85787500
 20
11.00725000
  0
VERTEX
  8
0
 62
7
 10
17.85495313
 20
11.02162500
  0
VERTEX
  8
0
 62
7
 10
17.85400000
 20
11.03600000
  0
VERTEX
  8
0
 62
7
 10
17.85625000
 20
11.05895313
  0
VERTEX
  8
0
 62
7
 10
17.86300000
 20
11.08087500
  0
VERTEX
  8
0
 62
7
 10
17.87425000
 20
11.10110938
  0
VERTEX
  8
0
 62
7
 10
17.89000000
 20
11.11900000
  0
VERTEX
  8
0
 62
7
 10
17.89990625
 20
11.12587500
  0
VERTEX
  8
0
 62
7
 10
17.91450000
 20
11.13200000
  0
VERTEX
  8
0
 62
7
 10
17.93584375
 20
11.13812500
  0
VERTEX
  8
0
 62
7
 10
17.96600000
 20
11.14500000
  0
VERTEX
  8
0
 62
7
 10
17.99000000
 20
11.15000000
  0
VERTEX
  8
0
 62
7
 10
18.01887500
 20
11.15625000
  0
VERTEX
  8
0
 62
7
 10
18.04850000
 20
11.16025000
  0
VERTEX
  8
0
 62
7
 10
18.07887500
 20
11.16237500
  0
VERTEX
  8
0
 62
7
 10
18.11000000
 20
11.16300000
  0
VERTEX
  8
0
 62
7
 10
18.16050000
 20
11.16162500
  0
VERTEX
  8
0
 62
7
 10
18.21400000
 20
11.15800000
  0
VERTEX
  8
0
 62
7
 10
18.31200000
 20
11.15100000
  0
VERTEX
  8
0
 62
7
 10
18.43887500
 20
11.14125000
  0
VERTEX
  8
0
 62
7
 10
18.56800000
 20
11.13600000
  0
VERTEX
  8
0
 62
7
 10
18.62300000
 20
11.13600000
  0
VERTEX
  8
0
 62
7
 10
18.71126563
 20
11.13700000
  0
VERTEX
  8
0
 62
7
 10
18.80037500
 20
11.14025000
  0
VERTEX
  8
0
 62
7
 10
18.89004688
 20
11.14612500
  0
VERTEX
  8
0
 62
7
 10
18.98000000
 20
11.15500000
  0
VERTEX
  8
0
 62
7
 10
18.99100000
 20
11.15600000
  0
VERTEX
  8
0
 62
7
 10
19.07350000
 20
11.16607813
  0
VERTEX
  8
0
 62
7
 10
19.15825000
 20
11.17812500
  0
VERTEX
  8
0
 62
7
 10
19.24412500
 20
11.19410938
  0
VERTEX
  8
0
 62
7
 10
19.33000000
 20
11.21600000
  0
VERTEX
  8
0
 62
7
 10
19.39793750
 20
11.23596875
  0
VERTEX
  8
0
 62
7
 10
19.46850000
 20
11.25950000
  0
VERTEX
  8
0
 62
7
 10
19.53981250
 20
11.28828125
  0
VERTEX
  8
0
 62
7
 10
19.61000000
 20
11.32400000
  0
VERTEX
  8
0
 62
7
 10
19.65145313
 20
11.34996875
  0
VERTEX
  8
0
 62
7
 10
19.69037500
 20
11.37800000
  0
VERTEX
  8
0
 62
7
 10
19.72685938
 20
11.40753125
  0
VERTEX
  8
0
 62
7
 10
19.76100000
 20
11.43800000
  0
VERTEX
  8
0
 62
7
 10
19.79862500
 20
11.38956250
  0
VERTEX
  8
0
 62
7
 10
19.84225000
 20
11.34675000
  0
VERTEX
  8
0
 62
7
 10
19.89150000
 20
11.31031250
  0
VERTEX
  8
0
 62
7
 10
19.94600000
 20
11.28100000
  0
VERTEX
  8
0
 62
7
 10
19.99126563
 20
11.26335938
  0
VERTEX
  8
0
 62
7
 10
20.03812500
 20
11.25087500
  0
VERTEX
  8
0
 62
7
 10
20.08592188
 20
11.24345313
  0
VERTEX
  8
0
 62
7
 10
20.13400000
 20
11.24100000
  0
VERTEX
  8
0
 62
7
 10
20.16537500
 20
11.24187500
  0
VERTEX
  8
0
 62
7
 10
20.19600000
 20
11.24500000
  0
VERTEX
  8
0
 62
7
 10
20.23387500
 20
11.25037500
  0
VERTEX
  8
0
 62
7
 10
20.27100000
 20
11.25800000
  0
VERTEX
  8
0
 62
7
 10
20.29800000
 20
11.19800000
  0
VERTEX
  8
0
 62
7
 10
20.31900000
 20
11.15300000
  0
VERTEX
  8
0
 62
7
 10
20.36900000
 20
11.14700000
  0
VERTEX
  8
0
 62
7
 10
20.40137500
 20
11.14387500
  0
VERTEX
  8
0
 62
7
 10
20.43300000
 20
11.14300000
  0
VERTEX
  8
0
 62
7
 10
20.47172656
 20
11.14460938
  0
VERTEX
  8
0
 62
7
 10
20.50843750
 20
11.14931250
  0
VERTEX
  8
0
 62
7
 10
20.54317969
 20
11.15692188
  0
VERTEX
  8
0
 62
7
 10
20.57600000
 20
11.16725000
  0
VERTEX
  8
0
 62
7
 10
20.60694531
 20
11.18010938
  0
VERTEX
  8
0
 62
7
 10
20.63606250
 20
11.19531250
  0
VERTEX
  8
0
 62
7
 10
20.66339844
 20
11.21267188
  0
VERTEX
  8
0
 62
7
 10
20.68900000
 20
11.23200000
  0
VERTEX
  8
0
 62
7
 10
20.69600000
 20
11.22900000
  0
VERTEX
  8
0
 62
7
 10
20.75962500
 20
11.20275000
  0
VERTEX
  8
0
 62
7
 10
20.82400000
 20
11.17200000
  0
VERTEX
  8
0
 62
7
 10
20.88187500
 20
11.14150000
  0
VERTEX
  8
0
 62
7
 10
20.93900000
 20
11.10800000
  0
VERTEX
  8
0
 62
7
 10
20.95919922
 20
11.09867383
  0
VERTEX
  8
0
 62
7
 10
20.98021875
 20
11.09451563
  0
VERTEX
  8
0
 62
7
 10
21.00119141
 20
11.09525586
  0
VERTEX
  8
0
 62
7
 10
21.02125000
 20
11.10062500
  0
VERTEX
  8
0
 62
7
 10
21.03952734
 20
11.11035352
  0
VERTEX
  8
0
 62
7
 10
21.05515625
 20
11.12417188
  0
VERTEX
  8
0
 62
7
 10
21.06726953
 20
11.14181055
  0
VERTEX
  8
0
 62
7
 10
21.07500000
 20
11.16300000
  0
VERTEX
  8
0
 62
7
 10
21.09825000
 20
11.25487500
  0
VERTEX
  8
0
 62
7
 10
21.12600000
 20
11.34600000
  0
VERTEX
  8
0
 62
7
 10
21.15900000
 20
11.44000000
  0
VERTEX
  8
0
 62
7
 10
21.19150000
 20
11.44087500
  0
VERTEX
  8
0
 62
7
 10
21.22400000
 20
11.44400000
  0
VERTEX
  8
0
 62
7
 10
21.27551563
 20
11.45195313
  0
VERTEX
  8
0
 62
7
 10
21.32637500
 20
11.46412500
  0
VERTEX
  8
0
 62
7
 10
21.37629688
 20
11.48098438
  0
VERTEX
  8
0
 62
7
 10
21.42500000
 20
11.50300000
  0
VERTEX
  8
0
 62
7
 10
21.49900000
 20
11.54100000
  0
VERTEX
  8
0
 62
7
 10
21.47100000
 20
11.60700000
  0
VERTEX
  8
0
 62
7
 10
21.51532813
 20
11.62339063
  0
VERTEX
  8
0
 62
7
 10
21.55787500
 20
11.64437500
  0
VERTEX
  8
0
 62
7
 10
21.59798438
 20
11.67042188
  0
VERTEX
  8
0
 62
7
 10
21.63500000
 20
11.70200000
  0
VERTEX
  8
0
 62
7
 10
21.65969141
 20
11.72906250
  0
VERTEX
  8
0
 62
7
 10
21.68065625
 20
11.75818750
  0
VERTEX
  8
0
 62
7
 10
21.69810547
 20
11.78890625
  0
VERTEX
  8
0
 62
7
 10
21.71225000
 20
11.82075000
  0
VERTEX
  8
0
 62
7
 10
21.72330078
 20
11.85325000
  0
VERTEX
  8
0
 62
7
 10
21.73146875
 20
11.88593750
  0
VERTEX
  8
0
 62
7
 10
21.73696484
 20
11.91834375
  0
VERTEX
  8
0
 62
7
 10
21.74000000
 20
11.95000000
  0
VERTEX
  8
0
 62
7
 10
21.74100000
 20
11.98600000
  0
VERTEX
  8
0
 62
7
 10
21.73900000
 20
12.02400000
  0
VERTEX
  8
0
 62
7
 10
21.87796875
 20
12.03381250
  0
VERTEX
  8
0
 62
7
 10
22.01600000
 20
12.04850000
  0
VERTEX
  8
0
 62
7
 10
22.15328125
 20
12.06843750
  0
VERTEX
  8
0
 62
7
 10
22.29000000
 20
12.09400000
  0
VERTEX
  8
0
 62
7
 10
22.39112109
 20
12.11750195
  0
VERTEX
  8
0
 62
7
 10
22.49053125
 20
12.14551563
  0
VERTEX
  8
0
 62
7
 10
22.58830078
 20
12.17730273
  0
VERTEX
  8
0
 62
7
 10
22.68450000
 20
12.21212500
  0
VERTEX
  8
0
 62
7
 10
22.77919922
 20
12.24924414
  0
VERTEX
  8
0
 62
7
 10
22.87246875
 20
12.28792188
  0
VERTEX
  8
0
 62
7
 10
22.96437891
 20
12.32741992
  0
VERTEX
  8
0
 62
7
 10
23.05500000
 20
12.36700000
  0
VERTEX
  8
0
 62
7
 10
23.11700000
 20
12.39500000
  0
VERTEX
  8
0
 62
7
 10
23.14000000
 20
12.40500000
  0
VERTEX
  8
0
 62
7
 10
23.18837500
 20
12.42562500
  0
VERTEX
  8
0
 62
7
 10
23.23000000
 20
12.43800000
  0
VERTEX
  8
0
 62
7
 10
23.24100000
 20
12.44000000
  0
VERTEX
  8
0
 62
7
 10
23.27262500
 20
12.44537500
  0
VERTEX
  8
0
 62
7
 10
23.29600000
 20
12.44700000
  0
VERTEX
  8
0
 62
7
 10
23.31400000
 20
12.44500000
  0
VERTEX
  8
0
 62
7
 10
23.32850000
 20
12.43500000
  0
VERTEX
  8
0
 62
7
 10
23.34300000
 20
12.41600000
  0
VERTEX
  8
0
 62
7
 10
23.34887500
 20
12.40112500
  0
VERTEX
  8
0
 62
7
 10
23.35100000
 20
12.38400000
  0
VERTEX
  8
0
 62
7
 10
23.35000000
 20
12.37800000
  0
VERTEX
  8
0
 62
7
 10
23.34343555
 20
12.35811914
  0
VERTEX
  8
0
 62
7
 10
23.34398438
 20
12.33989063
  0
VERTEX
  8
0
 62
7
 10
23.35050977
 20
12.32356055
  0
VERTEX
  8
0
 62
7
 10
23.36187500
 20
12.30937500
  0
VERTEX
  8
0
 62
7
 10
23.37694336
 20
12.29758008
  0
VERTEX
  8
0
 62
7
 10
23.39457813
 20
12.28842188
  0
VERTEX
  8
0
 62
7
 10
23.41364258
 20
12.28214648
  0
VERTEX
  8
0
 62
7
 10
23.43300000
 20
12.27900000
  0
VERTEX
  8
0
 62
7
 10
23.47500000
 20
12.27800000
  0
VERTEX
  8
0
 62
7
 10
23.51014063
 20
12.27917383
  0
VERTEX
  8
0
 62
7
 10
23.54500000
 20
12.28270313
  0
VERTEX
  8
0
 62
7
 10
23.57948438
 20
12.28859961
  0
VERTEX
  8
0
 62
7
 10
23.61350000
 20
12.29687500
  0
VERTEX
  8
0
 62
7
 10
23.64695313
 20
12.30754102
  0
VERTEX
  8
0
 62
7
 10
23.67975000
 20
12.32060938
  0
VERTEX
  8
0
 62
7
 10
23.71179688
 20
12.33609180
  0
VERTEX
  8
0
 62
7
 10
23.74300000
 20
12.35400000
  0
VERTEX
  8
0
 62
7
 10
23.77914063
 20
12.37870117
  0
VERTEX
  8
0
 62
7
 10
23.81256250
 20
12.40610938
  0
VERTEX
  8
0
 62
7
 10
23.84326563
 20
12.43593164
  0
VERTEX
  8
0
 62
7
 10
23.87125000
 20
12.46787500
  0
VERTEX
  8
0
 62
7
 10
23.89651563
 20
12.50164648
  0
VERTEX
  8
0
 62
7
 10
23.91906250
 20
12.53695313
  0
VERTEX
  8
0
 62
7
 10
23.93889063
 20
12.57350195
  0
VERTEX
  8
0
 62
7
 10
23.95600000
 20
12.61100000
  0
VERTEX
  8
0
 62
7
 10
23.97642188
 20
12.66793750
  0
VERTEX
  8
0
 62
7
 10
23.99112500
 20
12.72600000
  0
VERTEX
  8
0
 62
7
 10
24.00001563
 20
12.78481250
  0
VERTEX
  8
0
 62
7
 10
24.00300000
 20
12.84400000
  0
VERTEX
  8
0
 62
7
 10
24.00153125
 20
12.88506250
  0
VERTEX
  8
0
 62
7
 10
23.99725000
 20
12.92575000
  0
VERTEX
  8
0
 62
7
 10
23.99034375
 20
12.96606250
  0
VERTEX
  8
0
 62
7
 10
23.98100000
 20
13.00600000
  0
VERTEX
  8
0
 62
7
 10
23.96940234
 20
13.04332422
  0
VERTEX
  8
0
 62
7
 10
23.95553125
 20
13.08015625
  0
VERTEX
  8
0
 62
7
 10
23.93926953
 20
13.11628516
  0
VERTEX
  8
0
 62
7
 10
23.92050000
 20
13.15150000
  0
VERTEX
  8
0
 62
7
 10
23.89910547
 20
13.18558984
  0
VERTEX
  8
0
 62
7
 10
23.87496875
 20
13.21834375
  0
VERTEX
  8
0
 62
7
 10
23.84797266
 20
13.24955078
  0
VERTEX
  8
0
 62
7
 10
23.81800000
 20
13.27900000
  0
VERTEX
  8
0
 62
7
 10
23.76500000
 20
13.32000000
  0
VERTEX
  8
0
 62
7
 10
29.54300000
 20
13.32000000
  0
VERTEX
  8
0
 62
7
 10
30.02700000
 20
13.32000000
  0
VERTEX
  8
0
 62
7
 10
29.96800000
 20
13.80100000
  0
VERTEX
  8
0
 62
7
 10
29.90598438
 20
14.30370313
  0
VERTEX
  8
0
 62
7
 10
29.84143750
 20
14.80668750
  0
VERTEX
  8
0
 62
7
 10
29.77435938
 20
15.30976563
  0
VERTEX
  8
0
 62
7
 10
29.70475000
 20
15.81275000
  0
VERTEX
  8
0
 62
7
 10
29.63260938
 20
16.31545313
  0
VERTEX
  8
0
 62
7
 10
29.55793750
 20
16.81768750
  0
VERTEX
  8
0
 62
7
 10
29.48073438
 20
17.31926563
  0
VERTEX
  8
0
 62
7
 10
29.40100000
 20
17.82000000
  0
VERTEX
  8
0
 62
7
 10
29.34300000
 20
18.18000000
  0
VERTEX
  8
0
 62
7
 10
28.97700000
 20
18.18000000
  0
VERTEX
  8
0
 62
7
 10
23.76500000
 20
18.18000000
  0
VERTEX
  8
0
 62
7
 10
23.81800000
 20
18.22100000
  0
VERTEX
  8
0
 62
7
 10
23.84797266
 20
18.25044922
  0
VERTEX
  8
0
 62
7
 10
23.87496875
 20
18.28165625
  0
VERTEX
  8
0
 62
7
 10
23.89910547
 20
18.31441016
  0
VERTEX
  8
0
 62
7
 10
23.92050000
 20
18.34850000
  0
VERTEX
  8
0
 62
7
 10
23.93926953
 20
18.38371484
  0
VERTEX
  8
0
 62
7
 10
23.95553125
 20
18.41984375
  0
VERTEX
  8
0
 62
7
 10
23.96940234
 20
18.45667578
  0
VERTEX
  8
0
 62
7
 10
23.98100000
 20
18.49400000
  0
VERTEX
  8
0
 62
7
 10
23.99034375
 20
18.53393750
  0
VERTEX
  8
0
 62
7
 10
23.99725000
 20
18.57425000
  0
VERTEX
  8
0
 62
7
 10
24.00153125
 20
18.61493750
  0
VERTEX
  8
0
 62
7
 10
24.00300000
 20
18.65600000
  0
VERTEX
  8
0
 62
7
 10
24.00001563
 20
18.71518750
  0
VERTEX
  8
0
 62
7
 10
23.99112500
 20
18.77400000
  0
VERTEX
  8
0
 62
7
 10
23.97642188
 20
18.83206250
  0
VERTEX
  8
0
 62
7
 10
23.95600000
 20
18.88900000
  0
VERTEX
  8
0
 62
7
 10
23.93889063
 20
18.92649805
  0
VERTEX
  8
0
 62
7
 10
23.91906250
 20
18.96304688
  0
VERTEX
  8
0
 62
7
 10
23.89651563
 20
18.99835352
  0
VERTEX
  8
0
 62
7
 10
23.87125000
 20
19.03212500
  0
VERTEX
  8
0
 62
7
 10
23.84326563
 20
19.06406836
  0
VERTEX
  8
0
 62
7
 10
23.81256250
 20
19.09389063
  0
VERTEX
  8
0
 62
7
 10
23.77914063
 20
19.12129883
  0
VERTEX
  8
0
 62
7
 10
23.74300000
 20
19.14600000
  0
VERTEX
  8
0
 62
7
 10
23.71179688
 20
19.16390820
  0
VERTEX
  8
0
 62
7
 10
23.67975000
 20
19.17939063
  0
VERTEX
  8
0
 62
7
 10
23.64695313
 20
19.19245898
  0
VERTEX
  8
0
 62
7
 10
23.61350000
 20
19.20312500
  0
VERTEX
  8
0
 62
7
 10
23.57948438
 20
19.21140039
  0
VERTEX
  8
0
 62
7
 10
23.54500000
 20
19.21729688
  0
VERTEX
  8
0
 62
7
 10
23.51014063
 20
19.22082617
  0
VERTEX
  8
0
 62
7
 10
23.47500000
 20
19.22200000
  0
VERTEX
  8
0
 62
7
 10
23.43300000
 20
19.22100000
  0
VERTEX
  8
0
 62
7
 10
23.41364258
 20
19.21785352
  0
VERTEX
  8
0
 62
7
 10
23.39457813
 20
19.21157813
  0
VERTEX
  8
0
 62
7
 10
23.37694336
 20
19.20241992
  0
VERTEX
  8
0
 62
7
 10
23.36187500
 20
19.19062500
  0
VERTEX
  8
0
 62
7
 10
23.35050977
 20
19.17643945
  0
VERTEX
  8
0
 62
7
 10
23.34398438
 20
19.16010938
  0
VERTEX
  8
0
 62
7
 10
23.34343555
 20
19.14188086
  0
VERTEX
  8
0
 62
7
 10
23.35000000
 20
19.12200000
  0
VERTEX
  8
0
 62
7
 10
23.35100000
 20
19.11600000
  0
VERTEX
  8
0
 62
7
 10
23.34887500
 20
19.09887500
  0
VERTEX
  8
0
 62
7
 10
23.34300000
 20
19.08400000
  0
VERTEX
  8
0
 62
7
 10
23.32850000
 20
19.06500000
  0
VERTEX
  8
0
 62
7
 10
23.31400000
 20
19.05500000
  0
VERTEX
  8
0
 62
7
 10
23.29600000
 20
19.05300000
  0
VERTEX
  8
0
 62
7
 10
23.27262500
 20
19.05462500
  0
VERTEX
  8
0
 62
7
 10
23.24100000
 20
19.06000000
  0
VERTEX
  8
0
 62
7
 10
23.23000000
 20
19.06200000
  0
VERTEX
  8
0
 62
7
 10
23.18837500
 20
19.07437500
  0
VERTEX
  8
0
 62
7
 10
23.14000000
 20
19.09500000
  0
VERTEX
  8
0
 62
7
 10
23.11700000
 20
19.10500000
  0
VERTEX
  8
0
 62
7
 10
23.05500000
 20
19.13300000
  0
VERTEX
  8
0
 62
7
 10
22.96437891
 20
19.17258008
  0
VERTEX
  8
0
 62
7
 10
22.87246875
 20
19.21207813
  0
VERTEX
  8
0
 62
7
 10
22.77919922
 20
19.25075586
  0
VERTEX
  8
0
 62
7
 10
22.68450000
 20
19.28787500
  0
VERTEX
  8
0
 62
7
 10
22.58830078
 20
19.32269727
  0
VERTEX
  8
0
 62
7
 10
22.49053125
 20
19.35448438
  0
VERTEX
  8
0
 62
7
 10
22.39112109
 20
19.38249805
  0
VERTEX
  8
0
 62
7
 10
22.29000000
 20
19.40600000
  0
VERTEX
  8
0
 62
7
 10
22.15328125
 20
19.43156250
  0
VERTEX
  8
0
 62
7
 10
22.01600000
 20
19.45150000
  0
VERTEX
  8
0
 62
7
 10
21.87796875
 20
19.46618750
  0
VERTEX
  8
0
 62
7
 10
21.73900000
 20
19.47600000
  0
VERTEX
  8
0
 62
7
 10
21.74100000
 20
19.51400000
  0
VERTEX
  8
0
 62
7
 10
21.74000000
 20
19.55000000
  0
VERTEX
  8
0
 62
7
 10
21.73696484
 20
19.58165625
  0
VERTEX
  8
0
 62
7
 10
21.73146875
 20
19.61406250
  0
VERTEX
  8
0
 62
7
 10
21.72330078
 20
19.64675000
  0
VERTEX
  8
0
 62
7
 10
21.71225000
 20
19.67925000
  0
VERTEX
  8
0
 62
7
 10
21.69810547
 20
19.71109375
  0
VERTEX
  8
0
 62
7
 10
21.68065625
 20
19.74181250
  0
VERTEX
  8
0
 62
7
 10
21.65969141
 20
19.77093750
  0
VERTEX
  8
0
 62
7
 10
21.63500000
 20
19.79800000
  0
VERTEX
  8
0
 62
7
 10
21.59798438
 20
19.82957813
  0
VERTEX
  8
0
 62
7
 10
21.55787500
 20
19.85562500
  0
VERTEX
  8
0
 62
7
 10
21.51532813
 20
19.87660938
  0
VERTEX
  8
0
 62
7
 10
21.47100000
 20
19.89300000
  0
VERTEX
  8
0
 62
7
 10
21.49900000
 20
19.95900000
  0
VERTEX
  8
0
 62
7
 10
21.42500000
 20
19.99700000
  0
VERTEX
  8
0
 62
7
 10
21.37629688
 20
20.01901563
  0
VERTEX
  8
0
 62
7
 10
21.32637500
 20
20.03587500
  0
VERTEX
  8
0
 62
7
 10
21.27551563
 20
20.04804688
  0
VERTEX
  8
0
 62
7
 10
21.22400000
 20
20.05600000
  0
VERTEX
  8
0
 62
7
 10
21.15900000
 20
20.06100000
  0
VERTEX
  8
0
 62
7
 10
21.12600000
 20
20.15400000
  0
VERTEX
  8
0
 62
7
 10
21.09825000
 20
20.24512500
  0
VERTEX
  8
0
 62
7
 10
21.07500000
 20
20.33700000
  0
VERTEX
  8
0
 62
7
 10
21.06726953
 20
20.35818945
  0
VERTEX
  8
0
 62
7
 10
21.05515625
 20
20.37582813
  0
VERTEX
  8
0
 62
7
 10
21.03952734
 20
20.38964648
  0
VERTEX
  8
0
 62
7
 10
21.02125000
 20
20.39937500
  0
VERTEX
  8
0
 62
7
 10
21.00119141
 20
20.40474414
  0
VERTEX
  8
0
 62
7
 10
20.98021875
 20
20.40548438
  0
VERTEX
  8
0
 62
7
 10
20.95919922
 20
20.40132617
  0
VERTEX
  8
0
 62
7
 10
20.93900000
 20
20.39200000
  0
VERTEX
  8
0
 62
7
 10
20.88187500
 20
20.35850000
  0
VERTEX
  8
0
 62
7
 10
20.82400000
 20
20.32800000
  0
VERTEX
  8
0
 62
7
 10
20.75962500
 20
20.29725000
  0
VERTEX
  8
0
 62
7
 10
20.69600000
 20
20.27100000
  0
VERTEX
  8
0
 62
7
 10
20.68900000
 20
20.26800000
  0
VERTEX
  8
0
 62
7
 10
20.66339844
 20
20.28732813
  0
VERTEX
  8
0
 62
7
 10
20.63606250
 20
20.30468750
  0
VERTEX
  8
0
 62
7
 10
20.60694531
 20
20.31989063
  0
VERTEX
  8
0
 62
7
 10
20.57600000
 20
20.33275000
  0
VERTEX
  8
0
 62
7
 10
20.54317969
 20
20.34307813
  0
VERTEX
  8
0
 62
7
 10
20.50843750
 20
20.35068750
  0
VERTEX
  8
0
 62
7
 10
20.47172656
 20
20.35539063
  0
VERTEX
  8
0
 62
7
 10
20.43300000
 20
20.35700000
  0
VERTEX
  8
0
 62
7
 10
20.40137500
 20
20.35612500
  0
VERTEX
  8
0
 62
7
 10
20.36900000
 20
20.35300000
  0
VERTEX
  8
0
 62
7
 10
20.31900000
 20
20.34700000
  0
VERTEX
  8
0
 62
7
 10
20.29800000
 20
20.30200000
  0
VERTEX
  8
0
 62
7
 10
20.27100000
 20
20.24200000
  0
VERTEX
  8
0
 62
7
 10
20.23387500
 20
20.24962500
  0
VERTEX
  8
0
 62
7
 10
20.19600000
 20
20.25500000
  0
VERTEX
  8
0
 62
7
 10
20.16537500
 20
20.25812500
  0
VERTEX
  8
0
 62
7
 10
20.13400000
 20
20.25900000
  0
VERTEX
  8
0
 62
7
 10
20.08592188
 20
20.25654688
  0
VERTEX
  8
0
 62
7
 10
20.03812500
 20
20.24912500
  0
VERTEX
  8
0
 62
7
 10
19.99126563
 20
20.23664063
  0
VERTEX
  8
0
 62
7
 10
19.94600000
 20
20.21900000
  0
VERTEX
  8
0
 62
7
 10
19.89135938
 20
20.18970313
  0
VERTEX
  8
0
 62
7
 10
19.84187500
 20
20.15337500
  0
VERTEX
  8
0
 62
7
 10
19.79820313
 20
20.11085938
  0
VERTEX
  8
0
 62
7
 10
19.76100000
 20
20.06300000
  0
VERTEX
  8
0
 62
7
 10
19.72643750
 20
20.09289063
  0
VERTEX
  8
0
 62
7
 10
19.69000000
 20
20.12212500
  0
VERTEX
  8
0
 62
7
 10
19.65131250
 20
20.15004688
  0
VERTEX
  8
0
 62
7
 10
19.61000000
 20
20.17600000
  0
VERTEX
  8
0
 62
7
 10
19.53981250
 20
20.21171875
  0
VERTEX
  8
0
 62
7
 10
19.46850000
 20
20.24050000
  0
VERTEX
  8
0
 62
7
 10
19.39793750
 20
20.26403125
  0
VERTEX
  8
0
 62
7
 10
19.33000000
 20
20.28400000
  0
VERTEX
  8
0
 62
7
 10
19.24412500
 20
20.30589063
  0
VERTEX
  8
0
 62
7
 10
19.15825000
 20
20.32187500
  0
VERTEX
  8
0
 62
7
 10
19.07350000
 20
20.33392188
  0
VERTEX
  8
0
 62
7
 10
18.99100000
 20
20.34400000
  0
VERTEX
  8
0
 62
7
 10
18.98000000
 20
20.34500000
  0
VERTEX
  8
0
 62
7
 10
18.89004688
 20
20.35387500
  0
VERTEX
  8
0
 62
7
 10
18.80037500
 20
20.35975000
  0
VERTEX
  8
0
 62
7
 10
18.71126563
 20
20.36300000
  0
VERTEX
  8
0
 62
7
 10
18.62300000
 20
20.36400000
  0
VERTEX
  8
0
 62
7
 10
18.56800000
 20
20.36400000
  0
VERTEX
  8
0
 62
7
 10
18.43887500
 20
20.35875000
  0
VERTEX
  8
0
 62
7
 10
18.31200000
 20
20.34900000
  0
VERTEX
  8
0
 62
7
 10
18.21400000
 20
20.34200000
  0
VERTEX
  8
0
 62
7
 10
18.16050000
 20
20.33837500
  0
VERTEX
  8
0
 62
7
 10
18.11000000
 20
20.33700000
  0
VERTEX
  8
0
 62
7
 10
18.07887500
 20
20.33762500
  0
VERTEX
  8
0
 62
7
 10
18.04850000
 20
20.33975000
  0
VERTEX
  8
0
 62
7
 10
18.01887500
 20
20.34375000
  0
VERTEX
  8
0
 62
7
 10
17.99000000
 20
20.35000000
  0
VERTEX
  8
0
 62
7
 10
17.96600000
 20
20.35500000
  0
VERTEX
  8
0
 62
7
 10
17.93584375
 20
20.36187500
  0
VERTEX
  8
0
 62
7
 10
17.91450000
 20
20.36800000
  0
VERTEX
  8
0
 62
7
 10
17.89990625
 20
20.37412500
  0
VERTEX
  8
0
 62
7
 10
17.89000000
 20
20.38100000
  0
VERTEX
  8
0
 62
7
 10
17.87425000
 20
20.39889063
  0
VERTEX
  8
0
 62
7
 10
17.86300000
 20
20.41912500
  0
VERTEX
  8
0
 62
7
 10
17.85625000
 20
20.44104688
  0
VERTEX
  8
0
 62
7
 10
17.85400000
 20
20.46400000
  0
VERTEX
  8
0
 62
7
 10
17.85495313
 20
20.47837500
  0
VERTEX
  8
0
 62
7
 10
17.85787500
 20
20.49275000
  0
VERTEX
  8
0
 62
7
 10
17.86285938
 20
20.50675000
  0
VERTEX
  8
0
 62
7
 10
17.87000000
 20
20.52000000
  0
VERTEX
  8
0
 62
7
 10
17.88114844
 20
20.54454883
  0
VERTEX
  8
0
 62
7
 10
17.88381250
 20
20.56882813
  0
VERTEX
  8
0
 62
7
 10
17.87907031
 20
20.59191211
  0
VERTEX
  8
0
 62
7
 10
17.86800000
 20
20.61287500
  0
VERTEX
  8
0
 62
7
 10
17.85167969
 20
20.63079102
  0
VERTEX
  8
0
 62
7
 10
17.83118750
 20
20.64473438
  0
VERTEX
  8
0
 62
7
 10
17.80760156
 20
20.65377930
  0
VERTEX
  8
0
 62
7
 10
17.78200000
 20
20.65700000
  0
VERTEX
  8
0
 62
7
 10
17.72262500
 20
20.65329688
  0
VERTEX
  8
0
 62
7
 10
17.66475000
 20
20.64237500
  0
VERTEX
  8
0
 62
7
 10
17.60875000
 20
20.62451563
  0
VERTEX
  8
0
 62
7
 10
17.55500000
 20
20.60000000
  0
VERTEX
  8
0
 62
7
 10
17.51500000
 20
20.57550000
  0
VERTEX
  8
0
 62
7
 10
17.47800000
 20
20.54800000
  0
VERTEX
  8
0
 62
7
 10
17.41262500
 20
20.64775000
  0
VERTEX
  8
0
 62
7
 10
17.35400000
 20
20.75200000
  0
VERTEX
  8
0
 62
7
 10
17.30675000
 20
20.84962500
  0
VERTEX
  8
0
 62
7
 10
17.26700000
 20
20.95100000
  0
VERTEX
  8
0
 62
7
 10
17.25441797
 20
20.97531055
  0
VERTEX
  8
0
 62
7
 10
17.23646875
 20
20.99342188
  0
VERTEX
  8
0
 62
7
 10
17.21472266
 20
21.00522852
  0
VERTEX
  8
0
 62
7
 10
17.19075000
 20
21.01062500
  0
VERTEX
  8
0
 62
7
 10
17.16612109
 20
21.00950586
  0
VERTEX
  8
0
 62
7
 10
17.14240625
 20
21.00176563
  0
VERTEX
  8
0
 62
7
 10
17.12117578
 20
20.98729883
  0
VERTEX
  8
0
 62
7
 10
17.10400000
 20
20.96600000
  0
VERTEX
  8
0
 62
7
 10
17.07382813
 20
20.91109375
  0
VERTEX
  8
0
 62
7
 10
17.04637500
 20
20.85450000
  0
VERTEX
  8
0
 62
7
 10
17.02173438
 20
20.79640625
  0
VERTEX
  8
0
 62
7
 10
17.00000000
 20
20.73700000
  0
VERTEX
  8
0
 62
7
 10
16.97826563
 20
20.79640625
  0
VERTEX
  8
0
 62
7
 10
16.95362500
 20
20.85450000
  0
VERTEX
  8
0
 62
7
 10
16.92617188
 20
20.91109375
  0
VERTEX
  8
0
 62
7
 10
16.89600000
 20
20.96600000
  0
VERTEX
  8
0
 62
7
 10
16.87882422
 20
20.98729883
  0
VERTEX
  8
0
 62
7
 10
16.85759375
 20
21.00176563
  0
VERTEX
  8
0
 62
7
 10
16.83387891
 20
21.00950586
  0
VERTEX
  8
0
 62
7
 10
16.80925000
 20
21.01062500
  0
VERTEX
  8
0
 62
7
 10
16.78527734
 20
21.00522852
  0
VERTEX
  8
0
 62
7
 10
16.76353125
 20
20.99342188
  0
VERTEX
  8
0
 62
7
 10
16.74558203
 20
20.97531055
  0
VERTEX
  8
0
 62
7
 10
16.73300000
 20
20.95100000
  0
VERTEX
  8
0
 62
7
 10
16.69325000
 20
20.84962500
  0
VERTEX
  8
0
 62
7
 10
16.64600000
 20
20.75200000
  0
VERTEX
  8
0
 62
7
 10
16.58737500
 20
20.64775000
  0
VERTEX
  8
0
 62
7
 10
16.52200000
 20
20.54800000
  0
VERTEX
  8
0
 62
7
 10
16.48500000
 20
20.57550000
  0
VERTEX
  8
0
 62
7
 10
16.44500000
 20
20.60000000
  0
VERTEX
  8
0
 62
7
 10
16.39125000
 20
20.62451563
  0
VERTEX
  8
0
 62
7
 10
16.33525000
 20
20.64237500
  0
VERTEX
  8
0
 62
7
 10
16.27737500
 20
20.65329688
  0
VERTEX
  8
0
 62
7
 10
16.21800000
 20
20.65700000
  0
VERTEX
  8
0
 62
7
 10
16.19239844
 20
20.65377930
  0
VERTEX
  8
0
 62
7
 10
16.16881250
 20
20.64473438
  0
VERTEX
  8
0
 62
7
 10
16.14832031
 20
20.63079102
  0
VERTEX
  8
0
 62
7
 10
16.13200000
 20
20.61287500
  0
VERTEX
  8
0
 62
7
 10
16.12092969
 20
20.59191211
  0
VERTEX
  8
0
 62
7
 10
16.11618750
 20
20.56882813
  0
VERTEX
  8
0
 62
7
 10
16.11885156
 20
20.54454883
  0
VERTEX
  8
0
 62
7
 10
16.13000000
 20
20.52000000
  0
VERTEX
  8
0
 62
7
 10
16.13714063
 20
20.50675000
  0
VERTEX
  8
0
 62
7
 10
16.14212500
 20
20.49275000
  0
VERTEX
  8
0
 62
7
 10
16.14504688
 20
20.47837500
  0
VERTEX
  8
0
 62
7
 10
16.14600000
 20
20.46400000
  0
VERTEX
  8
0
 62
7
 10
16.14375000
 20
20.44104688
  0
VERTEX
  8
0
 62
7
 10
16.13700000
 20
20.41912500
  0
VERTEX
  8
0
 62
7
 10
16.12575000
 20
20.39889063
  0
VERTEX
  8
0
 62
7
 10
16.11000000
 20
20.38100000
  0
VERTEX
  8
0
 62
7
 10
16.10009375
 20
20.37412500
  0
VERTEX
  8
0
 62
7
 10
16.08550000
 20
20.36800000
  0
VERTEX
  8
0
 62
7
 10
16.06415625
 20
20.36187500
  0
VERTEX
  8
0
 62
7
 10
16.03400000
 20
20.35500000
  0
VERTEX
  8
0
 62
7
 10
16.01000000
 20
20.35000000
  0
VERTEX
  8
0
 62
7
 10
15.98112500
 20
20.34375000
  0
VERTEX
  8
0
 62
7
 10
15.95150000
 20
20.33975000
  0
VERTEX
  8
0
 62
7
 10
15.92112500
 20
20.33762500
  0
VERTEX
  8
0
 62
7
 10
15.89000000
 20
20.33700000
  0
VERTEX
  8
0
 62
7
 10
15.83950000
 20
20.33837500
  0
VERTEX
  8
0
 62
7
 10
15.78600000
 20
20.34200000
  0
VERTEX
  8
0
 62
7
 10
15.68800000
 20
20.34900000
  0
VERTEX
  8
0
 62
7
 10
15.56112500
 20
20.35875000
  0
VERTEX
  8
0
 62
7
 10
15.43200000
 20
20.36400000
  0
VERTEX
  8
0
 62
7
 10
15.37700000
 20
20.36400000
  0
VERTEX
  8
0
 62
7
 10
15.28873438
 20
20.36300000
  0
VERTEX
  8
0
 62
7
 10
15.19962500
 20
20.35975000
  0
VERTEX
  8
0
 62
7
 10
15.10995313
 20
20.35387500
  0
VERTEX
  8
0
 62
7
 10
15.02000000
 20
20.34500000
  0
VERTEX
  8
0
 62
7
 10
15.00900000
 20
20.34400000
  0
VERTEX
  8
0
 62
7
 10
14.92650000
 20
20.33392188
  0
VERTEX
  8
0
 62
7
 10
14.84175000
 20
20.32187500
  0
VERTEX
  8
0
 62
7
 10
14.75587500
 20
20.30589063
  0
VERTEX
  8
0
 62
7
 10
14.67000000
 20
20.28400000
  0
VERTEX
  8
0
 62
7
 10
14.60206250
 20
20.26403125
  0
VERTEX
  8
0
 62
7
 10
14.53150000
 20
20.24050000
  0
VERTEX
  8
0
 62
7
 10
14.46018750
 20
20.21171875
  0
VERTEX
  8
0
 62
7
 10
14.39000000
 20
20.17600000
  0
VERTEX
  8
0
 62
7
 10
14.34854688
 20
20.15003125
  0
VERTEX
  8
0
 62
7
 10
14.30962500
 20
20.12200000
  0
VERTEX
  8
0
 62
7
 10
14.27314063
 20
20.09246875
  0
VERTEX
  8
0
 62
7
 10
14.23900000
 20
20.06200000
  0
VERTEX
  8
0
 62
7
 10
14.20137500
 20
20.11043750
  0
VERTEX
  8
0
 62
7
 10
14.15775000
 20
20.15325000
  0
VERTEX
  8
0
 62
7
 10
14.10850000
 20
20.18968750
  0
VERTEX
  8
0
 62
7
 10
14.05400000
 20
20.21900000
  0
VERTEX
  8
0
 62
7
 10
14.00873438
 20
20.23664063
  0
VERTEX
  8
0
 62
7
 10
13.96187500
 20
20.24912500
  0
VERTEX
  8
0
 62
7
 10
13.91407813
 20
20.25654688
  0
VERTEX
  8
0
 62
7
 10
13.86600000
 20
20.25900000
  0
VERTEX
  8
0
 62
7
 10
13.83462500
 20
20.25812500
  0
VERTEX
  8
0
 62
7
 10
13.80400000
 20
20.25500000
  0
VERTEX
  8
0
 62
7
 10
13.76612500
 20
20.24962500
  0
VERTEX
  8
0
 62
7
 10
13.72900000
 20
20.24200000
  0
VERTEX
  8
0
 62
7
 10
13.70200000
 20
20.30200000
  0
VERTEX
  8
0
 62
7
 10
13.68100000
 20
20.34700000
  0
VERTEX
  8
0
 62
7
 10
13.63100000
 20
20.35300000
  0
VERTEX
  8
0
 62
7
 10
13.59862500
 20
20.35612500
  0
VERTEX
  8
0
 62
7
 10
13.56700000
 20
20.35700000
  0
VERTEX
  8
0
 62
7
 10
13.52827344
 20
20.35539063
  0
VERTEX
  8
0
 62
7
 10
13.49156250
 20
20.35068750
  0
VERTEX
  8
0
 62
7
 10
13.45682031
 20
20.34307813
  0
VERTEX
  8
0
 62
7
 10
13.42400000
 20
20.33275000
  0
VERTEX
  8
0
 62
7
 10
13.39305469
 20
20.31989063
  0
VERTEX
  8
0
 62
7
 10
13.36393750
 20
20.30468750
  0
VERTEX
  8
0
 62
7
 10
13.33660156
 20
20.28732813
  0
VERTEX
  8
0
 62
7
 10
13.31100000
 20
20.26800000
  0
VERTEX
  8
0
 62
7
 10
13.30400000
 20
20.27100000
  0
VERTEX
  8
0
 62
7
 10
13.24037500
 20
20.29725000
  0
VERTEX
  8
0
 62
7
 10
13.17600000
 20
20.32800000
  0
VERTEX
  8
0
 62
7
 10
13.11812500
 20
20.35850000
  0
VERTEX
  8
0
 62
7
 10
13.06100000
 20
20.39200000
  0
VERTEX
  8
0
 62
7
 10
13.04080078
 20
20.40132617
  0
VERTEX
  8
0
 62
7
 10
13.01978125
 20
20.40548438
  0
VERTEX
  8
0
 62
7
 10
12.99880859
 20
20.40474414
  0
VERTEX
  8
0
 62
7
 10
12.97875000
 20
20.39937500
  0
VERTEX
  8
0
 62
7
 10
12.96047266
 20
20.38964648
  0
VERTEX
  8
0
 62
7
 10
12.94484375
 20
20.37582813
  0
VERTEX
  8
0
 62
7
 10
12.93273047
 20
20.35818945
  0
VERTEX
  8
0
 62
7
 10
12.92500000
 20
20.33700000
  0
VERTEX
  8
0
 62
7
 10
12.90175000
 20
20.24512500
  0
VERTEX
  8
0
 62
7
 10
12.87400000
 20
20.15400000
  0
VERTEX
  8
0
 62
7
 10
12.84100000
 20
20.06000000
  0
VERTEX
  8
0
 62
7
 10
12.80850000
 20
20.05912500
  0
VERTEX
  8
0
 62
7
 10
12.77600000
 20
20.05600000
  0
VERTEX
  8
0
 62
7
 10
12.72448438
 20
20.04804688
  0
VERTEX
  8
0
 62
7
 10
12.67362500
 20
20.03587500
  0
VERTEX
  8
0
 62
7
 10
12.62370313
 20
20.01901563
  0
VERTEX
  8
0
 62
7
 10
12.57500000
 20
19.99700000
  0
VERTEX
  8
0
 62
7
 10
12.50100000
 20
19.95900000
  0
VERTEX
  8
0
 62
7
 10
12.52900000
 20
19.89300000
  0
VERTEX
  8
0
 62
7
 10
12.48467188
 20
19.87660938
  0
VERTEX
  8
0
 62
7
 10
12.44212500
 20
19.85562500
  0
VERTEX
  8
0
 62
7
 10
12.40201563
 20
19.82957813
  0
VERTEX
  8
0
 62
7
 10
12.36500000
 20
19.79800000
  0
VERTEX
  8
0
 62
7
 10
12.34030859
 20
19.77093750
  0
VERTEX
  8
0
 62
7
 10
12.31934375
 20
19.74181250
  0
VERTEX
  8
0
 62
7
 10
12.30189453
 20
19.71109375
  0
VERTEX
  8
0
 62
7
 10
12.28775000
 20
19.67925000
  0
VERTEX
  8
0
 62
7
 10
12.27669922
 20
19.64675000
  0
VERTEX
  8
0
 62
7
 10
12.26853125
 20
19.61406250
  0
VERTEX
  8
0
 62
7
 10
12.26303516
 20
19.58165625
  0
VERTEX
  8
0
 62
7
 10
12.26000000
 20
19.55000000
  0
VERTEX
  8
0
 62
7
 10
12.25900000
 20
19.51400000
  0
VERTEX
  8
0
 62
7
 10
12.26100000
 20
19.47600000
  0
VERTEX
  8
0
 62
7
 10
12.12203125
 20
19.46618750
  0
VERTEX
  8
0
 62
7
 10
11.98400000
 20
19.45150000
  0
VERTEX
  8
0
 62
7
 10
11.84671875
 20
19.43156250
  0
VERTEX
  8
0
 62
7
 10
11.71000000
 20
19.40600000
  0
VERTEX
  8
0
 62
7
 10
11.60887891
 20
19.38249805
  0
VERTEX
  8
0
 62
7
 10
11.50946875
 20
19.35448438
  0
VERTEX
  8
0
 62
7
 10
11.41169922
 20
19.32269727
  0
VERTEX
  8
0
 62
7
 10
11.31550000
 20
19.28787500
  0
VERTEX
  8
0
 62
7
 10
11.22080078
 20
19.25075586
  0
VERTEX
  8
0
 62
7
 10
11.12753125
 20
19.21207813
  0
VERTEX
  8
0
 62
7
 10
11.03562109
 20
19.17258008
  0
VERTEX
  8
0
 62
7
 10
10.94500000
 20
19.13300000
  0
VERTEX
  8
0
 62
7
 10
10.88300000
 20
19.10500000
  0
VERTEX
  8
0
 62
7
 10
10.86000000
 20
19.09500000
  0
VERTEX
  8
0
 62
7
 10
10.81162500
 20
19.07437500
  0
VERTEX
  8
0
 62
7
 10
10.77000000
 20
19.06200000
  0
VERTEX
  8
0
 62
7
 10
10.75900000
 20
19.06000000
  0
VERTEX
  8
0
 62
7
 10
10.72737500
 20
19.05462500
  0
VERTEX
  8
0
 62
7
 10
10.70400000
 20
19.05300000
  0
VERTEX
  8
0
 62
7
 10
10.68600000
 20
19.05500000
  0
VERTEX
  8
0
 62
7
 10
10.67150000
 20
19.06500000
  0
VERTEX
  8
0
 62
7
 10
10.65700000
 20
19.08400000
  0
VERTEX
  8
0
 62
7
 10
10.65112500
 20
19.09887500
  0
VERTEX
  8
0
 62
7
 10
10.64900000
 20
19.11600000
  0
VERTEX
  8
0
 62
7
 10
10.65000000
 20
19.12200000
  0
VERTEX
  8
0
 62
7
 10
10.65656445
 20
19.14188086
  0
VERTEX
  8
0
 62
7
 10
10.65601563
 20
19.16010938
  0
VERTEX
  8
0
 62
7
 10
10.64949023
 20
19.17643945
  0
VERTEX
  8
0
 62
7
 10
10.63812500
 20
19.19062500
  0
VERTEX
  8
0
 62
7
 10
10.62305664
 20
19.20241992
  0
VERTEX
  8
0
 62
7
 10
10.60542188
 20
19.21157813
  0
VERTEX
  8
0
 62
7
 10
10.58635742
 20
19.21785352
  0
VERTEX
  8
0
 62
7
 10
10.56700000
 20
19.22100000
  0
VERTEX
  8
0
 62
7
 10
10.52500000
 20
19.22200000
  0
VERTEX
  8
0
 62
7
 10
10.48985938
 20
19.22082617
  0
VERTEX
  8
0
 62
7
 10
10.45500000
 20
19.21729688
  0
VERTEX
  8
0
 62
7
 10
10.42051563
 20
19.21140039
  0
VERTEX
  8
0
 62
7
 10
10.38650000
 20
19.20312500
  0
VERTEX
  8
0
 62
7
 10
10.35304688
 20
19.19245898
  0
VERTEX
  8
0
 62
7
 10
10.32025000
 20
19.17939063
  0
VERTEX
  8
0
 62
7
 10
10.28820313
 20
19.16390820
  0
VERTEX
  8
0
 62
7
 10
10.25700000
 20
19.14600000
  0
VERTEX
  8
0
 62
7
 10
10.22085938
 20
19.12129883
  0
VERTEX
  8
0
 62
7
 10
10.18743750
 20
19.09389063
  0
VERTEX
  8
0
 62
7
 10
10.15673438
 20
19.06406836
  0
VERTEX
  8
0
 62
7
 10
10.12875000
 20
19.03212500
  0
VERTEX
  8
0
 62
7
 10
10.10348438
 20
18.99835352
  0
VERTEX
  8
0
 62
7
 10
10.08093750
 20
18.96304688
  0
VERTEX
  8
0
 62
7
 10
10.06110938
 20
18.92649805
  0
VERTEX
  8
0
 62
7
 10
10.04400000
 20
18.88900000
  0
VERTEX
  8
0
 62
7
 10
10.02357813
 20
18.83206250
  0
VERTEX
  8
0
 62
7
 10
10.00887500
 20
18.77400000
  0
VERTEX
  8
0
 62
7
 10
9.99998438
 20
18.71518750
  0
VERTEX
  8
0
 62
7
 10
9.99700000
 20
18.65600000
  0
VERTEX
  8
0
 62
7
 10
9.99846875
 20
18.61493750
  0
VERTEX
  8
0
 62
7
 10
10.00275000
 20
18.57425000
  0
VERTEX
  8
0
 62
7
 10
10.00965625
 20
18.53393750
  0
VERTEX
  8
0
 62
7
 10
10.01900000
 20
18.49400000
  0
VERTEX
  8
0
 62
7
 10
10.03059766
 20
18.45667578
  0
VERTEX
  8
0
 62
7
 10
10.04446875
 20
18.41984375
  0
VERTEX
  8
0
 62
7
 10
10.06073047
 20
18.38371484
  0
VERTEX
  8
0
 62
7
 10
10.07950000
 20
18.34850000
  0
VERTEX
  8
0
 62
7
 10
10.10089453
 20
18.31441016
  0
VERTEX
  8
0
 62
7
 10
10.12503125
 20
18.28165625
  0
VERTEX
  8
0
 62
7
 10
10.15202734
 20
18.25044922
  0
VERTEX
  8
0
 62
7
 10
10.18200000
 20
18.22100000
  0
VERTEX
  8
0
 62
7
 10
10.23500000
 20
18.18000000
  0
VERTEX
  8
0
 62
7
 10
5.02300000
 20
18.18000000
  0
VERTEX
  8
0
 62
7
 10
4.66800000
 20
18.18000000
  0
VERTEX
  8
0
 62
7
 10
4.60100000
 20
17.82900000
  0
VERTEX
  8
0
 62
7
 10
4.51528711
 20
17.35934766
  0
VERTEX
  8
0
 62
7
 10
4.43673438
 20
16.88821875
  0
VERTEX
  8
0
 62
7
 10
4.36434570
 20
16.41610547
  0
VERTEX
  8
0
 62
7
 10
4.29712500
 20
15.94350000
  0
VERTEX
  8
0
 62
7
 10
4.23407617
 20
15.47089453
  0
VERTEX
  8
0
 62
7
 10
4.17420313
 20
14.99878125
  0
VERTEX
  8
0
 62
7
 10
4.11650977
 20
14.52765234
  0
VERTEX
  8
0
 62
7
 10
4.06000000
 20
14.05800000
  0
VERTEX
  8
0
 62
7
 10
4.05000000
 20
13.96900000
  0
VERTEX
  8
0
 62
7
 10
4.04100000
 20
13.89700000
  0
VERTEX
  8
0
 62
7
 10
4.03000000
 20
13.80100000
  0
VERTEX
  8
0
 62
7
 10
3.97100000
 20
13.32000000
  0
VERTEX
  8
0
 62
7
 10
4.45500000
 20
13.32000000
  0
VERTEX
  8
0
 62
7
 10
10.23500000
 20
13.32000000
  0
VERTEX
  8
0
 62
7
 10
10.18200000
 20
13.27900000
  0
VERTEX
  8
0
 62
7
 10
10.15202734
 20
13.24955078
  0
VERTEX
  8
0
 62
7
 10
10.12503125
 20
13.21834375
  0
VERTEX
  8
0
 62
7
 10
10.10089453
 20
13.18558984
  0
VERTEX
  8
0
 62
7
 10
10.07950000
 20
13.15150000
  0
VERTEX
  8
0
 62
7
 10
10.06073047
 20
13.11628516
  0
VERTEX
  8
0
 62
7
 10
10.04446875
 20
13.08015625
  0
VERTEX
  8
0
 62
7
 10
10.03059766
 20
13.04332422
  0
VERTEX
  8
0
 62
7
 10
10.01900000
 20
13.00600000
  0
VERTEX
  8
0
 62
7
 10
10.00965625
 20
12.96606250
  0
VERTEX
  8
0
 62
7
 10
10.00275000
 20
12.92575000
  0
VERTEX
  8
0
 62
7
 10
9.99846875
 20
12.88506250
  0
VERTEX
  8
0
 62
7
 10
9.99700000
 20
12.84400000
  0
VERTEX
  8
0
 62
7
 10
9.99998438
 20
12.78481250
  0
VERTEX
  8
0
 62
7
 10
10.00887500
 20
12.72600000
  0
VERTEX
  8
0
 62
7
 10
10.02357813
 20
12.66793750
  0
VERTEX
  8
0
 62
7
 10
10.04400000
 20
12.61100000
  0
VERTEX
  8
0
 62
7
 10
10.06110938
 20
12.57350195
  0
VERTEX
  8
0
 62
7
 10
10.08093750
 20
12.53695313
  0
VERTEX
  8
0
 62
7
 10
10.10348438
 20
12.50164648
  0
VERTEX
  8
0
 62
7
 10
10.12875000
 20
12.46787500
  0
VERTEX
  8
0
 62
7
 10
10.15673438
 20
12.43593164
  0
VERTEX
  8
0
 62
7
 10
10.18743750
 20
12.40610938
  0
VERTEX
  8
0
 62
7
 10
10.22085938
 20
12.37870117
  0
VERTEX
  8
0
 62
7
 10
10.25700000
 20
12.35400000
  0
VERTEX
  8
0
 62
7
 10
10.28820313
 20
12.33609180
  0
VERTEX
  8
0
 62
7
 10
10.32025000
 20
12.32060938
  0
VERTEX
  8
0
 62
7
 10
10.35304688
 20
12.30754102
  0
VERTEX
  8
0
 62
7
 10
10.38650000
 20
12.29687500
  0
VERTEX
  8
0
 62
7
 10
10.42051563
 20
12.28859961
  0
VERTEX
  8
0
 62
7
 10
10.45500000
 20
12.28270313
  0
VERTEX
  8
0
 62
7
 10
10.48985938
 20
12.27917383
  0
VERTEX
  8
0
 62
7
 10
10.52500000
 20
12.27800000
  0
VERTEX
  8
0
 62
7
 10
10.56700000
 20
12.27900000
  0
VERTEX
  8
0
 62
7
 10
10.58635742
 20
12.28214648
  0
VERTEX
  8
0
 62
7
 10
10.60542188
 20
12.28842188
  0
VERTEX
  8
0
 62
7
 10
10.62305664
 20
12.29758008
  0
VERTEX
  8
0
 62
7
 10
10.63812500
 20
12.30937500
  0
VERTEX
  8
0
 62
7
 10
10.64949023
 20
12.32356055
  0
VERTEX
  8
0
 62
7
 10
10.65601563
 20
12.33989063
  0
VERTEX
  8
0
 62
7
 10
10.65656445
 20
12.35811914
  0
VERTEX
  8
0
 62
7
 10
10.65000000
 20
12.37800000
  0
VERTEX
  8
0
 62
7
 10
10.64900000
 20
12.38400000
  0
VERTEX
  8
0
 62
7
 10
10.65112500
 20
12.40112500
  0
VERTEX
  8
0
 62
7
 10
10.65700000
 20
12.41600000
  0
VERTEX
  8
0
 62
7
 10
10.67150000
 20
12.43500000
  0
VERTEX
  8
0
 62
7
 10
10.68600000
 20
12.44500000
  0
VERTEX
  8
0
 62
7
 10
10.70400000
 20
12.44700000
  0
VERTEX
  8
0
 62
7
 10
10.72737500
 20
12.44537500
  0
VERTEX
  8
0
 62
7
 10
10.75900000
 20
12.44000000
  0
VERTEX
  8
0
 62
7
 10
10.77000000
 20
12.43800000
  0
VERTEX
  8
0
 62
7
 10
10.81162500
 20
12.42562500
  0
VERTEX
  8
0
 62
7
 10
10.86000000
 20
12.40500000
  0
VERTEX
  8
0
 62
7
 10
10.88300000
 20
12.39500000
  0
VERTEX
  8
0
 62
7
 10
10.94500000
 20
12.36700000
  0
VERTEX
  8
0
 62
7
 10
11.03562109
 20
12.32741992
  0
VERTEX
  8
0
 62
7
 10
11.12753125
 20
12.28792188
  0
VERTEX
  8
0
 62
7
 10
11.22080078
 20
12.24924414
  0
VERTEX
  8
0
 62
7
 10
11.31550000
 20
12.21212500
  0
VERTEX
  8
0
 62
7
 10
11.41169922
 20
12.17730273
  0
VERTEX
  8
0
 62
7
 10
11.50946875
 20
12.14551563
  0
VERTEX
  8
0
 62
7
 10
11.60887891
 20
12.11750195
  0
VERTEX
  8
0
 62
7
 10
11.71000000
 20
12.09400000
  0
VERTEX
  8
0
 62
7
 10
11.84671875
 20
12.06843750
  0
VERTEX
  8
0
 62
7
 10
11.98400000
 20
12.04850000
  0
VERTEX
  8
0
 62
7
 10
12.12203125
 20
12.03381250
  0
VERTEX
  8
0
 62
7
 10
12.26100000
 20
12.02400000
  0
VERTEX
  8
0
 62
7
 10
12.25900000
 20
11.98600000
  0
VERTEX
  8
0
 62
7
 10
12.26000000
 20
11.95000000
  0
VERTEX
  8
0
 62
7
 10
12.26303516
 20
11.91834375
  0
VERTEX
  8
0
 62
7
 10
12.26853125
 20
11.88593750
  0
VERTEX
  8
0
 62
7
 10
12.27669922
 20
11.85325000
  0
VERTEX
  8
0
 62
7
 10
12.28775000
 20
11.82075000
  0
VERTEX
  8
0
 62
7
 10
12.30189453
 20
11.78890625
  0
VERTEX
  8
0
 62
7
 10
12.31934375
 20
11.75818750
  0
VERTEX
  8
0
 62
7
 10
12.34030859
 20
11.72906250
  0
VERTEX
  8
0
 62
7
 10
12.36500000
 20
11.70200000
  0
VERTEX
  8
0
 62
7
 10
12.40201563
 20
11.67042188
  0
VERTEX
  8
0
 62
7
 10
12.44212500
 20
11.64437500
  0
VERTEX
  8
0
 62
7
 10
12.48467188
 20
11.62339063
  0
VERTEX
  8
0
 62
7
 10
12.52900000
 20
11.60700000
  0
VERTEX
  8
0
 62
7
 10
12.50100000
 20
11.54100000
  0
VERTEX
  8
0
 62
7
 10
12.57500000
 20
11.50300000
  0
VERTEX
  8
0
 62
7
 10
12.62370313
 20
11.48098438
  0
VERTEX
  8
0
 62
7
 10
12.67362500
 20
11.46412500
  0
VERTEX
  8
0
 62
7
 10
12.72448438
 20
11.45195313
  0
VERTEX
  8
0
 62
7
 10
12.77600000
 20
11.44400000
  0
VERTEX
  8
0
 62
7
 10
12.84100000
 20
11.43900000
  0
VERTEX
  8
0
 62
7
 10
12.87400000
 20
11.34600000
  0
VERTEX
  8
0
 62
7
 10
12.90175000
 20
11.25487500
  0
VERTEX
  8
0
 62
7
 10
12.92500000
 20
11.16300000
  0
VERTEX
  8
0
 62
7
 10
12.93273047
 20
11.14181055
  0
VERTEX
  8
0
 62
7
 10
12.94484375
 20
11.12417188
  0
VERTEX
  8
0
 62
7
 10
12.96047266
 20
11.11035352
  0
VERTEX
  8
0
 62
7
 10
12.97875000
 20
11.10062500
  0
VERTEX
  8
0
 62
7
 10
12.99880859
 20
11.09525586
  0
VERTEX
  8
0
 62
7
 10
13.01978125
 20
11.09451563
  0
VERTEX
  8
0
 62
7
 10
13.04080078
 20
11.09867383
  0
VERTEX
  8
0
 62
7
 10
13.06100000
 20
11.10800000
  0
VERTEX
  8
0
 62
7
 10
13.11812500
 20
11.14150000
  0
VERTEX
  8
0
 62
7
 10
13.17600000
 20
11.17200000
  0
VERTEX
  8
0
 62
7
 10
13.24037500
 20
11.20275000
  0
VERTEX
  8
0
 62
7
 10
13.30400000
 20
11.22900000
  0
VERTEX
  8
0
 62
7
 10
13.31100000
 20
11.23200000
  0
VERTEX
  8
0
 62
7
 10
13.33660156
 20
11.21267188
  0
VERTEX
  8
0
 62
7
 10
13.36393750
 20
11.19531250
  0
VERTEX
  8
0
 62
7
 10
13.39305469
 20
11.18010938
  0
VERTEX
  8
0
 62
7
 10
13.42400000
 20
11.16725000
  0
VERTEX
  8
0
 62
7
 10
13.45682031
 20
11.15692188
  0
VERTEX
  8
0
 62
7
 10
13.49156250
 20
11.14931250
  0
VERTEX
  8
0
 62
7
 10
13.52827344
 20
11.14460938
  0
VERTEX
  8
0
 62
7
 10
13.56700000
 20
11.14300000
  0
VERTEX
  8
0
 62
7
 10
13.59862500
 20
11.14387500
  0
VERTEX
  8
0
 62
7
 10
13.63100000
 20
11.14700000
  0
VERTEX
  8
0
 62
7
 10
13.68100000
 20
11.15300000
  0
VERTEX
  8
0
 62
7
 10
13.70200000
 20
11.19800000
  0
VERTEX
  8
0
 62
7
 10
13.72900000
 20
11.25800000
  0
VERTEX
  8
0
 62
7
 10
13.76612500
 20
11.25037500
  0
VERTEX
  8
0
 62
7
 10
13.80400000
 20
11.24500000
  0
VERTEX
  8
0
 62
7
 10
13.83462500
 20
11.24187500
  0
VERTEX
  8
0
 62
7
 10
13.86600000
 20
11.24100000
  0
VERTEX
  8
0
 62
7
 10
13.91407813
 20
11.24345313
  0
VERTEX
  8
0
 62
7
 10
13.96187500
 20
11.25087500
  0
VERTEX
  8
0
 62
7
 10
14.00873438
 20
11.26335938
  0
VERTEX
  8
0
 62
7
 10
14.05400000
 20
11.28100000
  0
VERTEX
  8
0
 62
7
 10
14.10864063
 20
11.31029688
  0
VERTEX
  8
0
 62
7
 10
14.15812500
 20
11.34662500
  0
VERTEX
  8
0
 62
7
 10
14.20179688
 20
11.38914063
  0
VERTEX
  8
0
 62
7
 10
14.23900000
 20
11.43700000
  0
VERTEX
  8
0
 62
7
 10
14.27356250
 20
11.40710938
  0
VERTEX
  8
0
 62
7
 10
14.31000000
 20
11.37787500
  0
VERTEX
  8
0
 62
7
 10
14.34868750
 20
11.34995313
  0
VERTEX
  8
0
 62
7
 10
14.39000000
 20
11.32400000
  0
VERTEX
  8
0
 62
7
 10
14.46018750
 20
11.28828125
  0
VERTEX
  8
0
 62
7
 10
14.53150000
 20
11.25950000
  0
VERTEX
  8
0
 62
7
 10
14.60206250
 20
11.23596875
  0
VERTEX
  8
0
 62
7
 10
14.67000000
 20
11.21600000
  0
VERTEX
  8
0
 62
7
 10
14.75587500
 20
11.19410938
  0
VERTEX
  8
0
 62
7
 10
14.84175000
 20
11.17812500
  0
VERTEX
  8
0
 62
7
 10
14.92650000
 20
11.16607813
  0
VERTEX
  8
0
 62
7
 10
15.00900000
 20
11.15600000
  0
VERTEX
  8
0
 62
7
 10
15.02000000
 20
11.15500000
  0
VERTEX
  8
0
 62
7
 10
15.10995313
 20
11.14612500
  0
VERTEX
  8
0
 62
7
 10
15.19962500
 20
11.14025000
  0
VERTEX
  8
0
 62
7
 10
15.28873438
 20
11.13700000
  0
VERTEX
  8
0
 62
7
 10
15.37700000
 20
11.13600000
  0
VERTEX
  8
0
 62
7
 10
15.43200000
 20
11.13600000
  0
VERTEX
  8
0
 62
7
 10
15.56112500
 20
11.14125000
  0
VERTEX
  8
0
 62
7
 10
15.68800000
 20
11.15100000
  0
VERTEX
  8
0
 62
7
 10
15.78600000
 20
11.15800000
  0
VERTEX
  8
0
 62
7
 10
15.83950000
 20
11.16162500
  0
VERTEX
  8
0
 62
7
 10
15.89000000
 20
11.16300000
  0
VERTEX
  8
0
 62
7
 10
15.92112500
 20
11.16237500
  0
VERTEX
  8
0
 62
7
 10
15.95150000
 20
11.16025000
  0
VERTEX
  8
0
 62
7
 10
15.98112500
 20
11.15625000
  0
VERTEX
  8
0
 62
7
 10
16.01000000
 20
11.15000000
  0
VERTEX
  8
0
 62
7
 10
16.03400000
 20
11.14500000
  0
VERTEX
  8
0
 62
7
 10
16.06415625
 20
11.13812500
  0
VERTEX
  8
0
 62
7
 10
16.08550000
 20
11.13200000
  0
VERTEX
  8
0
 62
7
 10
16.10009375
 20
11.12587500
  0
VERTEX
  8
0
 62
7
 10
16.11000000
 20
11.11900000
  0
VERTEX
  8
0
 62
7
 10
16.12575000
 20
11.10110938
  0
VERTEX
  8
0
 62
7
 10
16.13700000
 20
11.08087500
  0
VERTEX
  8
0
 62
7
 10
16.14375000
 20
11.05895313
  0
VERTEX
  8
0
 62
7
 10
16.14600000
 20
11.03600000
  0
VERTEX
  8
0
 62
7
 10
16.14504688
 20
11.02162500
  0
VERTEX
  8
0
 62
7
 10
16.14212500
 20
11.00725000
  0
VERTEX
  8
0
 62
7
 10
16.13714063
 20
10.99325000
  0
VERTEX
  8
0
 62
7
 10
16.13000000
 20
10.98000000
  0
VERTEX
  8
0
 62
7
 10
16.11885156
 20
10.95545117
  0
VERTEX
  8
0
 62
7
 10
16.11618750
 20
10.93117188
  0
VERTEX
  8
0
 62
7
 10
16.12092969
 20
10.90808789
  0
VERTEX
  8
0
 62
7
 10
16.13200000
 20
10.88712500
  0
VERTEX
  8
0
 62
7
 10
16.14832031
 20
10.86920898
  0
VERTEX
  8
0
 62
7
 10
16.16881250
 20
10.85526563
  0
VERTEX
  8
0
 62
7
 10
16.19239844
 20
10.84622070
  0
VERTEX
  8
0
 62
7
 10
16.21800000
 20
10.84300000
  0
VERTEX
  8
0
 62
7
 10
16.27737500
 20
10.84670313
  0
VERTEX
  8
0
 62
7
 10
16.33525000
 20
10.85762500
  0
VERTEX
  8
0
 62
7
 10
16.39125000
 20
10.87548438
  0
VERTEX
  8
0
 62
7
 10
16.44500000
 20
10.90000000
  0
VERTEX
  8
0
 62
7
 10
16.50073438
 20
10.93320313
  0
VERTEX
  8
0
 62
7
 10
16.55412500
 20
10.97287500
  0
VERTEX
  8
0
 62
7
 10
16.60320313
 20
11.01910938
  0
VERTEX
  8
0
 62
7
 10
16.64600000
 20
11.07200000
  0
VERTEX
  8
0
 62
7
 10
16.64700000
 20
10.95100000
  0
VERTEX
  8
0
 62
7
 10
16.64600000
 20
10.83200000
  0
VERTEX
  8
0
 62
7
 10
16.64500000
 20
10.74200000
  0
VERTEX
  8
0
 62
7
 10
16.64500000
 20
.04000000
  0
VERTEX
  8
0
 62
7
 10
16.73500000
 20
.04000000
  0
VERTEX
  8
0
 62
7
 10
16.73500000
 20
10.74200000
  0
VERTEX
  8
0
 62
7
 10
16.73687500
 20
10.88912500
  0
VERTEX
  8
0
 62
7
 10
16.73500000
 20
11.13300000
  0
VERTEX
  8
0
 62
7
 10
16.73041455
 20
11.24290894
  0
VERTEX
  8
0
 62
7
 10
16.72128516
 20
11.34819336
  0
VERTEX
  8
0
 62
7
 10
16.70780225
 20
11.44912720
  0
VERTEX
  8
0
 62
7
 10
16.69015625
 20
11.54598438
  0
VERTEX
  8
0
 62
7
 10
16.66853760
 20
11.63903882
  0
VERTEX
  8
0
 62
7
 10
16.64313672
 20
11.72856445
  0
VERTEX
  8
0
 62
7
 10
16.61414404
 20
11.81483521
  0
VERTEX
  8
0
 62
7
 10
16.58175000
 20
11.89812500
  0
VERTEX
  8
0
 62
7
 10
16.54614502
 20
11.97870776
  0
VERTEX
  8
0
 62
7
 10
16.50751953
 20
12.05685742
  0
VERTEX
  8
0
 62
7
 10
16.46606396
 20
12.13284790
  0
VERTEX
  8
0
 62
7
 10
16.42196875
 20
12.20695313
  0
VERTEX
  8
0
 62
7
 10
16.37542432
 20
12.27944702
  0
VERTEX
  8
0
 62
7
 10
16.32662109
 20
12.35060352
  0
VERTEX
  8
0
 62
7
 10
16.27574951
 20
12.42069653
  0
VERTEX
  8
0
 62
7
 10
16.22300000
 20
12.49000000
  0
VERTEX
  8
0
 62
7
 10
16.16653125
 20
12.55762500
  0
VERTEX
  8
0
 62
7
 10
16.09750000
 20
12.63275000
  0
VERTEX
  8
0
 62
7
 10
16.02471875
 20
12.70825000
  0
VERTEX
  8
0
 62
7
 10
15.95700000
 20
12.77700000
  0
VERTEX
  8
0
 62
7
 10
15.90146875
 20
12.82856250
  0
VERTEX
  8
0
 62
7
 10
15.84275000
 20
12.87750000
  0
VERTEX
  8
0
 62
7
 10
15.78065625
 20
12.92268750
  0
VERTEX
  8
0
 62
7
 10
15.71500000
 20
12.96300000
  0
VERTEX
  8
0
 62
7
 10
15.67891602
 20
12.98296875
  0
VERTEX
  8
0
 62
7
 10
15.64195313
 20
13.00087500
  0
VERTEX
  8
0
 62
7
 10
15.60416992
 20
13.01671875
  0
VERTEX
  8
0
 62
7
 10
15.56562500
 20
13.03050000
  0
VERTEX
  8
0
 62
7
 10
15.52637695
 20
13.04221875
  0
VERTEX
  8
0
 62
7
 10
15.48648438
 20
13.05187500
  0
VERTEX
  8
0
 62
7
 10
15.44600586
 20
13.05946875
  0
VERTEX
  8
0
 62
7
 10
15.40500000
 20
13.06500000
  0
VERTEX
  8
0
 62
7
 10
15.34260938
 20
13.07070313
  0
VERTEX
  8
0
 62
7
 10
15.28012500
 20
13.07312500
  0
VERTEX
  8
0
 62
7
 10
15.21782813
 20
13.07048438
  0
VERTEX
  8
0
 62
7
 10
15.15600000
 20
13.06100000
  0
VERTEX
  8
0
 62
7
 10
15.10137500
 20
13.04870313
  0
VERTEX
  8
0
 62
7
 10
15.04750000
 20
13.03237500
  0
VERTEX
  8
0
 62
7
 10
14.99512500
 20
13.01135938
  0
VERTEX
  8
0
 62
7
 10
14.94500000
 20
12.98500000
  0
VERTEX
  8
0
 62
7
 10
14.90300000
 20
12.95717188
  0
VERTEX
  8
0
 62
7
 10
14.86400000
 20
12.92512500
  0
VERTEX
  8
0
 62
7
 10
14.82800000
 20
12.88951563
  0
VERTEX
  8
0
 62
7
 10
14.79500000
 20
12.85100000
  0
VERTEX
  8
0
 62
7
 10
14.76600000
 20
12.80850000
  0
VERTEX
  8
0
 62
7
 10
14.74075000
 20
12.76375000
  0
VERTEX
  8
0
 62
7
 10
14.71962500
 20
12.71712500
  0
VERTEX
  8
0
 62
7
 10
14.70300000
 20
12.66900000
  0
VERTEX
  8
0
 62
7
 10
14.69449219
 20
12.63627539
  0
VERTEX
  8
0
 62
7
 10
14.68781250
 20
12.60276563
  0
VERTEX
  8
0
 62
7
 10
14.68310156
 20
12.56871680
  0
VERTEX
  8
0
 62
7
 10
14.68050000
 20
12.53437500
  0
VERTEX
  8
0
 62
7
 10
14.68014844
 20
12.49998633
  0
VERTEX
  8
0
 62
7
 10
14.68218750
 20
12.46579688
  0
VERTEX
  8
0
 62
7
 10
14.68675781
 20
12.43205273
  0
VERTEX
  8
0
 62
7
 10
14.69400000
 20
12.39900000
  0
VERTEX
  8
0
 62
7
 10
14.70167773
 20
12.37358984
  0
VERTEX
  8
0
 62
7
 10
14.71004688
 20
12.34909375
  0
VERTEX
  8
0
 62
7
 10
14.71961133
 20
12.32548828
  0
VERTEX
  8
0
 62
7
 10
14.73087500
 20
12.30275000
  0
VERTEX
  8
0
 62
7
 10
14.74434180
 20
12.28085547
  0
VERTEX
  8
0
 62
7
 10
14.76051563
 20
12.25978125
  0
VERTEX
  8
0
 62
7
 10
14.77990039
 20
12.23950391
  0
VERTEX
  8
0
 62
7
 10
14.80300000
 20
12.22000000
  0
VERTEX
  8
0
 62
7
 10
14.81970508
 20
12.20835547
  0
VERTEX
  8
0
 62
7
 10
14.83745313
 20
12.19884375
  0
VERTEX
  8
0
 62
7
 10
14.85606836
 20
12.19134766
  0
VERTEX
  8
0
 62
7
 10
14.87537500
 20
12.18575000
  0
VERTEX
  8
0
 62
7
 10
14.89519727
 20
12.18193359
  0
VERTEX
  8
0
 62
7
 10
14.91535938
 20
12.17978125
  0
VERTEX
  8
0
 62
7
 10
14.93568555
 20
12.17917578
  0
VERTEX
  8
0
 62
7
 10
14.95600000
 20
12.18000000
  0
VERTEX
  8
0
 62
7
 10
14.98543750
 20
12.18467188
  0
VERTEX
  8
0
 62
7
 10
15.01375000
 20
12.19262500
  0
VERTEX
  8
0
 62
7
 10
15.04093750
 20
12.20376563
  0
VERTEX
  8
0
 62
7
 10
15.06700000
 20
12.21800000
  0
VERTEX
  8
0
 62
7
 10
15.08085938
 20
12.19718750
  0
VERTEX
  8
0
 62
7
 10
15.09237500
 20
12.17525000
  0
VERTEX
  8
0
 62
7
 10
15.10145313
 20
12.15218750
  0
VERTEX
  8
0
 62
7
 10
15.10800000
 20
12.12800000
  0
VERTEX
  8
0
 62
7
 10
15.11157031
 20
12.10364453
  0
VERTEX
  8
0
 62
7
 10
15.11200000
 20
12.07940625
  0
VERTEX
  8
0
 62
7
 10
15.10961719
 20
12.05540234
  0
VERTEX
  8
0
 62
7
 10
15.10475000
 20
12.03175000
  0
VERTEX
  8
0
 62
7
 10
15.09772656
 20
12.00856641
  0
VERTEX
  8
0
 62
7
 10
15.08887500
 20
11.98596875
  0
VERTEX
  8
0
 62
7
 10
15.07852344
 20
11.96407422
  0
VERTEX
  8
0
 62
7
 10
15.06700000
 20
11.94300000
  0
VERTEX
  8
0
 62
7
 10
15.05027930
 20
11.91775000
  0
VERTEX
  8
0
 62
7
 10
15.03242188
 20
11.89568750
  0
VERTEX
  8
0
 62
7
 10
15.01350977
 20
11.87634375
  0
VERTEX
  8
0
 62
7
 10
14.99362500
 20
11.85925000
  0
VERTEX
  8
0
 62
7
 10
14.97284961
 20
11.84393750
  0
VERTEX
  8
0
 62
7
 10
14.95126563
 20
11.82993750
  0
VERTEX
  8
0
 62
7
 10
14.92895508
 20
11.81678125
  0
VERTEX
  8
0
 62
7
 10
14.90600000
 20
11.80400000
  0
VERTEX
  8
0
 62
7
 10
14.87125000
 20
11.78686523
  0
VERTEX
  8
0
 62
7
 10
14.83537500
 20
11.77285938
  0
VERTEX
  8
0
 62
7
 10
14.79856250
 20
11.76183008
  0
VERTEX
  8
0
 62
7
 10
14.76100000
 20
11.75362500
  0
VERTEX
  8
0
 62
7
 10
14.72287500
 20
11.74809180
  0
VERTEX
  8
0
 62
7
 10
14.68437500
 20
11.74507813
  0
VERTEX
  8
0
 62
7
 10
14.64568750
 20
11.74443164
  0
VERTEX
  8
0
 62
7
 10
14.60700000
 20
11.74600000
  0
VERTEX
  8
0
 62
7
 10
14.55010938
 20
11.75150000
  0
VERTEX
  8
0
 62
7
 10
14.49387500
 20
11.76150000
  0
VERTEX
  8
0
 62
7
 10
14.43895313
 20
11.77750000
  0
VERTEX
  8
0
 62
7
 10
14.38600000
 20
11.80100000
  0
VERTEX
  8
0
 62
7
 10
14.33937500
 20
11.83226563
  0
VERTEX
  8
0
 62
7
 10
14.29725000
 20
11.86887500
  0
VERTEX
  8
0
 62
7
 10
14.26000000
 20
11.91054688
  0
VERTEX
  8
0
 62
7
 10
14.22800000
 20
11.95700000
  0
VERTEX
  8
0
 62
7
 10
14.21356641
 20
11.98374414
  0
VERTEX
  8
0
 62
7
 10
14.20159375
 20
12.01139063
  0
VERTEX
  8
0
 62
7
 10
14.19182422
 20
12.03981055
  0
VERTEX
  8
0
 62
7
 10
14.18400000
 20
12.06887500
  0
VERTEX
  8
0
 62
7
 10
14.17786328
 20
12.09845508
  0
VERTEX
  8
0
 62
7
 10
14.17315625
 20
12.12842188
  0
VERTEX
  8
0
 62
7
 10
14.16962109
 20
12.15864648
  0
VERTEX
  8
0
 62
7
 10
14.16700000
 20
12.18900000
  0
VERTEX
  8
0
 62
7
 10
14.16631250
 20
12.25675000
  0
VERTEX
  8
0
 62
7
 10
14.17275000
 20
12.32450000
  0
VERTEX
  8
0
 62
7
 10
14.18556250
 20
12.39150000
  0
VERTEX
  8
0
 62
7
 10
14.20400000
 20
12.45700000
  0
VERTEX
  8
0
 62
7
 10
14.22818750
 20
12.52240625
  0
VERTEX
  8
0
 62
7
 10
14.25800000
 20
12.58425000
  0
VERTEX
  8
0
 62
7
 10
14.29231250
 20
12.64346875
  0
VERTEX
  8
0
 62
7
 10
14.33000000
 20
12.70100000
  0
VERTEX
  8
0
 62
7
 10
14.37540625
 20
12.76084375
  0
VERTEX
  8
0
 62
7
 10
14.42325000
 20
12.81600000
  0
VERTEX
  8
0
 62
7
 10
14.47371875
 20
12.86890625
  0
VERTEX
  8
0
 62
7
 10
14.52700000
 20
12.92200000
  0
VERTEX
  8
0
 62
7
 10
14.62612500
 20
13.01650000
  0
VERTEX
  8
0
 62
7
 10
14.72900000
 20
13.10800000
  0
VERTEX
  8
0
 62
7
 10
14.71100000
 20
13.12100000
  0
VERTEX
  8
0
 62
7
 10
14.62690625
 20
13.06098438
  0
VERTEX
  8
0
 62
7
 10
14.54600000
 20
12.99637500
  0
VERTEX
  8
0
 62
7
 10
14.46884375
 20
12.92707813
  0
VERTEX
  8
0
 62
7
 10
14.39600000
 20
12.85300000
  0
VERTEX
  8
0
 62
7
 10
14.35687500
 20
12.81131250
  0
VERTEX
  8
0
 62
7
 10
14.31925000
 20
12.76850000
  0
VERTEX
  8
0
 62
7
 10
14.28350000
 20
12.72418750
  0
VERTEX
  8
0
 62
7
 10
14.25000000
 20
12.67800000
  0
VERTEX
  8
0
 62
7
 10
14.22368750
 20
12.63557813
  0
VERTEX
  8
0
 62
7
 10
14.19925000
 20
12.59212500
  0
VERTEX
  8
0
 62
7
 10
14.17743750
 20
12.54735938
  0
VERTEX
  8
0
 62
7
 10
14.15900000
 20
12.50100000
  0
VERTEX
  8
0
 62
7
 10
14.13576563
 20
12.43395313
  0
VERTEX
  8
0
 62
7
 10
14.11862500
 20
12.36512500
  0
VERTEX
  8
0
 62
7
 10
14.10767188
 20
12.29498438
  0
VERTEX
  8
0
 62
7
 10
14.10300000
 20
12.22400000
  0
VERTEX
  8
0
 62
7
 10
14.10425000
 20
12.17289063
  0
VERTEX
  8
0
 62
7
 10
14.10775000
 20
12.12187500
  0
VERTEX
  8
0
 62
7
 10
14.11537500
 20
12.07142188
  0
VERTEX
  8
0
 62
7
 10
14.12900000
 20
12.02200000
  0
VERTEX
  8
0
 62
7
 10
14.15193750
 20
11.96762500
  0
VERTEX
  8
0
 62
7
 10
14.18125000
 20
11.91700000
  0
VERTEX
  8
0
 62
7
 10
14.21618750
 20
11.87012500
  0
VERTEX
  8
0
 62
7
 10
14.25600000
 20
11.82700000
  0
VERTEX
  8
0
 62
7
 10
14.29904688
 20
11.79012500
  0
VERTEX
  8
0
 62
7
 10
14.34537500
 20
11.75775000
  0
VERTEX
  8
0
 62
7
 10
14.39451563
 20
11.73025000
  0
VERTEX
  8
0
 62
7
 10
14.44600000
 20
11.70800000
  0
VERTEX
  8
0
 62
7
 10
14.50907813
 20
11.68878125
  0
VERTEX
  8
0
 62
7
 10
14.57262500
 20
11.67725000
  0
VERTEX
  8
0
 62
7
 10
14.63710938
 20
11.67284375
  0
VERTEX
  8
0
 62
7
 10
14.70300000
 20
11.67500000
  0
VERTEX
  8
0
 62
7
 10
14.75065625
 20
11.68054688
  0
VERTEX
  8
0
 62
7
 10
14.79850000
 20
11.68862500
  0
VERTEX
  8
0
 62
7
 10
14.84559375
 20
11.69989063
  0
VERTEX
  8
0
 62
7
 10
14.89100000
 20
11.71500000
  0
VERTEX
  8
0
 62
7
 10
14.92257813
 20
11.72735938
  0
VERTEX
  8
0
 62
7
 10
14.95387500
 20
11.74187500
  0
VERTEX
  8
0
 62
7
 10
14.98423438
 20
11.75845313
  0
VERTEX
  8
0
 62
7
 10
15.01300000
 20
11.77700000
  0
VERTEX
  8
0
 62
7
 10
15.05318750
 20
11.80862500
  0
VERTEX
  8
0
 62
7
 10
15.08925000
 20
11.84400000
  0
VERTEX
  8
0
 62
7
 10
15.12043750
 20
11.88387500
  0
VERTEX
  8
0
 62
7
 10
15.14600000
 20
11.92900000
  0
VERTEX
  8
0
 62
7
 10
15.15793945
 20
11.95957422
  0
VERTEX
  8
0
 62
7
 10
15.16801563
 20
11.99171875
  0
VERTEX
  8
0
 62
7
 10
15.17586523
 20
12.02494141
  0
VERTEX
  8
0
 62
7
 10
15.18112500
 20
12.05875000
  0
VERTEX
  8
0
 62
7
 10
15.18343164
 20
12.09265234
  0
VERTEX
  8
0
 62
7
 10
15.18242188
 20
12.12615625
  0
VERTEX
  8
0
 62
7
 10
15.17773242
 20
12.15876953
  0
VERTEX
  8
0
 62
7
 10
15.16900000
 20
12.19000000
  0
VERTEX
  8
0
 62
7
 10
15.15171875
 20
12.22842188
  0
VERTEX
  8
0
 62
7
 10
15.12900000
 20
12.26412500
  0
VERTEX
  8
0
 62
7
 10
15.10178125
 20
12.29701563
  0
VERTEX
  8
0
 62
7
 10
15.07100000
 20
12.32700000
  0
VERTEX
  8
0
 62
7
 10
15.05865820
 20
12.30427148
  0
VERTEX
  8
0
 62
7
 10
15.04295313
 20
12.28429688
  0
VERTEX
  8
0
 62
7
 10
15.02436523
 20
12.26739258
  0
VERTEX
  8
0
 62
7
 10
15.00337500
 20
12.25387500
  0
VERTEX
  8
0
 62
7
 10
14.98046289
 20
12.24406055
  0
VERTEX
  8
0
 62
7
 10
14.95610938
 20
12.23826563
  0
VERTEX
  8
0
 62
7
 10
14.93079492
 20
12.23680664
  0
VERTEX
  8
0
 62
7
 10
14.90500000
 20
12.24000000
  0
VERTEX
  8
0
 62
7
 10
14.88255273
 20
12.24655664
  0
VERTEX
  8
0
 62
7
 10
14.86173438
 20
12.25682813
  0
VERTEX
  8
0
 62
7
 10
14.84258008
 20
12.27021680
  0
VERTEX
  8
0
 62
7
 10
14.82512500
 20
12.28612500
  0
VERTEX
  8
0
 62
7
 10
14.80940430
 20
12.30395508
  0
VERTEX
  8
0
 62
7
 10
14.79545313
 20
12.32310938
  0
VERTEX
  8
0
 62
7
 10
14.78330664
 20
12.34299023
  0
VERTEX
  8
0
 62
7
 10
14.77300000
 20
12.36300000
  0
VERTEX
  8
0
 62
7
 10
14.75526563
 20
12.40701563
  0
VERTEX
  8
0
 62
7
 10
14.74437500
 20
12.44887500
  0
VERTEX
  8
0
 62
7
 10
14.73854688
 20
12.49054688
  0
VERTEX
  8
0
 62
7
 10
14.73600000
 20
12.53400000
  0
VERTEX
  8
0
 62
7
 10
14.73666797
 20
12.56481641
  0
VERTEX
  8
0
 62
7
 10
14.74003125
 20
12.59565625
  0
VERTEX
  8
0
 62
7
 10
14.74587891
 20
12.62635547
  0
VERTEX
  8
0
 62
7
 10
14.75400000
 20
12.65675000
  0
VERTEX
  8
0
 62
7
 10
14.76418359
 20
12.68667578
  0
VERTEX
  8
0
 62
7
 10
14.77621875
 20
12.71596875
  0
VERTEX
  8
0
 62
7
 10
14.78989453
 20
12.74446484
  0
VERTEX
  8
0
 62
7
 10
14.80500000
 20
12.77200000
  0
VERTEX
  8
0
 62
7
 10
14.82258984
 20
12.79829688
  0
VERTEX
  8
0
 62
7
 10
14.84221875
 20
12.82318750
  0
VERTEX
  8
0
 62
7
 10
14.86367578
 20
12.84667188
  0
VERTEX
  8
0
 62
7
 10
14.88675000
 20
12.86875000
  0
VERTEX
  8
0
 62
7
 10
14.91123047
 20
12.88942188
  0
VERTEX
  8
0
 62
7
 10
14.93690625
 20
12.90868750
  0
VERTEX
  8
0
 62
7
 10
14.96356641
 20
12.92654688
  0
VERTEX
  8
0
 62
7
 10
14.99100000
 20
12.94300000
  0
VERTEX
  8
0
 62
7
 10
15.03075977
 20
12.96318750
  0
VERTEX
  8
0
 62
7
 10
15.07189063
 20
12.97962500
  0
VERTEX
  8
0
 62
7
 10
15.11416992
 20
12.99250000
  0
VERTEX
  8
0
 62
7
 10
15.15737500
 20
13.00200000
  0
VERTEX
  8
0
 62
7
 10
15.20128320
 20
13.00831250
  0
VERTEX
  8
0
 62
7
 10
15.24567188
 20
13.01162500
  0
VERTEX
  8
0
 62
7
 10
15.29031836
 20
13.01212500
  0
VERTEX
  8
0
 62
7
 10
15.33500000
 20
13.01000000
  0
VERTEX
  8
0
 62
7
 10
15.40279688
 20
13.00212500
  0
VERTEX
  8
0
 62
7
 10
15.46937500
 20
12.98750000
  0
VERTEX
  8
0
 62
7
 10
15.53426563
 20
12.96612500
  0
VERTEX
  8
0
 62
7
 10
15.59700000
 20
12.93800000
  0
VERTEX
  8
0
 62
7
 10
15.64514063
 20
12.90900000
  0
VERTEX
  8
0
 62
7
 10
15.69037500
 20
12.87625000
  0
VERTEX
  8
0
 62
7
 10
15.73242188
 20
12.84012500
  0
VERTEX
  8
0
 62
7
 10
15.77100000
 20
12.80100000
  0
VERTEX
  8
0
 62
7
 10
15.81457813
 20
12.74620313
  0
VERTEX
  8
0
 62
7
 10
15.85112500
 20
12.68737500
  0
VERTEX
  8
0
 62
7
 10
15.88110938
 20
12.62535938
  0
VERTEX
  8
0
 62
7
 10
15.90500000
 20
12.56100000
  0
VERTEX
  8
0
 62
7
 10
15.91505859
 20
12.52477930
  0
VERTEX
  8
0
 62
7
 10
15.92284375
 20
12.48817188
  0
VERTEX
  8
0
 62
7
 10
15.92851953
 20
12.45125977
  0
VERTEX
  8
0
 62
7
 10
15.93225000
 20
12.41412500
  0
VERTEX
  8
0
 62
7
 10
15.93419922
 20
12.37684961
  0
VERTEX
  8
0
 62
7
 10
15.93453125
 20
12.33951563
  0
VERTEX
  8
0
 62
7
 10
15.93341016
 20
12.30220508
  0
VERTEX
  8
0
 62
7
 10
15.93100000
 20
12.26500000
  0
VERTEX
  8
0
 62
7
 10
15.92332813
 20
12.18967188
  0
VERTEX
  8
0
 62
7
 10
15.90937500
 20
12.11537500
  0
VERTEX
  8
0
 62
7
 10
15.88923438
 20
12.04239063
  0
VERTEX
  8
0
 62
7
 10
15.86300000
 20
11.97100000
  0
VERTEX
  8
0
 62
7
 10
15.90236353
 20
11.99525415
  0
VERTEX
  8
0
 62
7
 10
15.94470508
 20
12.01653320
  0
VERTEX
  8
0
 62
7
 10
15.98946362
 20
12.03467456
  0
VERTEX
  8
0
 62
7
 10
16.03607813
 20
12.04951563
  0
VERTEX
  8
0
 62
7
 10
16.08398755
 20
12.06089380
  0
VERTEX
  8
0
 62
7
 10
16.13263086
 20
12.06864648
  0
VERTEX
  8
0
 62
7
 10
16.18144702
 20
12.07261108
  0
VERTEX
  8
0
 62
7
 10
16.22987500
 20
12.07262500
  0
VERTEX
  8
0
 62
7
 10
16.27735376
 20
12.06852563
  0
VERTEX
  8
0
 62
7
 10
16.32332227
 20
12.06015039
  0
VERTEX
  8
0
 62
7
 10
16.36721948
 20
12.04733667
  0
VERTEX
  8
0
 62
7
 10
16.40848438
 20
12.02992188
  0
VERTEX
  8
0
 62
7
 10
16.44655591
 20
12.00774341
  0
VERTEX
  8
0
 62
7
 10
16.48087305
 20
11.98063867
  0
VERTEX
  8
0
 62
7
 10
16.51087476
 20
11.94844507
  0
VERTEX
  8
0
 62
7
 10
16.53600000
 20
11.91100000
  0
VERTEX
  8
0
 62
7
 10
16.42500000
 20
11.80800000
  0
VERTEX
  8
0
 62
7
 10
16.46149609
 20
11.77961328
  0
VERTEX
  8
0
 62
7
 10
16.49403125
 20
11.75115625
  0
VERTEX
  8
0
 62
7
 10
16.52305078
 20
11.72105859
  0
VERTEX
  8
0
 62
7
 10
16.54900000
 20
11.68775000
  0
VERTEX
  8
0
 62
7
 10
16.57232422
 20
11.64966016
  0
VERTEX
  8
0
 62
7
 10
16.59346875
 20
11.60521875
  0
VERTEX
  8
0
 62
7
 10
16.61287891
 20
11.55285547
  0
VERTEX
  8
0
 62
7
 10
16.63100000
 20
11.49100000
  0
VERTEX
  8
0
 62
7
 10
16.63890625
 20
11.45323633
  0
VERTEX
  8
0
 62
7
 10
16.64325000
 20
11.41389063
  0
VERTEX
  8
0
 62
7
 10
16.64421875
 20
11.37363086
  0
VERTEX
  8
0
 62
7
 10
16.64200000
 20
11.33312500
  0
VERTEX
  8
0
 62
7
 10
16.63678125
 20
11.29304102
  0
VERTEX
  8
0
 62
7
 10
16.62875000
 20
11.25404688
  0
VERTEX
  8
0
 62
7
 10
16.61809375
 20
11.21681055
  0
VERTEX
  8
0
 62
7
 10
16.60500000
 20
11.18200000
  0
VERTEX
  8
0
 62
7
 10
16.58865039
 20
11.14994141
  0
VERTEX
  8
0
 62
7
 10
16.56907813
 20
11.11978125
  0
VERTEX
  8
0
 62
7
 10
16.54662305
 20
11.09154297
  0
VERTEX
  8
0
 62
7
 10
16.52162500
 20
11.06525000
  0
VERTEX
  8
0
 62
7
 10
16.49442383
 20
11.04092578
  0
VERTEX
  8
0
 62
7
 10
16.46535938
 20
11.01859375
  0
VERTEX
  8
0
 62
7
 10
16.43477148
 20
10.99827734
  0
VERTEX
  8
0
 62
7
 10
16.40300000
 20
10.98000000
  0
VERTEX
  8
0
 62
7
 10
16.35620313
 20
10.95887500
  0
VERTEX
  8
0
 62
7
 10
16.30762500
 20
10.94375000
  0
VERTEX
  8
0
 62
7
 10
16.25773438
 20
10.93500000
  0
VERTEX
  8
0
 62
7
 10
16.20700000
 20
10.93300000
  0
VERTEX
  8
0
 62
7
 10
16.22267969
 20
10.96441797
  0
VERTEX
  8
0
 62
7
 10
16.23231250
 20
10.99740625
  0
VERTEX
  8
0
 62
7
 10
16.23603906
 20
11.03119141
  0
VERTEX
  8
0
 62
7
 10
16.23400000
 20
11.06500000
  0
VERTEX
  8
0
 62
7
 10
16.22633594
 20
11.09805859
  0
VERTEX
  8
0
 62
7
 10
16.21318750
 20
11.12959375
  0
VERTEX
  8
0
 62
7
 10
16.19469531
 20
11.15883203
  0
VERTEX
  8
0
 62
7
 10
16.17100000
 20
11.18500000
  0
VERTEX
  8
0
 62
7
 10
16.15604297
 20
11.19654688
  0
VERTEX
  8
0
 62
7
 10
16.13984375
 20
11.20593750
  0
VERTEX
  8
0
 62
7
 10
16.12266016
 20
11.21354688
  0
VERTEX
  8
0
 62
7
 10
16.10475000
 20
11.21975000
  0
VERTEX
  8
0
 62
7
 10
16.08637109
 20
11.22492188
  0
VERTEX
  8
0
 62
7
 10
16.06778125
 20
11.22943750
  0
VERTEX
  8
0
 62
7
 10
16.04923828
 20
11.23367188
  0
VERTEX
  8
0
 62
7
 10
16.03100000
 20
11.23800000
  0
VERTEX
  8
0
 62
7
 10
15.96898438
 20
11.24842188
  0
VERTEX
  8
0
 62
7
 10
15.90687500
 20
11.25237500
  0
VERTEX
  8
0
 62
7
 10
15.84382813
 20
11.25164063
  0
VERTEX
  8
0
 62
7
 10
15.77900000
 20
11.24800000
  0
VERTEX
  8
0
 62
7
 10
15.68581250
 20
11.24048438
  0
VERTEX
  8
0
 62
7
 10
15.59975000
 20
11.23362500
  0
VERTEX
  8
0
 62
7
 10
15.51631250
 20
11.22845313
  0
VERTEX
  8
0
 62
7
 10
15.43100000
 20
11.22600000
  0
VERTEX
  8
0
 62
7
 10
15.33109375
 20
11.22557813
  0
VERTEX
  8
0
 62
7
 10
15.23100000
 20
11.22787500
  0
VERTEX
  8
0
 62
7
 10
15.13090625
 20
11.23373438
  0
VERTEX
  8
0
 62
7
 10
15.03100000
 20
11.24400000
  0
VERTEX
  8
0
 62
7
 10
14.94615625
 20
11.25362500
  0
VERTEX
  8
0
 62
7
 10
14.86150000
 20
11.26550000
  0
VERTEX
  8
0
 62
7
 10
14.77759375
 20
11.28112500
  0
VERTEX
  8
0
 62
7
 10
14.69500000
 20
11.30200000
  0
VERTEX
  8
0
 62
7
 10
14.62821875
 20
11.32184375
  0
VERTEX
  8
0
 62
7
 10
14.56200000
 20
11.34375000
  0
VERTEX
  8
0
 62
7
 10
14.49728125
 20
11.36978125
  0
VERTEX
  8
0
 62
7
 10
14.43500000
 20
11.40200000
  0
VERTEX
  8
0
 62
7
 10
14.38667188
 20
11.43275000
  0
VERTEX
  8
0
 62
7
 10
14.34162500
 20
11.46725000
  0
VERTEX
  8
0
 62
7
 10
14.29901563
 20
11.50437500
  0
VERTEX
  8
0
 62
7
 10
14.25800000
 20
11.54300000
  0
VERTEX
  8
0
 62
7
 10
14.21579688
 20
11.58598438
  0
VERTEX
  8
0
 62
7
 10
14.17537500
 20
11.63112500
  0
VERTEX
  8
0
 62
7
 10
14.13776563
 20
11.67870313
  0
VERTEX
  8
0
 62
7
 10
14.10400000
 20
11.72900000
  0
VERTEX
  8
0
 62
7
 10
14.07654688
 20
11.77682813
  0
VERTEX
  8
0
 62
7
 10
14.05162500
 20
11.82587500
  0
VERTEX
  8
0
 62
7
 10
14.02989063
 20
11.87623438
  0
VERTEX
  8
0
 62
7
 10
14.01200000
 20
11.92800000
  0
VERTEX
  8
0
 62
7
 10
13.99415625
 20
11.99618750
  0
VERTEX
  8
0
 62
7
 10
13.98250000
 20
12.06550000
  0
VERTEX
  8
0
 62
7
 10
13.97684375
 20
12.13556250
  0
VERTEX
  8
0
 62
7
 10
13.97700000
 20
12.20600000
  0
VERTEX
  8
0
 62
7
 10
13.98171875
 20
12.27235938
  0
VERTEX
  8
0
 62
7
 10
13.99150000
 20
12.33787500
  0
VERTEX
  8
0
 62
7
 10
14.00653125
 20
12.40245313
  0
VERTEX
  8
0
 62
7
 10
14.02700000
 20
12.46600000
  0
VERTEX
  8
0
 62
7
 10
14.01300000
 20
12.47400000
  0
VERTEX
  8
0
 62
7
 10
13.98340625
 20
12.45228125
  0
VERTEX
  8
0
 62
7
 10
13.95625000
 20
12.42775000
  0
VERTEX
  8
0
 62
7
 10
13.93171875
 20
12.40059375
  0
VERTEX
  8
0
 62
7
 10
13.91000000
 20
12.37100000
  0
VERTEX
  8
0
 62
7
 10
13.89843750
 20
12.35109375
  0
VERTEX
  8
0
 62
7
 10
13.88725000
 20
12.33025000
  0
VERTEX
  8
0
 62
7
 10
13.87793750
 20
12.30828125
  0
VERTEX
  8
0
 62
7
 10
13.87200000
 20
12.28500000
  0
VERTEX
  8
0
 62
7
 10
13.86964063
 20
12.25703125
  0
VERTEX
  8
0
 62
7
 10
13.87187500
 20
12.22925000
  0
VERTEX
  8
0
 62
7
 10
13.87917188
 20
12.20259375
  0
VERTEX
  8
0
 62
7
 10
13.89200000
 20
12.17800000
  0
VERTEX
  8
0
 62
7
 10
13.90359375
 20
12.16170313
  0
VERTEX
  8
0
 62
7
 10
13.91725000
 20
12.14737500
  0
VERTEX
  8
0
 62
7
 10
13.93278125
 20
12.13510938
  0
VERTEX
  8
0
 62
7
 10
13.95000000
 20
12.12500000
  0
VERTEX
  8
0
 62
7
 10
13.92864063
 20
12.10909375
  0
VERTEX
  8
0
 62
7
 10
13.90437500
 20
12.09900000
  0
VERTEX
  8
0
 62
7
 10
13.87842188
 20
12.09490625
  0
VERTEX
  8
0
 62
7
 10
13.85200000
 20
12.09700000
  0
VERTEX
  8
0
 62
7
 10
13.82898438
 20
12.10460938
  0
VERTEX
  8
0
 62
7
 10
13.80812500
 20
12.11737500
  0
VERTEX
  8
0
 62
7
 10
13.78970313
 20
12.13370313
  0
VERTEX
  8
0
 62
7
 10
13.77400000
 20
12.15200000
  0
VERTEX
  8
0
 62
7
 10
13.76106250
 20
12.17178125
  0
VERTEX
  8
0
 62
7
 10
13.75150000
 20
12.19325000
  0
VERTEX
  8
0
 62
7
 10
13.74418750
 20
12.21584375
  0
VERTEX
  8
0
 62
7
 10
13.73800000
 20
12.23900000
  0
VERTEX
  8
0
 62
7
 10
13.71243750
 20
12.23064063
  0
VERTEX
  8
0
 62
7
 10
13.68575000
 20
12.22612500
  0
VERTEX
  8
0
 62
7
 10
13.65868750
 20
12.22479688
  0
VERTEX
  8
0
 62
7
 10
13.63200000
 20
12.22600000
  0
VERTEX
  8
0
 62
7
 10
13.61426563
 20
12.23001563
  0
VERTEX
  8
0
 62
7
 10
13.59737500
 20
12.23637500
  0
VERTEX
  8
0
 62
7
 10
13.58179688
 20
12.24554688
  0
VERTEX
  8
0
 62
7
 10
13.56800000
 20
12.25800000
  0
VERTEX
  8
0
 62
7
 10
13.55456250
 20
12.27676563
  0
VERTEX
  8
0
 62
7
 10
13.54600000
 20
12.29787500
  0
VERTEX
  8
0
 62
7
 10
13.54268750
 20
12.32029688
  0
VERTEX
  8
0
 62
7
 10
13.54500000
 20
12.34300000
  0
VERTEX
  8
0
 62
7
 10
13.59537500
 20
12.34662500
  0
VERTEX
  8
0
 62
7
 10
13.64500000
 20
12.35400000
  0
VERTEX
  8
0
 62
7
 10
13.68637500
 20
12.36637500
  0
VERTEX
  8
0
 62
7
 10
13.72700000
 20
12.38100000
  0
VERTEX
  8
0
 62
7
 10
13.76537500
 20
12.39931250
  0
VERTEX
  8
0
 62
7
 10
13.80150000
 20
12.42175000
  0
VERTEX
  8
0
 62
7
 10
13.83612500
 20
12.44681250
  0
VERTEX
  8
0
 62
7
 10
13.87000000
 20
12.47300000
  0
VERTEX
  8
0
 62
7
 10
13.94150000
 20
12.53550000
  0
VERTEX
  8
0
 62
7
 10
14.00700000
 20
12.60400000
  0
VERTEX
  8
0
 62
7
 10
14.00300000
 20
12.61200000
  0
VERTEX
  8
0
 62
7
 10
13.93906250
 20
12.56501563
  0
VERTEX
  8
0
 62
7
 10
13.87325000
 20
12.52037500
  0
VERTEX
  8
0
 62
7
 10
13.80556250
 20
12.47854688
  0
VERTEX
  8
0
 62
7
 10
13.73600000
 20
12.44000000
  0
VERTEX
  8
0
 62
7
 10
13.65878125
 20
12.40162500
  0
VERTEX
  8
0
 62
7
 10
13.58025000
 20
12.36775000
  0
VERTEX
  8
0
 62
7
 10
13.50059375
 20
12.33650000
  0
VERTEX
  8
0
 62
7
 10
13.42000000
 20
12.30600000
  0
VERTEX
  8
0
 62
7
 10
13.31942188
 20
12.26950000
  0
VERTEX
  8
0
 62
7
 10
13.21837500
 20
12.23450000
  0
VERTEX
  8
0
 62
7
 10
13.11639063
 20
12.20250000
  0
VERTEX
  8
0
 62
7
 10
13.01300000
 20
12.17500000
  0
VERTEX
  8
0
 62
7
 10
12.90596875
 20
12.15193750
  0
VERTEX
  8
0
 62
7
 10
12.79800000
 20
12.13375000
  0
VERTEX
  8
0
 62
7
 10
12.68928125
 20
12.12043750
  0
VERTEX
  8
0
 62
7
 10
12.58000000
 20
12.11200000
  0
VERTEX
  8
0
 62
7
 10
12.50590625
 20
12.10948438
  0
VERTEX
  8
0
 62
7
 10
12.43200000
 20
12.10912500
  0
VERTEX
  8
0
 62
7
 10
12.35809375
 20
12.11045313
  0
VERTEX
  8
0
 62
7
 10
12.28400000
 20
12.11300000
  0
VERTEX
  8
0
 62
7
 10
12.14410938
 20
12.12237500
  0
VERTEX
  8
0
 62
7
 10
12.00487500
 20
12.13700000
  0
VERTEX
  8
0
 62
7
 10
11.86620313
 20
12.15687500
  0
VERTEX
  8
0
 62
7
 10
11.72800000
 20
12.18200000
  0
VERTEX
  8
0
 62
7
 10
11.62273242
 20
12.20722656
  0
VERTEX
  8
0
 62
7
 10
11.51904688
 20
12.23737500
  0
VERTEX
  8
0
 62
7
 10
11.41674414
 20
12.27164844
  0
VERTEX
  8
0
 62
7
 10
11.31562500
 20
12.30925000
  0
VERTEX
  8
0
 62
7
 10
11.21549023
 20
12.34938281
  0
VERTEX
  8
0
 62
7
 10
11.11614063
 20
12.39125000
  0
VERTEX
  8
0
 62
7
 10
11.01737695
 20
12.43405469
  0
VERTEX
  8
0
 62
7
 10
10.91900000
 20
12.47700000
  0
VERTEX
  8
0
 62
7
 10
10.88726563
 20
12.49126563
  0
VERTEX
  8
0
 62
7
 10
10.85487500
 20
12.50487500
  0
VERTEX
  8
0
 62
7
 10
10.82154688
 20
12.51679688
  0
VERTEX
  8
0
 62
7
 10
10.78700000
 20
12.52600000
  0
VERTEX
  8
0
 62
7
 10
10.77033008
 20
12.52883398
  0
VERTEX
  8
0
 62
7
 10
10.75339063
 20
12.53179688
  0
VERTEX
  8
0
 62
7
 10
10.73628711
 20
12.53445508
  0
VERTEX
  8
0
 62
7
 10
10.71912500
 20
12.53637500
  0
VERTEX
  8
0
 62
7
 10
10.70200977
 20
12.53712305
  0
VERTEX
  8
0
 62
7
 10
10.68504688
 20
12.53626563
  0
VERTEX
  8
0
 62
7
 10
10.66834180
 20
12.53336914
  0
VERTEX
  8
0
 62
7
 10
10.65200000
 20
12.52800000
  0
VERTEX
  8
0
 62
7
 10
10.62932813
 20
12.51609375
  0
VERTEX
  8
0
 62
7
 10
10.60937500
 20
12.50025000
  0
VERTEX
  8
0
 62
7
 10
10.59223438
 20
12.48103125
  0
VERTEX
  8
0
 62
7
 10
10.57800000
 20
12.45900000
  0
VERTEX
  8
0
 62
7
 10
10.56843750
 20
12.43790625
  0
VERTEX
  8
0
 62
7
 10
10.56225000
 20
12.41550000
  0
VERTEX
  8
0
 62
7
 10
10.55943750
 20
12.39234375
  0
VERTEX
  8
0
 62
7
 10
10.56000000
 20
12.36900000
  0
VERTEX
  8
0
 62
7
 10
10.52632031
 20
12.36764258
  0
VERTEX
  8
0
 62
7
 10
10.49287500
 20
12.36882813
  0
VERTEX
  8
0
 62
7
 10
10.45980469
 20
12.37256836
  0
VERTEX
  8
0
 62
7
 10
10.42725000
 20
12.37887500
  0
VERTEX
  8
0
 62
7
 10
10.39535156
 20
12.38775977
  0
VERTEX
  8
0
 62
7
 10
10.36425000
 20
12.39923438
  0
VERTEX
  8
0
 62
7
 10
10.33408594
 20
12.41331055
  0
VERTEX
  8
0
 62
7
 10
10.30500000
 20
12.43000000
  0
VERTEX
  8
0
 62
7
 10
10.27528516
 20
12.45035547
  0
VERTEX
  8
0
 62
7
 10
10.24765625
 20
12.47303125
  0
VERTEX
  8
0
 62
7
 10
10.22213672
 20
12.49781641
  0
VERTEX
  8
0
 62
7
 10
10.19875000
 20
12.52450000
  0
VERTEX
  8
0
 62
7
 10
10.17751953
 20
12.55287109
  0
VERTEX
  8
0
 62
7
 10
10.15846875
 20
12.58271875
  0
VERTEX
  8
0
 62
7
 10
10.14162109
 20
12.61383203
  0
VERTEX
  8
0
 62
7
 10
10.12700000
 20
12.64600000
  0
VERTEX
  8
0
 62
7
 10
10.11194727
 20
12.68660547
  0
VERTEX
  8
0
 62
7
 10
10.10051563
 20
12.72803125
  0
VERTEX
  8
0
 62
7
 10
10.09266992
 20
12.77006641
  0
VERTEX
  8
0
 62
7
 10
10.08837500
 20
12.81250000
  0
VERTEX
  8
0
 62
7
 10
10.08759570
 20
12.85512109
  0
VERTEX
  8
0
 62
7
 10
10.09029688
 20
12.89771875
  0
VERTEX
  8
0
 62
7
 10
10.09644336
 20
12.94008203
  0
VERTEX
  8
0
 62
7
 10
10.10600000
 20
12.98200000
  0
VERTEX
  8
0
 62
7
 10
10.11619141
 20
13.01435938
  0
VERTEX
  8
0
 62
7
 10
10.12809375
 20
13.04606250
  0
VERTEX
  8
0
 62
7
 10
10.14182422
 20
13.07692188
  0
VERTEX
  8
0
 62
7
 10
10.15750000
 20
13.10675000
  0
VERTEX
  8
0
 62
7
 10
10.17523828
 20
13.13535938
  0
VERTEX
  8
0
 62
7
 10
10.19515625
 20
13.16256250
  0
VERTEX
  8
0
 62
7
 10
10.21737109
 20
13.18817188
  0
VERTEX
  8
0
 62
7
 10
10.24200000
 20
13.21200000
  0
VERTEX
  8
0
 62
7
 10
10.27120117
 20
13.23568555
  0
VERTEX
  8
0
 62
7
 10
10.30235938
 20
13.25598438
  0
VERTEX
  8
0
 62
7
 10
10.33518164
 20
13.27325977
  0
VERTEX
  8
0
 62
7
 10
10.36937500
 20
13.28787500
  0
VERTEX
  8
0
 62
7
 10
10.40464648
 20
13.30019336
  0
VERTEX
  8
0
 62
7
 10
10.44070313
 20
13.31057813
  0
VERTEX
  8
0
 62
7
 10
10.47725195
 20
13.31939258
  0
VERTEX
  8
0
 62
7
 10
10.51400000
 20
13.32700000
  0
VERTEX
  8
0
 62
7
 10
10.56020508
 20
13.33416797
  0
VERTEX
  8
0
 62
7
 10
10.60651563
 20
13.33784375
  0
VERTEX
  8
0
 62
7
 10
10.65284961
 20
13.33828516
  0
VERTEX
  8
0
 62
7
 10
10.69912500
 20
13.33575000
  0
VERTEX
  8
0
 62
7
 10
10.74525977
 20
13.33049609
  0
VERTEX
  8
0
 62
7
 10
10.79117188
 20
13.32278125
  0
VERTEX
  8
0
 62
7
 10
10.83677930
 20
13.31286328
  0
VERTEX
  8
0
 62
7
 10
10.88200000
 20
13.30100000
  0
VERTEX
  8
0
 62
7
 10
10.94795313
 20
13.27860938
  0
VERTEX
  8
0
 62
7
 10
11.01212500
 20
13.25162500
  0
VERTEX
  8
0
 62
7
 10
11.07423438
 20
13.21957813
  0
VERTEX
  8
0
 62
7
 10
11.13400000
 20
13.18200000
  0
VERTEX
  8
0
 62
7
 10
11.17809375
 20
13.15135938
  0
VERTEX
  8
0
 62
7
 10
11.21675000
 20
13.12137500
  0
VERTEX
  8
0
 62
7
 10
11.25353125
 20
13.08820313
  0
VERTEX
  8
0
 62
7
 10
11.29200000
 20
13.04800000
  0
VERTEX
  8
0
 62
7
 10
11.32746875
 20
13.00428125
  0
VERTEX
  8
0
 62
7
 10
11.36200000
 20
12.95550000
  0
VERTEX
  8
0
 62
7
 10
11.39578125
 20
12.90371875
  0
VERTEX
  8
0
 62
7
 10
11.42900000
 20
12.85100000
  0
VERTEX
  8
0
 62
7
 10
11.46167188
 20
12.80356250
  0
VERTEX
  8
0
 62
7
 10
11.49762500
 20
12.75575000
  0
VERTEX
  8
0
 62
7
 10
11.53601563
 20
12.70981250
  0
VERTEX
  8
0
 62
7
 10
11.57600000
 20
12.66800000
  0
VERTEX
  8
0
 62
7
 10
11.63279688
 20
12.61968750
  0
VERTEX
  8
0
 62
7
 10
11.69437500
 20
12.57625000
  0
VERTEX
  8
0
 62
7
 10
11.75951563
 20
12.53693750
  0
VERTEX
  8
0
 62
7
 10
11.82700000
 20
12.50100000
  0
VERTEX
  8
0
 62
7
 10
11.86686719
 20
12.48192383
  0
VERTEX
  8
0
 62
7
 10
11.90762500
 20
12.46501563
  0
VERTEX
  8
0
 62
7
 10
11.94913281
 20
12.45000586
  0
VERTEX
  8
0
 62
7
 10
11.99125000
 20
12.43662500
  0
VERTEX
  8
0
 62
7
 10
12.03383594
 20
12.42460352
  0
VERTEX
  8
0
 62
7
 10
12.07675000
 20
12.41367188
  0
VERTEX
  8
0
 62
7
 10
12.11985156
 20
12.40356055
  0
VERTEX
  8
0
 62
7
 10
12.16300000
 20
12.39400000
  0
VERTEX
  8
0
 62
7
 10
12.25834375
 20
12.37501563
  0
VERTEX
  8
0
 62
7
 10
12.35500000
 20
12.36137500
  0
VERTEX
  8
0
 62
7
 10
12.45240625
 20
12.35279688
  0
VERTEX
  8
0
 62
7
 10
12.55000000
 20
12.34900000
  0
VERTEX
  8
0
 62
7
 10
12.64578125
 20
12.35034375
  0
VERTEX
  8
0
 62
7
 10
12.74100000
 20
12.35675000
  0
VERTEX
  8
0
 62
7
 10
12.83546875
 20
12.36728125
  0
VERTEX
  8
0
 62
7
 10
12.92900000
 20
12.38100000
  0
VERTEX
  8
0
 62
7
 10
13.01939063
 20
12.39645313
  0
VERTEX
  8
0
 62
7
 10
13.10912500
 20
12.41537500
  0
VERTEX
  8
0
 62
7
 10
13.19829688
 20
12.43710938
  0
VERTEX
  8
0
 62
7
 10
13.28700000
 20
12.46100000
  0
VERTEX
  8
0
 62
7
 10
13.39248438
 20
12.49270313
  0
VERTEX
  8
0
 62
7
 10
13.49637500
 20
12.52862500
  0
VERTEX
  8
0
 62
7
 10
13.59932813
 20
12.56773438
  0
VERTEX
  8
0
 62
7
 10
13.70200000
 20
12.60900000
  0
VERTEX
  8
0
 62
7
 10
13.87500000
 20
12.68375000
  0
VERTEX
  8
0
 62
7
 10
14.04500000
 20
12.76600000
  0
VERTEX
  8
0
 62
7
 10
14.04000000
 20
12.78400000
  0
VERTEX
  8
0
 62
7
 10
13.90835938
 20
12.72287500
  0
VERTEX
  8
0
 62
7
 10
13.77437500
 20
12.66700000
  0
VERTEX
  8
0
 62
7
 10
13.63795313
 20
12.61637500
  0
VERTEX
  8
0
 62
7
 10
13.49900000
 20
12.57100000
  0
VERTEX
  8
0
 62
7
 10
13.41309375
 20
12.54431250
  0
VERTEX
  8
0
 62
7
 10
13.32550000
 20
12.51875000
  0
VERTEX
  8
0
 62
7
 10
13.23715625
 20
12.49506250
  0
VERTEX
  8
0
 62
7
 10
13.14900000
 20
12.47400000
  0
VERTEX
  8
0
 62
7
 10
13.05593750
 20
12.45453125
  0
VERTEX
  8
0
 62
7
 10
12.96625000
 20
12.43825000
  0
VERTEX
  8
0
 62
7
 10
12.87618750
 20
12.42534375
  0
VERTEX
  8
0
 62
7
 10
12.78200000
 20
12.41600000
  0
VERTEX
  8
0
 62
7
 10
12.71028125
 20
12.41035938
  0
VERTEX
  8
0
 62
7
 10
12.63350000
 20
12.40612500
  0
VERTEX
  8
0
 62
7
 10
12.55671875
 20
12.40432813
  0
VERTEX
  8
0
 62
7
 10
12.48500000
 20
12.40600000
  0
VERTEX
  8
0
 62
7
 10
12.40410938
 20
12.41231250
  0
VERTEX
  8
0
 62
7
 10
12.32537500
 20
12.42125000
  0
VERTEX
  8
0
 62
7
 10
12.24720313
 20
12.43356250
  0
VERTEX
  8
0
 62
7
 10
12.16800000
 20
12.45000000
  0
VERTEX
  8
0
 62
7
 10
12.10357813
 20
12.46487500
  0
VERTEX
  8
0
 62
7
 10
12.04037500
 20
12.48275000
  0
VERTEX
  8
0
 62
7
 10
11.97773438
 20
12.50400000
  0
VERTEX
  8
0
 62
7
 10
11.91500000
 20
12.52900000
  0
VERTEX
  8
0
 62
7
 10
11.86057813
 20
12.55446875
  0
VERTEX
  8
0
 62
7
 10
11.80812500
 20
12.58275000
  0
VERTEX
  8
0
 62
7
 10
11.75735938
 20
12.61365625
  0
VERTEX
  8
0
 62
7
 10
11.70800000
 20
12.64700000
  0
VERTEX
  8
0
 62
7
 10
11.64237500
 20
12.69937500
  0
VERTEX
  8
0
 62
7
 10
11.58200000
 20
12.75700000
  0
VERTEX
  8
0
 62
7
 10
11.55406250
 20
12.78764063
  0
VERTEX
  8
0
 62
7
 10
11.52800000
 20
12.81987500
  0
VERTEX
  8
0
 62
7
 10
11.50493750
 20
12.85417188
  0
VERTEX
  8
0
 62
7
 10
11.48600000
 20
12.89100000
  0
VERTEX
  8
0
 62
7
 10
11.46860938
 20
12.93520313
  0
VERTEX
  8
0
 62
7
 10
11.45712500
 20
12.98062500
  0
VERTEX
  8
0
 62
7
 10
11.45182813
 20
13.02698438
  0
VERTEX
  8
0
 62
7
 10
11.45300000
 20
13.07400000
  0
VERTEX
  8
0
 62
7
 10
11.45519336
 20
13.09991992
  0
VERTEX
  8
0
 62
7
 10
11.45892188
 20
13.12573438
  0
VERTEX
  8
0
 62
7
 10
11.46440820
 20
13.15115039
  0
VERTEX
  8
0
 62
7
 10
11.47187500
 20
13.17587500
  0
VERTEX
  8
0
 62
7
 10
11.48154492
 20
13.19961523
  0
VERTEX
  8
0
 62
7
 10
11.49364063
 20
13.22207813
  0
VERTEX
  8
0
 62
7
 10
11.50838477
 20
13.24297070
  0
VERTEX
  8
0
 62
7
 10
11.52600000
 20
13.26200000
  0
VERTEX
  8
0
 62
7
 10
11.54396680
 20
13.27722070
  0
VERTEX
  8
0
 62
7
 10
11.56323438
 20
13.29001563
  0
VERTEX
  8
0
 62
7
 10
11.58360352
 20
13.30058398
  0
VERTEX
  8
0
 62
7
 10
11.60487500
 20
13.30912500
  0
VERTEX
  8
0
 62
7
 10
11.62684961
 20
13.31583789
  0
VERTEX
  8
0
 62
7
 10
11.64932813
 20
13.32092188
  0
VERTEX
  8
0
 62
7
 10
11.67211133
 20
13.32457617
  0
VERTEX
  8
0
 62
7
 10
11.69500000
 20
13.32700000
  0
VERTEX
  8
0
 62
7
 10
11.73156250
 20
13.32871875
  0
VERTEX
  8
0
 62
7
 10
11.76775000
 20
13.32575000
  0
VERTEX
  8
0
 62
7
 10
11.80356250
 20
13.31940625
  0
VERTEX
  8
0
 62
7
 10
11.83900000
 20
13.31100000
  0
VERTEX
  8
0
 62
7
 10
11.87092188
 20
13.30056250
  0
VERTEX
  8
0
 62
7
 10
11.90162500
 20
13.28675000
  0
VERTEX
  8
0
 62
7
 10
11.93251563
 20
13.27331250
  0
VERTEX
  8
0
 62
7
 10
11.96500000
 20
13.26400000
  0
VERTEX
  8
0
 62
7
 10
11.99850000
 20
13.25975000
  0
VERTEX
  8
0
 62
7
 10
12.03200000
 20
13.26000000
  0
VERTEX
  8
0
 62
7
 10
12.06673438
 20
13.26376563
  0
VERTEX
  8
0
 62
7
 10
12.10062500
 20
13.27212500
  0
VERTEX
  8
0
 62
7
 10
12.13395313
 20
13.28292188
  0
VERTEX
  8
0
 62
7
 10
12.16700000
 20
13.29400000
  0
VERTEX
  8
0
 62
7
 10
12.19489063
 20
13.30390625
  0
VERTEX
  8
0
 62
7
 10
12.22212500
 20
13.31550000
  0
VERTEX
  8
0
 62
7
 10
12.24954688
 20
13.32634375
  0
VERTEX
  8
0
 62
7
 10
12.27800000
 20
13.33400000
  0
VERTEX
  8
0
 62
7
 10
12.31503125
 20
13.34070313
  0
VERTEX
  8
0
 62
7
 10
12.35225000
 20
13.34337500
  0
VERTEX
  8
0
 62
7
 10
12.38909375
 20
13.34060938
  0
VERTEX
  8
0
 62
7
 10
12.42500000
 20
13.33100000
  0
VERTEX
  8
0
 62
7
 10
12.45284375
 20
13.31923438
  0
VERTEX
  8
0
 62
7
 10
12.47900000
 20
13.30362500
  0
VERTEX
  8
0
 62
7
 10
12.50290625
 20
13.28445313
  0
VERTEX
  8
0
 62
7
 10
12.52400000
 20
13.26200000
  0
VERTEX
  8
0
 62
7
 10
12.50895313
 20
13.23098438
  0
VERTEX
  8
0
 62
7
 10
12.49662500
 20
13.19837500
  0
VERTEX
  8
0
 62
7
 10
12.48673438
 20
13.16482813
  0
VERTEX
  8
0
 62
7
 10
12.47900000
 20
13.13100000
  0
VERTEX
  8
0
 62
7
 10
12.47617383
 20
13.10388086
  0
VERTEX
  8
0
 62
7
 10
12.47457813
 20
13.07660938
  0
VERTEX
  8
0
 62
7
 10
12.47441211
 20
13.04931445
  0
VERTEX
  8
0
 62
7
 10
12.47587500
 20
13.02212500
  0
VERTEX
  8
0
 62
7
 10
12.47916602
 20
12.99516992
  0
VERTEX
  8
0
 62
7
 10
12.48448438
 20
12.96857813
  0
VERTEX
  8
0
 62
7
 10
12.49202930
 20
12.94247852
  0
VERTEX
  8
0
 62
7
 10
12.50200000
 20
12.91700000
  0
VERTEX
  8
0
 62
7
 10
12.51317383
 20
12.89285742
  0
VERTEX
  8
0
 62
7
 10
12.52632813
 20
12.86992188
  0
VERTEX
  8
0
 62
7
 10
12.54128711
 20
12.84818164
  0
VERTEX
  8
0
 62
7
 10
12.55787500
 20
12.82762500
  0
VERTEX
  8
0
 62
7
 10
12.57591602
 20
12.80824023
  0
VERTEX
  8
0
 62
7
 10
12.59523438
 20
12.79001563
  0
VERTEX
  8
0
 62
7
 10
12.61565430
 20
12.77293945
  0
VERTEX
  8
0
 62
7
 10
12.63700000
 20
12.75700000
  0
VERTEX
  8
0
 62
7
 10
12.66312500
 20
12.74043945
  0
VERTEX
  8
0
 62
7
 10
12.69037500
 20
12.72651563
  0
VERTEX
  8
0
 62
7
 10
12.71856250
 20
12.71486523
  0
VERTEX
  8
0
 62
7
 10
12.74750000
 20
12.70512500
  0
VERTEX
  8
0
 62
7
 10
12.77700000
 20
12.69693164
  0
VERTEX
  8
0
 62
7
 10
12.80687500
 20
12.68992188
  0
VERTEX
  8
0
 62
7
 10
12.83693750
 20
12.68373242
  0
VERTEX
  8
0
 62
7
 10
12.86700000
 20
12.67800000
  0
VERTEX
  8
0
 62
7
 10
12.90762891
 20
12.67285938
  0
VERTEX
  8
0
 62
7
 10
12.94846875
 20
12.67062500
  0
VERTEX
  8
0
 62
7
 10
12.98944922
 20
12.67082813
  0
VERTEX
  8
0
 62
7
 10
13.03050000
 20
12.67300000
  0
VERTEX
  8
0
 62
7
 10
13.07155078
 20
12.67667188
  0
VERTEX
  8
0
 62
7
 10
13.11253125
 20
12.68137500
  0
VERTEX
  8
0
 62
7
 10
13.15337109
 20
12.68664063
  0
VERTEX
  8
0
 62
7
 10
13.19400000
 20
12.69200000
  0
VERTEX
  8
0
 62
7
 10
13.28600000
 20
12.70998438
  0
VERTEX
  8
0
 62
7
 10
13.37650000
 20
12.73387500
  0
VERTEX
  8
0
 62
7
 10
13.46625000
 20
12.76132813
  0
VERTEX
  8
0
 62
7
 10
13.55600000
 20
12.79000000
  0
VERTEX
  8
0
 62
7
 10
13.64567188
 20
12.82073438
  0
VERTEX
  8
0
 62
7
 10
13.73487500
 20
12.85362500
  0
VERTEX
  8
0
 62
7
 10
13.82389063
 20
12.88745313
  0
VERTEX
  8
0
 62
7
 10
13.91300000
 20
12.92100000
  0
VERTEX
  8
0
 62
7
 10
14.24700000
 20
13.04600000
  0
VERTEX
  8
0
 62
7
 10
14.24700000
 20
13.06300000
  0
VERTEX
  8
0
 62
7
 10
14.10762500
 20
13.01962500
  0
VERTEX
  8
0
 62
7
 10
13.96900000
 20
12.97400000
  0
VERTEX
  8
0
 62
7
 10
13.63100000
 20
12.85400000
  0
VERTEX
  8
0
 62
7
 10
13.51087500
 20
12.81500000
  0
VERTEX
  8
0
 62
7
 10
13.39000000
 20
12.77900000
  0
VERTEX
  8
0
 62
7
 10
13.33462500
 20
12.76534375
  0
VERTEX
  8
0
 62
7
 10
13.27925000
 20
12.75225000
  0
VERTEX
  8
0
 62
7
 10
13.22350000
 20
12.74103125
  0
VERTEX
  8
0
 62
7
 10
13.16700000
 20
12.73300000
  0
VERTEX
  8
0
 62
7
 10
13.12820752
 20
12.72854053
  0
VERTEX
  8
0
 62
7
 10
13.08883203
 20
12.72469922
  0
VERTEX
  8
0
 62
7
 10
13.04906396
 20
12.72171924
  0
VERTEX
  8
0
 62
7
 10
13.00909375
 20
12.71984375
  0
VERTEX
  8
0
 62
7
 10
12.96911182
 20
12.71931592
  0
VERTEX
  8
0
 62
7
 10
12.92930859
 20
12.72037891
  0
VERTEX
  8
0
 62
7
 10
12.88987451
 20
12.72327588
  0
VERTEX
  8
0
 62
7
 10
12.85100000
 20
12.72825000
  0
VERTEX
  8
0
 62
7
 10
12.81287549
 20
12.73554443
  0
VERTEX
  8
0
 62
7
 10
12.77569141
 20
12.74540234
  0
VERTEX
  8
0
 62
7
 10
12.73963818
 20
12.75806689
  0
VERTEX
  8
0
 62
7
 10
12.70490625
 20
12.77378125
  0
VERTEX
  8
0
 62
7
 10
12.67168604
 20
12.79278857
  0
VERTEX
  8
0
 62
7
 10
12.64016797
 20
12.81533203
  0
VERTEX
  8
0
 62
7
 10
12.61054248
 20
12.84165479
  0
VERTEX
  8
0
 62
7
 10
12.58300000
 20
12.87200000
  0
VERTEX
  8
0
 62
7
 10
12.56369141
 20
12.89847656
  0
VERTEX
  8
0
 62
7
 10
12.54778125
 20
12.92668750
  0
VERTEX
  8
0
 62
7
 10
12.53529297
 20
12.95630469
  0
VERTEX
  8
0
 62
7
 10
12.52625000
 20
12.98700000
  0
VERTEX
  8
0
 62
7
 10
12.52067578
 20
13.01844531
  0
VERTEX
  8
0
 62
7
 10
12.51859375
 20
13.05031250
  0
VERTEX
  8
0
 62
7
 10
12.52002734
 20
13.08227344
  0
VERTEX
  8
0
 62
7
 10
12.52500000
 20
13.11400000
  0
VERTEX
  8
0
 62
7
 10
12.53093164
 20
13.13711328
  0
VERTEX
  8
0
 62
7
 10
12.53832813
 20
13.15978125
  0
VERTEX
  8
0
 62
7
 10
12.54734180
 20
13.18174609
  0
VERTEX
  8
0
 62
7
 10
12.55812500
 20
13.20275000
  0
VERTEX
  8
0
 62
7
 10
12.57083008
 20
13.22253516
  0
VERTEX
  8
0
 62
7
 10
12.58560938
 20
13.24084375
  0
VERTEX
  8
0
 62
7
 10
12.60261523
 20
13.25741797
  0
VERTEX
  8
0
 62
7
 10
12.62200000
 20
13.27200000
  0
VERTEX
  8
0
 62
7
 10
12.65440625
 20
13.28714063
  0
VERTEX
  8
0
 62
7
 10
12.68925000
 20
13.29562500
  0
VERTEX
  8
0
 62
7
 10
12.72521875
 20
13.30054688
  0
VERTEX
  8
0
 62
7
 10
12.76100000
 20
13.30500000
  0
VERTEX
  8
0
 62
7
 10
12.78395898
 20
13.30652148
  0
VERTEX
  8
0
 62
7
 10
12.80704688
 20
13.30573438
  0
VERTEX
  8
0
 62
7
 10
12.83020508
 20
13.30361133
  0
VERTEX
  8
0
 62
7
 10
12.85337500
 20
13.30112500
  0
VERTEX
  8
0
 62
7
 10
12.87649805
 20
13.29924805
  0
VERTEX
  8
0
 62
7
 10
12.89951563
 20
13.29895313
  0
VERTEX
  8
0
 62
7
 10
12.92236914
 20
13.30121289
  0
VERTEX
  8
0
 62
7
 10
12.94500000
 20
13.30700000
  0
VERTEX
  8
0
 62
7
 10
13.00700000
 20
13.33800000
  0
VERTEX
  8
0
 62
7
 10
13.02630469
 20
13.34555664
  0
VERTEX
  8
0
 62
7
 10
13.04593750
 20
13.35289063
  0
VERTEX
  8
0
 62
7
 10
13.06585156
 20
13.35949805
  0
VERTEX
  8
0
 62
7
 10
13.08600000
 20
13.36487500
  0
VERTEX
  8
0
 62
7
 10
13.10633594
 20
13.36851758
  0
VERTEX
  8
0
 62
7
 10
13.12681250
 20
13.36992188
  0
VERTEX
  8
0
 62
7
 10
13.14738281
 20
13.36858398
  0
VERTEX
  8
0
 62
7
 10
13.16800000
 20
13.36400000
  0
VERTEX
  8
0
 62
7
 10
13.19812500
 20
13.35025000
  0
VERTEX
  8
0
 62
7
 10
13.22600000
 20
13.33200000
  0
VERTEX
  8
0
 62
7
 10
13.25132813
 20
13.31025000
  0
VERTEX
  8
0
 62
7
 10
13.27262500
 20
13.28475000
  0
VERTEX
  8
0
 62
7
 10
13.29335938
 20
13.25887500
  0
VERTEX
  8
0
 62
7
 10
13.31700000
 20
13.23600000
  0
VERTEX
  8
0
 62
7
 10
13.35320313
 20
13.21051563
  0
VERTEX
  8
0
 62
7
 10
13.39137500
 20
13.18887500
  0
VERTEX
  8
0
 62
7
 10
13.43160938
 20
13.17229688
  0
VERTEX
  8
0
 62
7
 10
13.47400000
 20
13.16200000
  0
VERTEX
  8
0
 62
7
 10
13.50359375
 20
13.15835938
  0
VERTEX
  8
0
 62
7
 10
13.53375000
 20
13.15837500
  0
VERTEX
  8
0
 62
7
 10
13.56428125
 20
13.16045313
  0
VERTEX
  8
0
 62
7
 10
13.59500000
 20
13.16300000
  0
VERTEX
  8
0
 62
7
 10
13.65750000
 20
13.17078125
  0
VERTEX
  8
0
 62
7
 10
13.71925000
 20
13.18325000
  0
VERTEX
  8
0
 62
7
 10
13.78062500
 20
13.19759375
  0
VERTEX
  8
0
 62
7
 10
13.84200000
 20
13.21100000
  0
VERTEX
  8
0
 62
7
 10
14.01075000
 20
13.24550000
  0
VERTEX
  8
0
 62
7
 10
14.18100000
 20
13.27700000
  0
VERTEX
  8
0
 62
7
 10
14.28468750
 20
13.29310938
  0
VERTEX
  8
0
 62
7
 10
14.38875000
 20
13.30687500
  0
VERTEX
  8
0
 62
7
 10
14.49318750
 20
13.31820313
  0
VERTEX
  8
0
 62
7
 10
14.59800000
 20
13.32700000
  0
VERTEX
  8
0
 62
7
 10
14.65579492
 20
13.33158203
  0
VERTEX
  8
0
 62
7
 10
14.71367188
 20
13.33609375
  0
VERTEX
  8
0
 62
7
 10
14.77161914
 20
13.34018359
  0
VERTEX
  8
0
 62
7
 10
14.82962500
 20
13.34350000
  0
VERTEX
  8
0
 62
7
 10
14.88767773
 20
13.34569141
  0
VERTEX
  8
0
 62
7
 10
14.94576563
 20
13.34640625
  0
VERTEX
  8
0
 62
7
 10
15.00387695
 20
13.34529297
  0
VERTEX
  8
0
 62
7
 10
15.06200000
 20
13.34200000
  0
VERTEX
  8
0
 62
7
 10
15.13575781
 20
13.33514844
  0
VERTEX
  8
0
 62
7
 10
15.20918750
 20
13.32637500
  0
VERTEX
  8
0
 62
7
 10
15.28214844
 20
13.31535156
  0
VERTEX
  8
0
 62
7
 10
15.35450000
 20
13.30175000
  0
VERTEX
  8
0
 62
7
 10
15.42610156
 20
13.28524219
  0
VERTEX
  8
0
 62
7
 10
15.49681250
 20
13.26550000
  0
VERTEX
  8
0
 62
7
 10
15.56649219
 20
13.24219531
  0
VERTEX
  8
0
 62
7
 10
15.63500000
 20
13.21500000
  0
VERTEX
  8
0
 62
7
 10
15.70103125
 20
13.18370313
  0
VERTEX
  8
0
 62
7
 10
15.76575000
 20
13.14987500
  0
VERTEX
  8
0
 62
7
 10
15.82934375
 20
13.11360938
  0
VERTEX
  8
0
 62
7
 10
15.89200000
 20
13.07500000
  0
VERTEX
  8
0
 62
7
 10
15.95887500
 20
13.03034375
  0
VERTEX
  8
0
 62
7
 10
16.02425000
 20
12.98325000
  0
VERTEX
  8
0
 62
7
 10
16.08775000
 20
12.93353125
  0
VERTEX
  8
0
 62
7
 10
16.14900000
 20
12.88100000
  0
VERTEX
  8
0
 62
7
 10
16.25675000
 20
12.77550000
  0
VERTEX
  8
0
 62
7
 10
16.35700000
 20
12.66400000
  0
VERTEX
  8
0
 62
7
 10
16.42548438
 20
12.58068750
  0
VERTEX
  8
0
 62
7
 10
16.49012500
 20
12.49550000
  0
VERTEX
  8
0
 62
7
 10
16.55120313
 20
12.40806250
  0
VERTEX
  8
0
 62
7
 10
16.60900000
 20
12.31800000
  0
VERTEX
  8
0
 62
7
 10
16.65729688
 20
12.23279688
  0
VERTEX
  8
0
 62
7
 10
16.70212500
 20
12.14562500
  0
VERTEX
  8
0
 62
7
 10
16.74414063
 20
12.05714063
  0
VERTEX
  8
0
 62
7
 10
16.78400000
 20
11.96800000
  0
VERTEX
  8
0
 62
7
 10
16.82128125
 20
11.87143750
  0
VERTEX
  8
0
 62
7
 10
16.85350000
 20
11.77150000
  0
VERTEX
  8
0
 62
7
 10
16.88046875
 20
11.67156250
  0
VERTEX
  8
0
 62
7
 10
16.90200000
 20
11.57500000
  0
VERTEX
  8
0
 62
7
 10
16.92789063
 20
11.43203711
  0
VERTEX
  8
0
 62
7
 10
16.94637500
 20
11.29754688
  0
VERTEX
  8
0
 62
7
 10
16.95867188
 20
11.16987695
  0
VERTEX
  8
0
 62
7
 10
16.96600000
 20
11.04737500
  0
VERTEX
  8
0
 62
7
 10
16.96957813
 20
10.92838867
  0
VERTEX
  8
0
 62
7
 10
16.97062500
 20
10.81126563
  0
VERTEX
  8
0
 62
7
 10
16.97035938
 20
10.69435352
  0
VERTEX
  8
0
 62
7
 10
16.97000000
 20
10.57600000
  0
VERTEX
  8
0
 62
7
 10
16.97000000
 20
.04000000
  0
VERTEX
  8
0
 62
7
 10
17.00100000
 20
.04000000
  0
VERTEX
  8
0
 62
7
 10
17.03000000
 20
.04000000
  0
VERTEX
  8
0
 62
7
 10
17.03000000
 20
10.57600000
  0
VERTEX
  8
0
 62
7
 10
17.02964063
 20
10.69435352
  0
VERTEX
  8
0
 62
7
 10
17.02937500
 20
10.81126563
  0
VERTEX
  8
0
 62
7
 10
17.03042188
 20
10.92838867
  0
VERTEX
  8
0
 62
7
 10
17.03400000
 20
11.04737500
  0
VERTEX
  8
0
 62
7
 10
17.04132813
 20
11.16987695
  0
VERTEX
  8
0
 62
7
 10
17.05362500
 20
11.29754688
  0
VERTEX
  8
0
 62
7
 10
17.07210938
 20
11.43203711
  0
VERTEX
  8
0
 62
7
 10
17.09800000
 20
11.57500000
  0
VERTEX
  8
0
 62
7
 10
17.11953125
 20
11.67156250
  0
VERTEX
  8
0
 62
7
 10
17.14650000
 20
11.77150000
  0
VERTEX
  8
0
 62
7
 10
17.17871875
 20
11.87143750
  0
VERTEX
  8
0
 62
7
 10
17.21600000
 20
11.96800000
  0
VERTEX
  8
0
 62
7
 10
17.25585938
 20
12.05714063
  0
VERTEX
  8
0
 62
7
 10
17.29787500
 20
12.14562500
  0
VERTEX
  8
0
 62
7
 10
17.34270313
 20
12.23279688
  0
VERTEX
  8
0
 62
7
 10
17.39100000
 20
12.31800000
  0
VERTEX
  8
0
 62
7
 10
17.44879688
 20
12.40806250
  0
VERTEX
  8
0
 62
7
 10
17.50987500
 20
12.49550000
  0
VERTEX
  8
0
 62
7
 10
17.57451563
 20
12.58068750
  0
VERTEX
  8
0
 62
7
 10
17.64300000
 20
12.66400000
  0
VERTEX
  8
0
 62
7
 10
17.74325000
 20
12.77550000
  0
VERTEX
  8
0
 62
7
 10
17.85100000
 20
12.88100000
  0
VERTEX
  8
0
 62
7
 10
17.91225000
 20
12.93353125
  0
VERTEX
  8
0
 62
7
 10
17.97575000
 20
12.98325000
  0
VERTEX
  8
0
 62
7
 10
18.04112500
 20
13.03034375
  0
VERTEX
  8
0
 62
7
 10
18.10800000
 20
13.07500000
  0
VERTEX
  8
0
 62
7
 10
18.17065625
 20
13.11360938
  0
VERTEX
  8
0
 62
7
 10
18.23425000
 20
13.14987500
  0
VERTEX
  8
0
 62
7
 10
18.29896875
 20
13.18370313
  0
VERTEX
  8
0
 62
7
 10
18.36500000
 20
13.21500000
  0
VERTEX
  8
0
 62
7
 10
18.43350781
 20
13.24219531
  0
VERTEX
  8
0
 62
7
 10
18.50318750
 20
13.26550000
  0
VERTEX
  8
0
 62
7
 10
18.57389844
 20
13.28524219
  0
VERTEX
  8
0
 62
7
 10
18.64550000
 20
13.30175000
  0
VERTEX
  8
0
 62
7
 10
18.71785156
 20
13.31535156
  0
VERTEX
  8
0
 62
7
 10
18.79081250
 20
13.32637500
  0
VERTEX
  8
0
 62
7
 10
18.86424219
 20
13.33514844
  0
VERTEX
  8
0
 62
7
 10
18.93800000
 20
13.34200000
  0
VERTEX
  8
0
 62
7
 10
18.99612305
 20
13.34529297
  0
VERTEX
  8
0
 62
7
 10
19.05423438
 20
13.34640625
  0
VERTEX
  8
0
 62
7
 10
19.11232227
 20
13.34569141
  0
VERTEX
  8
0
 62
7
 10
19.17037500
 20
13.34350000
  0
VERTEX
  8
0
 62
7
 10
19.22838086
 20
13.34018359
  0
VERTEX
  8
0
 62
7
 10
19.28632813
 20
13.33609375
  0
VERTEX
  8
0
 62
7
 10
19.34420508
 20
13.33158203
  0
VERTEX
  8
0
 62
7
 10
19.40200000
 20
13.32700000
  0
VERTEX
  8
0
 62
7
 10
19.50681250
 20
13.31820313
  0
VERTEX
  8
0
 62
7
 10
19.61125000
 20
13.30687500
  0
VERTEX
  8
0
 62
7
 10
19.71531250
 20
13.29310938
  0
VERTEX
  8
0
 62
7
 10
19.81900000
 20
13.27700000
  0
VERTEX
  8
0
 62
7
 10
19.98925000
 20
13.24550000
  0
VERTEX
  8
0
 62
7
 10
20.15800000
 20
13.21100000
  0
VERTEX
  8
0
 62
7
 10
20.21937500
 20
13.19759375
  0
VERTEX
  8
0
 62
7
 10
20.28075000
 20
13.18325000
  0
VERTEX
  8
0
 62
7
 10
20.34250000
 20
13.17078125
  0
VERTEX
  8
0
 62
7
 10
20.40500000
 20
13.16300000
  0
VERTEX
  8
0
 62
7
 10
20.43571875
 20
13.16045313
  0
VERTEX
  8
0
 62
7
 10
20.46625000
 20
13.15837500
  0
VERTEX
  8
0
 62
7
 10
20.49640625
 20
13.15835938
  0
VERTEX
  8
0
 62
7
 10
20.52600000
 20
13.16200000
  0
VERTEX
  8
0
 62
7
 10
20.56839063
 20
13.17229688
  0
VERTEX
  8
0
 62
7
 10
20.60862500
 20
13.18887500
  0
VERTEX
  8
0
 62
7
 10
20.64679688
 20
13.21051563
  0
VERTEX
  8
0
 62
7
 10
20.68300000
 20
13.23600000
  0
VERTEX
  8
0
 62
7
 10
20.70664063
 20
13.25887500
  0
VERTEX
  8
0
 62
7
 10
20.72737500
 20
13.28475000
  0
VERTEX
  8
0
 62
7
 10
20.74867188
 20
13.31025000
  0
VERTEX
  8
0
 62
7
 10
20.77400000
 20
13.33200000
  0
VERTEX
  8
0
 62
7
 10
20.80187500
 20
13.35025000
  0
VERTEX
  8
0
 62
7
 10
20.83200000
 20
13.36400000
  0
VERTEX
  8
0
 62
7
 10
20.85261719
 20
13.36858398
  0
VERTEX
  8
0
 62
7
 10
20.87318750
 20
13.36992188
  0
VERTEX
  8
0
 62
7
 10
20.89366406
 20
13.36851758
  0
VERTEX
  8
0
 62
7
 10
20.91400000
 20
13.36487500
  0
VERTEX
  8
0
 62
7
 10
20.93414844
 20
13.35949805
  0
VERTEX
  8
0
 62
7
 10
20.95406250
 20
13.35289063
  0
VERTEX
  8
0
 62
7
 10
20.97369531
 20
13.34555664
  0
VERTEX
  8
0
 62
7
 10
20.99300000
 20
13.33800000
  0
VERTEX
  8
0
 62
7
 10
21.05500000
 20
13.30700000
  0
VERTEX
  8
0
 62
7
 10
21.07763086
 20
13.30121289
  0
VERTEX
  8
0
 62
7
 10
21.10048438
 20
13.29895313
  0
VERTEX
  8
0
 62
7
 10
21.12350195
 20
13.29924805
  0
VERTEX
  8
0
 62
7
 10
21.14662500
 20
13.30112500
  0
VERTEX
  8
0
 62
7
 10
21.16979492
 20
13.30361133
  0
VERTEX
  8
0
 62
7
 10
21.19295313
 20
13.30573438
  0
VERTEX
  8
0
 62
7
 10
21.21604102
 20
13.30652148
  0
VERTEX
  8
0
 62
7
 10
21.23900000
 20
13.30500000
  0
VERTEX
  8
0
 62
7
 10
21.27478125
 20
13.30054688
  0
VERTEX
  8
0
 62
7
 10
21.31075000
 20
13.29562500
  0
VERTEX
  8
0
 62
7
 10
21.34559375
 20
13.28714063
  0
VERTEX
  8
0
 62
7
 10
21.37800000
 20
13.27200000
  0
VERTEX
  8
0
 62
7
 10
21.39738477
 20
13.25741797
  0
VERTEX
  8
0
 62
7
 10
21.41439063
 20
13.24084375
  0
VERTEX
  8
0
 62
7
 10
21.42916992
 20
13.22253516
  0
VERTEX
  8
0
 62
7
 10
21.44187500
 20
13.20275000
  0
VERTEX
  8
0
 62
7
 10
21.45265820
 20
13.18174609
  0
VERTEX
  8
0
 62
7
 10
21.46167188
 20
13.15978125
  0
VERTEX
  8
0
 62
7
 10
21.46906836
 20
13.13711328
  0
VERTEX
  8
0
 62
7
 10
21.47500000
 20
13.11400000
  0
VERTEX
  8
0
 62
7
 10
21.47997266
 20
13.08227344
  0
VERTEX
  8
0
 62
7
 10
21.48140625
 20
13.05031250
  0
VERTEX
  8
0
 62
7
 10
21.47932422
 20
13.01844531
  0
VERTEX
  8
0
 62
7
 10
21.47375000
 20
12.98700000
  0
VERTEX
  8
0
 62
7
 10
21.46470703
 20
12.95630469
  0
VERTEX
  8
0
 62
7
 10
21.45221875
 20
12.92668750
  0
VERTEX
  8
0
 62
7
 10
21.43630859
 20
12.89847656
  0
VERTEX
  8
0
 62
7
 10
21.41700000
 20
12.87200000
  0
VERTEX
  8
0
 62
7
 10
21.38945752
 20
12.84165479
  0
VERTEX
  8
0
 62
7
 10
21.35983203
 20
12.81533203
  0
VERTEX
  8
0
 62
7
 10
21.32831396
 20
12.79278857
  0
VERTEX
  8
0
 62
7
 10
21.29509375
 20
12.77378125
  0
VERTEX
  8
0
 62
7
 10
21.26036182
 20
12.75806689
  0
VERTEX
  8
0
 62
7
 10
21.22430859
 20
12.74540234
  0
VERTEX
  8
0
 62
7
 10
21.18712451
 20
12.73554443
  0
VERTEX
  8
0
 62
7
 10
21.14900000
 20
12.72825000
  0
VERTEX
  8
0
 62
7
 10
21.11012549
 20
12.72327588
  0
VERTEX
  8
0
 62
7
 10
21.07069141
 20
12.72037891
  0
VERTEX
  8
0
 62
7
 10
21.03088818
 20
12.71931592
  0
VERTEX
  8
0
 62
7
 10
20.99090625
 20
12.71984375
  0
VERTEX
  8
0
 62
7
 10
20.95093604
 20
12.72171924
  0
VERTEX
  8
0
 62
7
 10
20.91116797
 20
12.72469922
  0
VERTEX
  8
0
 62
7
 10
20.87179248
 20
12.72854053
  0
VERTEX
  8
0
 62
7
 10
20.83300000
 20
12.73300000
  0
VERTEX
  8
0
 62
7
 10
20.77650000
 20
12.74103125
  0
VERTEX
  8
0
 62
7
 10
20.72075000
 20
12.75225000
  0
VERTEX
  8
0
 62
7
 10
20.66537500
 20
12.76534375
  0
VERTEX
  8
0
 62
7
 10
20.61000000
 20
12.77900000
  0
VERTEX
  8
0
 62
7
 10
20.48912500
 20
12.81500000
  0
VERTEX
  8
0
 62
7
 10
20.36900000
 20
12.85400000
  0
VERTEX
  8
0
 62
7
 10
20.03100000
 20
12.97400000
  0
VERTEX
  8
0
 62
7
 10
19.89237500
 20
13.01962500
  0
VERTEX
  8
0
 62
7
 10
19.75300000
 20
13.06300000
  0
VERTEX
  8
0
 62
7
 10
19.75300000
 20
13.04600000
  0
VERTEX
  8
0
 62
7
 10
20.08700000
 20
12.92100000
  0
VERTEX
  8
0
 62
7
 10
20.17610938
 20
12.88745313
  0
VERTEX
  8
0
 62
7
 10
20.26512500
 20
12.85362500
  0
VERTEX
  8
0
 62
7
 10
20.35432813
 20
12.82073438
  0
VERTEX
  8
0
 62
7
 10
20.44400000
 20
12.79000000
  0
VERTEX
  8
0
 62
7
 10
20.53375000
 20
12.76132813
  0
VERTEX
  8
0
 62
7
 10
20.62350000
 20
12.73387500
  0
VERTEX
  8
0
 62
7
 10
20.71400000
 20
12.70998438
  0
VERTEX
  8
0
 62
7
 10
20.80600000
 20
12.69200000
  0
VERTEX
  8
0
 62
7
 10
20.84662891
 20
12.68664063
  0
VERTEX
  8
0
 62
7
 10
20.88746875
 20
12.68137500
  0
VERTEX
  8
0
 62
7
 10
20.92844922
 20
12.67667188
  0
VERTEX
  8
0
 62
7
 10
20.96950000
 20
12.67300000
  0
VERTEX
  8
0
 62
7
 10
21.01055078
 20
12.67082813
  0
VERTEX
  8
0
 62
7
 10
21.05153125
 20
12.67062500
  0
VERTEX
  8
0
 62
7
 10
21.09237109
 20
12.67285938
  0
VERTEX
  8
0
 62
7
 10
21.13300000
 20
12.67800000
  0
VERTEX
  8
0
 62
7
 10
21.16306250
 20
12.68373242
  0
VERTEX
  8
0
 62
7
 10
21.19312500
 20
12.68992188
  0
VERTEX
  8
0
 62
7
 10
21.22300000
 20
12.69693164
  0
VERTEX
  8
0
 62
7
 10
21.25250000
 20
12.70512500
  0
VERTEX
  8
0
 62
7
 10
21.28143750
 20
12.71486523
  0
VERTEX
  8
0
 62
7
 10
21.30962500
 20
12.72651563
  0
VERTEX
  8
0
 62
7
 10
21.33687500
 20
12.74043945
  0
VERTEX
  8
0
 62
7
 10
21.36300000
 20
12.75700000
  0
VERTEX
  8
0
 62
7
 10
21.38434570
 20
12.77293945
  0
VERTEX
  8
0
 62
7
 10
21.40476563
 20
12.79001563
  0
VERTEX
  8
0
 62
7
 10
21.42408398
 20
12.80824023
  0
VERTEX
  8
0
 62
7
 10
21.44212500
 20
12.82762500
  0
VERTEX
  8
0
 62
7
 10
21.45871289
 20
12.84818164
  0
VERTEX
  8
0
 62
7
 10
21.47367188
 20
12.86992188
  0
VERTEX
  8
0
 62
7
 10
21.48682617
 20
12.89285742
  0
VERTEX
  8
0
 62
7
 10
21.49800000
 20
12.91700000
  0
VERTEX
  8
0
 62
7
 10
21.50797070
 20
12.94247852
  0
VERTEX
  8
0
 62
7
 10
21.51551563
 20
12.96857813
  0
VERTEX
  8
0
 62
7
 10
21.52083398
 20
12.99516992
  0
VERTEX
  8
0
 62
7
 10
21.52412500
 20
13.02212500
  0
VERTEX
  8
0
 62
7
 10
21.52558789
 20
13.04931445
  0
VERTEX
  8
0
 62
7
 10
21.52542188
 20
13.07660938
  0
VERTEX
  8
0
 62
7
 10
21.52382617
 20
13.10388086
  0
VERTEX
  8
0
 62
7
 10
21.52100000
 20
13.13100000
  0
VERTEX
  8
0
 62
7
 10
21.51326563
 20
13.16482813
  0
VERTEX
  8
0
 62
7
 10
21.50337500
 20
13.19837500
  0
VERTEX
  8
0
 62
7
 10
21.49104688
 20
13.23098438
  0
VERTEX
  8
0
 62
7
 10
21.47600000
 20
13.26200000
  0
VERTEX
  8
0
 62
7
 10
21.49709375
 20
13.28445313
  0
VERTEX
  8
0
 62
7
 10
21.52100000
 20
13.30362500
  0
VERTEX
  8
0
 62
7
 10
21.54715625
 20
13.31923438
  0
VERTEX
  8
0
 62
7
 10
21.57500000
 20
13.33100000
  0
VERTEX
  8
0
 62
7
 10
21.61090625
 20
13.34060938
  0
VERTEX
  8
0
 62
7
 10
21.64775000
 20
13.34337500
  0
VERTEX
  8
0
 62
7
 10
21.68496875
 20
13.34070313
  0
VERTEX
  8
0
 62
7
 10
21.72200000
 20
13.33400000
  0
VERTEX
  8
0
 62
7
 10
21.75045313
 20
13.32634375
  0
VERTEX
  8
0
 62
7
 10
21.77787500
 20
13.31550000
  0
VERTEX
  8
0
 62
7
 10
21.80510938
 20
13.30390625
  0
VERTEX
  8
0
 62
7
 10
21.83300000
 20
13.29400000
  0
VERTEX
  8
0
 62
7
 10
21.86604688
 20
13.28292188
  0
VERTEX
  8
0
 62
7
 10
21.89937500
 20
13.27212500
  0
VERTEX
  8
0
 62
7
 10
21.93326563
 20
13.26376563
  0
VERTEX
  8
0
 62
7
 10
21.96800000
 20
13.26000000
  0
VERTEX
  8
0
 62
7
 10
22.00150000
 20
13.25975000
  0
VERTEX
  8
0
 62
7
 10
22.03500000
 20
13.26400000
  0
VERTEX
  8
0
 62
7
 10
22.06748438
 20
13.27331250
  0
VERTEX
  8
0
 62
7
 10
22.09837500
 20
13.28675000
  0
VERTEX
  8
0
 62
7
 10
22.12907813
 20
13.30056250
  0
VERTEX
  8
0
 62
7
 10
22.16100000
 20
13.31100000
  0
VERTEX
  8
0
 62
7
 10
22.19643750
 20
13.31940625
  0
VERTEX
  8
0
 62
7
 10
22.23225000
 20
13.32575000
  0
VERTEX
  8
0
 62
7
 10
22.26843750
 20
13.32871875
  0
VERTEX
  8
0
 62
7
 10
22.30500000
 20
13.32700000
  0
VERTEX
  8
0
 62
7
 10
22.32788867
 20
13.32457617
  0
VERTEX
  8
0
 62
7
 10
22.35067188
 20
13.32092188
  0
VERTEX
  8
0
 62
7
 10
22.37315039
 20
13.31583789
  0
VERTEX
  8
0
 62
7
 10
22.39512500
 20
13.30912500
  0
VERTEX
  8
0
 62
7
 10
22.41639648
 20
13.30058398
  0
VERTEX
  8
0
 62
7
 10
22.43676563
 20
13.29001563
  0
VERTEX
  8
0
 62
7
 10
22.45603320
 20
13.27722070
  0
VERTEX
  8
0
 62
7
 10
22.47400000
 20
13.26200000
  0
VERTEX
  8
0
 62
7
 10
22.49161523
 20
13.24297070
  0
VERTEX
  8
0
 62
7
 10
22.50635938
 20
13.22207813
  0
VERTEX
  8
0
 62
7
 10
22.51845508
 20
13.19961523
  0
VERTEX
  8
0
 62
7
 10
22.52812500
 20
13.17587500
  0
VERTEX
  8
0
 62
7
 10
22.53559180
 20
13.15115039
  0
VERTEX
  8
0
 62
7
 10
22.54107813
 20
13.12573438
  0
VERTEX
  8
0
 62
7
 10
22.54480664
 20
13.09991992
  0
VERTEX
  8
0
 62
7
 10
22.54700000
 20
13.07400000
  0
VERTEX
  8
0
 62
7
 10
22.54817188
 20
13.02698438
  0
VERTEX
  8
0
 62
7
 10
22.54287500
 20
12.98062500
  0
VERTEX
  8
0
 62
7
 10
22.53139063
 20
12.93520313
  0
VERTEX
  8
0
 62
7
 10
22.51400000
 20
12.89100000
  0
VERTEX
  8
0
 62
7
 10
22.49506250
 20
12.85417188
  0
VERTEX
  8
0
 62
7
 10
22.47200000
 20
12.81987500
  0
VERTEX
  8
0
 62
7
 10
22.44593750
 20
12.78764063
  0
VERTEX
  8
0
 62
7
 10
22.41800000
 20
12.75700000
  0
VERTEX
  8
0
 62
7
 10
22.35762500
 20
12.69937500
  0
VERTEX
  8
0
 62
7
 10
22.29200000
 20
12.64700000
  0
VERTEX
  8
0
 62
7
 10
22.24264063
 20
12.61365625
  0
VERTEX
  8
0
 62
7
 10
22.19187500
 20
12.58275000
  0
VERTEX
  8
0
 62
7
 10
22.13942188
 20
12.55446875
  0
VERTEX
  8
0
 62
7
 10
22.08500000
 20
12.52900000
  0
VERTEX
  8
0
 62
7
 10
22.02226563
 20
12.50400000
  0
VERTEX
  8
0
 62
7
 10
21.95962500
 20
12.48275000
  0
VERTEX
  8
0
 62
7
 10
21.89642188
 20
12.46487500
  0
VERTEX
  8
0
 62
7
 10
21.83200000
 20
12.45000000
  0
VERTEX
  8
0
 62
7
 10
21.75279688
 20
12.43356250
  0
VERTEX
  8
0
 62
7
 10
21.67462500
 20
12.42125000
  0
VERTEX
  8
0
 62
7
 10
21.59589063
 20
12.41231250
  0
VERTEX
  8
0
 62
7
 10
21.51500000
 20
12.40600000
  0
VERTEX
  8
0
 62
7
 10
21.44328125
 20
12.40432813
  0
VERTEX
  8
0
 62
7
 10
21.36650000
 20
12.40612500
  0
VERTEX
  8
0
 62
7
 10
21.28971875
 20
12.41035938
  0
VERTEX
  8
0
 62
7
 10
21.21800000
 20
12.41600000
  0
VERTEX
  8
0
 62
7
 10
21.12381250
 20
12.42534375
  0
VERTEX
  8
0
 62
7
 10
21.03375000
 20
12.43825000
  0
VERTEX
  8
0
 62
7
 10
20.94406250
 20
12.45453125
  0
VERTEX
  8
0
 62
7
 10
20.85100000
 20
12.47400000
  0
VERTEX
  8
0
 62
7
 10
20.76284375
 20
12.49506250
  0
VERTEX
  8
0
 62
7
 10
20.67450000
 20
12.51875000
  0
VERTEX
  8
0
 62
7
 10
20.58690625
 20
12.54431250
  0
VERTEX
  8
0
 62
7
 10
20.50100000
 20
12.57100000
  0
VERTEX
  8
0
 62
7
 10
20.36204688
 20
12.61637500
  0
VERTEX
  8
0
 62
7
 10
20.22562500
 20
12.66700000
  0
VERTEX
  8
0
 62
7
 10
20.09164063
 20
12.72287500
  0
VERTEX
  8
0
 62
7
 10
19.96000000
 20
12.78400000
  0
VERTEX
  8
0
 62
7
 10
19.95500000
 20
12.76600000
  0
VERTEX
  8
0
 62
7
 10
20.12500000
 20
12.68375000
  0
VERTEX
  8
0
 62
7
 10
20.29800000
 20
12.60900000
  0
VERTEX
  8
0
 62
7
 10
20.40067188
 20
12.56773438
  0
VERTEX
  8
0
 62
7
 10
20.50362500
 20
12.52862500
  0
VERTEX
  8
0
 62
7
 10
20.60751563
 20
12.49270313
  0
VERTEX
  8
0
 62
7
 10
20.71300000
 20
12.46100000
  0
VERTEX
  8
0
 62
7
 10
20.80170313
 20
12.43710938
  0
VERTEX
  8
0
 62
7
 10
20.89087500
 20
12.41537500
  0
VERTEX
  8
0
 62
7
 10
20.98060938
 20
12.39645313
  0
VERTEX
  8
0
 62
7
 10
21.07100000
 20
12.38100000
  0
VERTEX
  8
0
 62
7
 10
21.16453125
 20
12.36728125
  0
VERTEX
  8
0
 62
7
 10
21.25900000
 20
12.35675000
  0
VERTEX
  8
0
 62
7
 10
21.35421875
 20
12.35034375
  0
VERTEX
  8
0
 62
7
 10
21.45000000
 20
12.34900000
  0
VERTEX
  8
0
 62
7
 10
21.54759375
 20
12.35279688
  0
VERTEX
  8
0
 62
7
 10
21.64500000
 20
12.36137500
  0
VERTEX
  8
0
 62
7
 10
21.74165625
 20
12.37501563
  0
VERTEX
  8
0
 62
7
 10
21.83700000
 20
12.39400000
  0
VERTEX
  8
0
 62
7
 10
21.88014844
 20
12.40356055
  0
VERTEX
  8
0
 62
7
 10
21.92325000
 20
12.41367188
  0
VERTEX
  8
0
 62
7
 10
21.96616406
 20
12.42460352
  0
VERTEX
  8
0
 62
7
 10
22.00875000
 20
12.43662500
  0
VERTEX
  8
0
 62
7
 10
22.05086719
 20
12.45000586
  0
VERTEX
  8
0
 62
7
 10
22.09237500
 20
12.46501563
  0
VERTEX
  8
0
 62
7
 10
22.13313281
 20
12.48192383
  0
VERTEX
  8
0
 62
7
 10
22.17300000
 20
12.50100000
  0
VERTEX
  8
0
 62
7
 10
22.24048438
 20
12.53693750
  0
VERTEX
  8
0
 62
7
 10
22.30562500
 20
12.57625000
  0
VERTEX
  8
0
 62
7
 10
22.36720313
 20
12.61968750
  0
VERTEX
  8
0
 62
7
 10
22.42400000
 20
12.66800000
  0
VERTEX
  8
0
 62
7
 10
22.46398438
 20
12.70981250
  0
VERTEX
  8
0
 62
7
 10
22.50237500
 20
12.75575000
  0
VERTEX
  8
0
 62
7
 10
22.53832813
 20
12.80356250
  0
VERTEX
  8
0
 62
7
 10
22.57100000
 20
12.85100000
  0
VERTEX
  8
0
 62
7
 10
22.60421875
 20
12.90371875
  0
VERTEX
  8
0
 62
7
 10
22.63800000
 20
12.95550000
  0
VERTEX
  8
0
 62
7
 10
22.67253125
 20
13.00428125
  0
VERTEX
  8
0
 62
7
 10
22.70800000
 20
13.04800000
  0
VERTEX
  8
0
 62
7
 10
22.74646875
 20
13.08820313
  0
VERTEX
  8
0
 62
7
 10
22.78325000
 20
13.12137500
  0
VERTEX
  8
0
 62
7
 10
22.82190625
 20
13.15135938
  0
VERTEX
  8
0
 62
7
 10
22.86600000
 20
13.18200000
  0
VERTEX
  8
0
 62
7
 10
22.92576563
 20
13.21957813
  0
VERTEX
  8
0
 62
7
 10
22.98787500
 20
13.25162500
  0
VERTEX
  8
0
 62
7
 10
23.05204688
 20
13.27860938
  0
VERTEX
  8
0
 62
7
 10
23.11800000
 20
13.30100000
  0
VERTEX
  8
0
 62
7
 10
23.16322070
 20
13.31286328
  0
VERTEX
  8
0
 62
7
 10
23.20882813
 20
13.32278125
  0
VERTEX
  8
0
 62
7
 10
23.25474023
 20
13.33049609
  0
VERTEX
  8
0
 62
7
 10
23.30087500
 20
13.33575000
  0
VERTEX
  8
0
 62
7
 10
23.34715039
 20
13.33828516
  0
VERTEX
  8
0
 62
7
 10
23.39348438
 20
13.33784375
  0
VERTEX
  8
0
 62
7
 10
23.43979492
 20
13.33416797
  0
VERTEX
  8
0
 62
7
 10
23.48600000
 20
13.32700000
  0
VERTEX
  8
0
 62
7
 10
23.52274805
 20
13.31939258
  0
VERTEX
  8
0
 62
7
 10
23.55929688
 20
13.31057813
  0
VERTEX
  8
0
 62
7
 10
23.59535352
 20
13.30019336
  0
VERTEX
  8
0
 62
7
 10
23.63062500
 20
13.28787500
  0
VERTEX
  8
0
 62
7
 10
23.66481836
 20
13.27325977
  0
VERTEX
  8
0
 62
7
 10
23.69764063
 20
13.25598438
  0
VERTEX
  8
0
 62
7
 10
23.72879883
 20
13.23568555
  0
VERTEX
  8
0
 62
7
 10
23.75800000
 20
13.21200000
  0
VERTEX
  8
0
 62
7
 10
23.78262891
 20
13.18817188
  0
VERTEX
  8
0
 62
7
 10
23.80484375
 20
13.16256250
  0
VERTEX
  8
0
 62
7
 10
23.82476172
 20
13.13535938
  0
VERTEX
  8
0
 62
7
 10
23.84250000
 20
13.10675000
  0
VERTEX
  8
0
 62
7
 10
23.85817578
 20
13.07692188
  0
VERTEX
  8
0
 62
7
 10
23.87190625
 20
13.04606250
  0
VERTEX
  8
0
 62
7
 10
23.88380859
 20
13.01435938
  0
VERTEX
  8
0
 62
7
 10
23.89400000
 20
12.98200000
  0
VERTEX
  8
0
 62
7
 10
23.90355664
 20
12.94008203
  0
VERTEX
  8
0
 62
7
 10
23.90970313
 20
12.89771875
  0
VERTEX
  8
0
 62
7
 10
23.91240430
 20
12.85512109
  0
VERTEX
  8
0
 62
7
 10
23.91162500
 20
12.81250000
  0
VERTEX
  8
0
 62
7
 10
23.90733008
 20
12.77006641
  0
VERTEX
  8
0
 62
7
 10
23.89948438
 20
12.72803125
  0
VERTEX
  8
0
 62
7
 10
23.88805273
 20
12.68660547
  0
VERTEX
  8
0
 62
7
 10
23.87300000
 20
12.64600000
  0
VERTEX
  8
0
 62
7
 10
23.85837891
 20
12.61383203
  0
VERTEX
  8
0
 62
7
 10
23.84153125
 20
12.58271875
  0
VERTEX
  8
0
 62
7
 10
23.82248047
 20
12.55287109
  0
VERTEX
  8
0
 62
7
 10
23.80125000
 20
12.52450000
  0
VERTEX
  8
0
 62
7
 10
23.77786328
 20
12.49781641
  0
VERTEX
  8
0
 62
7
 10
23.75234375
 20
12.47303125
  0
VERTEX
  8
0
 62
7
 10
23.72471484
 20
12.45035547
  0
VERTEX
  8
0
 62
7
 10
23.69500000
 20
12.43000000
  0
VERTEX
  8
0
 62
7
 10
23.66591406
 20
12.41331055
  0
VERTEX
  8
0
 62
7
 10
23.63575000
 20
12.39923438
  0
VERTEX
  8
0
 62
7
 10
23.60464844
 20
12.38775977
  0
VERTEX
  8
0
 62
7
 10
23.57275000
 20
12.37887500
  0
VERTEX
  8
0
 62
7
 10
23.54019531
 20
12.37256836
  0
VERTEX
  8
0
 62
7
 10
23.50712500
 20
12.36882813
  0
VERTEX
  8
0
 62
7
 10
23.47367969
 20
12.36764258
  0
VERTEX
  8
0
 62
7
 10
23.44000000
 20
12.36900000
  0
VERTEX
  8
0
 62
7
 10
23.44056250
 20
12.39234375
  0
VERTEX
  8
0
 62
7
 10
23.43775000
 20
12.41550000
  0
VERTEX
  8
0
 62
7
 10
23.43156250
 20
12.43790625
  0
VERTEX
  8
0
 62
7
 10
23.42200000
 20
12.45900000
  0
VERTEX
  8
0
 62
7
 10
23.40776563
 20
12.48103125
  0
VERTEX
  8
0
 62
7
 10
23.39062500
 20
12.50025000
  0
VERTEX
  8
0
 62
7
 10
23.37067188
 20
12.51609375
  0
VERTEX
  8
0
 62
7
 10
23.34800000
 20
12.52800000
  0
VERTEX
  8
0
 62
7
 10
23.33165820
 20
12.53336914
  0
VERTEX
  8
0
 62
7
 10
23.31495313
 20
12.53626563
  0
VERTEX
  8
0
 62
7
 10
23.29799023
 20
12.53712305
  0
VERTEX
  8
0
 62
7
 10
23.28087500
 20
12.53637500
  0
VERTEX
  8
0
 62
7
 10
23.26371289
 20
12.53445508
  0
VERTEX
  8
0
 62
7
 10
23.24660938
 20
12.53179688
  0
VERTEX
  8
0
 62
7
 10
23.22966992
 20
12.52883398
  0
VERTEX
  8
0
 62
7
 10
23.21300000
 20
12.52600000
  0
VERTEX
  8
0
 62
7
 10
23.17845313
 20
12.51679688
  0
VERTEX
  8
0
 62
7
 10
23.14512500
 20
12.50487500
  0
VERTEX
  8
0
 62
7
 10
23.11273438
 20
12.49126563
  0
VERTEX
  8
0
 62
7
 10
23.08100000
 20
12.47700000
  0
VERTEX
  8
0
 62
7
 10
22.98262305
 20
12.43405469
  0
VERTEX
  8
0
 62
7
 10
22.88385938
 20
12.39125000
  0
VERTEX
  8
0
 62
7
 10
22.78450977
 20
12.34938281
  0
VERTEX
  8
0
 62
7
 10
22.68437500
 20
12.30925000
  0
VERTEX
  8
0
 62
7
 10
22.58325586
 20
12.27164844
  0
VERTEX
  8
0
 62
7
 10
22.48095313
 20
12.23737500
  0
VERTEX
  8
0
 62
7
 10
22.37726758
 20
12.20722656
  0
VERTEX
  8
0
 62
7
 10
22.27200000
 20
12.18200000
  0
VERTEX
  8
0
 62
7
 10
22.13379688
 20
12.15687500
  0
VERTEX
  8
0
 62
7
 10
21.99512500
 20
12.13700000
  0
VERTEX
  8
0
 62
7
 10
21.85589063
 20
12.12237500
  0
VERTEX
  8
0
 62
7
 10
21.71600000
 20
12.11300000
  0
VERTEX
  8
0
 62
7
 10
21.64190625
 20
12.11045313
  0
VERTEX
  8
0
 62
7
 10
21.56800000
 20
12.10912500
  0
VERTEX
  8
0
 62
7
 10
21.49409375
 20
12.10948438
  0
VERTEX
  8
0
 62
7
 10
21.42000000
 20
12.11200000
  0
VERTEX
  8
0
 62
7
 10
21.31071875
 20
12.12043750
  0
VERTEX
  8
0
 62
7
 10
21.20200000
 20
12.13375000
  0
VERTEX
  8
0
 62
7
 10
21.09403125
 20
12.15193750
  0
VERTEX
  8
0
 62
7
 10
20.98700000
 20
12.17500000
  0
VERTEX
  8
0
 62
7
 10
20.88360938
 20
12.20250000
  0
VERTEX
  8
0
 62
7
 10
20.78162500
 20
12.23450000
  0
VERTEX
  8
0
 62
7
 10
20.68057813
 20
12.26950000
  0
VERTEX
  8
0
 62
7
 10
20.58000000
 20
12.30600000
  0
VERTEX
  8
0
 62
7
 10
20.49940625
 20
12.33650000
  0
VERTEX
  8
0
 62
7
 10
20.41975000
 20
12.36775000
  0
VERTEX
  8
0
 62
7
 10
20.34121875
 20
12.40162500
  0
VERTEX
  8
0
 62
7
 10
20.26400000
 20
12.44000000
  0
VERTEX
  8
0
 62
7
 10
20.19443750
 20
12.47854688
  0
VERTEX
  8
0
 62
7
 10
20.12675000
 20
12.52037500
  0
VERTEX
  8
0
 62
7
 10
20.06093750
 20
12.56501563
  0
VERTEX
  8
0
 62
7
 10
19.99700000
 20
12.61200000
  0
VERTEX
  8
0
 62
7
 10
19.99300000
 20
12.60400000
  0
VERTEX
  8
0
 62
7
 10
20.05850000
 20
12.53550000
  0
VERTEX
  8
0
 62
7
 10
20.13000000
 20
12.47300000
  0
VERTEX
  8
0
 62
7
 10
20.16387500
 20
12.44681250
  0
VERTEX
  8
0
 62
7
 10
20.19850000
 20
12.42175000
  0
VERTEX
  8
0
 62
7
 10
20.23462500
 20
12.39931250
  0
VERTEX
  8
0
 62
7
 10
20.27300000
 20
12.38100000
  0
VERTEX
  8
0
 62
7
 10
20.31362500
 20
12.36637500
  0
VERTEX
  8
0
 62
7
 10
20.35500000
 20
12.35400000
  0
VERTEX
  8
0
 62
7
 10
20.40462500
 20
12.34662500
  0
VERTEX
  8
0
 62
7
 10
20.45500000
 20
12.34300000
  0
VERTEX
  8
0
 62
7
 10
20.45731250
 20
12.32029688
  0
VERTEX
  8
0
 62
7
 10
20.45400000
 20
12.29787500
  0
VERTEX
  8
0
 62
7
 10
20.44543750
 20
12.27676563
  0
VERTEX
  8
0
 62
7
 10
20.43200000
 20
12.25800000
  0
VERTEX
  8
0
 62
7
 10
20.41820313
 20
12.24554688
  0
VERTEX
  8
0
 62
7
 10
20.40262500
 20
12.23637500
  0
VERTEX
  8
0
 62
7
 10
20.38573438
 20
12.23001563
  0
VERTEX
  8
0
 62
7
 10
20.36800000
 20
12.22600000
  0
VERTEX
  8
0
 62
7
 10
20.34131250
 20
12.22479688
  0
VERTEX
  8
0
 62
7
 10
20.31425000
 20
12.22612500
  0
VERTEX
  8
0
 62
7
 10
20.28756250
 20
12.23064063
  0
VERTEX
  8
0
 62
7
 10
20.26200000
 20
12.23900000
  0
VERTEX
  8
0
 62
7
 10
20.25581250
 20
12.21584375
  0
VERTEX
  8
0
 62
7
 10
20.24850000
 20
12.19325000
  0
VERTEX
  8
0
 62
7
 10
20.23893750
 20
12.17178125
  0
VERTEX
  8
0
 62
7
 10
20.22600000
 20
12.15200000
  0
VERTEX
  8
0
 62
7
 10
20.21029688
 20
12.13370313
  0
VERTEX
  8
0
 62
7
 10
20.19187500
 20
12.11737500
  0
VERTEX
  8
0
 62
7
 10
20.17101563
 20
12.10460938
  0
VERTEX
  8
0
 62
7
 10
20.14800000
 20
12.09700000
  0
VERTEX
  8
0
 62
7
 10
20.12157813
 20
12.09490625
  0
VERTEX
  8
0
 62
7
 10
20.09562500
 20
12.09900000
  0
VERTEX
  8
0
 62
7
 10
20.07135938
 20
12.10909375
  0
VERTEX
  8
0
 62
7
 10
20.05000000
 20
12.12500000
  0
VERTEX
  8
0
 62
7
 10
20.06721875
 20
12.13510938
  0
VERTEX
  8
0
 62
7
 10
20.08275000
 20
12.14737500
  0
VERTEX
  8
0
 62
7
 10
20.09640625
 20
12.16170313
  0
VERTEX
  8
0
 62
7
 10
20.10800000
 20
12.17800000
  0
VERTEX
  8
0
 62
7
 10
20.12082813
 20
12.20259375
  0
VERTEX
  8
0
 62
7
 10
20.12812500
 20
12.22925000
  0
VERTEX
  8
0
 62
7
 10
20.13035938
 20
12.25703125
  0
VERTEX
  8
0
 62
7
 10
20.12800000
 20
12.28500000
  0
VERTEX
  8
0
 62
7
 10
20.12206250
 20
12.30828125
  0
VERTEX
  8
0
 62
7
 10
20.11275000
 20
12.33025000
  0
VERTEX
  8
0
 62
7
 10
20.10156250
 20
12.35109375
  0
VERTEX
  8
0
 62
7
 10
20.09000000
 20
12.37100000
  0
VERTEX
  8
0
 62
7
 10
20.06828125
 20
12.40059375
  0
VERTEX
  8
0
 62
7
 10
20.04375000
 20
12.42775000
  0
VERTEX
  8
0
 62
7
 10
20.01659375
 20
12.45228125
  0
VERTEX
  8
0
 62
7
 10
19.98700000
 20
12.47400000
  0
VERTEX
  8
0
 62
7
 10
19.97300000
 20
12.46600000
  0
VERTEX
  8
0
 62
7
 10
19.99346875
 20
12.40245313
  0
VERTEX
  8
0
 62
7
 10
20.00850000
 20
12.33787500
  0
VERTEX
  8
0
 62
7
 10
20.01828125
 20
12.27235938
  0
VERTEX
  8
0
 62
7
 10
20.02300000
 20
12.20600000
  0
VERTEX
  8
0
 62
7
 10
20.02315625
 20
12.13556250
  0
VERTEX
  8
0
 62
7
 10
20.01750000
 20
12.06550000
  0
VERTEX
  8
0
 62
7
 10
20.00584375
 20
11.99618750
  0
VERTEX
  8
0
 62
7
 10
19.98800000
 20
11.92800000
  0
VERTEX
  8
0
 62
7
 10
19.97010938
 20
11.87623438
  0
VERTEX
  8
0
 62
7
 10
19.94837500
 20
11.82587500
  0
VERTEX
  8
0
 62
7
 10
19.92345313
 20
11.77682813
  0
VERTEX
  8
0
 62
7
 10
19.89600000
 20
11.72900000
  0
VERTEX
  8
0
 62
7
 10
19.86223438
 20
11.67870313
  0
VERTEX
  8
0
 62
7
 10
19.82462500
 20
11.63112500
  0
VERTEX
  8
0
 62
7
 10
19.78420313
 20
11.58598438
  0
VERTEX
  8
0
 62
7
 10
19.74200000
 20
11.54300000
  0
VERTEX
  8
0
 62
7
 10
19.70098438
 20
11.50437500
  0
VERTEX
  8
0
 62
7
 10
19.65837500
 20
11.46725000
  0
VERTEX
  8
0
 62
7
 10
19.61332813
 20
11.43275000
  0
VERTEX
  8
0
 62
7
 10
19.56500000
 20
11.40200000
  0
VERTEX
  8
0
 62
7
 10
19.50271875
 20
11.36978125
  0
VERTEX
  8
0
 62
7
 10
19.43800000
 20
11.34375000
  0
VERTEX
  8
0
 62
7
 10
19.37178125
 20
11.32184375
  0
VERTEX
  8
0
 62
7
 10
19.30500000
 20
11.30200000
  0
VERTEX
  8
0
 62
7
 10
19.22240625
 20
11.28112500
  0
VERTEX
  8
0
 62
7
 10
19.13850000
 20
11.26550000
  0
VERTEX
  8
0
 62
7
 10
19.05384375
 20
11.25362500
  0
VERTEX
  8
0
 62
7
 10
18.96900000
 20
11.24400000
  0
VERTEX
  8
0
 62
7
 10
18.86909375
 20
11.23373438
  0
VERTEX
  8
0
 62
7
 10
18.76900000
 20
11.22787500
  0
VERTEX
  8
0
 62
7
 10
18.66890625
 20
11.22557813
  0
VERTEX
  8
0
 62
7
 10
18.56900000
 20
11.22600000
  0
VERTEX
  8
0
 62
7
 10
18.48368750
 20
11.22845313
  0
VERTEX
  8
0
 62
7
 10
18.40025000
 20
11.23362500
  0
VERTEX
  8
0
 62
7
 10
18.31418750
 20
11.24048438
  0
VERTEX
  8
0
 62
7
 10
18.22100000
 20
11.24800000
  0
VERTEX
  8
0
 62
7
 10
18.15617188
 20
11.25164063
  0
VERTEX
  8
0
 62
7
 10
18.09312500
 20
11.25237500
  0
VERTEX
  8
0
 62
7
 10
18.03101563
 20
11.24842188
  0
VERTEX
  8
0
 62
7
 10
17.96900000
 20
11.23800000
  0
VERTEX
  8
0
 62
7
 10
17.95076172
 20
11.23367188
  0
VERTEX
  8
0
 62
7
 10
17.93221875
 20
11.22943750
  0
VERTEX
  8
0
 62
7
 10
17.91362891
 20
11.22492188
  0
VERTEX
  8
0
 62
7
 10
17.89525000
 20
11.21975000
  0
VERTEX
  8
0
 62
7
 10
17.87733984
 20
11.21354688
  0
VERTEX
  8
0
 62
7
 10
17.86015625
 20
11.20593750
  0
VERTEX
  8
0
 62
7
 10
17.84395703
 20
11.19654688
  0
VERTEX
  8
0
 62
7
 10
17.82900000
 20
11.18500000
  0
VERTEX
  8
0
 62
7
 10
17.80530469
 20
11.15883203
  0
VERTEX
  8
0
 62
7
 10
17.78681250
 20
11.12959375
  0
VERTEX
  8
0
 62
7
 10
17.77366406
 20
11.09805859
  0
VERTEX
  8
0
 62
7
 10
17.76600000
 20
11.06500000
  0
VERTEX
  8
0
 62
7
 10
17.76396094
 20
11.03119141
  0
VERTEX
  8
0
 62
7
 10
17.76768750
 20
10.99740625
  0
VERTEX
  8
0
 62
7
 10
17.77732031
 20
10.96441797
  0
VERTEX
  8
0
 62
7
 10
17.79300000
 20
10.93300000
  0
VERTEX
  8
0
 62
7
 10
17.74226563
 20
10.93500000
  0
VERTEX
  8
0
 62
7
 10
17.69237500
 20
10.94375000
  0
VERTEX
  8
0
 62
7
 10
17.64379688
 20
10.95887500
  0
VERTEX
  8
0
 62
7
 10
17.59700000
 20
10.98000000
  0
VERTEX
  8
0
 62
7
 10
17.56522852
 20
10.99827734
  0
VERTEX
  8
0
 62
7
 10
17.53464063
 20
11.01859375
  0
VERTEX
  8
0
 62
7
 10
17.50557617
 20
11.04092578
  0
VERTEX
  8
0
 62
7
 10
17.47837500
 20
11.06525000
  0
VERTEX
  8
0
 62
7
 10
17.45337695
 20
11.09154297
  0
VERTEX
  8
0
 62
7
 10
17.43092188
 20
11.11978125
  0
VERTEX
  8
0
 62
7
 10
17.41134961
 20
11.14994141
  0
VERTEX
  8
0
 62
7
 10
17.39500000
 20
11.18200000
  0
VERTEX
  8
0
 62
7
 10
17.38190625
 20
11.21681055
  0
VERTEX
  8
0
 62
7
 10
17.37125000
 20
11.25404688
  0
VERTEX
  8
0
 62
7
 10
17.36321875
 20
11.29304102
  0
VERTEX
  8
0
 62
7
 10
17.35800000
 20
11.33312500
  0
VERTEX
  8
0
 62
7
 10
17.35578125
 20
11.37363086
  0
VERTEX
  8
0
 62
7
 10
17.35675000
 20
11.41389063
  0
VERTEX
  8
0
 62
7
 10
17.36109375
 20
11.45323633
  0
VERTEX
  8
0
 62
7
 10
17.36900000
 20
11.49100000
  0
VERTEX
  8
0
 62
7
 10
17.38712109
 20
11.55285547
  0
VERTEX
  8
0
 62
7
 10
17.40653125
 20
11.60521875
  0
VERTEX
  8
0
 62
7
 10
17.42767578
 20
11.64966016
  0
VERTEX
  8
0
 62
7
 10
17.45100000
 20
11.68775000
  0
VERTEX
  8
0
 62
7
 10
17.47694922
 20
11.72105859
  0
VERTEX
  8
0
 62
7
 10
17.50596875
 20
11.75115625
  0
VERTEX
  8
0
 62
7
 10
17.53850391
 20
11.77961328
  0
VERTEX
  8
0
 62
7
 10
17.57500000
 20
11.80800000
  0
VERTEX
  8
0
 62
7
 10
17.46400000
 20
11.91100000
  0
VERTEX
  8
0
 62
7
 10
17.48912524
 20
11.94844507
  0
VERTEX
  8
0
 62
7
 10
17.51912695
 20
11.98063867
  0
VERTEX
  8
0
 62
7
 10
17.55344409
 20
12.00774341
  0
VERTEX
  8
0
 62
7
 10
17.59151563
 20
12.02992188
  0
VERTEX
  8
0
 62
7
 10
17.63278052
 20
12.04733667
  0
VERTEX
  8
0
 62
7
 10
17.67667773
 20
12.06015039
  0
VERTEX
  8
0
 62
7
 10
17.72264624
 20
12.06852563
  0
VERTEX
  8
0
 62
7
 10
17.77012500
 20
12.07262500
  0
VERTEX
  8
0
 62
7
 10
17.81855298
 20
12.07261108
  0
VERTEX
  8
0
 62
7
 10
17.86736914
 20
12.06864648
  0
VERTEX
  8
0
 62
7
 10
17.91601245
 20
12.06089380
  0
VERTEX
  8
0
 62
7
 10
17.96392188
 20
12.04951563
  0
VERTEX
  8
0
 62
7
 10
18.01053638
 20
12.03467456
  0
VERTEX
  8
0
 62
7
 10
18.05529492
 20
12.01653320
  0
VERTEX
  8
0
 62
7
 10
18.09763647
 20
11.99525415
  0
VERTEX
  8
0
 62
7
 10
18.13700000
 20
11.97100000
  0
VERTEX
  8
0
 62
7
 10
18.11076563
 20
12.04239063
  0
VERTEX
  8
0
 62
7
 10
18.09062500
 20
12.11537500
  0
VERTEX
  8
0
 62
7
 10
18.07667188
 20
12.18967188
  0
VERTEX
  8
0
 62
7
 10
18.06900000
 20
12.26500000
  0
VERTEX
  8
0
 62
7
 10
18.06658984
 20
12.30220508
  0
VERTEX
  8
0
 62
7
 10
18.06546875
 20
12.33951563
  0
VERTEX
  8
0
 62
7
 10
18.06580078
 20
12.37684961
  0
VERTEX
  8
0
 62
7
 10
18.06775000
 20
12.41412500
  0
VERTEX
  8
0
 62
7
 10
18.07148047
 20
12.45125977
  0
VERTEX
  8
0
 62
7
 10
18.07715625
 20
12.48817188
  0
VERTEX
  8
0
 62
7
 10
18.08494141
 20
12.52477930
  0
VERTEX
  8
0
 62
7
 10
18.09500000
 20
12.56100000
  0
VERTEX
  8
0
 62
7
 10
18.11889063
 20
12.62535938
  0
VERTEX
  8
0
 62
7
 10
18.14887500
 20
12.68737500
  0
VERTEX
  8
0
 62
7
 10
18.18542188
 20
12.74620313
  0
VERTEX
  8
0
 62
7
 10
18.22900000
 20
12.80100000
  0
VERTEX
  8
0
 62
7
 10
18.26757813
 20
12.84012500
  0
VERTEX
  8
0
 62
7
 10
18.30962500
 20
12.87625000
  0
VERTEX
  8
0
 62
7
 10
18.35485938
 20
12.90900000
  0
VERTEX
  8
0
 62
7
 10
18.40300000
 20
12.93800000
  0
VERTEX
  8
0
 62
7
 10
18.46573438
 20
12.96612500
  0
VERTEX
  8
0
 62
7
 10
18.53062500
 20
12.98750000
  0
VERTEX
  8
0
 62
7
 10
18.59720313
 20
13.00212500
  0
VERTEX
  8
0
 62
7
 10
18.66500000
 20
13.01000000
  0
VERTEX
  8
0
 62
7
 10
18.70968164
 20
13.01212500
  0
VERTEX
  8
0
 62
7
 10
18.75432813
 20
13.01162500
  0
VERTEX
  8
0
 62
7
 10
18.79871680
 20
13.00831250
  0
VERTEX
  8
0
 62
7
 10
18.84262500
 20
13.00200000
  0
VERTEX
  8
0
 62
7
 10
18.88583008
 20
12.99250000
  0
VERTEX
  8
0
 62
7
 10
18.92810938
 20
12.97962500
  0
VERTEX
  8
0
 62
7
 10
18.96924023
 20
12.96318750
  0
VERTEX
  8
0
 62
7
 10
19.00900000
 20
12.94300000
  0
VERTEX
  8
0
 62
7
 10
19.03643359
 20
12.92654688
  0
VERTEX
  8
0
 62
7
 10
19.06309375
 20
12.90868750
  0
VERTEX
  8
0
 62
7
 10
19.08876953
 20
12.88942188
  0
VERTEX
  8
0
 62
7
 10
19.11325000
 20
12.86875000
  0
VERTEX
  8
0
 62
7
 10
19.13632422
 20
12.84667188
  0
VERTEX
  8
0
 62
7
 10
19.15778125
 20
12.82318750
  0
VERTEX
  8
0
 62
7
 10
19.17741016
 20
12.79829688
  0
VERTEX
  8
0
 62
7
 10
19.19500000
 20
12.77200000
  0
VERTEX
  8
0
 62
7
 10
19.21010547
 20
12.74446484
  0
VERTEX
  8
0
 62
7
 10
19.22378125
 20
12.71596875
  0
VERTEX
  8
0
 62
7
 10
19.23581641
 20
12.68667578
  0
VERTEX
  8
0
 62
7
 10
19.24600000
 20
12.65675000
  0
VERTEX
  8
0
 62
7
 10
19.25412109
 20
12.62635547
  0
VERTEX
  8
0
 62
7
 10
19.25996875
 20
12.59565625
  0
VERTEX
  8
0
 62
7
 10
19.26333203
 20
12.56481641
  0
VERTEX
  8
0
 62
7
 10
19.26400000
 20
12.53400000
  0
VERTEX
  8
0
 62
7
 10
19.26145313
 20
12.49054688
  0
VERTEX
  8
0
 62
7
 10
19.25562500
 20
12.44887500
  0
VERTEX
  8
0
 62
7
 10
19.24473438
 20
12.40701563
  0
VERTEX
  8
0
 62
7
 10
19.22700000
 20
12.36300000
  0
VERTEX
  8
0
 62
7
 10
19.21669336
 20
12.34299023
  0
VERTEX
  8
0
 62
7
 10
19.20454688
 20
12.32310938
  0
VERTEX
  8
0
 62
7
 10
19.19059570
 20
12.30395508
  0
VERTEX
  8
0
 62
7
 10
19.17487500
 20
12.28612500
  0
VERTEX
  8
0
 62
7
 10
19.15741992
 20
12.27021680
  0
VERTEX
  8
0
 62
7
 10
19.13826563
 20
12.25682813
  0
VERTEX
  8
0
 62
7
 10
19.11744727
 20
12.24655664
  0
VERTEX
  8
0
 62
7
 10
19.09500000
 20
12.24000000
  0
VERTEX
  8
0
 62
7
 10
19.06920508
 20
12.23680664
  0
VERTEX
  8
0
 62
7
 10
19.04389063
 20
12.23826563
  0
VERTEX
  8
0
 62
7
 10
19.01953711
 20
12.24406055
  0
VERTEX
  8
0
 62
7
 10
18.99662500
 20
12.25387500
  0
VERTEX
  8
0
 62
7
 10
18.97563477
 20
12.26739258
  0
VERTEX
  8
0
 62
7
 10
18.95704688
 20
12.28429688
  0
VERTEX
  8
0
 62
7
 10
18.94134180
 20
12.30427148
  0
VERTEX
  8
0
 62
7
 10
18.92900000
 20
12.32700000
  0
VERTEX
  8
0
 62
7
 10
18.89821875
 20
12.29701563
  0
VERTEX
  8
0
 62
7
 10
18.87100000
 20
12.26412500
  0
VERTEX
  8
0
 62
7
 10
18.84828125
 20
12.22842188
  0
VERTEX
  8
0
 62
7
 10
18.83100000
 20
12.19000000
  0
VERTEX
  8
0
 62
7
 10
18.82226758
 20
12.15876953
  0
VERTEX
  8
0
 62
7
 10
18.81757813
 20
12.12615625
  0
VERTEX
  8
0
 62
7
 10
18.81656836
 20
12.09265234
  0
VERTEX
  8
0
 62
7
 10
18.81887500
 20
12.05875000
  0
VERTEX
  8
0
 62
7
 10
18.82413477
 20
12.02494141
  0
VERTEX
  8
0
 62
7
 10
18.83198438
 20
11.99171875
  0
VERTEX
  8
0
 62
7
 10
18.84206055
 20
11.95957422
  0
VERTEX
  8
0
 62
7
 10
18.85400000
 20
11.92900000
  0
VERTEX
  8
0
 62
7
 10
18.87956250
 20
11.88387500
  0
VERTEX
  8
0
 62
7
 10
18.91075000
 20
11.84400000
  0
VERTEX
  8
0
 62
7
 10
18.94681250
 20
11.80862500
  0
VERTEX
  8
0
 62
7
 10
18.98700000
 20
11.77700000
  0
VERTEX
  8
0
 62
7
 10
19.01576563
 20
11.75845313
  0
VERTEX
  8
0
 62
7
 10
19.04612500
 20
11.74187500
  0
VERTEX
  8
0
 62
7
 10
19.07742188
 20
11.72735938
  0
VERTEX
  8
0
 62
7
 10
19.10900000
 20
11.71500000
  0
VERTEX
  8
0
 62
7
 10
19.15440625
 20
11.69989063
  0
VERTEX
  8
0
 62
7
 10
19.20150000
 20
11.68862500
  0
VERTEX
  8
0
 62
7
 10
19.24934375
 20
11.68054688
  0
VERTEX
  8
0
 62
7
 10
19.29700000
 20
11.67500000
  0
VERTEX
  8
0
 62
7
 10
19.36289063
 20
11.67284375
  0
VERTEX
  8
0
 62
7
 10
19.42737500
 20
11.67725000
  0
VERTEX
  8
0
 62
7
 10
19.49092188
 20
11.68878125
  0
VERTEX
  8
0
 62
7
 10
19.55400000
 20
11.70800000
  0
VERTEX
  8
0
 62
7
 10
19.60548438
 20
11.73025000
  0
VERTEX
  8
0
 62
7
 10
19.65462500
 20
11.75775000
  0
VERTEX
  8
0
 62
7
 10
19.70095313
 20
11.79012500
  0
VERTEX
  8
0
 62
7
 10
19.74400000
 20
11.82700000
  0
VERTEX
  8
0
 62
7
 10
19.78381250
 20
11.87012500
  0
VERTEX
  8
0
 62
7
 10
19.81875000
 20
11.91700000
  0
VERTEX
  8
0
 62
7
 10
19.84806250
 20
11.96762500
  0
VERTEX
  8
0
 62
7
 10
19.87100000
 20
12.02200000
  0
VERTEX
  8
0
 62
7
 10
19.88462500
 20
12.07142188
  0
VERTEX
  8
0
 62
7
 10
19.89225000
 20
12.12187500
  0
VERTEX
  8
0
 62
7
 10
19.89575000
 20
12.17289063
  0
VERTEX
  8
0
 62
7
 10
19.89700000
 20
12.22400000
  0
VERTEX
  8
0
 62
7
 10
19.89232813
 20
12.29498438
  0
VERTEX
  8
0
 62
7
 10
19.88137500
 20
12.36512500
  0
VERTEX
  8
0
 62
7
 10
19.86423438
 20
12.43395313
  0
VERTEX
  8
0
 62
7
 10
19.84100000
 20
12.50100000
  0
VERTEX
  8
0
 62
7
 10
19.82256250
 20
12.54735938
  0
VERTEX
  8
0
 62
7
 10
19.80075000
 20
12.59212500
  0
VERTEX
  8
0
 62
7
 10
19.77631250
 20
12.63557813
  0
VERTEX
  8
0
 62
7
 10
19.75000000
 20
12.67800000
  0
VERTEX
  8
0
 62
7
 10
19.71650000
 20
12.72418750
  0
VERTEX
  8
0
 62
7
 10
19.68075000
 20
12.76850000
  0
VERTEX
  8
0
 62
7
 10
19.64312500
 20
12.81131250
  0
VERTEX
  8
0
 62
7
 10
19.60400000
 20
12.85300000
  0
VERTEX
  8
0
 62
7
 10
19.53115625
 20
12.92707813
  0
VERTEX
  8
0
 62
7
 10
19.45400000
 20
12.99637500
  0
VERTEX
  8
0
 62
7
 10
19.37309375
 20
13.06098438
  0
VERTEX
  8
0
 62
7
 10
19.28900000
 20
13.12100000
  0
VERTEX
  8
0
 62
7
 10
19.27100000
 20
13.10800000
  0
VERTEX
  8
0
 62
7
 10
19.37387500
 20
13.01650000
  0
VERTEX
  8
0
 62
7
 10
19.47300000
 20
12.92200000
  0
VERTEX
  8
0
 62
7
 10
19.52628125
 20
12.86890625
  0
VERTEX
  8
0
 62
7
 10
19.57675000
 20
12.81600000
  0
VERTEX
  8
0
 62
7
 10
19.62459375
 20
12.76084375
  0
VERTEX
  8
0
 62
7
 10
19.67000000
 20
12.70100000
  0
VERTEX
  8
0
 62
7
 10
19.70768750
 20
12.64346875
  0
VERTEX
  8
0
 62
7
 10
19.74200000
 20
12.58425000
  0
VERTEX
  8
0
 62
7
 10
19.77181250
 20
12.52240625
  0
VERTEX
  8
0
 62
7
 10
19.79600000
 20
12.45700000
  0
VERTEX
  8
0
 62
7
 10
19.81443750
 20
12.39150000
  0
VERTEX
  8
0
 62
7
 10
19.82725000
 20
12.32450000
  0
VERTEX
  8
0
 62
7
 10
19.83368750
 20
12.25675000
  0
VERTEX
  8
0
 62
7
 10
19.83300000
 20
12.18900000
  0
VERTEX
  8
0
 62
7
 10
19.83037891
 20
12.15864648
  0
VERTEX
  8
0
 62
7
 10
19.82684375
 20
12.12842188
  0
VERTEX
  8
0
 62
7
 10
19.82213672
 20
12.09845508
  0
VERTEX
  8
0
 62
7
 10
19.81600000
 20
12.06887500
  0
VERTEX
  8
0
 62
7
 10
19.80817578
 20
12.03981055
  0
VERTEX
  8
0
 62
7
 10
19.79840625
 20
12.01139063
  0
VERTEX
  8
0
 62
7
 10
19.78643359
 20
11.98374414
  0
VERTEX
  8
0
 62
7
 10
19.77200000
 20
11.95700000
  0
VERTEX
  8
0
 62
7
 10
19.74000000
 20
11.91054688
  0
VERTEX
  8
0
 62
7
 10
19.70275000
 20
11.86887500
  0
VERTEX
  8
0
 62
7
 10
19.66062500
 20
11.83226563
  0
VERTEX
  8
0
 62
7
 10
19.61400000
 20
11.80100000
  0
VERTEX
  8
0
 62
7
 10
19.56104688
 20
11.77750000
  0
VERTEX
  8
0
 62
7
 10
19.50612500
 20
11.76150000
  0
VERTEX
  8
0
 62
7
 10
19.44989063
 20
11.75150000
  0
VERTEX
  8
0
 62
7
 10
19.39300000
 20
11.74600000
  0
VERTEX
  8
0
 62
7
 10
19.35431250
 20
11.74443164
  0
VERTEX
  8
0
 62
7
 10
19.31562500
 20
11.74507813
  0
VERTEX
  8
0
 62
7
 10
19.27712500
 20
11.74809180
  0
VERTEX
  8
0
 62
7
 10
19.23900000
 20
11.75362500
  0
VERTEX
  8
0
 62
7
 10
19.20143750
 20
11.76183008
  0
VERTEX
  8
0
 62
7
 10
19.16462500
 20
11.77285938
  0
VERTEX
  8
0
 62
7
 10
19.12875000
 20
11.78686523
  0
VERTEX
  8
0
 62
7
 10
19.09400000
 20
11.80400000
  0
VERTEX
  8
0
 62
7
 10
19.07104492
 20
11.81678125
  0
VERTEX
  8
0
 62
7
 10
19.04873438
 20
11.82993750
  0
VERTEX
  8
0
 62
7
 10
19.02715039
 20
11.84393750
  0
VERTEX
  8
0
 62
7
 10
19.00637500
 20
11.85925000
  0
VERTEX
  8
0
 62
7
 10
18.98649023
 20
11.87634375
  0
VERTEX
  8
0
 62
7
 10
18.96757813
 20
11.89568750
  0
VERTEX
  8
0
 62
7
 10
18.94972070
 20
11.91775000
  0
VERTEX
  8
0
 62
7
 10
18.93300000
 20
11.94300000
  0
VERTEX
  8
0
 62
7
 10
18.92147656
 20
11.96407422
  0
VERTEX
  8
0
 62
7
 10
18.91112500
 20
11.98596875
  0
VERTEX
  8
0
 62
7
 10
18.90227344
 20
12.00856641
  0
VERTEX
  8
0
 62
7
 10
18.89525000
 20
12.03175000
  0
VERTEX
  8
0
 62
7
 10
18.89038281
 20
12.05540234
  0
VERTEX
  8
0
 62
7
 10
18.88800000
 20
12.07940625
  0
VERTEX
  8
0
 62
7
 10
18.88842969
 20
12.10364453
  0
VERTEX
  8
0
 62
7
 10
18.89200000
 20
12.12800000
  0
VERTEX
  8
0
 62
7
 10
18.89854688
 20
12.15218750
  0
VERTEX
  8
0
 62
7
 10
18.90762500
 20
12.17525000
  0
VERTEX
  8
0
 62
7
 10
18.91914063
 20
12.19718750
  0
VERTEX
  8
0
 62
7
 10
18.93300000
 20
12.21800000
  0
VERTEX
  8
0
 62
7
 10
18.95906250
 20
12.20376563
  0
VERTEX
  8
0
 62
7
 10
18.98625000
 20
12.19262500
  0
VERTEX
  8
0
 62
7
 10
19.01456250
 20
12.18467188
  0
VERTEX
  8
0
 62
7
 10
19.04400000
 20
12.18000000
  0
VERTEX
  8
0
 62
7
 10
19.06431445
 20
12.17917578
  0
VERTEX
  8
0
 62
7
 10
19.08464063
 20
12.17978125
  0
VERTEX
  8
0
 62
7
 10
19.10480273
 20
12.18193359
  0
VERTEX
  8
0
 62
7
 10
19.12462500
 20
12.18575000
  0
VERTEX
  8
0
 62
7
 10
19.14393164
 20
12.19134766
  0
VERTEX
  8
0
 62
7
 10
19.16254688
 20
12.19884375
  0
VERTEX
  8
0
 62
7
 10
19.18029492
 20
12.20835547
  0
VERTEX
  8
0
 62
7
 10
19.19700000
 20
12.22000000
  0
VERTEX
  8
0
 62
7
 10
19.22009961
 20
12.23950391
  0
VERTEX
  8
0
 62
7
 10
19.23948438
 20
12.25978125
  0
VERTEX
  8
0
 62
7
 10
19.25565820
 20
12.28085547
  0
VERTEX
  8
0
 62
7
 10
19.26912500
 20
12.30275000
  0
VERTEX
  8
0
 62
7
 10
19.28038867
 20
12.32548828
  0
VERTEX
  8
0
 62
7
 10
19.28995313
 20
12.34909375
  0
VERTEX
  8
0
 62
7
 10
19.29832227
 20
12.37358984
  0
VERTEX
  8
0
 62
7
 10
19.30600000
 20
12.39900000
  0
VERTEX
  8
0
 62
7
 10
19.31324219
 20
12.43205273
  0
VERTEX
  8
0
 62
7
 10
19.31781250
 20
12.46579688
  0
VERTEX
  8
0
 62
7
 10
19.31985156
 20
12.49998633
  0
VERTEX
  8
0
 62
7
 10
19.31950000
 20
12.53437500
  0
VERTEX
  8
0
 62
7
 10
19.31689844
 20
12.56871680
  0
VERTEX
  8
0
 62
7
 10
19.31218750
 20
12.60276563
  0
VERTEX
  8
0
 62
7
 10
19.30550781
 20
12.63627539
  0
VERTEX
  8
0
 62
7
 10
19.29700000
 20
12.66900000
  0
VERTEX
  8
0
 62
7
 10
19.28037500
 20
12.71712500
  0
VERTEX
  8
0
 62
7
 10
19.25925000
 20
12.76375000
  0
VERTEX
  8
0
 62
7
 10
19.23400000
 20
12.80850000
  0
VERTEX
  8
0
 62
7
 10
19.20500000
 20
12.85100000
  0
VERTEX
  8
0
 62
7
 10
19.17200000
 20
12.88951563
  0
VERTEX
  8
0
 62
7
 10
19.13600000
 20
12.92512500
  0
VERTEX
  8
0
 62
7
 10
19.09700000
 20
12.95717188
  0
VERTEX
  8
0
 62
7
 10
19.05500000
 20
12.98500000
  0
VERTEX
  8
0
 62
7
 10
19.00487500
 20
13.01135938
  0
VERTEX
  8
0
 62
7
 10
18.95250000
 20
13.03237500
  0
VERTEX
  8
0
 62
7
 10
18.89862500
 20
13.04870313
  0
VERTEX
  8
0
 62
7
 10
18.84400000
 20
13.06100000
  0
VERTEX
  8
0
 62
7
 10
18.78217188
 20
13.07048438
  0
VERTEX
  8
0
 62
7
 10
18.71987500
 20
13.07312500
  0
VERTEX
  8
0
 62
7
 10
18.65739063
 20
13.07070313
  0
VERTEX
  8
0
 62
7
 10
18.59500000
 20
13.06500000
  0
VERTEX
  8
0
 62
7
 10
18.55399414
 20
13.05946875
  0
VERTEX
  8
0
 62
7
 10
18.51351563
 20
13.05187500
  0
VERTEX
  8
0
 62
7
 10
18.47362305
 20
13.04221875
  0
VERTEX
  8
0
 62
7
 10
18.43437500
 20
13.03050000
  0
VERTEX
  8
0
 62
7
 10
18.39583008
 20
13.01671875
  0
VERTEX
  8
0
 62
7
 10
18.35804688
 20
13.00087500
  0
VERTEX
  8
0
 62
7
 10
18.32108398
 20
12.98296875
  0
VERTEX
  8
0
 62
7
 10
18.28500000
 20
12.96300000
  0
VERTEX
  8
0
 62
7
 10
18.21934375
 20
12.92268750
  0
VERTEX
  8
0
 62
7
 10
18.15725000
 20
12.87750000
  0
VERTEX
  8
0
 62
7
 10
18.09853125
 20
12.82856250
  0
VERTEX
  8
0
 62
7
 10
18.04300000
 20
12.77700000
  0
VERTEX
  8
0
 62
7
 10
17.97528125
 20
12.70825000
  0
VERTEX
  8
0
 62
7
 10
17.90250000
 20
12.63275000
  0
VERTEX
  8
0
 62
7
 10
17.83346875
 20
12.55762500
  0
VERTEX
  8
0
 62
7
 10
17.77700000
 20
12.49000000
  0
VERTEX
  8
0
 62
7
 10
17.72425049
 20
12.42069653
  0
VERTEX
  8
0
 62
7
 10
17.67337891
 20
12.35060352
  0
VERTEX
  8
0
 62
7
 10
17.62457568
 20
12.27944702
  0
VERTEX
  8
0
 62
7
 10
17.57803125
 20
12.20695313
  0
VERTEX
  8
0
 62
7
 10
17.53393604
 20
12.13284790
  0
VERTEX
  8
0
 62
7
 10
17.49248047
 20
12.05685742
  0
VERTEX
  8
0
 62
7
 10
17.45385498
 20
11.97870776
  0
VERTEX
  8
0
 62
7
 10
17.41825000
 20
11.89812500
  0
VERTEX
  8
0
 62
7
 10
17.38585596
 20
11.81483521
  0
VERTEX
  8
0
 62
7
 10
17.35686328
 20
11.72856445
  0
VERTEX
  8
0
 62
7
 10
17.33146240
 20
11.63903882
  0
VERTEX
  8
0
 62
7
 10
17.30984375
 20
11.54598438
  0
VERTEX
  8
0
 62
7
 10
17.29219775
 20
11.44912720
  0
VERTEX
  8
0
 62
7
 10
17.27871484
 20
11.34819336
  0
VERTEX
  8
0
 62
7
 10
17.26958545
 20
11.24290894
  0
VERTEX
  8
0
 62
7
 10
17.26500000
 20
11.13300000
  0
VERTEX
  8
0
 62
7
 10
17.26312500
 20
10.88912500
  0
VERTEX
  8
0
 62
7
 10
17.26500000
 20
10.74200000
  0
VERTEX
  8
0
 62
7
 10
17.26500000
 20
.04000000
  0
VERTEX
  8
0
 62
7
 10
17.35500000
 20
.04000000
  0
SEQEND
  0
POLYLINE
  8
0
 62
7
 66
1
 70
1
  0
VERTEX
  8
0
 62
7
 10
28.97700000
 20
18.09000000
  0
VERTEX
  8
0
 62
7
 10
5.02300000
 20
18.09000000
  0
VERTEX
  8
0
 62
7
 10
4.74200000
 20
18.09000000
  0
VERTEX
  8
0
 62
7
 10
4.68900000
 20
17.81200000
  0
VERTEX
  8
0
 62
7
 10
4.60244922
 20
17.33250586
  0
VERTEX
  8
0
 62
7
 10
4.52290625
 20
16.85135938
  0
VERTEX
  8
0
 62
7
 10
4.44941016
 20
16.36906445
  0
VERTEX
  8
0
 62
7
 10
4.38100000
 20
15.88612500
  0
VERTEX
  8
0
 62
7
 10
4.31671484
 20
15.40304492
  0
VERTEX
  8
0
 62
7
 10
4.25559375
 20
14.92032813
  0
VERTEX
  8
0
 62
7
 10
4.19667578
 20
14.43847852
  0
VERTEX
  8
0
 62
7
 10
4.13900000
 20
13.95800000
  0
VERTEX
  8
0
 62
7
 10
4.11900000
 20
13.79000000
  0
VERTEX
  8
0
 62
7
 10
4.07300000
 20
13.41000000
  0
VERTEX
  8
0
 62
7
 10
4.45500000
 20
13.41000000
  0
VERTEX
  8
0
 62
7
 10
29.54300000
 20
13.41000000
  0
VERTEX
  8
0
 62
7
 10
29.92500000
 20
13.41000000
  0
VERTEX
  8
0
 62
7
 10
29.87900000
 20
13.79000000
  0
VERTEX
  8
0
 62
7
 10
29.81727148
 20
14.29232813
  0
VERTEX
  8
0
 62
7
 10
29.75285938
 20
14.79493750
  0
VERTEX
  8
0
 62
7
 10
29.68579883
 20
15.29764063
  0
VERTEX
  8
0
 62
7
 10
29.61612500
 20
15.80025000
  0
VERTEX
  8
0
 62
7
 10
29.54387305
 20
16.30257813
  0
VERTEX
  8
0
 62
7
 10
29.46907813
 20
16.80443750
  0
VERTEX
  8
0
 62
7
 10
29.39177539
 20
17.30564063
  0
VERTEX
  8
0
 62
7
 10
29.31200000
 20
17.80600000
  0
VERTEX
  8
0
 62
7
 10
29.26600000
 20
18.09000000
  0
VERTEX
  8
0
 62
7
 10
28.97700000
 20
18.09000000
  0
SEQEND
  0
POLYLINE
  8
0
 62
7
 66
1
 70
1
  0
VERTEX
  8
0
 62
7
 10
28.97700000
 20
17.84000000
  0
VERTEX
  8
0
 62
7
 10
5.02300000
 20
17.84000000
  0
VERTEX
  8
0
 62
7
 10
4.94900000
 20
17.84000000
  0
VERTEX
  8
0
 62
7
 10
4.93500000
 20
17.76600000
  0
VERTEX
  8
0
 62
7
 10
4.84751172
 20
17.26861328
  0
VERTEX
  8
0
 62
7
 10
4.76496875
 20
16.76965625
  0
VERTEX
  8
0
 62
7
 10
4.68725391
 20
16.26943359
  0
VERTEX
  8
0
 62
7
 10
4.61425000
 20
15.76825000
  0
VERTEX
  8
0
 62
7
 10
4.54583984
 20
15.26641016
  0
VERTEX
  8
0
 62
7
 10
4.48190625
 20
14.76421875
  0
VERTEX
  8
0
 62
7
 10
4.42233203
 20
14.26198047
  0
VERTEX
  8
0
 62
7
 10
4.36700000
 20
13.76000000
  0
VERTEX
  8
0
 62
7
 10
4.35500000
 20
13.66000000
  0
VERTEX
  8
0
 62
7
 10
4.45500000
 20
13.66000000
  0
VERTEX
  8
0
 62
7
 10
29.54300000
 20
13.66000000
  0
VERTEX
  8
0
 62
7
 10
29.64300000
 20
13.66000000
  0
VERTEX
  8
0
 62
7
 10
29.63100000
 20
13.76000000
  0
VERTEX
  8
0
 62
7
 10
29.57583594
 20
14.26193945
  0
VERTEX
  8
0
 62
7
 10
29.51668750
 20
14.76407813
  0
VERTEX
  8
0
 62
7
 10
29.45332031
 20
15.26614648
  0
VERTEX
  8
0
 62
7
 10
29.38550000
 20
15.76787500
  0
VERTEX
  8
0
 62
7
 10
29.31299219
 20
16.26899414
  0
VERTEX
  8
0
 62
7
 10
29.23556250
 20
16.76923438
  0
VERTEX
  8
0
 62
7
 10
29.15297656
 20
17.26832617
  0
VERTEX
  8
0
 62
7
 10
29.06500000
 20
17.76600000
  0
VERTEX
  8
0
 62
7
 10
29.05300000
 20
17.84000000
  0
VERTEX
  8
0
 62
7
 10
28.97700000
 20
17.84000000
  0
SEQEND
  0
POLYLINE
  8
0
 62
7
 66
1
 70
1
  0
VERTEX
  8
0
 62
7
 10
28.97741400
 20
17.75000000
  0
VERTEX
  8
0
 62
7
 10
5.02380720
 20
17.75000000
  0
VERTEX
  8
0
 62
7
 10
4.85366293
 20
16.75529688
  0
VERTEX
  8
0
 62
7
 10
4.70286405
 20
15.75562500
  0
VERTEX
  8
0
 62
7
 10
4.57045914
 20
14.75314063
  0
VERTEX
  8
0
 62
7
 10
4.45549680
 20
13.75000000
  0
VERTEX
  8
0
 62
7
 10
29.54234160
 20
13.75000000
  0
VERTEX
  8
0
 62
7
 10
29.42790782
 20
14.75314063
  0
VERTEX
  8
0
 62
7
 10
29.29666575
 20
15.75562500
  0
VERTEX
  8
0
 62
7
 10
29.14702971
 20
16.75529688
  0
VERTEX
  8
0
 62
7
 10
28.97741400
 20
17.75000000
  0
SEQEND
  0
POLYLINE
  8
0
 62
7
 66
1
 70
1
  0
VERTEX
  8
0
 62
7
 10
17.18200000
 20
20.92100000
  0
VERTEX
  8
0
 62
7
 10
17.14789063
 20
20.85750000
  0
VERTEX
  8
0
 62
7
 10
17.11762500
 20
20.79175000
  0
VERTEX
  8
0
 62
7
 10
17.09129688
 20
20.72412500
  0
VERTEX
  8
0
 62
7
 10
17.06900000
 20
20.65500000
  0
VERTEX
  8
0
 62
7
 10
17.04901563
 20
20.57164063
  0
VERTEX
  8
0
 62
7
 10
17.03512500
 20
20.48687500
  0
VERTEX
  8
0
 62
7
 10
17.02667188
 20
20.40117188
  0
VERTEX
  8
0
 62
7
 10
17.02300000
 20
20.31500000
  0
VERTEX
  8
0
 62
7
 10
17.02380469
 20
20.26405078
  0
VERTEX
  8
0
 62
7
 10
17.02681250
 20
20.21321875
  0
VERTEX
  8
0
 62
7
 10
17.03178906
 20
20.16252734
  0
VERTEX
  8
0
 62
7
 10
17.03850000
 20
20.11200000
  0
VERTEX
  8
0
 62
7
 10
17.04671094
 20
20.06166016
  0
VERTEX
  8
0
 62
7
 10
17.05618750
 20
20.01153125
  0
VERTEX
  8
0
 62
7
 10
17.06669531
 20
19.96163672
  0
VERTEX
  8
0
 62
7
 10
17.07800000
 20
19.91200000
  0
VERTEX
  8
0
 62
7
 10
17.10514063
 20
19.81446875
  0
VERTEX
  8
0
 62
7
 10
17.13762500
 20
19.71825000
  0
VERTEX
  8
0
 62
7
 10
17.17404688
 20
19.62315625
  0
VERTEX
  8
0
 62
7
 10
17.21300000
 20
19.52900000
  0
VERTEX
  8
0
 62
7
 10
17.25332813
 20
19.44032813
  0
VERTEX
  8
0
 62
7
 10
17.29637500
 20
19.35287500
  0
VERTEX
  8
0
 62
7
 10
17.34223438
 20
19.26673438
  0
VERTEX
  8
0
 62
7
 10
17.39100000
 20
19.18200000
  0
VERTEX
  8
0
 62
7
 10
17.44879688
 20
19.09193750
  0
VERTEX
  8
0
 62
7
 10
17.50987500
 20
19.00450000
  0
VERTEX
  8
0
 62
7
 10
17.57451563
 20
18.91931250
  0
VERTEX
  8
0
 62
7
 10
17.64300000
 20
18.83600000
  0
VERTEX
  8
0
 62
7
 10
17.74325000
 20
18.72450000
  0
VERTEX
  8
0
 62
7
 10
17.85100000
 20
18.61900000
  0
VERTEX
  8
0
 62
7
 10
17.91225000
 20
18.56646875
  0
VERTEX
  8
0
 62
7
 10
17.97575000
 20
18.51675000
  0
VERTEX
  8
0
 62
7
 10
18.04112500
 20
18.46965625
  0
VERTEX
  8
0
 62
7
 10
18.10800000
 20
18.42500000
  0
VERTEX
  8
0
 62
7
 10
18.17065625
 20
18.38639063
  0
VERTEX
  8
0
 62
7
 10
18.23425000
 20
18.35012500
  0
VERTEX
  8
0
 62
7
 10
18.29896875
 20
18.31629688
  0
VERTEX
  8
0
 62
7
 10
18.36500000
 20
18.28500000
  0
VERTEX
  8
0
 62
7
 10
18.43350781
 20
18.25780469
  0
VERTEX
  8
0
 62
7
 10
18.50318750
 20
18.23450000
  0
VERTEX
  8
0
 62
7
 10
18.57389844
 20
18.21475781
  0
VERTEX
  8
0
 62
7
 10
18.64550000
 20
18.19825000
  0
VERTEX
  8
0
 62
7
 10
18.71785156
 20
18.18464844
  0
VERTEX
  8
0
 62
7
 10
18.79081250
 20
18.17362500
  0
VERTEX
  8
0
 62
7
 10
18.86424219
 20
18.16485156
  0
VERTEX
  8
0
 62
7
 10
18.93800000
 20
18.15800000
  0
VERTEX
  8
0
 62
7
 10
18.99612305
 20
18.15470703
  0
VERTEX
  8
0
 62
7
 10
19.05423438
 20
18.15359375
  0
VERTEX
  8
0
 62
7
 10
19.11232227
 20
18.15430859
  0
VERTEX
  8
0
 62
7
 10
19.17037500
 20
18.15650000
  0
VERTEX
  8
0
 62
7
 10
19.22838086
 20
18.15981641
  0
VERTEX
  8
0
 62
7
 10
19.28632813
 20
18.16390625
  0
VERTEX
  8
0
 62
7
 10
19.34420508
 20
18.16841797
  0
VERTEX
  8
0
 62
7
 10
19.40200000
 20
18.17300000
  0
VERTEX
  8
0
 62
7
 10
19.50681250
 20
18.18179688
  0
VERTEX
  8
0
 62
7
 10
19.61125000
 20
18.19312500
  0
VERTEX
  8
0
 62
7
 10
19.71531250
 20
18.20689063
  0
VERTEX
  8
0
 62
7
 10
19.81900000
 20
18.22300000
  0
VERTEX
  8
0
 62
7
 10
19.98925000
 20
18.25450000
  0
VERTEX
  8
0
 62
7
 10
20.15800000
 20
18.28900000
  0
VERTEX
  8
0
 62
7
 10
20.21937500
 20
18.30240625
  0
VERTEX
  8
0
 62
7
 10
20.28075000
 20
18.31675000
  0
VERTEX
  8
0
 62
7
 10
20.34250000
 20
18.32921875
  0
VERTEX
  8
0
 62
7
 10
20.40500000
 20
18.33700000
  0
VERTEX
  8
0
 62
7
 10
20.43571875
 20
18.33954688
  0
VERTEX
  8
0
 62
7
 10
20.46625000
 20
18.34162500
  0
VERTEX
  8
0
 62
7
 10
20.49640625
 20
18.34164063
  0
VERTEX
  8
0
 62
7
 10
20.52600000
 20
18.33800000
  0
VERTEX
  8
0
 62
7
 10
20.56839063
 20
18.32770313
  0
VERTEX
  8
0
 62
7
 10
20.60862500
 20
18.31112500
  0
VERTEX
  8
0
 62
7
 10
20.64679688
 20
18.28948438
  0
VERTEX
  8
0
 62
7
 10
20.68300000
 20
18.26400000
  0
VERTEX
  8
0
 62
7
 10
20.70664063
 20
18.24112500
  0
VERTEX
  8
0
 62
7
 10
20.72737500
 20
18.21525000
  0
VERTEX
  8
0
 62
7
 10
20.74867188
 20
18.18975000
  0
VERTEX
  8
0
 62
7
 10
20.77400000
 20
18.16800000
  0
VERTEX
  8
0
 62
7
 10
20.80187500
 20
18.14975000
  0
VERTEX
  8
0
 62
7
 10
20.83200000
 20
18.13600000
  0
VERTEX
  8
0
 62
7
 10
20.85261719
 20
18.13141602
  0
VERTEX
  8
0
 62
7
 10
20.87318750
 20
18.13007813
  0
VERTEX
  8
0
 62
7
 10
20.89366406
 20
18.13148242
  0
VERTEX
  8
0
 62
7
 10
20.91400000
 20
18.13512500
  0
VERTEX
  8
0
 62
7
 10
20.93414844
 20
18.14050195
  0
VERTEX
  8
0
 62
7
 10
20.95406250
 20
18.14710938
  0
VERTEX
  8
0
 62
7
 10
20.97369531
 20
18.15444336
  0
VERTEX
  8
0
 62
7
 10
20.99300000
 20
18.16200000
  0
VERTEX
  8
0
 62
7
 10
21.05500000
 20
18.19300000
  0
VERTEX
  8
0
 62
7
 10
21.07763086
 20
18.19878711
  0
VERTEX
  8
0
 62
7
 10
21.10048438
 20
18.20104688
  0
VERTEX
  8
0
 62
7
 10
21.12350195
 20
18.20075195
  0
VERTEX
  8
0
 62
7
 10
21.14662500
 20
18.19887500
  0
VERTEX
  8
0
 62
7
 10
21.16979492
 20
18.19638867
  0
VERTEX
  8
0
 62
7
 10
21.19295313
 20
18.19426563
  0
VERTEX
  8
0
 62
7
 10
21.21604102
 20
18.19347852
  0
VERTEX
  8
0
 62
7
 10
21.23900000
 20
18.19500000
  0
VERTEX
  8
0
 62
7
 10
21.27478125
 20
18.19945313
  0
VERTEX
  8
0
 62
7
 10
21.31075000
 20
18.20437500
  0
VERTEX
  8
0
 62
7
 10
21.34559375
 20
18.21285938
  0
VERTEX
  8
0
 62
7
 10
21.37800000
 20
18.22800000
  0
VERTEX
  8
0
 62
7
 10
21.39738477
 20
18.24258203
  0
VERTEX
  8
0
 62
7
 10
21.41439063
 20
18.25915625
  0
VERTEX
  8
0
 62
7
 10
21.42916992
 20
18.27746484
  0
VERTEX
  8
0
 62
7
 10
21.44187500
 20
18.29725000
  0
VERTEX
  8
0
 62
7
 10
21.45265820
 20
18.31825391
  0
VERTEX
  8
0
 62
7
 10
21.46167188
 20
18.34021875
  0
VERTEX
  8
0
 62
7
 10
21.46906836
 20
18.36288672
  0
VERTEX
  8
0
 62
7
 10
21.47500000
 20
18.38600000
  0
VERTEX
  8
0
 62
7
 10
21.47997266
 20
18.41772656
  0
VERTEX
  8
0
 62
7
 10
21.48140625
 20
18.44968750
  0
VERTEX
  8
0
 62
7
 10
21.47932422
 20
18.48155469
  0
VERTEX
  8
0
 62
7
 10
21.47375000
 20
18.51300000
  0
VERTEX
  8
0
 62
7
 10
21.46470703
 20
18.54369531
  0
VERTEX
  8
0
 62
7
 10
21.45221875
 20
18.57331250
  0
VERTEX
  8
0
 62
7
 10
21.43630859
 20
18.60152344
  0
VERTEX
  8
0
 62
7
 10
21.41700000
 20
18.62800000
  0
VERTEX
  8
0
 62
7
 10
21.38945752
 20
18.65834521
  0
VERTEX
  8
0
 62
7
 10
21.35983203
 20
18.68466797
  0
VERTEX
  8
0
 62
7
 10
21.32831396
 20
18.70721143
  0
VERTEX
  8
0
 62
7
 10
21.29509375
 20
18.72621875
  0
VERTEX
  8
0
 62
7
 10
21.26036182
 20
18.74193311
  0
VERTEX
  8
0
 62
7
 10
21.22430859
 20
18.75459766
  0
VERTEX
  8
0
 62
7
 10
21.18712451
 20
18.76445557
  0
VERTEX
  8
0
 62
7
 10
21.14900000
 20
18.77175000
  0
VERTEX
  8
0
 62
7
 10
21.11012549
 20
18.77672412
  0
VERTEX
  8
0
 62
7
 10
21.07069141
 20
18.77962109
  0
VERTEX
  8
0
 62
7
 10
21.03088818
 20
18.78068408
  0
VERTEX
  8
0
 62
7
 10
20.99090625
 20
18.78015625
  0
VERTEX
  8
0
 62
7
 10
20.95093604
 20
18.77828076
  0
VERTEX
  8
0
 62
7
 10
20.91116797
 20
18.77530078
  0
VERTEX
  8
0
 62
7
 10
20.87179248
 20
18.77145947
  0
VERTEX
  8
0
 62
7
 10
20.83300000
 20
18.76700000
  0
VERTEX
  8
0
 62
7
 10
20.77650000
 20
18.75896875
  0
VERTEX
  8
0
 62
7
 10
20.72075000
 20
18.74775000
  0
VERTEX
  8
0
 62
7
 10
20.66537500
 20
18.73465625
  0
VERTEX
  8
0
 62
7
 10
20.61000000
 20
18.72100000
  0
VERTEX
  8
0
 62
7
 10
20.48912500
 20
18.68500000
  0
VERTEX
  8
0
 62
7
 10
20.36900000
 20
18.64600000
  0
VERTEX
  8
0
 62
7
 10
20.03100000
 20
18.52600000
  0
VERTEX
  8
0
 62
7
 10
19.89237500
 20
18.48037500
  0
VERTEX
  8
0
 62
7
 10
19.75300000
 20
18.43700000
  0
VERTEX
  8
0
 62
7
 10
19.75300000
 20
18.45400000
  0
VERTEX
  8
0
 62
7
 10
20.08700000
 20
18.57900000
  0
VERTEX
  8
0
 62
7
 10
20.17610938
 20
18.61254688
  0
VERTEX
  8
0
 62
7
 10
20.26512500
 20
18.64637500
  0
VERTEX
  8
0
 62
7
 10
20.35432813
 20
18.67926563
  0
VERTEX
  8
0
 62
7
 10
20.44400000
 20
18.71000000
  0
VERTEX
  8
0
 62
7
 10
20.53375000
 20
18.73867188
  0
VERTEX
  8
0
 62
7
 10
20.62350000
 20
18.76612500
  0
VERTEX
  8
0
 62
7
 10
20.71400000
 20
18.79001563
  0
VERTEX
  8
0
 62
7
 10
20.80600000
 20
18.80800000
  0
VERTEX
  8
0
 62
7
 10
20.84662891
 20
18.81335938
  0
VERTEX
  8
0
 62
7
 10
20.88746875
 20
18.81862500
  0
VERTEX
  8
0
 62
7
 10
20.92844922
 20
18.82332813
  0
VERTEX
  8
0
 62
7
 10
20.96950000
 20
18.82700000
  0
VERTEX
  8
0
 62
7
 10
21.01055078
 20
18.82917188
  0
VERTEX
  8
0
 62
7
 10
21.05153125
 20
18.82937500
  0
VERTEX
  8
0
 62
7
 10
21.09237109
 20
18.82714063
  0
VERTEX
  8
0
 62
7
 10
21.13300000
 20
18.82200000
  0
VERTEX
  8
0
 62
7
 10
21.16306250
 20
18.81626758
  0
VERTEX
  8
0
 62
7
 10
21.19312500
 20
18.81007813
  0
VERTEX
  8
0
 62
7
 10
21.22300000
 20
18.80306836
  0
VERTEX
  8
0
 62
7
 10
21.25250000
 20
18.79487500
  0
VERTEX
  8
0
 62
7
 10
21.28143750
 20
18.78513477
  0
VERTEX
  8
0
 62
7
 10
21.30962500
 20
18.77348438
  0
VERTEX
  8
0
 62
7
 10
21.33687500
 20
18.75956055
  0
VERTEX
  8
0
 62
7
 10
21.36300000
 20
18.74300000
  0
VERTEX
  8
0
 62
7
 10
21.38434570
 20
18.72706055
  0
VERTEX
  8
0
 62
7
 10
21.40476563
 20
18.70998438
  0
VERTEX
  8
0
 62
7
 10
21.42408398
 20
18.69175977
  0
VERTEX
  8
0
 62
7
 10
21.44212500
 20
18.67237500
  0
VERTEX
  8
0
 62
7
 10
21.45871289
 20
18.65181836
  0
VERTEX
  8
0
 62
7
 10
21.47367188
 20
18.63007813
  0
VERTEX
  8
0
 62
7
 10
21.48682617
 20
18.60714258
  0
VERTEX
  8
0
 62
7
 10
21.49800000
 20
18.58300000
  0
VERTEX
  8
0
 62
7
 10
21.50797070
 20
18.55752148
  0
VERTEX
  8
0
 62
7
 10
21.51551563
 20
18.53142188
  0
VERTEX
  8
0
 62
7
 10
21.52083398
 20
18.50483008
  0
VERTEX
  8
0
 62
7
 10
21.52412500
 20
18.47787500
  0
VERTEX
  8
0
 62
7
 10
21.52558789
 20
18.45068555
  0
VERTEX
  8
0
 62
7
 10
21.52542188
 20
18.42339063
  0
VERTEX
  8
0
 62
7
 10
21.52382617
 20
18.39611914
  0
VERTEX
  8
0
 62
7
 10
21.52100000
 20
18.36900000
  0
VERTEX
  8
0
 62
7
 10
21.51326563
 20
18.33517188
  0
VERTEX
  8
0
 62
7
 10
21.50337500
 20
18.30162500
  0
VERTEX
  8
0
 62
7
 10
21.49104688
 20
18.26901563
  0
VERTEX
  8
0
 62
7
 10
21.47600000
 20
18.23800000
  0
VERTEX
  8
0
 62
7
 10
21.49709375
 20
18.21554688
  0
VERTEX
  8
0
 62
7
 10
21.52100000
 20
18.19637500
  0
VERTEX
  8
0
 62
7
 10
21.54715625
 20
18.18076563
  0
VERTEX
  8
0
 62
7
 10
21.57500000
 20
18.16900000
  0
VERTEX
  8
0
 62
7
 10
21.61090625
 20
18.15939063
  0
VERTEX
  8
0
 62
7
 10
21.64775000
 20
18.15662500
  0
VERTEX
  8
0
 62
7
 10
21.68496875
 20
18.15929688
  0
VERTEX
  8
0
 62
7
 10
21.72200000
 20
18.16600000
  0
VERTEX
  8
0
 62
7
 10
21.75045313
 20
18.17365625
  0
VERTEX
  8
0
 62
7
 10
21.77787500
 20
18.18450000
  0
VERTEX
  8
0
 62
7
 10
21.80510938
 20
18.19609375
  0
VERTEX
  8
0
 62
7
 10
21.83300000
 20
18.20600000
  0
VERTEX
  8
0
 62
7
 10
21.86604688
 20
18.21707813
  0
VERTEX
  8
0
 62
7
 10
21.89937500
 20
18.22787500
  0
VERTEX
  8
0
 62
7
 10
21.93326563
 20
18.23623438
  0
VERTEX
  8
0
 62
7
 10
21.96800000
 20
18.24000000
  0
VERTEX
  8
0
 62
7
 10
22.00150000
 20
18.24025000
  0
VERTEX
  8
0
 62
7
 10
22.03500000
 20
18.23600000
  0
VERTEX
  8
0
 62
7
 10
22.06748438
 20
18.22668750
  0
VERTEX
  8
0
 62
7
 10
22.09837500
 20
18.21325000
  0
VERTEX
  8
0
 62
7
 10
22.12907813
 20
18.19943750
  0
VERTEX
  8
0
 62
7
 10
22.16100000
 20
18.18900000
  0
VERTEX
  8
0
 62
7
 10
22.19643750
 20
18.18059375
  0
VERTEX
  8
0
 62
7
 10
22.23225000
 20
18.17425000
  0
VERTEX
  8
0
 62
7
 10
22.26843750
 20
18.17128125
  0
VERTEX
  8
0
 62
7
 10
22.30500000
 20
18.17300000
  0
VERTEX
  8
0
 62
7
 10
22.32788867
 20
18.17542383
  0
VERTEX
  8
0
 62
7
 10
22.35067188
 20
18.17907813
  0
VERTEX
  8
0
 62
7
 10
22.37315039
 20
18.18416211
  0
VERTEX
  8
0
 62
7
 10
22.39512500
 20
18.19087500
  0
VERTEX
  8
0
 62
7
 10
22.41639648
 20
18.19941602
  0
VERTEX
  8
0
 62
7
 10
22.43676563
 20
18.20998438
  0
VERTEX
  8
0
 62
7
 10
22.45603320
 20
18.22277930
  0
VERTEX
  8
0
 62
7
 10
22.47400000
 20
18.23800000
  0
VERTEX
  8
0
 62
7
 10
22.49161523
 20
18.25702930
  0
VERTEX
  8
0
 62
7
 10
22.50635938
 20
18.27792188
  0
VERTEX
  8
0
 62
7
 10
22.51845508
 20
18.30038477
  0
VERTEX
  8
0
 62
7
 10
22.52812500
 20
18.32412500
  0
VERTEX
  8
0
 62
7
 10
22.53559180
 20
18.34884961
  0
VERTEX
  8
0
 62
7
 10
22.54107813
 20
18.37426563
  0
VERTEX
  8
0
 62
7
 10
22.54480664
 20
18.40008008
  0
VERTEX
  8
0
 62
7
 10
22.54700000
 20
18.42600000
  0
VERTEX
  8
0
 62
7
 10
22.54817188
 20
18.47301563
  0
VERTEX
  8
0
 62
7
 10
22.54287500
 20
18.51937500
  0
VERTEX
  8
0
 62
7
 10
22.53139063
 20
18.56479688
  0
VERTEX
  8
0
 62
7
 10
22.51400000
 20
18.60900000
  0
VERTEX
  8
0
 62
7
 10
22.49506250
 20
18.64582813
  0
VERTEX
  8
0
 62
7
 10
22.47200000
 20
18.68012500
  0
VERTEX
  8
0
 62
7
 10
22.44593750
 20
18.71235938
  0
VERTEX
  8
0
 62
7
 10
22.41800000
 20
18.74300000
  0
VERTEX
  8
0
 62
7
 10
22.35762500
 20
18.80062500
  0
VERTEX
  8
0
 62
7
 10
22.29200000
 20
18.85300000
  0
VERTEX
  8
0
 62
7
 10
22.24264063
 20
18.88634375
  0
VERTEX
  8
0
 62
7
 10
22.19187500
 20
18.91725000
  0
VERTEX
  8
0
 62
7
 10
22.13942188
 20
18.94553125
  0
VERTEX
  8
0
 62
7
 10
22.08500000
 20
18.97100000
  0
VERTEX
  8
0
 62
7
 10
22.02226563
 20
18.99600000
  0
VERTEX
  8
0
 62
7
 10
21.95962500
 20
19.01725000
  0
VERTEX
  8
0
 62
7
 10
21.89642188
 20
19.03512500
  0
VERTEX
  8
0
 62
7
 10
21.83200000
 20
19.05000000
  0
VERTEX
  8
0
 62
7
 10
21.75279688
 20
19.06643750
  0
VERTEX
  8
0
 62
7
 10
21.67462500
 20
19.07875000
  0
VERTEX
  8
0
 62
7
 10
21.59589063
 20
19.08768750
  0
VERTEX
  8
0
 62
7
 10
21.51500000
 20
19.09400000
  0
VERTEX
  8
0
 62
7
 10
21.44328125
 20
19.09567188
  0
VERTEX
  8
0
 62
7
 10
21.36650000
 20
19.09387500
  0
VERTEX
  8
0
 62
7
 10
21.28971875
 20
19.08964063
  0
VERTEX
  8
0
 62
7
 10
21.21800000
 20
19.08400000
  0
VERTEX
  8
0
 62
7
 10
21.12381250
 20
19.07465625
  0
VERTEX
  8
0
 62
7
 10
21.03375000
 20
19.06175000
  0
VERTEX
  8
0
 62
7
 10
20.94406250
 20
19.04546875
  0
VERTEX
  8
0
 62
7
 10
20.85100000
 20
19.02600000
  0
VERTEX
  8
0
 62
7
 10
20.76284375
 20
19.00493750
  0
VERTEX
  8
0
 62
7
 10
20.67450000
 20
18.98125000
  0
VERTEX
  8
0
 62
7
 10
20.58690625
 20
18.95568750
  0
VERTEX
  8
0
 62
7
 10
20.50100000
 20
18.92900000
  0
VERTEX
  8
0
 62
7
 10
20.36204688
 20
18.88362500
  0
VERTEX
  8
0
 62
7
 10
20.22562500
 20
18.83300000
  0
VERTEX
  8
0
 62
7
 10
20.09164063
 20
18.77712500
  0
VERTEX
  8
0
 62
7
 10
19.96000000
 20
18.71600000
  0
VERTEX
  8
0
 62
7
 10
19.95500000
 20
18.73400000
  0
VERTEX
  8
0
 62
7
 10
20.12500000
 20
18.81625000
  0
VERTEX
  8
0
 62
7
 10
20.29800000
 20
18.89100000
  0
VERTEX
  8
0
 62
7
 10
20.40067188
 20
18.93226563
  0
VERTEX
  8
0
 62
7
 10
20.50362500
 20
18.97137500
  0
VERTEX
  8
0
 62
7
 10
20.60751563
 20
19.00729688
  0
VERTEX
  8
0
 62
7
 10
20.71300000
 20
19.03900000
  0
VERTEX
  8
0
 62
7
 10
20.80170313
 20
19.06289063
  0
VERTEX
  8
0
 62
7
 10
20.89087500
 20
19.08462500
  0
VERTEX
  8
0
 62
7
 10
20.98060938
 20
19.10354688
  0
VERTEX
  8
0
 62
7
 10
21.07100000
 20
19.11900000
  0
VERTEX
  8
0
 62
7
 10
21.16453125
 20
19.13271875
  0
VERTEX
  8
0
 62
7
 10
21.25900000
 20
19.14325000
  0
VERTEX
  8
0
 62
7
 10
21.35421875
 20
19.14965625
  0
VERTEX
  8
0
 62
7
 10
21.45000000
 20
19.15100000
  0
VERTEX
  8
0
 62
7
 10
21.54759375
 20
19.14720313
  0
VERTEX
  8
0
 62
7
 10
21.64500000
 20
19.13862500
  0
VERTEX
  8
0
 62
7
 10
21.74165625
 20
19.12498438
  0
VERTEX
  8
0
 62
7
 10
21.83700000
 20
19.10600000
  0
VERTEX
  8
0
 62
7
 10
21.88014844
 20
19.09643945
  0
VERTEX
  8
0
 62
7
 10
21.92325000
 20
19.08632813
  0
VERTEX
  8
0
 62
7
 10
21.96616406
 20
19.07539648
  0
VERTEX
  8
0
 62
7
 10
22.00875000
 20
19.06337500
  0
VERTEX
  8
0
 62
7
 10
22.05086719
 20
19.04999414
  0
VERTEX
  8
0
 62
7
 10
22.09237500
 20
19.03498438
  0
VERTEX
  8
0
 62
7
 10
22.13313281
 20
19.01807617
  0
VERTEX
  8
0
 62
7
 10
22.17300000
 20
18.99900000
  0
VERTEX
  8
0
 62
7
 10
22.24048438
 20
18.96306250
  0
VERTEX
  8
0
 62
7
 10
22.30562500
 20
18.92375000
  0
VERTEX
  8
0
 62
7
 10
22.36720313
 20
18.88031250
  0
VERTEX
  8
0
 62
7
 10
22.42400000
 20
18.83200000
  0
VERTEX
  8
0
 62
7
 10
22.46398438
 20
18.79018750
  0
VERTEX
  8
0
 62
7
 10
22.50237500
 20
18.74425000
  0
VERTEX
  8
0
 62
7
 10
22.53832813
 20
18.69643750
  0
VERTEX
  8
0
 62
7
 10
22.57100000
 20
18.64900000
  0
VERTEX
  8
0
 62
7
 10
22.60421875
 20
18.59628125
  0
VERTEX
  8
0
 62
7
 10
22.63800000
 20
18.54450000
  0
VERTEX
  8
0
 62
7
 10
22.67253125
 20
18.49571875
  0
VERTEX
  8
0
 62
7
 10
22.70800000
 20
18.45200000
  0
VERTEX
  8
0
 62
7
 10
22.74646875
 20
18.41179688
  0
VERTEX
  8
0
 62
7
 10
22.78325000
 20
18.37862500
  0
VERTEX
  8
0
 62
7
 10
22.82190625
 20
18.34864063
  0
VERTEX
  8
0
 62
7
 10
22.86600000
 20
18.31800000
  0
VERTEX
  8
0
 62
7
 10
22.92576563
 20
18.28042188
  0
VERTEX
  8
0
 62
7
 10
22.98787500
 20
18.24837500
  0
VERTEX
  8
0
 62
7
 10
23.05204688
 20
18.22139063
  0
VERTEX
  8
0
 62
7
 10
23.11800000
 20
18.19900000
  0
VERTEX
  8
0
 62
7
 10
23.16322070
 20
18.18713672
  0
VERTEX
  8
0
 62
7
 10
23.20882813
 20
18.17721875
  0
VERTEX
  8
0
 62
7
 10
23.25474023
 20
18.16950391
  0
VERTEX
  8
0
 62
7
 10
23.30087500
 20
18.16425000
  0
VERTEX
  8
0
 62
7
 10
23.34715039
 20
18.16171484
  0
VERTEX
  8
0
 62
7
 10
23.39348438
 20
18.16215625
  0
VERTEX
  8
0
 62
7
 10
23.43979492
 20
18.16583203
  0
VERTEX
  8
0
 62
7
 10
23.48600000
 20
18.17300000
  0
VERTEX
  8
0
 62
7
 10
23.52274805
 20
18.18060742
  0
VERTEX
  8
0
 62
7
 10
23.55929688
 20
18.18942188
  0
VERTEX
  8
0
 62
7
 10
23.59535352
 20
18.19980664
  0
VERTEX
  8
0
 62
7
 10
23.63062500
 20
18.21212500
  0
VERTEX
  8
0
 62
7
 10
23.66481836
 20
18.22674023
  0
VERTEX
  8
0
 62
7
 10
23.69764063
 20
18.24401563
  0
VERTEX
  8
0
 62
7
 10
23.72879883
 20
18.26431445
  0
VERTEX
  8
0
 62
7
 10
23.75800000
 20
18.28800000
  0
VERTEX
  8
0
 62
7
 10
23.78262891
 20
18.31182813
  0
VERTEX
  8
0
 62
7
 10
23.80484375
 20
18.33743750
  0
VERTEX
  8
0
 62
7
 10
23.82476172
 20
18.36464063
  0
VERTEX
  8
0
 62
7
 10
23.84250000
 20
18.39325000
  0
VERTEX
  8
0
 62
7
 10
23.85817578
 20
18.42307813
  0
VERTEX
  8
0
 62
7
 10
23.87190625
 20
18.45393750
  0
VERTEX
  8
0
 62
7
 10
23.88380859
 20
18.48564063
  0
VERTEX
  8
0
 62
7
 10
23.89400000
 20
18.51800000
  0
VERTEX
  8
0
 62
7
 10
23.90355664
 20
18.55991797
  0
VERTEX
  8
0
 62
7
 10
23.90970313
 20
18.60228125
  0
VERTEX
  8
0
 62
7
 10
23.91240430
 20
18.64487891
  0
VERTEX
  8
0
 62
7
 10
23.91162500
 20
18.68750000
  0
VERTEX
  8
0
 62
7
 10
23.90733008
 20
18.72993359
  0
VERTEX
  8
0
 62
7
 10
23.89948438
 20
18.77196875
  0
VERTEX
  8
0
 62
7
 10
23.88805273
 20
18.81339453
  0
VERTEX
  8
0
 62
7
 10
23.87300000
 20
18.85400000
  0
VERTEX
  8
0
 62
7
 10
23.85837891
 20
18.88616797
  0
VERTEX
  8
0
 62
7
 10
23.84153125
 20
18.91728125
  0
VERTEX
  8
0
 62
7
 10
23.82248047
 20
18.94712891
  0
VERTEX
  8
0
 62
7
 10
23.80125000
 20
18.97550000
  0
VERTEX
  8
0
 62
7
 10
23.77786328
 20
19.00218359
  0
VERTEX
  8
0
 62
7
 10
23.75234375
 20
19.02696875
  0
VERTEX
  8
0
 62
7
 10
23.72471484
 20
19.04964453
  0
VERTEX
  8
0
 62
7
 10
23.69500000
 20
19.07000000
  0
VERTEX
  8
0
 62
7
 10
23.66591406
 20
19.08668945
  0
VERTEX
  8
0
 62
7
 10
23.63575000
 20
19.10076563
  0
VERTEX
  8
0
 62
7
 10
23.60464844
 20
19.11224023
  0
VERTEX
  8
0
 62
7
 10
23.57275000
 20
19.12112500
  0
VERTEX
  8
0
 62
7
 10
23.54019531
 20
19.12743164
  0
VERTEX
  8
0
 62
7
 10
23.50712500
 20
19.13117188
  0
VERTEX
  8
0
 62
7
 10
23.47367969
 20
19.13235742
  0
VERTEX
  8
0
 62
7
 10
23.44000000
 20
19.13100000
  0
VERTEX
  8
0
 62
7
 10
23.44056250
 20
19.10765625
  0
VERTEX
  8
0
 62
7
 10
23.43775000
 20
19.08450000
  0
VERTEX
  8
0
 62
7
 10
23.43156250
 20
19.06209375
  0
VERTEX
  8
0
 62
7
 10
23.42200000
 20
19.04100000
  0
VERTEX
  8
0
 62
7
 10
23.40776563
 20
19.01896875
  0
VERTEX
  8
0
 62
7
 10
23.39062500
 20
18.99975000
  0
VERTEX
  8
0
 62
7
 10
23.37067188
 20
18.98390625
  0
VERTEX
  8
0
 62
7
 10
23.34800000
 20
18.97200000
  0
VERTEX
  8
0
 62
7
 10
23.33165820
 20
18.96663086
  0
VERTEX
  8
0
 62
7
 10
23.31495313
 20
18.96373438
  0
VERTEX
  8
0
 62
7
 10
23.29799023
 20
18.96287695
  0
VERTEX
  8
0
 62
7
 10
23.28087500
 20
18.96362500
  0
VERTEX
  8
0
 62
7
 10
23.26371289
 20
18.96554492
  0
VERTEX
  8
0
 62
7
 10
23.24660938
 20
18.96820313
  0
VERTEX
  8
0
 62
7
 10
23.22966992
 20
18.97116602
  0
VERTEX
  8
0
 62
7
 10
23.21300000
 20
18.97400000
  0
VERTEX
  8
0
 62
7
 10
23.17845313
 20
18.98320313
  0
VERTEX
  8
0
 62
7
 10
23.14512500
 20
18.99512500
  0
VERTEX
  8
0
 62
7
 10
23.11273438
 20
19.00873438
  0
VERTEX
  8
0
 62
7
 10
23.08100000
 20
19.02300000
  0
VERTEX
  8
0
 62
7
 10
22.98262305
 20
19.06594531
  0
VERTEX
  8
0
 62
7
 10
22.88385938
 20
19.10875000
  0
VERTEX
  8
0
 62
7
 10
22.78450977
 20
19.15061719
  0
VERTEX
  8
0
 62
7
 10
22.68437500
 20
19.19075000
  0
VERTEX
  8
0
 62
7
 10
22.58325586
 20
19.22835156
  0
VERTEX
  8
0
 62
7
 10
22.48095313
 20
19.26262500
  0
VERTEX
  8
0
 62
7
 10
22.37726758
 20
19.29277344
  0
VERTEX
  8
0
 62
7
 10
22.27200000
 20
19.31800000
  0
VERTEX
  8
0
 62
7
 10
22.13379688
 20
19.34312500
  0
VERTEX
  8
0
 62
7
 10
21.99512500
 20
19.36300000
  0
VERTEX
  8
0
 62
7
 10
21.85589063
 20
19.37762500
  0
VERTEX
  8
0
 62
7
 10
21.71600000
 20
19.38700000
  0
VERTEX
  8
0
 62
7
 10
21.64190625
 20
19.38954688
  0
VERTEX
  8
0
 62
7
 10
21.56800000
 20
19.39087500
  0
VERTEX
  8
0
 62
7
 10
21.49409375
 20
19.39051563
  0
VERTEX
  8
0
 62
7
 10
21.42000000
 20
19.38800000
  0
VERTEX
  8
0
 62
7
 10
21.31071875
 20
19.37956250
  0
VERTEX
  8
0
 62
7
 10
21.20200000
 20
19.36625000
  0
VERTEX
  8
0
 62
7
 10
21.09403125
 20
19.34806250
  0
VERTEX
  8
0
 62
7
 10
20.98700000
 20
19.32500000
  0
VERTEX
  8
0
 62
7
 10
20.88360938
 20
19.29750000
  0
VERTEX
  8
0
 62
7
 10
20.78162500
 20
19.26550000
  0
VERTEX
  8
0
 62
7
 10
20.68057813
 20
19.23050000
  0
VERTEX
  8
0
 62
7
 10
20.58000000
 20
19.19400000
  0
VERTEX
  8
0
 62
7
 10
20.49940625
 20
19.16350000
  0
VERTEX
  8
0
 62
7
 10
20.41975000
 20
19.13225000
  0
VERTEX
  8
0
 62
7
 10
20.34121875
 20
19.09837500
  0
VERTEX
  8
0
 62
7
 10
20.26400000
 20
19.06000000
  0
VERTEX
  8
0
 62
7
 10
20.19443750
 20
19.02145313
  0
VERTEX
  8
0
 62
7
 10
20.12675000
 20
18.97962500
  0
VERTEX
  8
0
 62
7
 10
20.06093750
 20
18.93498438
  0
VERTEX
  8
0
 62
7
 10
19.99700000
 20
18.88800000
  0
VERTEX
  8
0
 62
7
 10
19.99300000
 20
18.89600000
  0
VERTEX
  8
0
 62
7
 10
20.05850000
 20
18.96450000
  0
VERTEX
  8
0
 62
7
 10
20.13000000
 20
19.02700000
  0
VERTEX
  8
0
 62
7
 10
20.16387500
 20
19.05318750
  0
VERTEX
  8
0
 62
7
 10
20.19850000
 20
19.07825000
  0
VERTEX
  8
0
 62
7
 10
20.23462500
 20
19.10068750
  0
VERTEX
  8
0
 62
7
 10
20.27300000
 20
19.11900000
  0
VERTEX
  8
0
 62
7
 10
20.31362500
 20
19.13362500
  0
VERTEX
  8
0
 62
7
 10
20.35500000
 20
19.14600000
  0
VERTEX
  8
0
 62
7
 10
20.40462500
 20
19.15337500
  0
VERTEX
  8
0
 62
7
 10
20.45500000
 20
19.15700000
  0
VERTEX
  8
0
 62
7
 10
20.45731250
 20
19.17970313
  0
VERTEX
  8
0
 62
7
 10
20.45400000
 20
19.20212500
  0
VERTEX
  8
0
 62
7
 10
20.44543750
 20
19.22323438
  0
VERTEX
  8
0
 62
7
 10
20.43200000
 20
19.24200000
  0
VERTEX
  8
0
 62
7
 10
20.41820313
 20
19.25445313
  0
VERTEX
  8
0
 62
7
 10
20.40262500
 20
19.26362500
  0
VERTEX
  8
0
 62
7
 10
20.38573438
 20
19.26998438
  0
VERTEX
  8
0
 62
7
 10
20.36800000
 20
19.27400000
  0
VERTEX
  8
0
 62
7
 10
20.34131250
 20
19.27520313
  0
VERTEX
  8
0
 62
7
 10
20.31425000
 20
19.27387500
  0
VERTEX
  8
0
 62
7
 10
20.28756250
 20
19.26935938
  0
VERTEX
  8
0
 62
7
 10
20.26200000
 20
19.26100000
  0
VERTEX
  8
0
 62
7
 10
20.25581250
 20
19.28415625
  0
VERTEX
  8
0
 62
7
 10
20.24850000
 20
19.30675000
  0
VERTEX
  8
0
 62
7
 10
20.23893750
 20
19.32821875
  0
VERTEX
  8
0
 62
7
 10
20.22600000
 20
19.34800000
  0
VERTEX
  8
0
 62
7
 10
20.21029688
 20
19.36629688
  0
VERTEX
  8
0
 62
7
 10
20.19187500
 20
19.38262500
  0
VERTEX
  8
0
 62
7
 10
20.17101563
 20
19.39539063
  0
VERTEX
  8
0
 62
7
 10
20.14800000
 20
19.40300000
  0
VERTEX
  8
0
 62
7
 10
20.12157813
 20
19.40509375
  0
VERTEX
  8
0
 62
7
 10
20.09562500
 20
19.40100000
  0
VERTEX
  8
0
 62
7
 10
20.07135938
 20
19.39090625
  0
VERTEX
  8
0
 62
7
 10
20.05000000
 20
19.37500000
  0
VERTEX
  8
0
 62
7
 10
20.06721875
 20
19.36489063
  0
VERTEX
  8
0
 62
7
 10
20.08275000
 20
19.35262500
  0
VERTEX
  8
0
 62
7
 10
20.09640625
 20
19.33829688
  0
VERTEX
  8
0
 62
7
 10
20.10800000
 20
19.32200000
  0
VERTEX
  8
0
 62
7
 10
20.12082813
 20
19.29740625
  0
VERTEX
  8
0
 62
7
 10
20.12812500
 20
19.27075000
  0
VERTEX
  8
0
 62
7
 10
20.13035938
 20
19.24296875
  0
VERTEX
  8
0
 62
7
 10
20.12800000
 20
19.21500000
  0
VERTEX
  8
0
 62
7
 10
20.12206250
 20
19.19171875
  0
VERTEX
  8
0
 62
7
 10
20.11275000
 20
19.16975000
  0
VERTEX
  8
0
 62
7
 10
20.10156250
 20
19.14890625
  0
VERTEX
  8
0
 62
7
 10
20.09000000
 20
19.12900000
  0
VERTEX
  8
0
 62
7
 10
20.06828125
 20
19.09940625
  0
VERTEX
  8
0
 62
7
 10
20.04375000
 20
19.07225000
  0
VERTEX
  8
0
 62
7
 10
20.01659375
 20
19.04771875
  0
VERTEX
  8
0
 62
7
 10
19.98700000
 20
19.02600000
  0
VERTEX
  8
0
 62
7
 10
19.97300000
 20
19.03400000
  0
VERTEX
  8
0
 62
7
 10
19.99346875
 20
19.09754688
  0
VERTEX
  8
0
 62
7
 10
20.00850000
 20
19.16212500
  0
VERTEX
  8
0
 62
7
 10
20.01828125
 20
19.22764063
  0
VERTEX
  8
0
 62
7
 10
20.02300000
 20
19.29400000
  0
VERTEX
  8
0
 62
7
 10
20.02315625
 20
19.36443750
  0
VERTEX
  8
0
 62
7
 10
20.01750000
 20
19.43450000
  0
VERTEX
  8
0
 62
7
 10
20.00584375
 20
19.50381250
  0
VERTEX
  8
0
 62
7
 10
19.98800000
 20
19.57200000
  0
VERTEX
  8
0
 62
7
 10
19.97010938
 20
19.62376563
  0
VERTEX
  8
0
 62
7
 10
19.94837500
 20
19.67412500
  0
VERTEX
  8
0
 62
7
 10
19.92345313
 20
19.72317188
  0
VERTEX
  8
0
 62
7
 10
19.89600000
 20
19.77100000
  0
VERTEX
  8
0
 62
7
 10
19.86223438
 20
19.82129688
  0
VERTEX
  8
0
 62
7
 10
19.82462500
 20
19.86887500
  0
VERTEX
  8
0
 62
7
 10
19.78420313
 20
19.91401563
  0
VERTEX
  8
0
 62
7
 10
19.74200000
 20
19.95700000
  0
VERTEX
  8
0
 62
7
 10
19.70098438
 20
19.99562500
  0
VERTEX
  8
0
 62
7
 10
19.65837500
 20
20.03275000
  0
VERTEX
  8
0
 62
7
 10
19.61332813
 20
20.06725000
  0
VERTEX
  8
0
 62
7
 10
19.56500000
 20
20.09800000
  0
VERTEX
  8
0
 62
7
 10
19.50271875
 20
20.13021875
  0
VERTEX
  8
0
 62
7
 10
19.43800000
 20
20.15625000
  0
VERTEX
  8
0
 62
7
 10
19.37178125
 20
20.17815625
  0
VERTEX
  8
0
 62
7
 10
19.30500000
 20
20.19800000
  0
VERTEX
  8
0
 62
7
 10
19.22240625
 20
20.21887500
  0
VERTEX
  8
0
 62
7
 10
19.13850000
 20
20.23450000
  0
VERTEX
  8
0
 62
7
 10
19.05384375
 20
20.24637500
  0
VERTEX
  8
0
 62
7
 10
18.96900000
 20
20.25600000
  0
VERTEX
  8
0
 62
7
 10
18.86909375
 20
20.26626563
  0
VERTEX
  8
0
 62
7
 10
18.76900000
 20
20.27212500
  0
VERTEX
  8
0
 62
7
 10
18.66890625
 20
20.27442188
  0
VERTEX
  8
0
 62
7
 10
18.56900000
 20
20.27400000
  0
VERTEX
  8
0
 62
7
 10
18.48368750
 20
20.27154688
  0
VERTEX
  8
0
 62
7
 10
18.40025000
 20
20.26637500
  0
VERTEX
  8
0
 62
7
 10
18.31418750
 20
20.25951563
  0
VERTEX
  8
0
 62
7
 10
18.22100000
 20
20.25200000
  0
VERTEX
  8
0
 62
7
 10
18.15617188
 20
20.24835938
  0
VERTEX
  8
0
 62
7
 10
18.09312500
 20
20.24762500
  0
VERTEX
  8
0
 62
7
 10
18.03101563
 20
20.25157813
  0
VERTEX
  8
0
 62
7
 10
17.96900000
 20
20.26200000
  0
VERTEX
  8
0
 62
7
 10
17.95076172
 20
20.26632813
  0
VERTEX
  8
0
 62
7
 10
17.93221875
 20
20.27056250
  0
VERTEX
  8
0
 62
7
 10
17.91362891
 20
20.27507813
  0
VERTEX
  8
0
 62
7
 10
17.89525000
 20
20.28025000
  0
VERTEX
  8
0
 62
7
 10
17.87733984
 20
20.28645313
  0
VERTEX
  8
0
 62
7
 10
17.86015625
 20
20.29406250
  0
VERTEX
  8
0
 62
7
 10
17.84395703
 20
20.30345313
  0
VERTEX
  8
0
 62
7
 10
17.82900000
 20
20.31500000
  0
VERTEX
  8
0
 62
7
 10
17.80530469
 20
20.34116797
  0
VERTEX
  8
0
 62
7
 10
17.78681250
 20
20.37040625
  0
VERTEX
  8
0
 62
7
 10
17.77366406
 20
20.40194141
  0
VERTEX
  8
0
 62
7
 10
17.76600000
 20
20.43500000
  0
VERTEX
  8
0
 62
7
 10
17.76396094
 20
20.46880859
  0
VERTEX
  8
0
 62
7
 10
17.76768750
 20
20.50259375
  0
VERTEX
  8
0
 62
7
 10
17.77732031
 20
20.53558203
  0
VERTEX
  8
0
 62
7
 10
17.79300000
 20
20.56700000
  0
VERTEX
  8
0
 62
7
 10
17.74226563
 20
20.56500000
  0
VERTEX
  8
0
 62
7
 10
17.69237500
 20
20.55625000
  0
VERTEX
  8
0
 62
7
 10
17.64379688
 20
20.54112500
  0
VERTEX
  8
0
 62
7
 10
17.59700000
 20
20.52000000
  0
VERTEX
  8
0
 62
7
 10
17.56591602
 20
20.50129297
  0
VERTEX
  8
0
 62
7
 10
17.53714063
 20
20.47984375
  0
VERTEX
  8
0
 62
7
 10
17.51063867
 20
20.45591016
  0
VERTEX
  8
0
 62
7
 10
17.48637500
 20
20.42975000
  0
VERTEX
  8
0
 62
7
 10
17.46431445
 20
20.40162109
  0
VERTEX
  8
0
 62
7
 10
17.44442188
 20
20.37178125
  0
VERTEX
  8
0
 62
7
 10
17.42666211
 20
20.34048828
  0
VERTEX
  8
0
 62
7
 10
17.41100000
 20
20.30800000
  0
VERTEX
  8
0
 62
7
 10
17.39843555
 20
20.27418359
  0
VERTEX
  8
0
 62
7
 10
17.38904688
 20
20.23959375
  0
VERTEX
  8
0
 62
7
 10
17.38254102
 20
20.20439453
  0
VERTEX
  8
0
 62
7
 10
17.37862500
 20
20.16875000
  0
VERTEX
  8
0
 62
7
 10
17.37700586
 20
20.13282422
  0
VERTEX
  8
0
 62
7
 10
17.37739063
 20
20.09678125
  0
VERTEX
  8
0
 62
7
 10
17.37948633
 20
20.06078516
  0
VERTEX
  8
0
 62
7
 10
17.38300000
 20
20.02500000
  0
VERTEX
  8
0
 62
7
 10
17.38784766
 20
19.99065430
  0
VERTEX
  8
0
 62
7
 10
17.39421875
 20
19.95667188
  0
VERTEX
  8
0
 62
7
 10
17.40223047
 20
19.92313477
  0
VERTEX
  8
0
 62
7
 10
17.41200000
 20
19.89012500
  0
VERTEX
  8
0
 62
7
 10
17.42364453
 20
19.85772461
  0
VERTEX
  8
0
 62
7
 10
17.43728125
 20
19.82601563
  0
VERTEX
  8
0
 62
7
 10
17.45302734
 20
19.79508008
  0
VERTEX
  8
0
 62
7
 10
17.47100000
 20
19.76500000
  0
VERTEX
  8
0
 62
7
 10
17.51053125
 20
19.71450000
  0
VERTEX
  8
0
 62
7
 10
17.55625000
 20
19.66925000
  0
VERTEX
  8
0
 62
7
 10
17.60684375
 20
19.62887500
  0
VERTEX
  8
0
 62
7
 10
17.66100000
 20
19.59300000
  0
VERTEX
  8
0
 62
7
 10
17.71623438
 20
19.56436914
  0
VERTEX
  8
0
 62
7
 10
17.77362500
 20
19.54151563
  0
VERTEX
  8
0
 62
7
 10
17.83270313
 20
19.52449805
  0
VERTEX
  8
0
 62
7
 10
17.89300000
 20
19.51337500
  0
VERTEX
  8
0
 62
7
 10
17.95404688
 20
19.50820508
  0
VERTEX
  8
0
 62
7
 10
18.01537500
 20
19.50904688
  0
VERTEX
  8
0
 62
7
 10
18.07651563
 20
19.51595898
  0
VERTEX
  8
0
 62
7
 10
18.13700000
 20
19.52900000
  0
VERTEX
  8
0
 62
7
 10
18.11076563
 20
19.45760938
  0
VERTEX
  8
0
 62
7
 10
18.09062500
 20
19.38462500
  0
VERTEX
  8
0
 62
7
 10
18.07667188
 20
19.31032813
  0
VERTEX
  8
0
 62
7
 10
18.06900000
 20
19.23500000
  0
VERTEX
  8
0
 62
7
 10
18.06658984
 20
19.19779492
  0
VERTEX
  8
0
 62
7
 10
18.06546875
 20
19.16048438
  0
VERTEX
  8
0
 62
7
 10
18.06580078
 20
19.12315039
  0
VERTEX
  8
0
 62
7
 10
18.06775000
 20
19.08587500
  0
VERTEX
  8
0
 62
7
 10
18.07148047
 20
19.04874023
  0
VERTEX
  8
0
 62
7
 10
18.07715625
 20
19.01182813
  0
VERTEX
  8
0
 62
7
 10
18.08494141
 20
18.97522070
  0
VERTEX
  8
0
 62
7
 10
18.09500000
 20
18.93900000
  0
VERTEX
  8
0
 62
7
 10
18.11889063
 20
18.87464063
  0
VERTEX
  8
0
 62
7
 10
18.14887500
 20
18.81262500
  0
VERTEX
  8
0
 62
7
 10
18.18542188
 20
18.75379688
  0
VERTEX
  8
0
 62
7
 10
18.22900000
 20
18.69900000
  0
VERTEX
  8
0
 62
7
 10
18.26757813
 20
18.65987500
  0
VERTEX
  8
0
 62
7
 10
18.30962500
 20
18.62375000
  0
VERTEX
  8
0
 62
7
 10
18.35485938
 20
18.59100000
  0
VERTEX
  8
0
 62
7
 10
18.40300000
 20
18.56200000
  0
VERTEX
  8
0
 62
7
 10
18.46573438
 20
18.53387500
  0
VERTEX
  8
0
 62
7
 10
18.53062500
 20
18.51250000
  0
VERTEX
  8
0
 62
7
 10
18.59720313
 20
18.49787500
  0
VERTEX
  8
0
 62
7
 10
18.66500000
 20
18.49000000
  0
VERTEX
  8
0
 62
7
 10
18.70968164
 20
18.48787500
  0
VERTEX
  8
0
 62
7
 10
18.75432813
 20
18.48837500
  0
VERTEX
  8
0
 62
7
 10
18.79871680
 20
18.49168750
  0
VERTEX
  8
0
 62
7
 10
18.84262500
 20
18.49800000
  0
VERTEX
  8
0
 62
7
 10
18.88583008
 20
18.50750000
  0
VERTEX
  8
0
 62
7
 10
18.92810938
 20
18.52037500
  0
VERTEX
  8
0
 62
7
 10
18.96924023
 20
18.53681250
  0
VERTEX
  8
0
 62
7
 10
19.00900000
 20
18.55700000
  0
VERTEX
  8
0
 62
7
 10
19.03643359
 20
18.57345313
  0
VERTEX
  8
0
 62
7
 10
19.06309375
 20
18.59131250
  0
VERTEX
  8
0
 62
7
 10
19.08876953
 20
18.61057813
  0
VERTEX
  8
0
 62
7
 10
19.11325000
 20
18.63125000
  0
VERTEX
  8
0
 62
7
 10
19.13632422
 20
18.65332813
  0
VERTEX
  8
0
 62
7
 10
19.15778125
 20
18.67681250
  0
VERTEX
  8
0
 62
7
 10
19.17741016
 20
18.70170313
  0
VERTEX
  8
0
 62
7
 10
19.19500000
 20
18.72800000
  0
VERTEX
  8
0
 62
7
 10
19.21010547
 20
18.75553516
  0
VERTEX
  8
0
 62
7
 10
19.22378125
 20
18.78403125
  0
VERTEX
  8
0
 62
7
 10
19.23581641
 20
18.81332422
  0
VERTEX
  8
0
 62
7
 10
19.24600000
 20
18.84325000
  0
VERTEX
  8
0
 62
7
 10
19.25412109
 20
18.87364453
  0
VERTEX
  8
0
 62
7
 10
19.25996875
 20
18.90434375
  0
VERTEX
  8
0
 62
7
 10
19.26333203
 20
18.93518359
  0
VERTEX
  8
0
 62
7
 10
19.26400000
 20
18.96600000
  0
VERTEX
  8
0
 62
7
 10
19.26145313
 20
19.00945313
  0
VERTEX
  8
0
 62
7
 10
19.25562500
 20
19.05112500
  0
VERTEX
  8
0
 62
7
 10
19.24473438
 20
19.09298438
  0
VERTEX
  8
0
 62
7
 10
19.22700000
 20
19.13700000
  0
VERTEX
  8
0
 62
7
 10
19.21669336
 20
19.15700977
  0
VERTEX
  8
0
 62
7
 10
19.20454688
 20
19.17689063
  0
VERTEX
  8
0
 62
7
 10
19.19059570
 20
19.19604492
  0
VERTEX
  8
0
 62
7
 10
19.17487500
 20
19.21387500
  0
VERTEX
  8
0
 62
7
 10
19.15741992
 20
19.22978320
  0
VERTEX
  8
0
 62
7
 10
19.13826563
 20
19.24317188
  0
VERTEX
  8
0
 62
7
 10
19.11744727
 20
19.25344336
  0
VERTEX
  8
0
 62
7
 10
19.09500000
 20
19.26000000
  0
VERTEX
  8
0
 62
7
 10
19.06920508
 20
19.26319336
  0
VERTEX
  8
0
 62
7
 10
19.04389063
 20
19.26173438
  0
VERTEX
  8
0
 62
7
 10
19.01953711
 20
19.25593945
  0
VERTEX
  8
0
 62
7
 10
18.99662500
 20
19.24612500
  0
VERTEX
  8
0
 62
7
 10
18.97563477
 20
19.23260742
  0
VERTEX
  8
0
 62
7
 10
18.95704688
 20
19.21570313
  0
VERTEX
  8
0
 62
7
 10
18.94134180
 20
19.19572852
  0
VERTEX
  8
0
 62
7
 10
18.92900000
 20
19.17300000
  0
VERTEX
  8
0
 62
7
 10
18.89821875
 20
19.20298438
  0
VERTEX
  8
0
 62
7
 10
18.87100000
 20
19.23587500
  0
VERTEX
  8
0
 62
7
 10
18.84828125
 20
19.27157813
  0
VERTEX
  8
0
 62
7
 10
18.83100000
 20
19.31000000
  0
VERTEX
  8
0
 62
7
 10
18.82226758
 20
19.34123047
  0
VERTEX
  8
0
 62
7
 10
18.81757813
 20
19.37384375
  0
VERTEX
  8
0
 62
7
 10
18.81656836
 20
19.40734766
  0
VERTEX
  8
0
 62
7
 10
18.81887500
 20
19.44125000
  0
VERTEX
  8
0
 62
7
 10
18.82413477
 20
19.47505859
  0
VERTEX
  8
0
 62
7
 10
18.83198438
 20
19.50828125
  0
VERTEX
  8
0
 62
7
 10
18.84206055
 20
19.54042578
  0
VERTEX
  8
0
 62
7
 10
18.85400000
 20
19.57100000
  0
VERTEX
  8
0
 62
7
 10
18.87956250
 20
19.61612500
  0
VERTEX
  8
0
 62
7
 10
18.91075000
 20
19.65600000
  0
VERTEX
  8
0
 62
7
 10
18.94681250
 20
19.69137500
  0
VERTEX
  8
0
 62
7
 10
18.98700000
 20
19.72300000
  0
VERTEX
  8
0
 62
7
 10
19.01576563
 20
19.74154688
  0
VERTEX
  8
0
 62
7
 10
19.04612500
 20
19.75812500
  0
VERTEX
  8
0
 62
7
 10
19.07742188
 20
19.77264063
  0
VERTEX
  8
0
 62
7
 10
19.10900000
 20
19.78500000
  0
VERTEX
  8
0
 62
7
 10
19.15440625
 20
19.80010938
  0
VERTEX
  8
0
 62
7
 10
19.20150000
 20
19.81137500
  0
VERTEX
  8
0
 62
7
 10
19.24934375
 20
19.81945313
  0
VERTEX
  8
0
 62
7
 10
19.29700000
 20
19.82500000
  0
VERTEX
  8
0
 62
7
 10
19.36289063
 20
19.82715625
  0
VERTEX
  8
0
 62
7
 10
19.42737500
 20
19.82275000
  0
VERTEX
  8
0
 62
7
 10
19.49092188
 20
19.81121875
  0
VERTEX
  8
0
 62
7
 10
19.55400000
 20
19.79200000
  0
VERTEX
  8
0
 62
7
 10
19.60548438
 20
19.76975000
  0
VERTEX
  8
0
 62
7
 10
19.65462500
 20
19.74225000
  0
VERTEX
  8
0
 62
7
 10
19.70095313
 20
19.70987500
  0
VERTEX
  8
0
 62
7
 10
19.74400000
 20
19.67300000
  0
VERTEX
  8
0
 62
7
 10
19.78381250
 20
19.62987500
  0
VERTEX
  8
0
 62
7
 10
19.81875000
 20
19.58300000
  0
VERTEX
  8
0
 62
7
 10
19.84806250
 20
19.53237500
  0
VERTEX
  8
0
 62
7
 10
19.87100000
 20
19.47800000
  0
VERTEX
  8
0
 62
7
 10
19.88462500
 20
19.42857813
  0
VERTEX
  8
0
 62
7
 10
19.89225000
 20
19.37812500
  0
VERTEX
  8
0
 62
7
 10
19.89575000
 20
19.32710938
  0
VERTEX
  8
0
 62
7
 10
19.89700000
 20
19.27600000
  0
VERTEX
  8
0
 62
7
 10
19.89232813
 20
19.20501563
  0
VERTEX
  8
0
 62
7
 10
19.88137500
 20
19.13487500
  0
VERTEX
  8
0
 62
7
 10
19.86423438
 20
19.06604688
  0
VERTEX
  8
0
 62
7
 10
19.84100000
 20
18.99900000
  0
VERTEX
  8
0
 62
7
 10
19.82256250
 20
18.95264063
  0
VERTEX
  8
0
 62
7
 10
19.80075000
 20
18.90787500
  0
VERTEX
  8
0
 62
7
 10
19.77631250
 20
18.86442188
  0
VERTEX
  8
0
 62
7
 10
19.75000000
 20
18.82200000
  0
VERTEX
  8
0
 62
7
 10
19.71650000
 20
18.77581250
  0
VERTEX
  8
0
 62
7
 10
19.68075000
 20
18.73150000
  0
VERTEX
  8
0
 62
7
 10
19.64312500
 20
18.68868750
  0
VERTEX
  8
0
 62
7
 10
19.60400000
 20
18.64700000
  0
VERTEX
  8
0
 62
7
 10
19.53115625
 20
18.57292188
  0
VERTEX
  8
0
 62
7
 10
19.45400000
 20
18.50362500
  0
VERTEX
  8
0
 62
7
 10
19.37309375
 20
18.43901563
  0
VERTEX
  8
0
 62
7
 10
19.28900000
 20
18.37900000
  0
VERTEX
  8
0
 62
7
 10
19.27100000
 20
18.39200000
  0
VERTEX
  8
0
 62
7
 10
19.37387500
 20
18.48350000
  0
VERTEX
  8
0
 62
7
 10
19.47300000
 20
18.57800000
  0
VERTEX
  8
0
 62
7
 10
19.52628125
 20
18.63109375
  0
VERTEX
  8
0
 62
7
 10
19.57675000
 20
18.68400000
  0
VERTEX
  8
0
 62
7
 10
19.62459375
 20
18.73915625
  0
VERTEX
  8
0
 62
7
 10
19.67000000
 20
18.79900000
  0
VERTEX
  8
0
 62
7
 10
19.70768750
 20
18.85653125
  0
VERTEX
  8
0
 62
7
 10
19.74200000
 20
18.91575000
  0
VERTEX
  8
0
 62
7
 10
19.77181250
 20
18.97759375
  0
VERTEX
  8
0
 62
7
 10
19.79600000
 20
19.04300000
  0
VERTEX
  8
0
 62
7
 10
19.81443750
 20
19.10850000
  0
VERTEX
  8
0
 62
7
 10
19.82725000
 20
19.17550000
  0
VERTEX
  8
0
 62
7
 10
19.83368750
 20
19.24325000
  0
VERTEX
  8
0
 62
7
 10
19.83300000
 20
19.31100000
  0
VERTEX
  8
0
 62
7
 10
19.83037891
 20
19.34135352
  0
VERTEX
  8
0
 62
7
 10
19.82684375
 20
19.37157813
  0
VERTEX
  8
0
 62
7
 10
19.82213672
 20
19.40154492
  0
VERTEX
  8
0
 62
7
 10
19.81600000
 20
19.43112500
  0
VERTEX
  8
0
 62
7
 10
19.80817578
 20
19.46018945
  0
VERTEX
  8
0
 62
7
 10
19.79840625
 20
19.48860938
  0
VERTEX
  8
0
 62
7
 10
19.78643359
 20
19.51625586
  0
VERTEX
  8
0
 62
7
 10
19.77200000
 20
19.54300000
  0
VERTEX
  8
0
 62
7
 10
19.74000000
 20
19.58945313
  0
VERTEX
  8
0
 62
7
 10
19.70275000
 20
19.63112500
  0
VERTEX
  8
0
 62
7
 10
19.66062500
 20
19.66773438
  0
VERTEX
  8
0
 62
7
 10
19.61400000
 20
19.69900000
  0
VERTEX
  8
0
 62
7
 10
19.56104688
 20
19.72250000
  0
VERTEX
  8
0
 62
7
 10
19.50612500
 20
19.73850000
  0
VERTEX
  8
0
 62
7
 10
19.44989063
 20
19.74850000
  0
VERTEX
  8
0
 62
7
 10
19.39300000
 20
19.75400000
  0
VERTEX
  8
0
 62
7
 10
19.35431250
 20
19.75556836
  0
VERTEX
  8
0
 62
7
 10
19.31562500
 20
19.75492188
  0
VERTEX
  8
0
 62
7
 10
19.27712500
 20
19.75190820
  0
VERTEX
  8
0
 62
7
 10
19.23900000
 20
19.74637500
  0
VERTEX
  8
0
 62
7
 10
19.20143750
 20
19.73816992
  0
VERTEX
  8
0
 62
7
 10
19.16462500
 20
19.72714063
  0
VERTEX
  8
0
 62
7
 10
19.12875000
 20
19.71313477
  0
VERTEX
  8
0
 62
7
 10
19.09400000
 20
19.69600000
  0
VERTEX
  8
0
 62
7
 10
19.07104492
 20
19.68321875
  0
VERTEX
  8
0
 62
7
 10
19.04873438
 20
19.67006250
  0
VERTEX
  8
0
 62
7
 10
19.02715039
 20
19.65606250
  0
VERTEX
  8
0
 62
7
 10
19.00637500
 20
19.64075000
  0
VERTEX
  8
0
 62
7
 10
18.98649023
 20
19.62365625
  0
VERTEX
  8
0
 62
7
 10
18.96757813
 20
19.60431250
  0
VERTEX
  8
0
 62
7
 10
18.94972070
 20
19.58225000
  0
VERTEX
  8
0
 62
7
 10
18.93300000
 20
19.55700000
  0
VERTEX
  8
0
 62
7
 10
18.92147656
 20
19.53592578
  0
VERTEX
  8
0
 62
7
 10
18.91112500
 20
19.51403125
  0
VERTEX
  8
0
 62
7
 10
18.90227344
 20
19.49143359
  0
VERTEX
  8
0
 62
7
 10
18.89525000
 20
19.46825000
  0
VERTEX
  8
0
 62
7
 10
18.89038281
 20
19.44459766
  0
VERTEX
  8
0
 62
7
 10
18.88800000
 20
19.42059375
  0
VERTEX
  8
0
 62
7
 10
18.88842969
 20
19.39635547
  0
VERTEX
  8
0
 62
7
 10
18.89200000
 20
19.37200000
  0
VERTEX
  8
0
 62
7
 10
18.89854688
 20
19.34781250
  0
VERTEX
  8
0
 62
7
 10
18.90762500
 20
19.32475000
  0
VERTEX
  8
0
 62
7
 10
18.91914063
 20
19.30281250
  0
VERTEX
  8
0
 62
7
 10
18.93300000
 20
19.28200000
  0
VERTEX
  8
0
 62
7
 10
18.95906250
 20
19.29623438
  0
VERTEX
  8
0
 62
7
 10
18.98625000
 20
19.30737500
  0
VERTEX
  8
0
 62
7
 10
19.01456250
 20
19.31532813
  0
VERTEX
  8
0
 62
7
 10
19.04400000
 20
19.32000000
  0
VERTEX
  8
0
 62
7
 10
19.06431445
 20
19.32082422
  0
VERTEX
  8
0
 62
7
 10
19.08464063
 20
19.32021875
  0
VERTEX
  8
0
 62
7
 10
19.10480273
 20
19.31806641
  0
VERTEX
  8
0
 62
7
 10
19.12462500
 20
19.31425000
  0
VERTEX
  8
0
 62
7
 10
19.14393164
 20
19.30865234
  0
VERTEX
  8
0
 62
7
 10
19.16254688
 20
19.30115625
  0
VERTEX
  8
0
 62
7
 10
19.18029492
 20
19.29164453
  0
VERTEX
  8
0
 62
7
 10
19.19700000
 20
19.28000000
  0
VERTEX
  8
0
 62
7
 10
19.22009961
 20
19.26049609
  0
VERTEX
  8
0
 62
7
 10
19.23948438
 20
19.24021875
  0
VERTEX
  8
0
 62
7
 10
19.25565820
 20
19.21914453
  0
VERTEX
  8
0
 62
7
 10
19.26912500
 20
19.19725000
  0
VERTEX
  8
0
 62
7
 10
19.28038867
 20
19.17451172
  0
VERTEX
  8
0
 62
7
 10
19.28995313
 20
19.15090625
  0
VERTEX
  8
0
 62
7
 10
19.29832227
 20
19.12641016
  0
VERTEX
  8
0
 62
7
 10
19.30600000
 20
19.10100000
  0
VERTEX
  8
0
 62
7
 10
19.31324219
 20
19.06794727
  0
VERTEX
  8
0
 62
7
 10
19.31781250
 20
19.03420313
  0
VERTEX
  8
0
 62
7
 10
19.31985156
 20
19.00001367
  0
VERTEX
  8
0
 62
7
 10
19.31950000
 20
18.96562500
  0
VERTEX
  8
0
 62
7
 10
19.31689844
 20
18.93128320
  0
VERTEX
  8
0
 62
7
 10
19.31218750
 20
18.89723438
  0
VERTEX
  8
0
 62
7
 10
19.30550781
 20
18.86372461
  0
VERTEX
  8
0
 62
7
 10
19.29700000
 20
18.83100000
  0
VERTEX
  8
0
 62
7
 10
19.28037500
 20
18.78287500
  0
VERTEX
  8
0
 62
7
 10
19.25925000
 20
18.73625000
  0
VERTEX
  8
0
 62
7
 10
19.23400000
 20
18.69150000
  0
VERTEX
  8
0
 62
7
 10
19.20500000
 20
18.64900000
  0
VERTEX
  8
0
 62
7
 10
19.17200000
 20
18.61048438
  0
VERTEX
  8
0
 62
7
 10
19.13600000
 20
18.57487500
  0
VERTEX
  8
0
 62
7
 10
19.09700000
 20
18.54282813
  0
VERTEX
  8
0
 62
7
 10
19.05500000
 20
18.51500000
  0
VERTEX
  8
0
 62
7
 10
19.00487500
 20
18.48864063
  0
VERTEX
  8
0
 62
7
 10
18.95250000
 20
18.46762500
  0
VERTEX
  8
0
 62
7
 10
18.89862500
 20
18.45129688
  0
VERTEX
  8
0
 62
7
 10
18.84400000
 20
18.43900000
  0
VERTEX
  8
0
 62
7
 10
18.78217188
 20
18.42951563
  0
VERTEX
  8
0
 62
7
 10
18.71987500
 20
18.42687500
  0
VERTEX
  8
0
 62
7
 10
18.65739063
 20
18.42929688
  0
VERTEX
  8
0
 62
7
 10
18.59500000
 20
18.43500000
  0
VERTEX
  8
0
 62
7
 10
18.55399414
 20
18.44053125
  0
VERTEX
  8
0
 62
7
 10
18.51351563
 20
18.44812500
  0
VERTEX
  8
0
 62
7
 10
18.47362305
 20
18.45778125
  0
VERTEX
  8
0
 62
7
 10
18.43437500
 20
18.46950000
  0
VERTEX
  8
0
 62
7
 10
18.39583008
 20
18.48328125
  0
VERTEX
  8
0
 62
7
 10
18.35804688
 20
18.49912500
  0
VERTEX
  8
0
 62
7
 10
18.32108398
 20
18.51703125
  0
VERTEX
  8
0
 62
7
 10
18.28500000
 20
18.53700000
  0
VERTEX
  8
0
 62
7
 10
18.22028125
 20
18.57825000
  0
VERTEX
  8
0
 62
7
 10
18.16025000
 20
18.62550000
  0
VERTEX
  8
0
 62
7
 10
18.10359375
 20
18.67650000
  0
VERTEX
  8
0
 62
7
 10
18.04900000
 20
18.72900000
  0
VERTEX
  8
0
 62
7
 10
17.98890625
 20
18.79378125
  0
VERTEX
  8
0
 62
7
 10
17.93275000
 20
18.86175000
  0
VERTEX
  8
0
 62
7
 10
17.87996875
 20
18.93234375
  0
VERTEX
  8
0
 62
7
 10
17.83000000
 20
19.00500000
  0
VERTEX
  8
0
 62
7
 10
17.79180273
 20
19.06606836
  0
VERTEX
  8
0
 62
7
 10
17.75598438
 20
19.12848438
  0
VERTEX
  8
0
 62
7
 10
17.72258008
 20
19.19218945
  0
VERTEX
  8
0
 62
7
 10
17.69162500
 20
19.25712500
  0
VERTEX
  8
0
 62
7
 10
17.66315430
 20
19.32323242
  0
VERTEX
  8
0
 62
7
 10
17.63720313
 20
19.39045313
  0
VERTEX
  8
0
 62
7
 10
17.61380664
 20
19.45872852
  0
VERTEX
  8
0
 62
7
 10
17.59300000
 20
19.52800000
  0
VERTEX
  8
0
 62
7
 10
17.55043750
 20
19.56340625
  0
VERTEX
  8
0
 62
7
 10
17.51125000
 20
19.60200000
  0
VERTEX
  8
0
 62
7
 10
17.47543750
 20
19.64359375
  0
VERTEX
  8
0
 62
7
 10
17.44300000
 20
19.68800000
  0
VERTEX
  8
0
 62
7
 10
17.40579688
 20
19.74871875
  0
VERTEX
  8
0
 62
7
 10
17.37412500
 20
19.81225000
  0
VERTEX
  8
0
 62
7
 10
17.34864063
 20
19.87840625
  0
VERTEX
  8
0
 62
7
 10
17.33000000
 20
19.94700000
  0
VERTEX
  8
0
 62
7
 10
17.32289453
 20
19.98367773
  0
VERTEX
  8
0
 62
7
 10
17.31740625
 20
20.02085938
  0
VERTEX
  8
0
 62
7
 10
17.31365234
 20
20.05839258
  0
VERTEX
  8
0
 62
7
 10
17.31175000
 20
20.09612500
  0
VERTEX
  8
0
 62
7
 10
17.31181641
 20
20.13390430
  0
VERTEX
  8
0
 62
7
 10
17.31396875
 20
20.17157813
  0
VERTEX
  8
0
 62
7
 10
17.31832422
 20
20.20899414
  0
VERTEX
  8
0
 62
7
 10
17.32500000
 20
20.24600000
  0
VERTEX
  8
0
 62
7
 10
17.33970313
 20
20.30653125
  0
VERTEX
  8
0
 62
7
 10
17.36087500
 20
20.36500000
  0
VERTEX
  8
0
 62
7
 10
17.38785938
 20
20.42121875
  0
VERTEX
  8
0
 62
7
 10
17.42000000
 20
20.47500000
  0
VERTEX
  8
0
 62
7
 10
17.38045313
 20
20.53140625
  0
VERTEX
  8
0
 62
7
 10
17.34287500
 20
20.58950000
  0
VERTEX
  8
0
 62
7
 10
17.30735938
 20
20.64909375
  0
VERTEX
  8
0
 62
7
 10
17.27400000
 20
20.71000000
  0
VERTEX
  8
0
 62
7
 10
17.22462500
 20
20.81362500
  0
VERTEX
  8
0
 62
7
 10
17.18200000
 20
20.92100000
  0
SEQEND
  0
POLYLINE
  8
0
 62
7
 66
1
 70
1
  0
VERTEX
  8
0
 62
7
 10
18.80800000
 20
19.99300000
  0
VERTEX
  8
0
 62
7
 10
18.81900000
 20
19.96800000
  0
VERTEX
  8
0
 62
7
 10
18.76595313
 20
19.94800000
  0
VERTEX
  8
0
 62
7
 10
18.71487500
 20
19.92425000
  0
VERTEX
  8
0
 62
7
 10
18.66585938
 20
19.89712500
  0
VERTEX
  8
0
 62
7
 10
18.61900000
 20
19.86700000
  0
VERTEX
  8
0
 62
7
 10
18.55162500
 20
19.81537500
  0
VERTEX
  8
0
 62
7
 10
18.49100000
 20
19.75700000
  0
VERTEX
  8
0
 62
7
 10
18.47823438
 20
19.74834375
  0
VERTEX
  8
0
 62
7
 10
18.46387500
 20
19.74625000
  0
VERTEX
  8
0
 62
7
 10
18.45007813
 20
19.75053125
  0
VERTEX
  8
0
 62
7
 10
18.43900000
 20
19.76100000
  0
VERTEX
  8
0
 62
7
 10
18.43450000
 20
19.77112500
  0
VERTEX
  8
0
 62
7
 10
18.43300000
 20
19.78200000
  0
VERTEX
  8
0
 62
7
 10
18.46725000
 20
19.81609375
  0
VERTEX
  8
0
 62
7
 10
18.50375000
 20
19.84775000
  0
VERTEX
  8
0
 62
7
 10
18.54212500
 20
19.87678125
  0
VERTEX
  8
0
 62
7
 10
18.58200000
 20
19.90300000
  0
VERTEX
  8
0
 62
7
 10
18.63517188
 20
19.93281250
  0
VERTEX
  8
0
 62
7
 10
18.69087500
 20
19.95775000
  0
VERTEX
  8
0
 62
7
 10
18.74864063
 20
19.97781250
  0
VERTEX
  8
0
 62
7
 10
18.80800000
 20
19.99300000
  0
SEQEND
  0
POLYLINE
  8
0
 62
7
 66
1
 70
1
  0
VERTEX
  8
0
 62
7
 10
20.72700000
 20
20.18700000
  0
VERTEX
  8
0
 62
7
 10
20.75000000
 20
20.15500000
  0
VERTEX
  8
0
 62
7
 10
20.76555859
 20
20.13000000
  0
VERTEX
  8
0
 62
7
 10
20.77921875
 20
20.10387500
  0
VERTEX
  8
0
 62
7
 10
20.79095703
 20
20.07681250
  0
VERTEX
  8
0
 62
7
 10
20.80075000
 20
20.04900000
  0
VERTEX
  8
0
 62
7
 10
20.80857422
 20
20.02062500
  0
VERTEX
  8
0
 62
7
 10
20.81440625
 20
19.99187500
  0
VERTEX
  8
0
 62
7
 10
20.81822266
 20
19.96293750
  0
VERTEX
  8
0
 62
7
 10
20.82000000
 20
19.93400000
  0
VERTEX
  8
0
 62
7
 10
20.81900000
 20
19.91400000
  0
VERTEX
  8
0
 62
7
 10
20.85085938
 20
19.93925000
  0
VERTEX
  8
0
 62
7
 10
20.88487500
 20
19.96225000
  0
VERTEX
  8
0
 62
7
 10
20.92095313
 20
19.98262500
  0
VERTEX
  8
0
 62
7
 10
20.95900000
 20
20.00000000
  0
VERTEX
  8
0
 62
7
 10
20.98725000
 20
20.01014063
  0
VERTEX
  8
0
 62
7
 10
21.01625000
 20
20.01812500
  0
VERTEX
  8
0
 62
7
 10
21.04562500
 20
20.02404688
  0
VERTEX
  8
0
 62
7
 10
21.07500000
 20
20.02800000
  0
VERTEX
  8
0
 62
7
 10
21.04100000
 20
20.12600000
  0
VERTEX
  8
0
 62
7
 10
21.01175000
 20
20.22062500
  0
VERTEX
  8
0
 62
7
 10
20.98700000
 20
20.31600000
  0
VERTEX
  8
0
 62
7
 10
20.92625000
 20
20.28000000
  0
VERTEX
  8
0
 62
7
 10
20.86400000
 20
20.24700000
  0
VERTEX
  8
0
 62
7
 10
20.79587500
 20
20.21512500
  0
VERTEX
  8
0
 62
7
 10
20.72700000
 20
20.18700000
  0
SEQEND
  0
POLYLINE
  8
0
 62
7
 66
1
 70
1
  0
VERTEX
  8
0
 62
7
 10
19.80900000
 20
19.96500000
  0
VERTEX
  8
0
 62
7
 10
19.82807813
 20
19.96987500
  0
VERTEX
  8
0
 62
7
 10
19.84762500
 20
19.97250000
  0
VERTEX
  8
0
 62
7
 10
19.86735938
 20
19.97287500
  0
VERTEX
  8
0
 62
7
 10
19.88700000
 20
19.97100000
  0
VERTEX
  8
0
 62
7
 10
19.91156250
 20
19.96403125
  0
VERTEX
  8
0
 62
7
 10
19.93425000
 20
19.95275000
  0
VERTEX
  8
0
 62
7
 10
19.95506250
 20
19.93809375
  0
VERTEX
  8
0
 62
7
 10
19.97400000
 20
19.92100000
  0
VERTEX
  8
0
 62
7
 10
19.99270313
 20
19.89801563
  0
VERTEX
  8
0
 62
7
 10
20.00662500
 20
19.87212500
  0
VERTEX
  8
0
 62
7
 10
20.01773438
 20
19.84492188
  0
VERTEX
  8
0
 62
7
 10
20.02800000
 20
19.81800000
  0
VERTEX
  8
0
 62
7
 10
20.04223438
 20
19.77808398
  0
VERTEX
  8
0
 62
7
 10
20.05412500
 20
19.73735938
  0
VERTEX
  8
0
 62
7
 10
20.06470313
 20
19.69623633
  0
VERTEX
  8
0
 62
7
 10
20.07500000
 20
19.65512500
  0
VERTEX
  8
0
 62
7
 10
20.08604688
 20
19.61443555
  0
VERTEX
  8
0
 62
7
 10
20.09887500
 20
19.57457813
  0
VERTEX
  8
0
 62
7
 10
20.11451563
 20
19.53596289
  0
VERTEX
  8
0
 62
7
 10
20.13400000
 20
19.49900000
  0
VERTEX
  8
0
 62
7
 10
20.16192188
 20
19.45985938
  0
VERTEX
  8
0
 62
7
 10
20.19312500
 20
19.42362500
  0
VERTEX
  8
0
 62
7
 10
20.22751563
 20
19.39057813
  0
VERTEX
  8
0
 62
7
 10
20.26500000
 20
19.36100000
  0
VERTEX
  8
0
 62
7
 10
20.30723438
 20
19.33592188
  0
VERTEX
  8
0
 62
7
 10
20.35237500
 20
19.31487500
  0
VERTEX
  8
0
 62
7
 10
20.39957813
 20
19.29814063
  0
VERTEX
  8
0
 62
7
 10
20.44800000
 20
19.28600000
  0
VERTEX
  8
0
 62
7
 10
20.47837500
 20
19.28180273
  0
VERTEX
  8
0
 62
7
 10
20.50875000
 20
19.28017188
  0
VERTEX
  8
0
 62
7
 10
20.53912500
 20
19.28067383
  0
VERTEX
  8
0
 62
7
 10
20.56950000
 20
19.28287500
  0
VERTEX
  8
0
 62
7
 10
20.59987500
 20
19.28634180
  0
VERTEX
  8
0
 62
7
 10
20.63025000
 20
19.29064063
  0
VERTEX
  8
0
 62
7
 10
20.66062500
 20
19.29533789
  0
VERTEX
  8
0
 62
7
 10
20.69100000
 20
19.30000000
  0
VERTEX
  8
0
 62
7
 10
20.75292188
 20
19.31120313
  0
VERTEX
  8
0
 62
7
 10
20.81437500
 20
19.32587500
  0
VERTEX
  8
0
 62
7
 10
20.87564063
 20
19.34260938
  0
VERTEX
  8
0
 62
7
 10
20.93700000
 20
19.36000000
  0
VERTEX
  8
0
 62
7
 10
21.00404688
 20
19.37910938
  0
VERTEX
  8
0
 62
7
 10
21.07062500
 20
19.40037500
  0
VERTEX
  8
0
 62
7
 10
21.13739063
 20
19.42145313
  0
VERTEX
  8
0
 62
7
 10
21.20500000
 20
19.44000000
  0
VERTEX
  8
0
 62
7
 10
21.24837500
 20
19.45198438
  0
VERTEX
  8
0
 62
7
 10
21.29175000
 20
19.46387500
  0
VERTEX
  8
0
 62
7
 10
21.33550000
 20
19.47332813
  0
VERTEX
  8
0
 62
7
 10
21.38000000
 20
19.47800000
  0
VERTEX
  8
0
 62
7
 10
21.41146875
 20
19.47885938
  0
VERTEX
  8
0
 62
7
 10
21.44275000
 20
19.47887500
  0
VERTEX
  8
0
 62
7
 10
21.47365625
 20
19.47645313
  0
VERTEX
  8
0
 62
7
 10
21.50400000
 20
19.47000000
  0
VERTEX
  8
0
 62
7
 10
21.53545313
 20
19.45842188
  0
VERTEX
  8
0
 62
7
 10
21.56512500
 20
19.44337500
  0
VERTEX
  8
0
 62
7
 10
21.59273438
 20
19.42514063
  0
VERTEX
  8
0
 62
7
 10
21.61800000
 20
19.40400000
  0
VERTEX
  8
0
 62
7
 10
21.63734375
 20
19.43700000
  0
VERTEX
  8
0
 62
7
 10
21.64750000
 20
19.47075000
  0
VERTEX
  8
0
 62
7
 10
21.65090625
 20
19.50637500
  0
VERTEX
  8
0
 62
7
 10
21.65000000
 20
19.54500000
  0
VERTEX
  8
0
 62
7
 10
21.64759375
 20
19.57096094
  0
VERTEX
  8
0
 62
7
 10
21.64331250
 20
19.59687500
  0
VERTEX
  8
0
 62
7
 10
21.63706250
 20
19.62241406
  0
VERTEX
  8
0
 62
7
 10
21.62875000
 20
19.64725000
  0
VERTEX
  8
0
 62
7
 10
21.61828125
 20
19.67105469
  0
VERTEX
  8
0
 62
7
 10
21.60556250
 20
19.69350000
  0
VERTEX
  8
0
 62
7
 10
21.59050000
 20
19.71425781
  0
VERTEX
  8
0
 62
7
 10
21.57300000
 20
19.73300000
  0
VERTEX
  8
0
 62
7
 10
21.54942188
 20
19.75368555
  0
VERTEX
  8
0
 62
7
 10
21.52387500
 20
19.77154688
  0
VERTEX
  8
0
 62
7
 10
21.49664063
 20
19.78666602
  0
VERTEX
  8
0
 62
7
 10
21.46800000
 20
19.79912500
  0
VERTEX
  8
0
 62
7
 10
21.43823438
 20
19.80900586
  0
VERTEX
  8
0
 62
7
 10
21.40762500
 20
19.81639063
  0
VERTEX
  8
0
 62
7
 10
21.37645313
 20
19.82136133
  0
VERTEX
  8
0
 62
7
 10
21.34500000
 20
19.82400000
  0
VERTEX
  8
0
 62
7
 10
21.38400000
 20
19.91700000
  0
VERTEX
  8
0
 62
7
 10
21.34337500
 20
19.93521875
  0
VERTEX
  8
0
 62
7
 10
21.30125000
 20
19.94950000
  0
VERTEX
  8
0
 62
7
 10
21.25800000
 20
19.96003125
  0
VERTEX
  8
0
 62
7
 10
21.21400000
 20
19.96700000
  0
VERTEX
  8
0
 62
7
 10
21.18462891
 20
19.96978320
  0
VERTEX
  8
0
 62
7
 10
21.15509375
 20
19.97126563
  0
VERTEX
  8
0
 62
7
 10
21.12551172
 20
19.97127148
  0
VERTEX
  8
0
 62
7
 10
21.09600000
 20
19.96962500
  0
VERTEX
  8
0
 62
7
 10
21.06667578
 20
19.96615039
  0
VERTEX
  8
0
 62
7
 10
21.03765625
 20
19.96067188
  0
VERTEX
  8
0
 62
7
 10
21.00905859
 20
19.95301367
  0
VERTEX
  8
0
 62
7
 10
20.98100000
 20
19.94300000
  0
VERTEX
  8
0
 62
7
 10
20.93217188
 20
19.91979688
  0
VERTEX
  8
0
 62
7
 10
20.88737500
 20
19.89012500
  0
VERTEX
  8
0
 62
7
 10
20.84614063
 20
19.85539063
  0
VERTEX
  8
0
 62
7
 10
20.80800000
 20
19.81700000
  0
VERTEX
  8
0
 62
7
 10
20.76946875
 20
19.77073438
  0
VERTEX
  8
0
 62
7
 10
20.73675000
 20
19.72062500
  0
VERTEX
  8
0
 62
7
 10
20.71040625
 20
19.66695313
  0
VERTEX
  8
0
 62
7
 10
20.69100000
 20
19.61000000
  0
VERTEX
  8
0
 62
7
 10
20.68200000
 20
19.57137500
  0
VERTEX
  8
0
 62
7
 10
20.67000000
 20
19.53500000
  0
VERTEX
  8
0
 62
7
 10
20.66578320
 20
19.52801758
  0
VERTEX
  8
0
 62
7
 10
20.66007813
 20
19.52151563
  0
VERTEX
  8
0
 62
7
 10
20.65317773
 20
19.51578711
  0
VERTEX
  8
0
 62
7
 10
20.64537500
 20
19.51112500
  0
VERTEX
  8
0
 62
7
 10
20.63696289
 20
19.50782227
  0
VERTEX
  8
0
 62
7
 10
20.62823438
 20
19.50617188
  0
VERTEX
  8
0
 62
7
 10
20.61948242
 20
19.50646680
  0
VERTEX
  8
0
 62
7
 10
20.61100000
 20
19.50900000
  0
VERTEX
  8
0
 62
7
 10
20.60200781
 20
19.51453711
  0
VERTEX
  8
0
 62
7
 10
20.59531250
 20
19.52198438
  0
VERTEX
  8
0
 62
7
 10
20.59096094
 20
19.53109570
  0
VERTEX
  8
0
 62
7
 10
20.58900000
 20
19.54162500
  0
VERTEX
  8
0
 62
7
 10
20.58947656
 20
19.55332617
  0
VERTEX
  8
0
 62
7
 10
20.59243750
 20
19.56595313
  0
VERTEX
  8
0
 62
7
 10
20.59792969
 20
19.57925977
  0
VERTEX
  8
0
 62
7
 10
20.60600000
 20
19.59300000
  0
VERTEX
  8
0
 62
7
 10
20.62954688
 20
19.62456250
  0
VERTEX
  8
0
 62
7
 10
20.65412500
 20
19.65500000
  0
VERTEX
  8
0
 62
7
 10
20.67814063
 20
19.68693750
  0
VERTEX
  8
0
 62
7
 10
20.70000000
 20
19.72300000
  0
VERTEX
  8
0
 62
7
 10
20.71889063
 20
19.76139063
  0
VERTEX
  8
0
 62
7
 10
20.73487500
 20
19.79987500
  0
VERTEX
  8
0
 62
7
 10
20.74767188
 20
19.84042188
  0
VERTEX
  8
0
 62
7
 10
20.75700000
 20
19.88500000
  0
VERTEX
  8
0
 62
7
 10
20.75992578
 20
19.91474609
  0
VERTEX
  8
0
 62
7
 10
20.75978125
 20
19.94521875
  0
VERTEX
  8
0
 62
7
 10
20.75668359
 20
19.97601953
  0
VERTEX
  8
0
 62
7
 10
20.75075000
 20
20.00675000
  0
VERTEX
  8
0
 62
7
 10
20.74209766
 20
20.03701172
  0
VERTEX
  8
0
 62
7
 10
20.73084375
 20
20.06640625
  0
VERTEX
  8
0
 62
7
 10
20.71710547
 20
20.09453516
  0
VERTEX
  8
0
 62
7
 10
20.70100000
 20
20.12100000
  0
VERTEX
  8
0
 62
7
 10
20.67494336
 20
20.15577344
  0
VERTEX
  8
0
 62
7
 10
20.64535938
 20
20.18693750
  0
VERTEX
  8
0
 62
7
 10
20.61200195
 20
20.21388281
  0
VERTEX
  8
0
 62
7
 10
20.57462500
 20
20.23600000
  0
VERTEX
  8
0
 62
7
 10
20.53298242
 20
20.25267969
  0
VERTEX
  8
0
 62
7
 10
20.48682813
 20
20.26331250
  0
VERTEX
  8
0
 62
7
 10
20.43591602
 20
20.26728906
  0
VERTEX
  8
0
 62
7
 10
20.38000000
 20
20.26400000
  0
VERTEX
  8
0
 62
7
 10
20.31600000
 20
20.12500000
  0
VERTEX
  8
0
 62
7
 10
20.28398438
 20
20.14209375
  0
VERTEX
  8
0
 62
7
 10
20.25337500
 20
20.15300000
  0
VERTEX
  8
0
 62
7
 10
20.22107813
 20
20.16015625
  0
VERTEX
  8
0
 62
7
 10
20.18400000
 20
20.16600000
  0
VERTEX
  8
0
 62
7
 10
20.13276563
 20
20.16934375
  0
VERTEX
  8
0
 62
7
 10
20.08162500
 20
20.16575000
  0
VERTEX
  8
0
 62
7
 10
20.03142188
 20
20.15503125
  0
VERTEX
  8
0
 62
7
 10
19.98300000
 20
20.13700000
  0
VERTEX
  8
0
 62
7
 10
19.95489258
 20
20.12296484
  0
VERTEX
  8
0
 62
7
 10
19.92839063
 20
20.10646875
  0
VERTEX
  8
0
 62
7
 10
19.90359961
 20
20.08767578
  0
VERTEX
  8
0
 62
7
 10
19.88062500
 20
20.06675000
  0
VERTEX
  8
0
 62
7
 10
19.85957227
 20
20.04385547
  0
VERTEX
  8
0
 62
7
 10
19.84054688
 20
20.01915625
  0
VERTEX
  8
0
 62
7
 10
19.82365430
 20
19.99281641
  0
VERTEX
  8
0
 62
7
 10
19.80900000
 20
19.96500000
  0
SEQEND
  0
POLYLINE
  8
0
 62
7
 66
1
 70
1
  0
VERTEX
  8
0
 62
7
 10
17.00000000
 20
18.15000000
  0
VERTEX
  8
0
 62
7
 10
17.19000000
 20
18.15000000
  0
VERTEX
  8
0
 62
7
 10
17.20520264
 20
18.17766797
  0
VERTEX
  8
0
 62
7
 10
17.21637109
 20
18.20676563
  0
VERTEX
  8
0
 62
7
 10
17.22359619
 20
18.23687109
  0
VERTEX
  8
0
 62
7
 10
17.22696875
 20
18.26756250
  0
VERTEX
  8
0
 62
7
 10
17.22657959
 20
18.29841797
  0
VERTEX
  8
0
 62
7
 10
17.22251953
 20
18.32901563
  0
VERTEX
  8
0
 62
7
 10
17.21487939
 20
18.35893359
  0
VERTEX
  8
0
 62
7
 10
17.20375000
 20
18.38775000
  0
VERTEX
  8
0
 62
7
 10
17.18922217
 20
18.41504297
  0
VERTEX
  8
0
 62
7
 10
17.17138672
 20
18.44039063
  0
VERTEX
  8
0
 62
7
 10
17.15033447
 20
18.46337109
  0
VERTEX
  8
0
 62
7
 10
17.12615625
 20
18.48356250
  0
VERTEX
  8
0
 62
7
 10
17.09894287
 20
18.50054297
  0
VERTEX
  8
0
 62
7
 10
17.06878516
 20
18.51389063
  0
VERTEX
  8
0
 62
7
 10
17.03577393
 20
18.52318359
  0
VERTEX
  8
0
 62
7
 10
17.00000000
 20
18.52800000
  0
VERTEX
  8
0
 62
7
 10
16.96422607
 20
18.52318359
  0
VERTEX
  8
0
 62
7
 10
16.93121484
 20
18.51389063
  0
VERTEX
  8
0
 62
7
 10
16.90105713
 20
18.50054297
  0
VERTEX
  8
0
 62
7
 10
16.87384375
 20
18.48356250
  0
VERTEX
  8
0
 62
7
 10
16.84966553
 20
18.46337109
  0
VERTEX
  8
0
 62
7
 10
16.82861328
 20
18.44039063
  0
VERTEX
  8
0
 62
7
 10
16.81077783
 20
18.41504297
  0
VERTEX
  8
0
 62
7
 10
16.79625000
 20
18.38775000
  0
VERTEX
  8
0
 62
7
 10
16.78512061
 20
18.35893359
  0
VERTEX
  8
0
 62
7
 10
16.77748047
 20
18.32901563
  0
VERTEX
  8
0
 62
7
 10
16.77342041
 20
18.29841797
  0
VERTEX
  8
0
 62
7
 10
16.77303125
 20
18.26756250
  0
VERTEX
  8
0
 62
7
 10
16.77640381
 20
18.23687109
  0
VERTEX
  8
0
 62
7
 10
16.78362891
 20
18.20676563
  0
VERTEX
  8
0
 62
7
 10
16.79479736
 20
18.17766797
  0
VERTEX
  8
0
 62
7
 10
16.81000000
 20
18.15000000
  0
VERTEX
  8
0
 62
7
 10
17.00000000
 20
18.15000000
  0
SEQEND
  0
POLYLINE
  8
0
 62
7
 66
1
 70
1
  0
VERTEX
  8
0
 62
7
 10
17.25900000
 20
18.15000000
  0
VERTEX
  8
0
 62
7
 10
18.57100000
 20
18.15000000
  0
VERTEX
  8
0
 62
7
 10
18.46645313
 20
18.19254688
  0
VERTEX
  8
0
 62
7
 10
18.36387500
 20
18.23837500
  0
VERTEX
  8
0
 62
7
 10
18.26710938
 20
18.28401563
  0
VERTEX
  8
0
 62
7
 10
18.18000000
 20
18.32600000
  0
VERTEX
  8
0
 62
7
 10
18.12295313
 20
18.35396875
  0
VERTEX
  8
0
 62
7
 10
18.06187500
 20
18.38400000
  0
VERTEX
  8
0
 62
7
 10
17.99985938
 20
18.41178125
  0
VERTEX
  8
0
 62
7
 10
17.94000000
 20
18.43300000
  0
VERTEX
  8
0
 62
7
 10
17.89973438
 20
18.44300000
  0
VERTEX
  8
0
 62
7
 10
17.85862500
 20
18.44925000
  0
VERTEX
  8
0
 62
7
 10
17.81695313
 20
18.45212500
  0
VERTEX
  8
0
 62
7
 10
17.77500000
 20
18.45200000
  0
VERTEX
  8
0
 62
7
 10
17.82200000
 20
18.55400000
  0
VERTEX
  8
0
 62
7
 10
17.80129883
 20
18.57704883
  0
VERTEX
  8
0
 62
7
 10
17.77901563
 20
18.59814063
  0
VERTEX
  8
0
 62
7
 10
17.75525586
 20
18.61719336
  0
VERTEX
  8
0
 62
7
 10
17.73012500
 20
18.63412500
  0
VERTEX
  8
0
 62
7
 10
17.70372852
 20
18.64885352
  0
VERTEX
  8
0
 62
7
 10
17.67617188
 20
18.66129688
  0
VERTEX
  8
0
 62
7
 10
17.64756055
 20
18.67137305
  0
VERTEX
  8
0
 62
7
 10
17.61800000
 20
18.67900000
  0
VERTEX
  8
0
 62
7
 10
17.57906641
 20
18.68536133
  0
VERTEX
  8
0
 62
7
 10
17.53978125
 20
18.68732813
  0
VERTEX
  8
0
 62
7
 10
17.50054297
 20
18.68509961
  0
VERTEX
  8
0
 62
7
 10
17.46175000
 20
18.67887500
  0
VERTEX
  8
0
 62
7
 10
17.42380078
 20
18.66885352
  0
VERTEX
  8
0
 62
7
 10
17.38709375
 20
18.65523438
  0
VERTEX
  8
0
 62
7
 10
17.35202734
 20
18.63821680
  0
VERTEX
  8
0
 62
7
 10
17.31900000
 20
18.61800000
  0
VERTEX
  8
0
 62
7
 10
17.28529688
 20
18.59273438
  0
VERTEX
  8
0
 62
7
 10
17.25337500
 20
18.56512500
  0
VERTEX
  8
0
 62
7
 10
17.22351563
 20
18.53545313
  0
VERTEX
  8
0
 62
7
 10
17.19600000
 20
18.50400000
  0
VERTEX
  8
0
 62
7
 10
17.21652148
 20
18.48088867
  0
VERTEX
  8
0
 62
7
 10
17.23454688
 20
18.45598438
  0
VERTEX
  8
0
 62
7
 10
17.25001758
 20
18.42955664
  0
VERTEX
  8
0
 62
7
 10
17.26287500
 20
18.40187500
  0
VERTEX
  8
0
 62
7
 10
17.27306055
 20
18.37320898
  0
VERTEX
  8
0
 62
7
 10
17.28051563
 20
18.34382813
  0
VERTEX
  8
0
 62
7
 10
17.28518164
 20
18.31400195
  0
VERTEX
  8
0
 62
7
 10
17.28700000
 20
18.28400000
  0
VERTEX
  8
0
 62
7
 10
17.28585938
 20
18.24956250
  0
VERTEX
  8
0
 62
7
 10
17.28087500
 20
18.21550000
  0
VERTEX
  8
0
 62
7
 10
17.27195313
 20
18.18218750
  0
VERTEX
  8
0
 62
7
 10
17.25900000
 20
18.15000000
  0
SEQEND
  0
POLYLINE
  8
0
 62
7
 66
1
 70
1
  0
VERTEX
  8
0
 62
7
 10
17.00000000
 20
20.11400000
  0
VERTEX
  8
0
 62
7
 10
16.99273438
 20
20.04876563
  0
VERTEX
  8
0
 62
7
 10
16.98237500
 20
19.98306250
  0
VERTEX
  8
0
 62
7
 10
16.96920313
 20
19.91726563
  0
VERTEX
  8
0
 62
7
 10
16.95350000
 20
19.85175000
  0
VERTEX
  8
0
 62
7
 10
16.93554688
 20
19.78689063
  0
VERTEX
  8
0
 62
7
 10
16.91562500
 20
19.72306250
  0
VERTEX
  8
0
 62
7
 10
16.89401563
 20
19.66064063
  0
VERTEX
  8
0
 62
7
 10
16.87100000
 20
19.60000000
  0
VERTEX
  8
0
 62
7
 10
16.84646875
 20
19.54114063
  0
VERTEX
  8
0
 62
7
 10
16.81650000
 20
19.47262500
  0
VERTEX
  8
0
 62
7
 10
16.78578125
 20
19.39904688
  0
VERTEX
  8
0
 62
7
 10
16.75900000
 20
19.32500000
  0
VERTEX
  8
0
 62
7
 10
16.74000000
 20
19.26356250
  0
VERTEX
  8
0
 62
7
 10
16.72100000
 20
19.19650000
  0
VERTEX
  8
0
 62
7
 10
16.70500000
 20
19.12868750
  0
VERTEX
  8
0
 62
7
 10
16.69500000
 20
19.06500000
  0
VERTEX
  8
0
 62
7
 10
16.59400000
 20
19.10500000
  0
VERTEX
  8
0
 62
7
 10
16.57607227
 20
19.05013867
  0
VERTEX
  8
0
 62
7
 10
16.56682813
 20
18.99610938
  0
VERTEX
  8
0
 62
7
 10
16.56557617
 20
18.94336914
  0
VERTEX
  8
0
 62
7
 10
16.57162500
 20
18.89237500
  0
VERTEX
  8
0
 62
7
 10
16.58428320
 20
18.84358398
  0
VERTEX
  8
0
 62
7
 10
16.60285938
 20
18.79745313
  0
VERTEX
  8
0
 62
7
 10
16.62666211
 20
18.75443945
  0
VERTEX
  8
0
 62
7
 10
16.65500000
 20
18.71500000
  0
VERTEX
  8
0
 62
7
 10
16.70540625
 20
18.65700000
  0
VERTEX
  8
0
 62
7
 10
16.75375000
 20
18.60950000
  0
VERTEX
  8
0
 62
7
 10
16.80096875
 20
18.57100000
  0
VERTEX
  8
0
 62
7
 10
16.84800000
 20
18.54000000
  0
VERTEX
  8
0
 62
7
 10
16.88060938
 20
18.55931250
  0
VERTEX
  8
0
 62
7
 10
16.91687500
 20
18.57375000
  0
VERTEX
  8
0
 62
7
 10
16.95670313
 20
18.58331250
  0
VERTEX
  8
0
 62
7
 10
17.00000000
 20
18.58800000
  0
VERTEX
  8
0
 62
7
 10
17.04329688
 20
18.58331250
  0
VERTEX
  8
0
 62
7
 10
17.08312500
 20
18.57375000
  0
VERTEX
  8
0
 62
7
 10
17.11939063
 20
18.55931250
  0
VERTEX
  8
0
 62
7
 10
17.15200000
 20
18.54000000
  0
VERTEX
  8
0
 62
7
 10
17.19903125
 20
18.57100000
  0
VERTEX
  8
0
 62
7
 10
17.24625000
 20
18.60950000
  0
VERTEX
  8
0
 62
7
 10
17.29459375
 20
18.65700000
  0
VERTEX
  8
0
 62
7
 10
17.34500000
 20
18.71500000
  0
VERTEX
  8
0
 62
7
 10
17.37333789
 20
18.75443945
  0
VERTEX
  8
0
 62
7
 10
17.39714063
 20
18.79745313
  0
VERTEX
  8
0
 62
7
 10
17.41571680
 20
18.84358398
  0
VERTEX
  8
0
 62
7
 10
17.42837500
 20
18.89237500
  0
VERTEX
  8
0
 62
7
 10
17.43442383
 20
18.94336914
  0
VERTEX
  8
0
 62
7
 10
17.43317188
 20
18.99610938
  0
VERTEX
  8
0
 62
7
 10
17.42392773
 20
19.05013867
  0
VERTEX
  8
0
 62
7
 10
17.40600000
 20
19.10500000
  0
VERTEX
  8
0
 62
7
 10
17.30500000
 20
19.06500000
  0
VERTEX
  8
0
 62
7
 10
17.29500000
 20
19.12868750
  0
VERTEX
  8
0
 62
7
 10
17.27900000
 20
19.19650000
  0
VERTEX
  8
0
 62
7
 10
17.26000000
 20
19.26356250
  0
VERTEX
  8
0
 62
7
 10
17.24100000
 20
19.32500000
  0
VERTEX
  8
0
 62
7
 10
17.21421875
 20
19.39904688
  0
VERTEX
  8
0
 62
7
 10
17.18350000
 20
19.47262500
  0
VERTEX
  8
0
 62
7
 10
17.15353125
 20
19.54114063
  0
VERTEX
  8
0
 62
7
 10
17.12900000
 20
19.60000000
  0
VERTEX
  8
0
 62
7
 10
17.10598438
 20
19.66064063
  0
VERTEX
  8
0
 62
7
 10
17.08437500
 20
19.72306250
  0
VERTEX
  8
0
 62
7
 10
17.06445313
 20
19.78689063
  0
VERTEX
  8
0
 62
7
 10
17.04650000
 20
19.85175000
  0
VERTEX
  8
0
 62
7
 10
17.03079688
 20
19.91726563
  0
VERTEX
  8
0
 62
7
 10
17.01762500
 20
19.98306250
  0
VERTEX
  8
0
 62
7
 10
17.00726563
 20
20.04876563
  0
VERTEX
  8
0
 62
7
 10
17.00000000
 20
20.11400000
  0
SEQEND
  0
POLYLINE
  8
0
 62
7
 66
1
 70
1
  0
VERTEX
  8
0
 62
7
 10
16.81800000
 20
20.92100000
  0
VERTEX
  8
0
 62
7
 10
16.77537500
 20
20.81362500
  0
VERTEX
  8
0
 62
7
 10
16.72600000
 20
20.71000000
  0
VERTEX
  8
0
 62
7
 10
16.69264063
 20
20.64909375
  0
VERTEX
  8
0
 62
7
 10
16.65712500
 20
20.58950000
  0
VERTEX
  8
0
 62
7
 10
16.61954688
 20
20.53140625
  0
VERTEX
  8
0
 62
7
 10
16.58000000
 20
20.47500000
  0
VERTEX
  8
0
 62
7
 10
16.61214063
 20
20.42121875
  0
VERTEX
  8
0
 62
7
 10
16.63912500
 20
20.36500000
  0
VERTEX
  8
0
 62
7
 10
16.66029688
 20
20.30653125
  0
VERTEX
  8
0
 62
7
 10
16.67500000
 20
20.24600000
  0
VERTEX
  8
0
 62
7
 10
16.68167578
 20
20.20899414
  0
VERTEX
  8
0
 62
7
 10
16.68603125
 20
20.17157813
  0
VERTEX
  8
0
 62
7
 10
16.68818359
 20
20.13390430
  0
VERTEX
  8
0
 62
7
 10
16.68825000
 20
20.09612500
  0
VERTEX
  8
0
 62
7
 10
16.68634766
 20
20.05839258
  0
VERTEX
  8
0
 62
7
 10
16.68259375
 20
20.02085938
  0
VERTEX
  8
0
 62
7
 10
16.67710547
 20
19.98367773
  0
VERTEX
  8
0
 62
7
 10
16.67000000
 20
19.94700000
  0
VERTEX
  8
0
 62
7
 10
16.65135938
 20
19.87840625
  0
VERTEX
  8
0
 62
7
 10
16.62587500
 20
19.81225000
  0
VERTEX
  8
0
 62
7
 10
16.59420313
 20
19.74871875
  0
VERTEX
  8
0
 62
7
 10
16.55700000
 20
19.68800000
  0
VERTEX
  8
0
 62
7
 10
16.52456250
 20
19.64359375
  0
VERTEX
  8
0
 62
7
 10
16.48875000
 20
19.60200000
  0
VERTEX
  8
0
 62
7
 10
16.44956250
 20
19.56340625
  0
VERTEX
  8
0
 62
7
 10
16.40700000
 20
19.52800000
  0
VERTEX
  8
0
 62
7
 10
16.38619336
 20
19.45872852
  0
VERTEX
  8
0
 62
7
 10
16.36279688
 20
19.39045313
  0
VERTEX
  8
0
 62
7
 10
16.33684570
 20
19.32323242
  0
VERTEX
  8
0
 62
7
 10
16.30837500
 20
19.25712500
  0
VERTEX
  8
0
 62
7
 10
16.27741992
 20
19.19218945
  0
VERTEX
  8
0
 62
7
 10
16.24401563
 20
19.12848438
  0
VERTEX
  8
0
 62
7
 10
16.20819727
 20
19.06606836
  0
VERTEX
  8
0
 62
7
 10
16.17000000
 20
19.00500000
  0
VERTEX
  8
0
 62
7
 10
16.12003125
 20
18.93234375
  0
VERTEX
  8
0
 62
7
 10
16.06725000
 20
18.86175000
  0
VERTEX
  8
0
 62
7
 10
16.01109375
 20
18.79378125
  0
VERTEX
  8
0
 62
7
 10
15.95100000
 20
18.72900000
  0
VERTEX
  8
0
 62
7
 10
15.89640625
 20
18.67650000
  0
VERTEX
  8
0
 62
7
 10
15.83975000
 20
18.62550000
  0
VERTEX
  8
0
 62
7
 10
15.77971875
 20
18.57825000
  0
VERTEX
  8
0
 62
7
 10
15.71500000
 20
18.53700000
  0
VERTEX
  8
0
 62
7
 10
15.67891602
 20
18.51703125
  0
VERTEX
  8
0
 62
7
 10
15.64195313
 20
18.49912500
  0
VERTEX
  8
0
 62
7
 10
15.60416992
 20
18.48328125
  0
VERTEX
  8
0
 62
7
 10
15.56562500
 20
18.46950000
  0
VERTEX
  8
0
 62
7
 10
15.52637695
 20
18.45778125
  0
VERTEX
  8
0
 62
7
 10
15.48648438
 20
18.44812500
  0
VERTEX
  8
0
 62
7
 10
15.44600586
 20
18.44053125
  0
VERTEX
  8
0
 62
7
 10
15.40500000
 20
18.43500000
  0
VERTEX
  8
0
 62
7
 10
15.34260938
 20
18.42929688
  0
VERTEX
  8
0
 62
7
 10
15.28012500
 20
18.42687500
  0
VERTEX
  8
0
 62
7
 10
15.21782813
 20
18.42951563
  0
VERTEX
  8
0
 62
7
 10
15.15600000
 20
18.43900000
  0
VERTEX
  8
0
 62
7
 10
15.10137500
 20
18.45129688
  0
VERTEX
  8
0
 62
7
 10
15.04750000
 20
18.46762500
  0
VERTEX
  8
0
 62
7
 10
14.99512500
 20
18.48864063
  0
VERTEX
  8
0
 62
7
 10
14.94500000
 20
18.51500000
  0
VERTEX
  8
0
 62
7
 10
14.90300000
 20
18.54282813
  0
VERTEX
  8
0
 62
7
 10
14.86400000
 20
18.57487500
  0
VERTEX
  8
0
 62
7
 10
14.82800000
 20
18.61048438
  0
VERTEX
  8
0
 62
7
 10
14.79500000
 20
18.64900000
  0
VERTEX
  8
0
 62
7
 10
14.76600000
 20
18.69150000
  0
VERTEX
  8
0
 62
7
 10
14.74075000
 20
18.73625000
  0
VERTEX
  8
0
 62
7
 10
14.71962500
 20
18.78287500
  0
VERTEX
  8
0
 62
7
 10
14.70300000
 20
18.83100000
  0
VERTEX
  8
0
 62
7
 10
14.69449219
 20
18.86372461
  0
VERTEX
  8
0
 62
7
 10
14.68781250
 20
18.89723438
  0
VERTEX
  8
0
 62
7
 10
14.68310156
 20
18.93128320
  0
VERTEX
  8
0
 62
7
 10
14.68050000
 20
18.96562500
  0
VERTEX
  8
0
 62
7
 10
14.68014844
 20
19.00001367
  0
VERTEX
  8
0
 62
7
 10
14.68218750
 20
19.03420313
  0
VERTEX
  8
0
 62
7
 10
14.68675781
 20
19.06794727
  0
VERTEX
  8
0
 62
7
 10
14.69400000
 20
19.10100000
  0
VERTEX
  8
0
 62
7
 10
14.70167773
 20
19.12641016
  0
VERTEX
  8
0
 62
7
 10
14.71004688
 20
19.15090625
  0
VERTEX
  8
0
 62
7
 10
14.71961133
 20
19.17451172
  0
VERTEX
  8
0
 62
7
 10
14.73087500
 20
19.19725000
  0
VERTEX
  8
0
 62
7
 10
14.74434180
 20
19.21914453
  0
VERTEX
  8
0
 62
7
 10
14.76051563
 20
19.24021875
  0
VERTEX
  8
0
 62
7
 10
14.77990039
 20
19.26049609
  0
VERTEX
  8
0
 62
7
 10
14.80300000
 20
19.28000000
  0
VERTEX
  8
0
 62
7
 10
14.81970508
 20
19.29164453
  0
VERTEX
  8
0
 62
7
 10
14.83745313
 20
19.30115625
  0
VERTEX
  8
0
 62
7
 10
14.85606836
 20
19.30865234
  0
VERTEX
  8
0
 62
7
 10
14.87537500
 20
19.31425000
  0
VERTEX
  8
0
 62
7
 10
14.89519727
 20
19.31806641
  0
VERTEX
  8
0
 62
7
 10
14.91535938
 20
19.32021875
  0
VERTEX
  8
0
 62
7
 10
14.93568555
 20
19.32082422
  0
VERTEX
  8
0
 62
7
 10
14.95600000
 20
19.32000000
  0
VERTEX
  8
0
 62
7
 10
14.98543750
 20
19.31532813
  0
VERTEX
  8
0
 62
7
 10
15.01375000
 20
19.30737500
  0
VERTEX
  8
0
 62
7
 10
15.04093750
 20
19.29623438
  0
VERTEX
  8
0
 62
7
 10
15.06700000
 20
19.28200000
  0
VERTEX
  8
0
 62
7
 10
15.08085938
 20
19.30281250
  0
VERTEX
  8
0
 62
7
 10
15.09237500
 20
19.32475000
  0
VERTEX
  8
0
 62
7
 10
15.10145313
 20
19.34781250
  0
VERTEX
  8
0
 62
7
 10
15.10800000
 20
19.37200000
  0
VERTEX
  8
0
 62
7
 10
15.11157031
 20
19.39635547
  0
VERTEX
  8
0
 62
7
 10
15.11200000
 20
19.42059375
  0
VERTEX
  8
0
 62
7
 10
15.10961719
 20
19.44459766
  0
VERTEX
  8
0
 62
7
 10
15.10475000
 20
19.46825000
  0
VERTEX
  8
0
 62
7
 10
15.09772656
 20
19.49143359
  0
VERTEX
  8
0
 62
7
 10
15.08887500
 20
19.51403125
  0
VERTEX
  8
0
 62
7
 10
15.07852344
 20
19.53592578
  0
VERTEX
  8
0
 62
7
 10
15.06700000
 20
19.55700000
  0
VERTEX
  8
0
 62
7
 10
15.05027930
 20
19.58225000
  0
VERTEX
  8
0
 62
7
 10
15.03242188
 20
19.60431250
  0
VERTEX
  8
0
 62
7
 10
15.01350977
 20
19.62365625
  0
VERTEX
  8
0
 62
7
 10
14.99362500
 20
19.64075000
  0
VERTEX
  8
0
 62
7
 10
14.97284961
 20
19.65606250
  0
VERTEX
  8
0
 62
7
 10
14.95126563
 20
19.67006250
  0
VERTEX
  8
0
 62
7
 10
14.92895508
 20
19.68321875
  0
VERTEX
  8
0
 62
7
 10
14.90600000
 20
19.69600000
  0
VERTEX
  8
0
 62
7
 10
14.87125000
 20
19.71313477
  0
VERTEX
  8
0
 62
7
 10
14.83537500
 20
19.72714063
  0
VERTEX
  8
0
 62
7
 10
14.79856250
 20
19.73816992
  0
VERTEX
  8
0
 62
7
 10
14.76100000
 20
19.74637500
  0
VERTEX
  8
0
 62
7
 10
14.72287500
 20
19.75190820
  0
VERTEX
  8
0
 62
7
 10
14.68437500
 20
19.75492188
  0
VERTEX
  8
0
 62
7
 10
14.64568750
 20
19.75556836
  0
VERTEX
  8
0
 62
7
 10
14.60700000
 20
19.75400000
  0
VERTEX
  8
0
 62
7
 10
14.55010938
 20
19.74850000
  0
VERTEX
  8
0
 62
7
 10
14.49387500
 20
19.73850000
  0
VERTEX
  8
0
 62
7
 10
14.43895313
 20
19.72250000
  0
VERTEX
  8
0
 62
7
 10
14.38600000
 20
19.69900000
  0
VERTEX
  8
0
 62
7
 10
14.33937500
 20
19.66773438
  0
VERTEX
  8
0
 62
7
 10
14.29725000
 20
19.63112500
  0
VERTEX
  8
0
 62
7
 10
14.26000000
 20
19.58945313
  0
VERTEX
  8
0
 62
7
 10
14.22800000
 20
19.54300000
  0
VERTEX
  8
0
 62
7
 10
14.21356641
 20
19.51625586
  0
VERTEX
  8
0
 62
7
 10
14.20159375
 20
19.48860938
  0
VERTEX
  8
0
 62
7
 10
14.19182422
 20
19.46018945
  0
VERTEX
  8
0
 62
7
 10
14.18400000
 20
19.43112500
  0
VERTEX
  8
0
 62
7
 10
14.17786328
 20
19.40154492
  0
VERTEX
  8
0
 62
7
 10
14.17315625
 20
19.37157813
  0
VERTEX
  8
0
 62
7
 10
14.16962109
 20
19.34135352
  0
VERTEX
  8
0
 62
7
 10
14.16700000
 20
19.31100000
  0
VERTEX
  8
0
 62
7
 10
14.16631250
 20
19.24325000
  0
VERTEX
  8
0
 62
7
 10
14.17275000
 20
19.17550000
  0
VERTEX
  8
0
 62
7
 10
14.18556250
 20
19.10850000
  0
VERTEX
  8
0
 62
7
 10
14.20400000
 20
19.04300000
  0
VERTEX
  8
0
 62
7
 10
14.22818750
 20
18.97759375
  0
VERTEX
  8
0
 62
7
 10
14.25800000
 20
18.91575000
  0
VERTEX
  8
0
 62
7
 10
14.29231250
 20
18.85653125
  0
VERTEX
  8
0
 62
7
 10
14.33000000
 20
18.79900000
  0
VERTEX
  8
0
 62
7
 10
14.37540625
 20
18.73915625
  0
VERTEX
  8
0
 62
7
 10
14.42325000
 20
18.68400000
  0
VERTEX
  8
0
 62
7
 10
14.47371875
 20
18.63109375
  0
VERTEX
  8
0
 62
7
 10
14.52700000
 20
18.57800000
  0
VERTEX
  8
0
 62
7
 10
14.62612500
 20
18.48350000
  0
VERTEX
  8
0
 62
7
 10
14.72900000
 20
18.39200000
  0
VERTEX
  8
0
 62
7
 10
14.71100000
 20
18.37900000
  0
VERTEX
  8
0
 62
7
 10
14.62690625
 20
18.43901563
  0
VERTEX
  8
0
 62
7
 10
14.54600000
 20
18.50362500
  0
VERTEX
  8
0
 62
7
 10
14.46884375
 20
18.57292188
  0
VERTEX
  8
0
 62
7
 10
14.39600000
 20
18.64700000
  0
VERTEX
  8
0
 62
7
 10
14.35687500
 20
18.68868750
  0
VERTEX
  8
0
 62
7
 10
14.31925000
 20
18.73150000
  0
VERTEX
  8
0
 62
7
 10
14.28350000
 20
18.77581250
  0
VERTEX
  8
0
 62
7
 10
14.25000000
 20
18.82200000
  0
VERTEX
  8
0
 62
7
 10
14.22368750
 20
18.86442188
  0
VERTEX
  8
0
 62
7
 10
14.19925000
 20
18.90787500
  0
VERTEX
  8
0
 62
7
 10
14.17743750
 20
18.95264063
  0
VERTEX
  8
0
 62
7
 10
14.15900000
 20
18.99900000
  0
VERTEX
  8
0
 62
7
 10
14.13576563
 20
19.06604688
  0
VERTEX
  8
0
 62
7
 10
14.11862500
 20
19.13487500
  0
VERTEX
  8
0
 62
7
 10
14.10767188
 20
19.20501563
  0
VERTEX
  8
0
 62
7
 10
14.10300000
 20
19.27600000
  0
VERTEX
  8
0
 62
7
 10
14.10425000
 20
19.32710938
  0
VERTEX
  8
0
 62
7
 10
14.10775000
 20
19.37812500
  0
VERTEX
  8
0
 62
7
 10
14.11537500
 20
19.42857813
  0
VERTEX
  8
0
 62
7
 10
14.12900000
 20
19.47800000
  0
VERTEX
  8
0
 62
7
 10
14.15193750
 20
19.53237500
  0
VERTEX
  8
0
 62
7
 10
14.18125000
 20
19.58300000
  0
VERTEX
  8
0
 62
7
 10
14.21618750
 20
19.62987500
  0
VERTEX
  8
0
 62
7
 10
14.25600000
 20
19.67300000
  0
VERTEX
  8
0
 62
7
 10
14.29904688
 20
19.70987500
  0
VERTEX
  8
0
 62
7
 10
14.34537500
 20
19.74225000
  0
VERTEX
  8
0
 62
7
 10
14.39451563
 20
19.76975000
  0
VERTEX
  8
0
 62
7
 10
14.44600000
 20
19.79200000
  0
VERTEX
  8
0
 62
7
 10
14.50907813
 20
19.81121875
  0
VERTEX
  8
0
 62
7
 10
14.57262500
 20
19.82275000
  0
VERTEX
  8
0
 62
7
 10
14.63710938
 20
19.82715625
  0
VERTEX
  8
0
 62
7
 10
14.70300000
 20
19.82500000
  0
VERTEX
  8
0
 62
7
 10
14.75065625
 20
19.81945313
  0
VERTEX
  8
0
 62
7
 10
14.79850000
 20
19.81137500
  0
VERTEX
  8
0
 62
7
 10
14.84559375
 20
19.80010938
  0
VERTEX
  8
0
 62
7
 10
14.89100000
 20
19.78500000
  0
VERTEX
  8
0
 62
7
 10
14.92257813
 20
19.77264063
  0
VERTEX
  8
0
 62
7
 10
14.95387500
 20
19.75812500
  0
VERTEX
  8
0
 62
7
 10
14.98423438
 20
19.74154688
  0
VERTEX
  8
0
 62
7
 10
15.01300000
 20
19.72300000
  0
VERTEX
  8
0
 62
7
 10
15.05318750
 20
19.69137500
  0
VERTEX
  8
0
 62
7
 10
15.08925000
 20
19.65600000
  0
VERTEX
  8
0
 62
7
 10
15.12043750
 20
19.61612500
  0
VERTEX
  8
0
 62
7
 10
15.14600000
 20
19.57100000
  0
VERTEX
  8
0
 62
7
 10
15.15793945
 20
19.54042578
  0
VERTEX
  8
0
 62
7
 10
15.16801563
 20
19.50828125
  0
VERTEX
  8
0
 62
7
 10
15.17586523
 20
19.47505859
  0
VERTEX
  8
0
 62
7
 10
15.18112500
 20
19.44125000
  0
VERTEX
  8
0
 62
7
 10
15.18343164
 20
19.40734766
  0
VERTEX
  8
0
 62
7
 10
15.18242188
 20
19.37384375
  0
VERTEX
  8
0
 62
7
 10
15.17773242
 20
19.34123047
  0
VERTEX
  8
0
 62
7
 10
15.16900000
 20
19.31000000
  0
VERTEX
  8
0
 62
7
 10
15.15171875
 20
19.27157813
  0
VERTEX
  8
0
 62
7
 10
15.12900000
 20
19.23587500
  0
VERTEX
  8
0
 62
7
 10
15.10178125
 20
19.20298438
  0
VERTEX
  8
0
 62
7
 10
15.07100000
 20
19.17300000
  0
VERTEX
  8
0
 62
7
 10
15.05865820
 20
19.19572852
  0
VERTEX
  8
0
 62
7
 10
15.04295313
 20
19.21570313
  0
VERTEX
  8
0
 62
7
 10
15.02436523
 20
19.23260742
  0
VERTEX
  8
0
 62
7
 10
15.00337500
 20
19.24612500
  0
VERTEX
  8
0
 62
7
 10
14.98046289
 20
19.25593945
  0
VERTEX
  8
0
 62
7
 10
14.95610938
 20
19.26173438
  0
VERTEX
  8
0
 62
7
 10
14.93079492
 20
19.26319336
  0
VERTEX
  8
0
 62
7
 10
14.90500000
 20
19.26000000
  0
VERTEX
  8
0
 62
7
 10
14.88255273
 20
19.25344336
  0
VERTEX
  8
0
 62
7
 10
14.86173438
 20
19.24317188
  0
VERTEX
  8
0
 62
7
 10
14.84258008
 20
19.22978320
  0
VERTEX
  8
0
 62
7
 10
14.82512500
 20
19.21387500
  0
VERTEX
  8
0
 62
7
 10
14.80940430
 20
19.19604492
  0
VERTEX
  8
0
 62
7
 10
14.79545313
 20
19.17689063
  0
VERTEX
  8
0
 62
7
 10
14.78330664
 20
19.15700977
  0
VERTEX
  8
0
 62
7
 10
14.77300000
 20
19.13700000
  0
VERTEX
  8
0
 62
7
 10
14.75526563
 20
19.09298438
  0
VERTEX
  8
0
 62
7
 10
14.74437500
 20
19.05112500
  0
VERTEX
  8
0
 62
7
 10
14.73854688
 20
19.00945313
  0
VERTEX
  8
0
 62
7
 10
14.73600000
 20
18.96600000
  0
VERTEX
  8
0
 62
7
 10
14.73666797
 20
18.93518359
  0
VERTEX
  8
0
 62
7
 10
14.74003125
 20
18.90434375
  0
VERTEX
  8
0
 62
7
 10
14.74587891
 20
18.87364453
  0
VERTEX
  8
0
 62
7
 10
14.75400000
 20
18.84325000
  0
VERTEX
  8
0
 62
7
 10
14.76418359
 20
18.81332422
  0
VERTEX
  8
0
 62
7
 10
14.77621875
 20
18.78403125
  0
VERTEX
  8
0
 62
7
 10
14.78989453
 20
18.75553516
  0
VERTEX
  8
0
 62
7
 10
14.80500000
 20
18.72800000
  0
VERTEX
  8
0
 62
7
 10
14.82258984
 20
18.70170313
  0
VERTEX
  8
0
 62
7
 10
14.84221875
 20
18.67681250
  0
VERTEX
  8
0
 62
7
 10
14.86367578
 20
18.65332813
  0
VERTEX
  8
0
 62
7
 10
14.88675000
 20
18.63125000
  0
VERTEX
  8
0
 62
7
 10
14.91123047
 20
18.61057813
  0
VERTEX
  8
0
 62
7
 10
14.93690625
 20
18.59131250
  0
VERTEX
  8
0
 62
7
 10
14.96356641
 20
18.57345313
  0
VERTEX
  8
0
 62
7
 10
14.99100000
 20
18.55700000
  0
VERTEX
  8
0
 62
7
 10
15.03075977
 20
18.53681250
  0
VERTEX
  8
0
 62
7
 10
15.07189063
 20
18.52037500
  0
VERTEX
  8
0
 62
7
 10
15.11416992
 20
18.50750000
  0
VERTEX
  8
0
 62
7
 10
15.15737500
 20
18.49800000
  0
VERTEX
  8
0
 62
7
 10
15.20128320
 20
18.49168750
  0
VERTEX
  8
0
 62
7
 10
15.24567188
 20
18.48837500
  0
VERTEX
  8
0
 62
7
 10
15.29031836
 20
18.48787500
  0
VERTEX
  8
0
 62
7
 10
15.33500000
 20
18.49000000
  0
VERTEX
  8
0
 62
7
 10
15.40279688
 20
18.49787500
  0
VERTEX
  8
0
 62
7
 10
15.46937500
 20
18.51250000
  0
VERTEX
  8
0
 62
7
 10
15.53426563
 20
18.53387500
  0
VERTEX
  8
0
 62
7
 10
15.59700000
 20
18.56200000
  0
VERTEX
  8
0
 62
7
 10
15.64514063
 20
18.59100000
  0
VERTEX
  8
0
 62
7
 10
15.69037500
 20
18.62375000
  0
VERTEX
  8
0
 62
7
 10
15.73242188
 20
18.65987500
  0
VERTEX
  8
0
 62
7
 10
15.77100000
 20
18.69900000
  0
VERTEX
  8
0
 62
7
 10
15.81457813
 20
18.75379688
  0
VERTEX
  8
0
 62
7
 10
15.85112500
 20
18.81262500
  0
VERTEX
  8
0
 62
7
 10
15.88110938
 20
18.87464063
  0
VERTEX
  8
0
 62
7
 10
15.90500000
 20
18.93900000
  0
VERTEX
  8
0
 62
7
 10
15.91505859
 20
18.97522070
  0
VERTEX
  8
0
 62
7
 10
15.92284375
 20
19.01182813
  0
VERTEX
  8
0
 62
7
 10
15.92851953
 20
19.04874023
  0
VERTEX
  8
0
 62
7
 10
15.93225000
 20
19.08587500
  0
VERTEX
  8
0
 62
7
 10
15.93419922
 20
19.12315039
  0
VERTEX
  8
0
 62
7
 10
15.93453125
 20
19.16048438
  0
VERTEX
  8
0
 62
7
 10
15.93341016
 20
19.19779492
  0
VERTEX
  8
0
 62
7
 10
15.93100000
 20
19.23500000
  0
VERTEX
  8
0
 62
7
 10
15.92332813
 20
19.31032813
  0
VERTEX
  8
0
 62
7
 10
15.90937500
 20
19.38462500
  0
VERTEX
  8
0
 62
7
 10
15.88923438
 20
19.45760938
  0
VERTEX
  8
0
 62
7
 10
15.86300000
 20
19.52900000
  0
VERTEX
  8
0
 62
7
 10
15.92348438
 20
19.51595898
  0
VERTEX
  8
0
 62
7
 10
15.98462500
 20
19.50904688
  0
VERTEX
  8
0
 62
7
 10
16.04595313
 20
19.50820508
  0
VERTEX
  8
0
 62
7
 10
16.10700000
 20
19.51337500
  0
VERTEX
  8
0
 62
7
 10
16.16729688
 20
19.52449805
  0
VERTEX
  8
0
 62
7
 10
16.22637500
 20
19.54151563
  0
VERTEX
  8
0
 62
7
 10
16.28376563
 20
19.56436914
  0
VERTEX
  8
0
 62
7
 10
16.33900000
 20
19.59300000
  0
VERTEX
  8
0
 62
7
 10
16.39315625
 20
19.62887500
  0
VERTEX
  8
0
 62
7
 10
16.44375000
 20
19.66925000
  0
VERTEX
  8
0
 62
7
 10
16.48946875
 20
19.71450000
  0
VERTEX
  8
0
 62
7
 10
16.52900000
 20
19.76500000
  0
VERTEX
  8
0
 62
7
 10
16.54697266
 20
19.79508008
  0
VERTEX
  8
0
 62
7
 10
16.56271875
 20
19.82601563
  0
VERTEX
  8
0
 62
7
 10
16.57635547
 20
19.85772461
  0
VERTEX
  8
0
 62
7
 10
16.58800000
 20
19.89012500
  0
VERTEX
  8
0
 62
7
 10
16.59776953
 20
19.92313477
  0
VERTEX
  8
0
 62
7
 10
16.60578125
 20
19.95667188
  0
VERTEX
  8
0
 62
7
 10
16.61215234
 20
19.99065430
  0
VERTEX
  8
0
 62
7
 10
16.61700000
 20
20.02500000
  0
VERTEX
  8
0
 62
7
 10
16.62051367
 20
20.06078516
  0
VERTEX
  8
0
 62
7
 10
16.62260938
 20
20.09678125
  0
VERTEX
  8
0
 62
7
 10
16.62299414
 20
20.13282422
  0
VERTEX
  8
0
 62
7
 10
16.62137500
 20
20.16875000
  0
VERTEX
  8
0
 62
7
 10
16.61745898
 20
20.20439453
  0
VERTEX
  8
0
 62
7
 10
16.61095313
 20
20.23959375
  0
VERTEX
  8
0
 62
7
 10
16.60156445
 20
20.27418359
  0
VERTEX
  8
0
 62
7
 10
16.58900000
 20
20.30800000
  0
VERTEX
  8
0
 62
7
 10
16.57333789
 20
20.34048828
  0
VERTEX
  8
0
 62
7
 10
16.55557813
 20
20.37178125
  0
VERTEX
  8
0
 62
7
 10
16.53568555
 20
20.40162109
  0
VERTEX
  8
0
 62
7
 10
16.51362500
 20
20.42975000
  0
VERTEX
  8
0
 62
7
 10
16.48936133
 20
20.45591016
  0
VERTEX
  8
0
 62
7
 10
16.46285938
 20
20.47984375
  0
VERTEX
  8
0
 62
7
 10
16.43408398
 20
20.50129297
  0
VERTEX
  8
0
 62
7
 10
16.40300000
 20
20.52000000
  0
VERTEX
  8
0
 62
7
 10
16.35620313
 20
20.54112500
  0
VERTEX
  8
0
 62
7
 10
16.30762500
 20
20.55625000
  0
VERTEX
  8
0
 62
7
 10
16.25773438
 20
20.56500000
  0
VERTEX
  8
0
 62
7
 10
16.20700000
 20
20.56700000
  0
VERTEX
  8
0
 62
7
 10
16.22267969
 20
20.53558203
  0
VERTEX
  8
0
 62
7
 10
16.23231250
 20
20.50259375
  0
VERTEX
  8
0
 62
7
 10
16.23603906
 20
20.46880859
  0
VERTEX
  8
0
 62
7
 10
16.23400000
 20
20.43500000
  0
VERTEX
  8
0
 62
7
 10
16.22633594
 20
20.40194141
  0
VERTEX
  8
0
 62
7
 10
16.21318750
 20
20.37040625
  0
VERTEX
  8
0
 62
7
 10
16.19469531
 20
20.34116797
  0
VERTEX
  8
0
 62
7
 10
16.17100000
 20
20.31500000
  0
VERTEX
  8
0
 62
7
 10
16.15604297
 20
20.30345313
  0
VERTEX
  8
0
 62
7
 10
16.13984375
 20
20.29406250
  0
VERTEX
  8
0
 62
7
 10
16.12266016
 20
20.28645313
  0
VERTEX
  8
0
 62
7
 10
16.10475000
 20
20.28025000
  0
VERTEX
  8
0
 62
7
 10
16.08637109
 20
20.27507813
  0
VERTEX
  8
0
 62
7
 10
16.06778125
 20
20.27056250
  0
VERTEX
  8
0
 62
7
 10
16.04923828
 20
20.26632813
  0
VERTEX
  8
0
 62
7
 10
16.03100000
 20
20.26200000
  0
VERTEX
  8
0
 62
7
 10
15.96898438
 20
20.25157813
  0
VERTEX
  8
0
 62
7
 10
15.90687500
 20
20.24762500
  0
VERTEX
  8
0
 62
7
 10
15.84382813
 20
20.24835938
  0
VERTEX
  8
0
 62
7
 10
15.77900000
 20
20.25200000
  0
VERTEX
  8
0
 62
7
 10
15.68581250
 20
20.25951563
  0
VERTEX
  8
0
 62
7
 10
15.59975000
 20
20.26637500
  0
VERTEX
  8
0
 62
7
 10
15.51631250
 20
20.27154688
  0
VERTEX
  8
0
 62
7
 10
15.43100000
 20
20.27400000
  0
VERTEX
  8
0
 62
7
 10
15.33109375
 20
20.27442188
  0
VERTEX
  8
0
 62
7
 10
15.23100000
 20
20.27212500
  0
VERTEX
  8
0
 62
7
 10
15.13090625
 20
20.26626563
  0
VERTEX
  8
0
 62
7
 10
15.03100000
 20
20.25600000
  0
VERTEX
  8
0
 62
7
 10
14.94615625
 20
20.24637500
  0
VERTEX
  8
0
 62
7
 10
14.86150000
 20
20.23450000
  0
VERTEX
  8
0
 62
7
 10
14.77759375
 20
20.21887500
  0
VERTEX
  8
0
 62
7
 10
14.69500000
 20
20.19800000
  0
VERTEX
  8
0
 62
7
 10
14.62821875
 20
20.17815625
  0
VERTEX
  8
0
 62
7
 10
14.56200000
 20
20.15625000
  0
VERTEX
  8
0
 62
7
 10
14.49728125
 20
20.13021875
  0
VERTEX
  8
0
 62
7
 10
14.43500000
 20
20.09800000
  0
VERTEX
  8
0
 62
7
 10
14.38667188
 20
20.06725000
  0
VERTEX
  8
0
 62
7
 10
14.34162500
 20
20.03275000
  0
VERTEX
  8
0
 62
7
 10
14.29901563
 20
19.99562500
  0
VERTEX
  8
0
 62
7
 10
14.25800000
 20
19.95700000
  0
VERTEX
  8
0
 62
7
 10
14.21579688
 20
19.91401563
  0
VERTEX
  8
0
 62
7
 10
14.17537500
 20
19.86887500
  0
VERTEX
  8
0
 62
7
 10
14.13776563
 20
19.82129688
  0
VERTEX
  8
0
 62
7
 10
14.10400000
 20
19.77100000
  0
VERTEX
  8
0
 62
7
 10
14.07654688
 20
19.72317188
  0
VERTEX
  8
0
 62
7
 10
14.05162500
 20
19.67412500
  0
VERTEX
  8
0
 62
7
 10
14.02989063
 20
19.62376563
  0
VERTEX
  8
0
 62
7
 10
14.01200000
 20
19.57200000
  0
VERTEX
  8
0
 62
7
 10
13.99415625
 20
19.50381250
  0
VERTEX
  8
0
 62
7
 10
13.98250000
 20
19.43450000
  0
VERTEX
  8
0
 62
7
 10
13.97684375
 20
19.36443750
  0
VERTEX
  8
0
 62
7
 10
13.97700000
 20
19.29400000
  0
VERTEX
  8
0
 62
7
 10
13.98171875
 20
19.22764063
  0
VERTEX
  8
0
 62
7
 10
13.99150000
 20
19.16212500
  0
VERTEX
  8
0
 62
7
 10
14.00653125
 20
19.09754688
  0
VERTEX
  8
0
 62
7
 10
14.02700000
 20
19.03400000
  0
VERTEX
  8
0
 62
7
 10
14.01300000
 20
19.02600000
  0
VERTEX
  8
0
 62
7
 10
13.98340625
 20
19.04771875
  0
VERTEX
  8
0
 62
7
 10
13.95625000
 20
19.07225000
  0
VERTEX
  8
0
 62
7
 10
13.93171875
 20
19.09940625
  0
VERTEX
  8
0
 62
7
 10
13.91000000
 20
19.12900000
  0
VERTEX
  8
0
 62
7
 10
13.89843750
 20
19.14890625
  0
VERTEX
  8
0
 62
7
 10
13.88725000
 20
19.16975000
  0
VERTEX
  8
0
 62
7
 10
13.87793750
 20
19.19171875
  0
VERTEX
  8
0
 62
7
 10
13.87200000
 20
19.21500000
  0
VERTEX
  8
0
 62
7
 10
13.86964063
 20
19.24296875
  0
VERTEX
  8
0
 62
7
 10
13.87187500
 20
19.27075000
  0
VERTEX
  8
0
 62
7
 10
13.87917188
 20
19.29740625
  0
VERTEX
  8
0
 62
7
 10
13.89200000
 20
19.32200000
  0
VERTEX
  8
0
 62
7
 10
13.90359375
 20
19.33829688
  0
VERTEX
  8
0
 62
7
 10
13.91725000
 20
19.35262500
  0
VERTEX
  8
0
 62
7
 10
13.93278125
 20
19.36489063
  0
VERTEX
  8
0
 62
7
 10
13.95000000
 20
19.37500000
  0
VERTEX
  8
0
 62
7
 10
13.92864063
 20
19.39090625
  0
VERTEX
  8
0
 62
7
 10
13.90437500
 20
19.40100000
  0
VERTEX
  8
0
 62
7
 10
13.87842188
 20
19.40509375
  0
VERTEX
  8
0
 62
7
 10
13.85200000
 20
19.40300000
  0
VERTEX
  8
0
 62
7
 10
13.82898438
 20
19.39539063
  0
VERTEX
  8
0
 62
7
 10
13.80812500
 20
19.38262500
  0
VERTEX
  8
0
 62
7
 10
13.78970313
 20
19.36629688
  0
VERTEX
  8
0
 62
7
 10
13.77400000
 20
19.34800000
  0
VERTEX
  8
0
 62
7
 10
13.76106250
 20
19.32821875
  0
VERTEX
  8
0
 62
7
 10
13.75150000
 20
19.30675000
  0
VERTEX
  8
0
 62
7
 10
13.74418750
 20
19.28415625
  0
VERTEX
  8
0
 62
7
 10
13.73800000
 20
19.26100000
  0
VERTEX
  8
0
 62
7
 10
13.71243750
 20
19.26935938
  0
VERTEX
  8
0
 62
7
 10
13.68575000
 20
19.27387500
  0
VERTEX
  8
0
 62
7
 10
13.65868750
 20
19.27520313
  0
VERTEX
  8
0
 62
7
 10
13.63200000
 20
19.27400000
  0
VERTEX
  8
0
 62
7
 10
13.61426563
 20
19.26998438
  0
VERTEX
  8
0
 62
7
 10
13.59737500
 20
19.26362500
  0
VERTEX
  8
0
 62
7
 10
13.58179688
 20
19.25445313
  0
VERTEX
  8
0
 62
7
 10
13.56800000
 20
19.24200000
  0
VERTEX
  8
0
 62
7
 10
13.55456250
 20
19.22323438
  0
VERTEX
  8
0
 62
7
 10
13.54600000
 20
19.20212500
  0
VERTEX
  8
0
 62
7
 10
13.54268750
 20
19.17970313
  0
VERTEX
  8
0
 62
7
 10
13.54500000
 20
19.15700000
  0
VERTEX
  8
0
 62
7
 10
13.59537500
 20
19.15337500
  0
VERTEX
  8
0
 62
7
 10
13.64500000
 20
19.14600000
  0
VERTEX
  8
0
 62
7
 10
13.68637500
 20
19.13362500
  0
VERTEX
  8
0
 62
7
 10
13.72700000
 20
19.11900000
  0
VERTEX
  8
0
 62
7
 10
13.76537500
 20
19.10068750
  0
VERTEX
  8
0
 62
7
 10
13.80150000
 20
19.07825000
  0
VERTEX
  8
0
 62
7
 10
13.83612500
 20
19.05318750
  0
VERTEX
  8
0
 62
7
 10
13.87000000
 20
19.02700000
  0
VERTEX
  8
0
 62
7
 10
13.94150000
 20
18.96450000
  0
VERTEX
  8
0
 62
7
 10
14.00700000
 20
18.89600000
  0
VERTEX
  8
0
 62
7
 10
14.00300000
 20
18.88800000
  0
VERTEX
  8
0
 62
7
 10
13.93906250
 20
18.93498438
  0
VERTEX
  8
0
 62
7
 10
13.87325000
 20
18.97962500
  0
VERTEX
  8
0
 62
7
 10
13.80556250
 20
19.02145313
  0
VERTEX
  8
0
 62
7
 10
13.73600000
 20
19.06000000
  0
VERTEX
  8
0
 62
7
 10
13.65878125
 20
19.09837500
  0
VERTEX
  8
0
 62
7
 10
13.58025000
 20
19.13225000
  0
VERTEX
  8
0
 62
7
 10
13.50059375
 20
19.16350000
  0
VERTEX
  8
0
 62
7
 10
13.42000000
 20
19.19400000
  0
VERTEX
  8
0
 62
7
 10
13.31942188
 20
19.23050000
  0
VERTEX
  8
0
 62
7
 10
13.21837500
 20
19.26550000
  0
VERTEX
  8
0
 62
7
 10
13.11639063
 20
19.29750000
  0
VERTEX
  8
0
 62
7
 10
13.01300000
 20
19.32500000
  0
VERTEX
  8
0
 62
7
 10
12.90596875
 20
19.34806250
  0
VERTEX
  8
0
 62
7
 10
12.79800000
 20
19.36625000
  0
VERTEX
  8
0
 62
7
 10
12.68928125
 20
19.37956250
  0
VERTEX
  8
0
 62
7
 10
12.58000000
 20
19.38800000
  0
VERTEX
  8
0
 62
7
 10
12.50590625
 20
19.39051563
  0
VERTEX
  8
0
 62
7
 10
12.43200000
 20
19.39087500
  0
VERTEX
  8
0
 62
7
 10
12.35809375
 20
19.38954688
  0
VERTEX
  8
0
 62
7
 10
12.28400000
 20
19.38700000
  0
VERTEX
  8
0
 62
7
 10
12.14410938
 20
19.37762500
  0
VERTEX
  8
0
 62
7
 10
12.00487500
 20
19.36300000
  0
VERTEX
  8
0
 62
7
 10
11.86620313
 20
19.34312500
  0
VERTEX
  8
0
 62
7
 10
11.72800000
 20
19.31800000
  0
VERTEX
  8
0
 62
7
 10
11.62273242
 20
19.29277344
  0
VERTEX
  8
0
 62
7
 10
11.51904688
 20
19.26262500
  0
VERTEX
  8
0
 62
7
 10
11.41674414
 20
19.22835156
  0
VERTEX
  8
0
 62
7
 10
11.31562500
 20
19.19075000
  0
VERTEX
  8
0
 62
7
 10
11.21549023
 20
19.15061719
  0
VERTEX
  8
0
 62
7
 10
11.11614063
 20
19.10875000
  0
VERTEX
  8
0
 62
7
 10
11.01737695
 20
19.06594531
  0
VERTEX
  8
0
 62
7
 10
10.91900000
 20
19.02300000
  0
VERTEX
  8
0
 62
7
 10
10.88726563
 20
19.00873438
  0
VERTEX
  8
0
 62
7
 10
10.85487500
 20
18.99512500
  0
VERTEX
  8
0
 62
7
 10
10.82154688
 20
18.98320313
  0
VERTEX
  8
0
 62
7
 10
10.78700000
 20
18.97400000
  0
VERTEX
  8
0
 62
7
 10
10.77033008
 20
18.97116602
  0
VERTEX
  8
0
 62
7
 10
10.75339063
 20
18.96820313
  0
VERTEX
  8
0
 62
7
 10
10.73628711
 20
18.96554492
  0
VERTEX
  8
0
 62
7
 10
10.71912500
 20
18.96362500
  0
VERTEX
  8
0
 62
7
 10
10.70200977
 20
18.96287695
  0
VERTEX
  8
0
 62
7
 10
10.68504688
 20
18.96373438
  0
VERTEX
  8
0
 62
7
 10
10.66834180
 20
18.96663086
  0
VERTEX
  8
0
 62
7
 10
10.65200000
 20
18.97200000
  0
VERTEX
  8
0
 62
7
 10
10.62932813
 20
18.98390625
  0
VERTEX
  8
0
 62
7
 10
10.60937500
 20
18.99975000
  0
VERTEX
  8
0
 62
7
 10
10.59223438
 20
19.01896875
  0
VERTEX
  8
0
 62
7
 10
10.57800000
 20
19.04100000
  0
VERTEX
  8
0
 62
7
 10
10.56843750
 20
19.06209375
  0
VERTEX
  8
0
 62
7
 10
10.56225000
 20
19.08450000
  0
VERTEX
  8
0
 62
7
 10
10.55943750
 20
19.10765625
  0
VERTEX
  8
0
 62
7
 10
10.56000000
 20
19.13100000
  0
VERTEX
  8
0
 62
7
 10
10.52632031
 20
19.13235742
  0
VERTEX
  8
0
 62
7
 10
10.49287500
 20
19.13117188
  0
VERTEX
  8
0
 62
7
 10
10.45980469
 20
19.12743164
  0
VERTEX
  8
0
 62
7
 10
10.42725000
 20
19.12112500
  0
VERTEX
  8
0
 62
7
 10
10.39535156
 20
19.11224023
  0
VERTEX
  8
0
 62
7
 10
10.36425000
 20
19.10076563
  0
VERTEX
  8
0
 62
7
 10
10.33408594
 20
19.08668945
  0
VERTEX
  8
0
 62
7
 10
10.30500000
 20
19.07000000
  0
VERTEX
  8
0
 62
7
 10
10.27528516
 20
19.04964453
  0
VERTEX
  8
0
 62
7
 10
10.24765625
 20
19.02696875
  0
VERTEX
  8
0
 62
7
 10
10.22213672
 20
19.00218359
  0
VERTEX
  8
0
 62
7
 10
10.19875000
 20
18.97550000
  0
VERTEX
  8
0
 62
7
 10
10.17751953
 20
18.94712891
  0
VERTEX
  8
0
 62
7
 10
10.15846875
 20
18.91728125
  0
VERTEX
  8
0
 62
7
 10
10.14162109
 20
18.88616797
  0
VERTEX
  8
0
 62
7
 10
10.12700000
 20
18.85400000
  0
VERTEX
  8
0
 62
7
 10
10.11194727
 20
18.81339453
  0
VERTEX
  8
0
 62
7
 10
10.10051563
 20
18.77196875
  0
VERTEX
  8
0
 62
7
 10
10.09266992
 20
18.72993359
  0
VERTEX
  8
0
 62
7
 10
10.08837500
 20
18.68750000
  0
VERTEX
  8
0
 62
7
 10
10.08759570
 20
18.64487891
  0
VERTEX
  8
0
 62
7
 10
10.09029688
 20
18.60228125
  0
VERTEX
  8
0
 62
7
 10
10.09644336
 20
18.55991797
  0
VERTEX
  8
0
 62
7
 10
10.10600000
 20
18.51800000
  0
VERTEX
  8
0
 62
7
 10
10.11619141
 20
18.48564063
  0
VERTEX
  8
0
 62
7
 10
10.12809375
 20
18.45393750
  0
VERTEX
  8
0
 62
7
 10
10.14182422
 20
18.42307813
  0
VERTEX
  8
0
 62
7
 10
10.15750000
 20
18.39325000
  0
VERTEX
  8
0
 62
7
 10
10.17523828
 20
18.36464063
  0
VERTEX
  8
0
 62
7
 10
10.19515625
 20
18.33743750
  0
VERTEX
  8
0
 62
7
 10
10.21737109
 20
18.31182813
  0
VERTEX
  8
0
 62
7
 10
10.24200000
 20
18.28800000
  0
VERTEX
  8
0
 62
7
 10
10.27120117
 20
18.26431445
  0
VERTEX
  8
0
 62
7
 10
10.30235938
 20
18.24401563
  0
VERTEX
  8
0
 62
7
 10
10.33518164
 20
18.22674023
  0
VERTEX
  8
0
 62
7
 10
10.36937500
 20
18.21212500
  0
VERTEX
  8
0
 62
7
 10
10.40464648
 20
18.19980664
  0
VERTEX
  8
0
 62
7
 10
10.44070313
 20
18.18942188
  0
VERTEX
  8
0
 62
7
 10
10.47725195
 20
18.18060742
  0
VERTEX
  8
0
 62
7
 10
10.51400000
 20
18.17300000
  0
VERTEX
  8
0
 62
7
 10
10.56020508
 20
18.16583203
  0
VERTEX
  8
0
 62
7
 10
10.60651563
 20
18.16215625
  0
VERTEX
  8
0
 62
7
 10
10.65284961
 20
18.16171484
  0
VERTEX
  8
0
 62
7
 10
10.69912500
 20
18.16425000
  0
VERTEX
  8
0
 62
7
 10
10.74525977
 20
18.16950391
  0
VERTEX
  8
0
 62
7
 10
10.79117188
 20
18.17721875
  0
VERTEX
  8
0
 62
7
 10
10.83677930
 20
18.18713672
  0
VERTEX
  8
0
 62
7
 10
10.88200000
 20
18.19900000
  0
VERTEX
  8
0
 62
7
 10
10.94795313
 20
18.22139063
  0
VERTEX
  8
0
 62
7
 10
11.01212500
 20
18.24837500
  0
VERTEX
  8
0
 62
7
 10
11.07423438
 20
18.28042188
  0
VERTEX
  8
0
 62
7
 10
11.13400000
 20
18.31800000
  0
VERTEX
  8
0
 62
7
 10
11.17809375
 20
18.34864063
  0
VERTEX
  8
0
 62
7
 10
11.21675000
 20
18.37862500
  0
VERTEX
  8
0
 62
7
 10
11.25353125
 20
18.41179688
  0
VERTEX
  8
0
 62
7
 10
11.29200000
 20
18.45200000
  0
VERTEX
  8
0
 62
7
 10
11.32746875
 20
18.49571875
  0
VERTEX
  8
0
 62
7
 10
11.36200000
 20
18.54450000
  0
VERTEX
  8
0
 62
7
 10
11.39578125
 20
18.59628125
  0
VERTEX
  8
0
 62
7
 10
11.42900000
 20
18.64900000
  0
VERTEX
  8
0
 62
7
 10
11.46167188
 20
18.69643750
  0
VERTEX
  8
0
 62
7
 10
11.49762500
 20
18.74425000
  0
VERTEX
  8
0
 62
7
 10
11.53601563
 20
18.79018750
  0
VERTEX
  8
0
 62
7
 10
11.57600000
 20
18.83200000
  0
VERTEX
  8
0
 62
7
 10
11.63279688
 20
18.88031250
  0
VERTEX
  8
0
 62
7
 10
11.69437500
 20
18.92375000
  0
VERTEX
  8
0
 62
7
 10
11.75951563
 20
18.96306250
  0
VERTEX
  8
0
 62
7
 10
11.82700000
 20
18.99900000
  0
VERTEX
  8
0
 62
7
 10
11.86686719
 20
19.01807617
  0
VERTEX
  8
0
 62
7
 10
11.90762500
 20
19.03498438
  0
VERTEX
  8
0
 62
7
 10
11.94913281
 20
19.04999414
  0
VERTEX
  8
0
 62
7
 10
11.99125000
 20
19.06337500
  0
VERTEX
  8
0
 62
7
 10
12.03383594
 20
19.07539648
  0
VERTEX
  8
0
 62
7
 10
12.07675000
 20
19.08632813
  0
VERTEX
  8
0
 62
7
 10
12.11985156
 20
19.09643945
  0
VERTEX
  8
0
 62
7
 10
12.16300000
 20
19.10600000
  0
VERTEX
  8
0
 62
7
 10
12.25834375
 20
19.12498438
  0
VERTEX
  8
0
 62
7
 10
12.35500000
 20
19.13862500
  0
VERTEX
  8
0
 62
7
 10
12.45240625
 20
19.14720313
  0
VERTEX
  8
0
 62
7
 10
12.55000000
 20
19.15100000
  0
VERTEX
  8
0
 62
7
 10
12.64578125
 20
19.14965625
  0
VERTEX
  8
0
 62
7
 10
12.74100000
 20
19.14325000
  0
VERTEX
  8
0
 62
7
 10
12.83546875
 20
19.13271875
  0
VERTEX
  8
0
 62
7
 10
12.92900000
 20
19.11900000
  0
VERTEX
  8
0
 62
7
 10
13.01939063
 20
19.10354688
  0
VERTEX
  8
0
 62
7
 10
13.10912500
 20
19.08462500
  0
VERTEX
  8
0
 62
7
 10
13.19829688
 20
19.06289063
  0
VERTEX
  8
0
 62
7
 10
13.28700000
 20
19.03900000
  0
VERTEX
  8
0
 62
7
 10
13.39248438
 20
19.00729688
  0
VERTEX
  8
0
 62
7
 10
13.49637500
 20
18.97137500
  0
VERTEX
  8
0
 62
7
 10
13.59932813
 20
18.93226563
  0
VERTEX
  8
0
 62
7
 10
13.70200000
 20
18.89100000
  0
VERTEX
  8
0
 62
7
 10
13.87500000
 20
18.81625000
  0
VERTEX
  8
0
 62
7
 10
14.04500000
 20
18.73400000
  0
VERTEX
  8
0
 62
7
 10
14.04000000
 20
18.71600000
  0
VERTEX
  8
0
 62
7
 10
13.90835938
 20
18.77712500
  0
VERTEX
  8
0
 62
7
 10
13.77437500
 20
18.83300000
  0
VERTEX
  8
0
 62
7
 10
13.63795313
 20
18.88362500
  0
VERTEX
  8
0
 62
7
 10
13.49900000
 20
18.92900000
  0
VERTEX
  8
0
 62
7
 10
13.41309375
 20
18.95568750
  0
VERTEX
  8
0
 62
7
 10
13.32550000
 20
18.98125000
  0
VERTEX
  8
0
 62
7
 10
13.23715625
 20
19.00493750
  0
VERTEX
  8
0
 62
7
 10
13.14900000
 20
19.02600000
  0
VERTEX
  8
0
 62
7
 10
13.05593750
 20
19.04546875
  0
VERTEX
  8
0
 62
7
 10
12.96625000
 20
19.06175000
  0
VERTEX
  8
0
 62
7
 10
12.87618750
 20
19.07465625
  0
VERTEX
  8
0
 62
7
 10
12.78200000
 20
19.08400000
  0
VERTEX
  8
0
 62
7
 10
12.71028125
 20
19.08964063
  0
VERTEX
  8
0
 62
7
 10
12.63350000
 20
19.09387500
  0
VERTEX
  8
0
 62
7
 10
12.55671875
 20
19.09567188
  0
VERTEX
  8
0
 62
7
 10
12.48500000
 20
19.09400000
  0
VERTEX
  8
0
 62
7
 10
12.40410938
 20
19.08768750
  0
VERTEX
  8
0
 62
7
 10
12.32537500
 20
19.07875000
  0
VERTEX
  8
0
 62
7
 10
12.24720313
 20
19.06643750
  0
VERTEX
  8
0
 62
7
 10
12.16800000
 20
19.05000000
  0
VERTEX
  8
0
 62
7
 10
12.10357813
 20
19.03512500
  0
VERTEX
  8
0
 62
7
 10
12.04037500
 20
19.01725000
  0
VERTEX
  8
0
 62
7
 10
11.97773438
 20
18.99600000
  0
VERTEX
  8
0
 62
7
 10
11.91500000
 20
18.97100000
  0
VERTEX
  8
0
 62
7
 10
11.86057813
 20
18.94553125
  0
VERTEX
  8
0
 62
7
 10
11.80812500
 20
18.91725000
  0
VERTEX
  8
0
 62
7
 10
11.75735938
 20
18.88634375
  0
VERTEX
  8
0
 62
7
 10
11.70800000
 20
18.85300000
  0
VERTEX
  8
0
 62
7
 10
11.64237500
 20
18.80062500
  0
VERTEX
  8
0
 62
7
 10
11.58200000
 20
18.74300000
  0
VERTEX
  8
0
 62
7
 10
11.55406250
 20
18.71235938
  0
VERTEX
  8
0
 62
7
 10
11.52800000
 20
18.68012500
  0
VERTEX
  8
0
 62
7
 10
11.50493750
 20
18.64582813
  0
VERTEX
  8
0
 62
7
 10
11.48600000
 20
18.60900000
  0
VERTEX
  8
0
 62
7
 10
11.46860938
 20
18.56479688
  0
VERTEX
  8
0
 62
7
 10
11.45712500
 20
18.51937500
  0
VERTEX
  8
0
 62
7
 10
11.45182813
 20
18.47301563
  0
VERTEX
  8
0
 62
7
 10
11.45300000
 20
18.42600000
  0
VERTEX
  8
0
 62
7
 10
11.45519336
 20
18.40008008
  0
VERTEX
  8
0
 62
7
 10
11.45892188
 20
18.37426563
  0
VERTEX
  8
0
 62
7
 10
11.46440820
 20
18.34884961
  0
VERTEX
  8
0
 62
7
 10
11.47187500
 20
18.32412500
  0
VERTEX
  8
0
 62
7
 10
11.48154492
 20
18.30038477
  0
VERTEX
  8
0
 62
7
 10
11.49364063
 20
18.27792188
  0
VERTEX
  8
0
 62
7
 10
11.50838477
 20
18.25702930
  0
VERTEX
  8
0
 62
7
 10
11.52600000
 20
18.23800000
  0
VERTEX
  8
0
 62
7
 10
11.54396680
 20
18.22277930
  0
VERTEX
  8
0
 62
7
 10
11.56323438
 20
18.20998438
  0
VERTEX
  8
0
 62
7
 10
11.58360352
 20
18.19941602
  0
VERTEX
  8
0
 62
7
 10
11.60487500
 20
18.19087500
  0
VERTEX
  8
0
 62
7
 10
11.62684961
 20
18.18416211
  0
VERTEX
  8
0
 62
7
 10
11.64932813
 20
18.17907813
  0
VERTEX
  8
0
 62
7
 10
11.67211133
 20
18.17542383
  0
VERTEX
  8
0
 62
7
 10
11.69500000
 20
18.17300000
  0
VERTEX
  8
0
 62
7
 10
11.73156250
 20
18.17128125
  0
VERTEX
  8
0
 62
7
 10
11.76775000
 20
18.17425000
  0
VERTEX
  8
0
 62
7
 10
11.80356250
 20
18.18059375
  0
VERTEX
  8
0
 62
7
 10
11.83900000
 20
18.18900000
  0
VERTEX
  8
0
 62
7
 10
11.87092188
 20
18.19943750
  0
VERTEX
  8
0
 62
7
 10
11.90162500
 20
18.21325000
  0
VERTEX
  8
0
 62
7
 10
11.93251563
 20
18.22668750
  0
VERTEX
  8
0
 62
7
 10
11.96500000
 20
18.23600000
  0
VERTEX
  8
0
 62
7
 10
11.99850000
 20
18.24025000
  0
VERTEX
  8
0
 62
7
 10
12.03200000
 20
18.24000000
  0
VERTEX
  8
0
 62
7
 10
12.06673438
 20
18.23623438
  0
VERTEX
  8
0
 62
7
 10
12.10062500
 20
18.22787500
  0
VERTEX
  8
0
 62
7
 10
12.13395313
 20
18.21707813
  0
VERTEX
  8
0
 62
7
 10
12.16700000
 20
18.20600000
  0
VERTEX
  8
0
 62
7
 10
12.19489063
 20
18.19609375
  0
VERTEX
  8
0
 62
7
 10
12.22212500
 20
18.18450000
  0
VERTEX
  8
0
 62
7
 10
12.24954688
 20
18.17365625
  0
VERTEX
  8
0
 62
7
 10
12.27800000
 20
18.16600000
  0
VERTEX
  8
0
 62
7
 10
12.31503125
 20
18.15929688
  0
VERTEX
  8
0
 62
7
 10
12.35225000
 20
18.15662500
  0
VERTEX
  8
0
 62
7
 10
12.38909375
 20
18.15939063
  0
VERTEX
  8
0
 62
7
 10
12.42500000
 20
18.16900000
  0
VERTEX
  8
0
 62
7
 10
12.45284375
 20
18.18076563
  0
VERTEX
  8
0
 62
7
 10
12.47900000
 20
18.19637500
  0
VERTEX
  8
0
 62
7
 10
12.50290625
 20
18.21554688
  0
VERTEX
  8
0
 62
7
 10
12.52400000
 20
18.23800000
  0
VERTEX
  8
0
 62
7
 10
12.50895313
 20
18.26901563
  0
VERTEX
  8
0
 62
7
 10
12.49662500
 20
18.30162500
  0
VERTEX
  8
0
 62
7
 10
12.48673438
 20
18.33517188
  0
VERTEX
  8
0
 62
7
 10
12.47900000
 20
18.36900000
  0
VERTEX
  8
0
 62
7
 10
12.47617383
 20
18.39611914
  0
VERTEX
  8
0
 62
7
 10
12.47457813
 20
18.42339063
  0
VERTEX
  8
0
 62
7
 10
12.47441211
 20
18.45068555
  0
VERTEX
  8
0
 62
7
 10
12.47587500
 20
18.47787500
  0
VERTEX
  8
0
 62
7
 10
12.47916602
 20
18.50483008
  0
VERTEX
  8
0
 62
7
 10
12.48448438
 20
18.53142188
  0
VERTEX
  8
0
 62
7
 10
12.49202930
 20
18.55752148
  0
VERTEX
  8
0
 62
7
 10
12.50200000
 20
18.58300000
  0
VERTEX
  8
0
 62
7
 10
12.51317383
 20
18.60714258
  0
VERTEX
  8
0
 62
7
 10
12.52632813
 20
18.63007813
  0
VERTEX
  8
0
 62
7
 10
12.54128711
 20
18.65181836
  0
VERTEX
  8
0
 62
7
 10
12.55787500
 20
18.67237500
  0
VERTEX
  8
0
 62
7
 10
12.57591602
 20
18.69175977
  0
VERTEX
  8
0
 62
7
 10
12.59523438
 20
18.70998438
  0
VERTEX
  8
0
 62
7
 10
12.61565430
 20
18.72706055
  0
VERTEX
  8
0
 62
7
 10
12.63700000
 20
18.74300000
  0
VERTEX
  8
0
 62
7
 10
12.66312500
 20
18.75956055
  0
VERTEX
  8
0
 62
7
 10
12.69037500
 20
18.77348438
  0
VERTEX
  8
0
 62
7
 10
12.71856250
 20
18.78513477
  0
VERTEX
  8
0
 62
7
 10
12.74750000
 20
18.79487500
  0
VERTEX
  8
0
 62
7
 10
12.77700000
 20
18.80306836
  0
VERTEX
  8
0
 62
7
 10
12.80687500
 20
18.81007813
  0
VERTEX
  8
0
 62
7
 10
12.83693750
 20
18.81626758
  0
VERTEX
  8
0
 62
7
 10
12.86700000
 20
18.82200000
  0
VERTEX
  8
0
 62
7
 10
12.90762891
 20
18.82714063
  0
VERTEX
  8
0
 62
7
 10
12.94846875
 20
18.82937500
  0
VERTEX
  8
0
 62
7
 10
12.98944922
 20
18.82917188
  0
VERTEX
  8
0
 62
7
 10
13.03050000
 20
18.82700000
  0
VERTEX
  8
0
 62
7
 10
13.07155078
 20
18.82332813
  0
VERTEX
  8
0
 62
7
 10
13.11253125
 20
18.81862500
  0
VERTEX
  8
0
 62
7
 10
13.15337109
 20
18.81335938
  0
VERTEX
  8
0
 62
7
 10
13.19400000
 20
18.80800000
  0
VERTEX
  8
0
 62
7
 10
13.28600000
 20
18.79001563
  0
VERTEX
  8
0
 62
7
 10
13.37650000
 20
18.76612500
  0
VERTEX
  8
0
 62
7
 10
13.46625000
 20
18.73867188
  0
VERTEX
  8
0
 62
7
 10
13.55600000
 20
18.71000000
  0
VERTEX
  8
0
 62
7
 10
13.64567188
 20
18.67926563
  0
VERTEX
  8
0
 62
7
 10
13.73487500
 20
18.64637500
  0
VERTEX
  8
0
 62
7
 10
13.82389063
 20
18.61254688
  0
VERTEX
  8
0
 62
7
 10
13.91300000
 20
18.57900000
  0
VERTEX
  8
0
 62
7
 10
14.24700000
 20
18.45400000
  0
VERTEX
  8
0
 62
7
 10
14.24700000
 20
18.43700000
  0
VERTEX
  8
0
 62
7
 10
14.10762500
 20
18.48037500
  0
VERTEX
  8
0
 62
7
 10
13.96900000
 20
18.52600000
  0
VERTEX
  8
0
 62
7
 10
13.63100000
 20
18.64600000
  0
VERTEX
  8
0
 62
7
 10
13.51087500
 20
18.68500000
  0
VERTEX
  8
0
 62
7
 10
13.39000000
 20
18.72100000
  0
VERTEX
  8
0
 62
7
 10
13.33462500
 20
18.73465625
  0
VERTEX
  8
0
 62
7
 10
13.27925000
 20
18.74775000
  0
VERTEX
  8
0
 62
7
 10
13.22350000
 20
18.75896875
  0
VERTEX
  8
0
 62
7
 10
13.16700000
 20
18.76700000
  0
VERTEX
  8
0
 62
7
 10
13.12820752
 20
18.77145947
  0
VERTEX
  8
0
 62
7
 10
13.08883203
 20
18.77530078
  0
VERTEX
  8
0
 62
7
 10
13.04906396
 20
18.77828076
  0
VERTEX
  8
0
 62
7
 10
13.00909375
 20
18.78015625
  0
VERTEX
  8
0
 62
7
 10
12.96911182
 20
18.78068408
  0
VERTEX
  8
0
 62
7
 10
12.92930859
 20
18.77962109
  0
VERTEX
  8
0
 62
7
 10
12.88987451
 20
18.77672412
  0
VERTEX
  8
0
 62
7
 10
12.85100000
 20
18.77175000
  0
VERTEX
  8
0
 62
7
 10
12.81287549
 20
18.76445557
  0
VERTEX
  8
0
 62
7
 10
12.77569141
 20
18.75459766
  0
VERTEX
  8
0
 62
7
 10
12.73963818
 20
18.74193311
  0
VERTEX
  8
0
 62
7
 10
12.70490625
 20
18.72621875
  0
VERTEX
  8
0
 62
7
 10
12.67168604
 20
18.70721143
  0
VERTEX
  8
0
 62
7
 10
12.64016797
 20
18.68466797
  0
VERTEX
  8
0
 62
7
 10
12.61054248
 20
18.65834521
  0
VERTEX
  8
0
 62
7
 10
12.58300000
 20
18.62800000
  0
VERTEX
  8
0
 62
7
 10
12.56369141
 20
18.60152344
  0
VERTEX
  8
0
 62
7
 10
12.54778125
 20
18.57331250
  0
VERTEX
  8
0
 62
7
 10
12.53529297
 20
18.54369531
  0
VERTEX
  8
0
 62
7
 10
12.52625000
 20
18.51300000
  0
VERTEX
  8
0
 62
7
 10
12.52067578
 20
18.48155469
  0
VERTEX
  8
0
 62
7
 10
12.51859375
 20
18.44968750
  0
VERTEX
  8
0
 62
7
 10
12.52002734
 20
18.41772656
  0
VERTEX
  8
0
 62
7
 10
12.52500000
 20
18.38600000
  0
VERTEX
  8
0
 62
7
 10
12.53093164
 20
18.36288672
  0
VERTEX
  8
0
 62
7
 10
12.53832813
 20
18.34021875
  0
VERTEX
  8
0
 62
7
 10
12.54734180
 20
18.31825391
  0
VERTEX
  8
0
 62
7
 10
12.55812500
 20
18.29725000
  0
VERTEX
  8
0
 62
7
 10
12.57083008
 20
18.27746484
  0
VERTEX
  8
0
 62
7
 10
12.58560938
 20
18.25915625
  0
VERTEX
  8
0
 62
7
 10
12.60261523
 20
18.24258203
  0
VERTEX
  8
0
 62
7
 10
12.62200000
 20
18.22800000
  0
VERTEX
  8
0
 62
7
 10
12.65440625
 20
18.21285938
  0
VERTEX
  8
0
 62
7
 10
12.68925000
 20
18.20437500
  0
VERTEX
  8
0
 62
7
 10
12.72521875
 20
18.19945313
  0
VERTEX
  8
0
 62
7
 10
12.76100000
 20
18.19500000
  0
VERTEX
  8
0
 62
7
 10
12.78395898
 20
18.19347852
  0
VERTEX
  8
0
 62
7
 10
12.80704688
 20
18.19426563
  0
VERTEX
  8
0
 62
7
 10
12.83020508
 20
18.19638867
  0
VERTEX
  8
0
 62
7
 10
12.85337500
 20
18.19887500
  0
VERTEX
  8
0
 62
7
 10
12.87649805
 20
18.20075195
  0
VERTEX
  8
0
 62
7
 10
12.89951563
 20
18.20104688
  0
VERTEX
  8
0
 62
7
 10
12.92236914
 20
18.19878711
  0
VERTEX
  8
0
 62
7
 10
12.94500000
 20
18.19300000
  0
VERTEX
  8
0
 62
7
 10
13.00700000
 20
18.16200000
  0
VERTEX
  8
0
 62
7
 10
13.02630469
 20
18.15444336
  0
VERTEX
  8
0
 62
7
 10
13.04593750
 20
18.14710938
  0
VERTEX
  8
0
 62
7
 10
13.06585156
 20
18.14050195
  0
VERTEX
  8
0
 62
7
 10
13.08600000
 20
18.13512500
  0
VERTEX
  8
0
 62
7
 10
13.10633594
 20
18.13148242
  0
VERTEX
  8
0
 62
7
 10
13.12681250
 20
18.13007813
  0
VERTEX
  8
0
 62
7
 10
13.14738281
 20
18.13141602
  0
VERTEX
  8
0
 62
7
 10
13.16800000
 20
18.13600000
  0
VERTEX
  8
0
 62
7
 10
13.19812500
 20
18.14975000
  0
VERTEX
  8
0
 62
7
 10
13.22600000
 20
18.16800000
  0
VERTEX
  8
0
 62
7
 10
13.25132813
 20
18.18975000
  0
VERTEX
  8
0
 62
7
 10
13.27262500
 20
18.21525000
  0
VERTEX
  8
0
 62
7
 10
13.29335938
 20
18.24112500
  0
VERTEX
  8
0
 62
7
 10
13.31700000
 20
18.26400000
  0
VERTEX
  8
0
 62
7
 10
13.35320313
 20
18.28948438
  0
VERTEX
  8
0
 62
7
 10
13.39137500
 20
18.31112500
  0
VERTEX
  8
0
 62
7
 10
13.43160938
 20
18.32770313
  0
VERTEX
  8
0
 62
7
 10
13.47400000
 20
18.33800000
  0
VERTEX
  8
0
 62
7
 10
13.50359375
 20
18.34164063
  0
VERTEX
  8
0
 62
7
 10
13.53375000
 20
18.34162500
  0
VERTEX
  8
0
 62
7
 10
13.56428125
 20
18.33954688
  0
VERTEX
  8
0
 62
7
 10
13.59500000
 20
18.33700000
  0
VERTEX
  8
0
 62
7
 10
13.65750000
 20
18.32921875
  0
VERTEX
  8
0
 62
7
 10
13.71925000
 20
18.31675000
  0
VERTEX
  8
0
 62
7
 10
13.78062500
 20
18.30240625
  0
VERTEX
  8
0
 62
7
 10
13.84200000
 20
18.28900000
  0
VERTEX
  8
0
 62
7
 10
14.01075000
 20
18.25450000
  0
VERTEX
  8
0
 62
7
 10
14.18100000
 20
18.22300000
  0
VERTEX
  8
0
 62
7
 10
14.28468750
 20
18.20689063
  0
VERTEX
  8
0
 62
7
 10
14.38875000
 20
18.19312500
  0
VERTEX
  8
0
 62
7
 10
14.49318750
 20
18.18179688
  0
VERTEX
  8
0
 62
7
 10
14.59800000
 20
18.17300000
  0
VERTEX
  8
0
 62
7
 10
14.65579492
 20
18.16841797
  0
VERTEX
  8
0
 62
7
 10
14.71367188
 20
18.16390625
  0
VERTEX
  8
0
 62
7
 10
14.77161914
 20
18.15981641
  0
VERTEX
  8
0
 62
7
 10
14.82962500
 20
18.15650000
  0
VERTEX
  8
0
 62
7
 10
14.88767773
 20
18.15430859
  0
VERTEX
  8
0
 62
7
 10
14.94576563
 20
18.15359375
  0
VERTEX
  8
0
 62
7
 10
15.00387695
 20
18.15470703
  0
VERTEX
  8
0
 62
7
 10
15.06200000
 20
18.15800000
  0
VERTEX
  8
0
 62
7
 10
15.13575781
 20
18.16485156
  0
VERTEX
  8
0
 62
7
 10
15.20918750
 20
18.17362500
  0
VERTEX
  8
0
 62
7
 10
15.28214844
 20
18.18464844
  0
VERTEX
  8
0
 62
7
 10
15.35450000
 20
18.19825000
  0
VERTEX
  8
0
 62
7
 10
15.42610156
 20
18.21475781
  0
VERTEX
  8
0
 62
7
 10
15.49681250
 20
18.23450000
  0
VERTEX
  8
0
 62
7
 10
15.56649219
 20
18.25780469
  0
VERTEX
  8
0
 62
7
 10
15.63500000
 20
18.28500000
  0
VERTEX
  8
0
 62
7
 10
15.70103125
 20
18.31629688
  0
VERTEX
  8
0
 62
7
 10
15.76575000
 20
18.35012500
  0
VERTEX
  8
0
 62
7
 10
15.82934375
 20
18.38639063
  0
VERTEX
  8
0
 62
7
 10
15.89200000
 20
18.42500000
  0
VERTEX
  8
0
 62
7
 10
15.95887500
 20
18.46965625
  0
VERTEX
  8
0
 62
7
 10
16.02425000
 20
18.51675000
  0
VERTEX
  8
0
 62
7
 10
16.08775000
 20
18.56646875
  0
VERTEX
  8
0
 62
7
 10
16.14900000
 20
18.61900000
  0
VERTEX
  8
0
 62
7
 10
16.25675000
 20
18.72450000
  0
VERTEX
  8
0
 62
7
 10
16.35700000
 20
18.83600000
  0
VERTEX
  8
0
 62
7
 10
16.42548438
 20
18.91931250
  0
VERTEX
  8
0
 62
7
 10
16.49012500
 20
19.00450000
  0
VERTEX
  8
0
 62
7
 10
16.55120313
 20
19.09193750
  0
VERTEX
  8
0
 62
7
 10
16.60900000
 20
19.18200000
  0
VERTEX
  8
0
 62
7
 10
16.65776563
 20
19.26673438
  0
VERTEX
  8
0
 62
7
 10
16.70362500
 20
19.35287500
  0
VERTEX
  8
0
 62
7
 10
16.74667188
 20
19.44032813
  0
VERTEX
  8
0
 62
7
 10
16.78700000
 20
19.52900000
  0
VERTEX
  8
0
 62
7
 10
16.82595313
 20
19.62315625
  0
VERTEX
  8
0
 62
7
 10
16.86237500
 20
19.71825000
  0
VERTEX
  8
0
 62
7
 10
16.89485938
 20
19.81446875
  0
VERTEX
  8
0
 62
7
 10
16.92200000
 20
19.91200000
  0
VERTEX
  8
0
 62
7
 10
16.93330469
 20
19.96163672
  0
VERTEX
  8
0
 62
7
 10
16.94381250
 20
20.01153125
  0
VERTEX
  8
0
 62
7
 10
16.95328906
 20
20.06166016
  0
VERTEX
  8
0
 62
7
 10
16.96150000
 20
20.11200000
  0
VERTEX
  8
0
 62
7
 10
16.96821094
 20
20.16252734
  0
VERTEX
  8
0
 62
7
 10
16.97318750
 20
20.21321875
  0
VERTEX
  8
0
 62
7
 10
16.97619531
 20
20.26405078
  0
VERTEX
  8
0
 62
7
 10
16.97700000
 20
20.31500000
  0
VERTEX
  8
0
 62
7
 10
16.97332813
 20
20.40117188
  0
VERTEX
  8
0
 62
7
 10
16.96487500
 20
20.48687500
  0
VERTEX
  8
0
 62
7
 10
16.95098438
 20
20.57164063
  0
VERTEX
  8
0
 62
7
 10
16.93100000
 20
20.65500000
  0
VERTEX
  8
0
 62
7
 10
16.90870313
 20
20.72412500
  0
VERTEX
  8
0
 62
7
 10
16.88237500
 20
20.79175000
  0
VERTEX
  8
0
 62
7
 10
16.85210938
 20
20.85750000
  0
VERTEX
  8
0
 62
7
 10
16.81800000
 20
20.92100000
  0
SEQEND
  0
POLYLINE
  8
0
 62
7
 66
1
 70
1
  0
VERTEX
  8
0
 62
7
 10
15.19200000
 20
19.99300000
  0
VERTEX
  8
0
 62
7
 10
15.25135938
 20
19.97781250
  0
VERTEX
  8
0
 62
7
 10
15.30912500
 20
19.95775000
  0
VERTEX
  8
0
 62
7
 10
15.36482813
 20
19.93281250
  0
VERTEX
  8
0
 62
7
 10
15.41800000
 20
19.90300000
  0
VERTEX
  8
0
 62
7
 10
15.45787500
 20
19.87678125
  0
VERTEX
  8
0
 62
7
 10
15.49625000
 20
19.84775000
  0
VERTEX
  8
0
 62
7
 10
15.53275000
 20
19.81609375
  0
VERTEX
  8
0
 62
7
 10
15.56700000
 20
19.78200000
  0
VERTEX
  8
0
 62
7
 10
15.56550000
 20
19.77112500
  0
VERTEX
  8
0
 62
7
 10
15.56100000
 20
19.76100000
  0
VERTEX
  8
0
 62
7
 10
15.54992188
 20
19.75053125
  0
VERTEX
  8
0
 62
7
 10
15.53612500
 20
19.74625000
  0
VERTEX
  8
0
 62
7
 10
15.52176563
 20
19.74834375
  0
VERTEX
  8
0
 62
7
 10
15.50900000
 20
19.75700000
  0
VERTEX
  8
0
 62
7
 10
15.44837500
 20
19.81537500
  0
VERTEX
  8
0
 62
7
 10
15.38100000
 20
19.86700000
  0
VERTEX
  8
0
 62
7
 10
15.33414063
 20
19.89712500
  0
VERTEX
  8
0
 62
7
 10
15.28512500
 20
19.92425000
  0
VERTEX
  8
0
 62
7
 10
15.23404688
 20
19.94800000
  0
VERTEX
  8
0
 62
7
 10
15.18100000
 20
19.96800000
  0
VERTEX
  8
0
 62
7
 10
15.19200000
 20
19.99300000
  0
SEQEND
  0
POLYLINE
  8
0
 62
7
 66
1
 70
1
  0
VERTEX
  8
0
 62
7
 10
13.27300000
 20
20.18700000
  0
VERTEX
  8
0
 62
7
 10
13.20412500
 20
20.21512500
  0
VERTEX
  8
0
 62
7
 10
13.13600000
 20
20.24700000
  0
VERTEX
  8
0
 62
7
 10
13.07375000
 20
20.28000000
  0
VERTEX
  8
0
 62
7
 10
13.01300000
 20
20.31600000
  0
VERTEX
  8
0
 62
7
 10
12.98825000
 20
20.22062500
  0
VERTEX
  8
0
 62
7
 10
12.95900000
 20
20.12600000
  0
VERTEX
  8
0
 62
7
 10
12.92500000
 20
20.02800000
  0
VERTEX
  8
0
 62
7
 10
12.95437500
 20
20.02404688
  0
VERTEX
  8
0
 62
7
 10
12.98375000
 20
20.01812500
  0
VERTEX
  8
0
 62
7
 10
13.01275000
 20
20.01014063
  0
VERTEX
  8
0
 62
7
 10
13.04100000
 20
20.00000000
  0
VERTEX
  8
0
 62
7
 10
13.07904688
 20
19.98262500
  0
VERTEX
  8
0
 62
7
 10
13.11512500
 20
19.96225000
  0
VERTEX
  8
0
 62
7
 10
13.14914063
 20
19.93925000
  0
VERTEX
  8
0
 62
7
 10
13.18100000
 20
19.91400000
  0
VERTEX
  8
0
 62
7
 10
13.18000000
 20
19.93400000
  0
VERTEX
  8
0
 62
7
 10
13.18177734
 20
19.96293750
  0
VERTEX
  8
0
 62
7
 10
13.18559375
 20
19.99187500
  0
VERTEX
  8
0
 62
7
 10
13.19142578
 20
20.02062500
  0
VERTEX
  8
0
 62
7
 10
13.19925000
 20
20.04900000
  0
VERTEX
  8
0
 62
7
 10
13.20904297
 20
20.07681250
  0
VERTEX
  8
0
 62
7
 10
13.22078125
 20
20.10387500
  0
VERTEX
  8
0
 62
7
 10
13.23444141
 20
20.13000000
  0
VERTEX
  8
0
 62
7
 10
13.25000000
 20
20.15500000
  0
VERTEX
  8
0
 62
7
 10
13.27300000
 20
20.18700000
  0
SEQEND
  0
POLYLINE
  8
0
 62
7
 66
1
 70
1
  0
VERTEX
  8
0
 62
7
 10
14.19100000
 20
19.96500000
  0
VERTEX
  8
0
 62
7
 10
14.17634570
 20
19.99281641
  0
VERTEX
  8
0
 62
7
 10
14.15945313
 20
20.01915625
  0
VERTEX
  8
0
 62
7
 10
14.14042773
 20
20.04385547
  0
VERTEX
  8
0
 62
7
 10
14.11937500
 20
20.06675000
  0
VERTEX
  8
0
 62
7
 10
14.09640039
 20
20.08767578
  0
VERTEX
  8
0
 62
7
 10
14.07160938
 20
20.10646875
  0
VERTEX
  8
0
 62
7
 10
14.04510742
 20
20.12296484
  0
VERTEX
  8
0
 62
7
 10
14.01700000
 20
20.13700000
  0
VERTEX
  8
0
 62
7
 10
13.96857813
 20
20.15503125
  0
VERTEX
  8
0
 62
7
 10
13.91837500
 20
20.16575000
  0
VERTEX
  8
0
 62
7
 10
13.86723438
 20
20.16934375
  0
VERTEX
  8
0
 62
7
 10
13.81600000
 20
20.16600000
  0
VERTEX
  8
0
 62
7
 10
13.77892188
 20
20.16015625
  0
VERTEX
  8
0
 62
7
 10
13.74662500
 20
20.15300000
  0
VERTEX
  8
0
 62
7
 10
13.71601563
 20
20.14209375
  0
VERTEX
  8
0
 62
7
 10
13.68400000
 20
20.12500000
  0
VERTEX
  8
0
 62
7
 10
13.62000000
 20
20.26400000
  0
VERTEX
  8
0
 62
7
 10
13.56408398
 20
20.26728906
  0
VERTEX
  8
0
 62
7
 10
13.51317188
 20
20.26331250
  0
VERTEX
  8
0
 62
7
 10
13.46701758
 20
20.25267969
  0
VERTEX
  8
0
 62
7
 10
13.42537500
 20
20.23600000
  0
VERTEX
  8
0
 62
7
 10
13.38799805
 20
20.21388281
  0
VERTEX
  8
0
 62
7
 10
13.35464063
 20
20.18693750
  0
VERTEX
  8
0
 62
7
 10
13.32505664
 20
20.15577344
  0
VERTEX
  8
0
 62
7
 10
13.29900000
 20
20.12100000
  0
VERTEX
  8
0
 62
7
 10
13.28289453
 20
20.09453516
  0
VERTEX
  8
0
 62
7
 10
13.26915625
 20
20.06640625
  0
VERTEX
  8
0
 62
7
 10
13.25790234
 20
20.03701172
  0
VERTEX
  8
0
 62
7
 10
13.24925000
 20
20.00675000
  0
VERTEX
  8
0
 62
7
 10
13.24331641
 20
19.97601953
  0
VERTEX
  8
0
 62
7
 10
13.24021875
 20
19.94521875
  0
VERTEX
  8
0
 62
7
 10
13.24007422
 20
19.91474609
  0
VERTEX
  8
0
 62
7
 10
13.24300000
 20
19.88500000
  0
VERTEX
  8
0
 62
7
 10
13.25232813
 20
19.84042188
  0
VERTEX
  8
0
 62
7
 10
13.26512500
 20
19.79987500
  0
VERTEX
  8
0
 62
7
 10
13.28110938
 20
19.76139063
  0
VERTEX
  8
0
 62
7
 10
13.30000000
 20
19.72300000
  0
VERTEX
  8
0
 62
7
 10
13.32185938
 20
19.68693750
  0
VERTEX
  8
0
 62
7
 10
13.34587500
 20
19.65500000
  0
VERTEX
  8
0
 62
7
 10
13.37045313
 20
19.62456250
  0
VERTEX
  8
0
 62
7
 10
13.39400000
 20
19.59300000
  0
VERTEX
  8
0
 62
7
 10
13.40207031
 20
19.57925977
  0
VERTEX
  8
0
 62
7
 10
13.40756250
 20
19.56595313
  0
VERTEX
  8
0
 62
7
 10
13.41052344
 20
19.55332617
  0
VERTEX
  8
0
 62
7
 10
13.41100000
 20
19.54162500
  0
VERTEX
  8
0
 62
7
 10
13.40903906
 20
19.53109570
  0
VERTEX
  8
0
 62
7
 10
13.40468750
 20
19.52198438
  0
VERTEX
  8
0
 62
7
 10
13.39799219
 20
19.51453711
  0
VERTEX
  8
0
 62
7
 10
13.38900000
 20
19.50900000
  0
VERTEX
  8
0
 62
7
 10
13.38051758
 20
19.50646680
  0
VERTEX
  8
0
 62
7
 10
13.37176563
 20
19.50617188
  0
VERTEX
  8
0
 62
7
 10
13.36303711
 20
19.50782227
  0
VERTEX
  8
0
 62
7
 10
13.35462500
 20
19.51112500
  0
VERTEX
  8
0
 62
7
 10
13.34682227
 20
19.51578711
  0
VERTEX
  8
0
 62
7
 10
13.33992188
 20
19.52151563
  0
VERTEX
  8
0
 62
7
 10
13.33421680
 20
19.52801758
  0
VERTEX
  8
0
 62
7
 10
13.33000000
 20
19.53500000
  0
VERTEX
  8
0
 62
7
 10
13.31800000
 20
19.57137500
  0
VERTEX
  8
0
 62
7
 10
13.30900000
 20
19.61000000
  0
VERTEX
  8
0
 62
7
 10
13.28959375
 20
19.66695313
  0
VERTEX
  8
0
 62
7
 10
13.26325000
 20
19.72062500
  0
VERTEX
  8
0
 62
7
 10
13.23053125
 20
19.77073438
  0
VERTEX
  8
0
 62
7
 10
13.19200000
 20
19.81700000
  0
VERTEX
  8
0
 62
7
 10
13.15385938
 20
19.85539063
  0
VERTEX
  8
0
 62
7
 10
13.11262500
 20
19.89012500
  0
VERTEX
  8
0
 62
7
 10
13.06782813
 20
19.91979688
  0
VERTEX
  8
0
 62
7
 10
13.01900000
 20
19.94300000
  0
VERTEX
  8
0
 62
7
 10
12.99094141
 20
19.95301367
  0
VERTEX
  8
0
 62
7
 10
12.96234375
 20
19.96067188
  0
VERTEX
  8
0
 62
7
 10
12.93332422
 20
19.96615039
  0
VERTEX
  8
0
 62
7
 10
12.90400000
 20
19.96962500
  0
VERTEX
  8
0
 62
7
 10
12.87448828
 20
19.97127148
  0
VERTEX
  8
0
 62
7
 10
12.84490625
 20
19.97126563
  0
VERTEX
  8
0
 62
7
 10
12.81537109
 20
19.96978320
  0
VERTEX
  8
0
 62
7
 10
12.78600000
 20
19.96700000
  0
VERTEX
  8
0
 62
7
 10
12.74200000
 20
19.96003125
  0
VERTEX
  8
0
 62
7
 10
12.69875000
 20
19.94950000
  0
VERTEX
  8
0
 62
7
 10
12.65662500
 20
19.93521875
  0
VERTEX
  8
0
 62
7
 10
12.61600000
 20
19.91700000
  0
VERTEX
  8
0
 62
7
 10
12.65500000
 20
19.82400000
  0
VERTEX
  8
0
 62
7
 10
12.62354688
 20
19.82136133
  0
VERTEX
  8
0
 62
7
 10
12.59237500
 20
19.81639063
  0
VERTEX
  8
0
 62
7
 10
12.56176563
 20
19.80900586
  0
VERTEX
  8
0
 62
7
 10
12.53200000
 20
19.79912500
  0
VERTEX
  8
0
 62
7
 10
12.50335938
 20
19.78666602
  0
VERTEX
  8
0
 62
7
 10
12.47612500
 20
19.77154688
  0
VERTEX
  8
0
 62
7
 10
12.45057813
 20
19.75368555
  0
VERTEX
  8
0
 62
7
 10
12.42700000
 20
19.73300000
  0
VERTEX
  8
0
 62
7
 10
12.40950000
 20
19.71425781
  0
VERTEX
  8
0
 62
7
 10
12.39443750
 20
19.69350000
  0
VERTEX
  8
0
 62
7
 10
12.38171875
 20
19.67105469
  0
VERTEX
  8
0
 62
7
 10
12.37125000
 20
19.64725000
  0
VERTEX
  8
0
 62
7
 10
12.36293750
 20
19.62241406
  0
VERTEX
  8
0
 62
7
 10
12.35668750
 20
19.59687500
  0
VERTEX
  8
0
 62
7
 10
12.35240625
 20
19.57096094
  0
VERTEX
  8
0
 62
7
 10
12.35000000
 20
19.54500000
  0
VERTEX
  8
0
 62
7
 10
12.34909375
 20
19.50637500
  0
VERTEX
  8
0
 62
7
 10
12.35250000
 20
19.47075000
  0
VERTEX
  8
0
 62
7
 10
12.36265625
 20
19.43700000
  0
VERTEX
  8
0
 62
7
 10
12.38200000
 20
19.40400000
  0
VERTEX
  8
0
 62
7
 10
12.40726563
 20
19.42514063
  0
VERTEX
  8
0
 62
7
 10
12.43487500
 20
19.44337500
  0
VERTEX
  8
0
 62
7
 10
12.46454688
 20
19.45842188
  0
VERTEX
  8
0
 62
7
 10
12.49600000
 20
19.47000000
  0
VERTEX
  8
0
 62
7
 10
12.52634375
 20
19.47645313
  0
VERTEX
  8
0
 62
7
 10
12.55725000
 20
19.47887500
  0
VERTEX
  8
0
 62
7
 10
12.58853125
 20
19.47885938
  0
VERTEX
  8
0
 62
7
 10
12.62000000
 20
19.47800000
  0
VERTEX
  8
0
 62
7
 10
12.66450000
 20
19.47332813
  0
VERTEX
  8
0
 62
7
 10
12.70825000
 20
19.46387500
  0
VERTEX
  8
0
 62
7
 10
12.75162500
 20
19.45198438
  0
VERTEX
  8
0
 62
7
 10
12.79500000
 20
19.44000000
  0
VERTEX
  8
0
 62
7
 10
12.86260938
 20
19.42145313
  0
VERTEX
  8
0
 62
7
 10
12.92937500
 20
19.40037500
  0
VERTEX
  8
0
 62
7
 10
12.99595313
 20
19.37910938
  0
VERTEX
  8
0
 62
7
 10
13.06300000
 20
19.36000000
  0
VERTEX
  8
0
 62
7
 10
13.12435938
 20
19.34260938
  0
VERTEX
  8
0
 62
7
 10
13.18562500
 20
19.32587500
  0
VERTEX
  8
0
 62
7
 10
13.24707813
 20
19.31120313
  0
VERTEX
  8
0
 62
7
 10
13.30900000
 20
19.30000000
  0
VERTEX
  8
0
 62
7
 10
13.33937500
 20
19.29533789
  0
VERTEX
  8
0
 62
7
 10
13.36975000
 20
19.29064063
  0
VERTEX
  8
0
 62
7
 10
13.40012500
 20
19.28634180
  0
VERTEX
  8
0
 62
7
 10
13.43050000
 20
19.28287500
  0
VERTEX
  8
0
 62
7
 10
13.46087500
 20
19.28067383
  0
VERTEX
  8
0
 62
7
 10
13.49125000
 20
19.28017188
  0
VERTEX
  8
0
 62
7
 10
13.52162500
 20
19.28180273
  0
VERTEX
  8
0
 62
7
 10
13.55200000
 20
19.28600000
  0
VERTEX
  8
0
 62
7
 10
13.60042188
 20
19.29814063
  0
VERTEX
  8
0
 62
7
 10
13.64762500
 20
19.31487500
  0
VERTEX
  8
0
 62
7
 10
13.69276563
 20
19.33592188
  0
VERTEX
  8
0
 62
7
 10
13.73500000
 20
19.36100000
  0
VERTEX
  8
0
 62
7
 10
13.77248438
 20
19.39057813
  0
VERTEX
  8
0
 62
7
 10
13.80687500
 20
19.42362500
  0
VERTEX
  8
0
 62
7
 10
13.83807813
 20
19.45985938
  0
VERTEX
  8
0
 62
7
 10
13.86600000
 20
19.49900000
  0
VERTEX
  8
0
 62
7
 10
13.88548438
 20
19.53596289
  0
VERTEX
  8
0
 62
7
 10
13.90112500
 20
19.57457813
  0
VERTEX
  8
0
 62
7
 10
13.91395313
 20
19.61443555
  0
VERTEX
  8
0
 62
7
 10
13.92500000
 20
19.65512500
  0
VERTEX
  8
0
 62
7
 10
13.93529688
 20
19.69623633
  0
VERTEX
  8
0
 62
7
 10
13.94587500
 20
19.73735938
  0
VERTEX
  8
0
 62
7
 10
13.95776563
 20
19.77808398
  0
VERTEX
  8
0
 62
7
 10
13.97200000
 20
19.81800000
  0
VERTEX
  8
0
 62
7
 10
13.98226563
 20
19.84492188
  0
VERTEX
  8
0
 62
7
 10
13.99337500
 20
19.87212500
  0
VERTEX
  8
0
 62
7
 10
14.00729688
 20
19.89801563
  0
VERTEX
  8
0
 62
7
 10
14.02600000
 20
19.92100000
  0
VERTEX
  8
0
 62
7
 10
14.04493750
 20
19.93809375
  0
VERTEX
  8
0
 62
7
 10
14.06575000
 20
19.95275000
  0
VERTEX
  8
0
 62
7
 10
14.08843750
 20
19.96403125
  0
VERTEX
  8
0
 62
7
 10
14.11300000
 20
19.97100000
  0
VERTEX
  8
0
 62
7
 10
14.13264063
 20
19.97287500
  0
VERTEX
  8
0
 62
7
 10
14.15237500
 20
19.97250000
  0
VERTEX
  8
0
 62
7
 10
14.17192188
 20
19.96987500
  0
VERTEX
  8
0
 62
7
 10
14.19100000
 20
19.96500000
  0
SEQEND
  0
POLYLINE
  8
0
 62
7
 66
1
 70
1
  0
VERTEX
  8
0
 62
7
 10
16.74100000
 20
18.15000000
  0
VERTEX
  8
0
 62
7
 10
16.72804688
 20
18.18218750
  0
VERTEX
  8
0
 62
7
 10
16.71912500
 20
18.21550000
  0
VERTEX
  8
0
 62
7
 10
16.71414063
 20
18.24956250
  0
VERTEX
  8
0
 62
7
 10
16.71300000
 20
18.28400000
  0
VERTEX
  8
0
 62
7
 10
16.71481836
 20
18.31400195
  0
VERTEX
  8
0
 62
7
 10
16.71948438
 20
18.34382813
  0
VERTEX
  8
0
 62
7
 10
16.72693945
 20
18.37320898
  0
VERTEX
  8
0
 62
7
 10
16.73712500
 20
18.40187500
  0
VERTEX
  8
0
 62
7
 10
16.74998242
 20
18.42955664
  0
VERTEX
  8
0
 62
7
 10
16.76545313
 20
18.45598438
  0
VERTEX
  8
0
 62
7
 10
16.78347852
 20
18.48088867
  0
VERTEX
  8
0
 62
7
 10
16.80400000
 20
18.50400000
  0
VERTEX
  8
0
 62
7
 10
16.77648438
 20
18.53545313
  0
VERTEX
  8
0
 62
7
 10
16.74662500
 20
18.56512500
  0
VERTEX
  8
0
 62
7
 10
16.71470313
 20
18.59273438
  0
VERTEX
  8
0
 62
7
 10
16.68100000
 20
18.61800000
  0
VERTEX
  8
0
 62
7
 10
16.64797266
 20
18.63821680
  0
VERTEX
  8
0
 62
7
 10
16.61290625
 20
18.65523438
  0
VERTEX
  8
0
 62
7
 10
16.57619922
 20
18.66885352
  0
VERTEX
  8
0
 62
7
 10
16.53825000
 20
18.67887500
  0
VERTEX
  8
0
 62
7
 10
16.49945703
 20
18.68509961
  0
VERTEX
  8
0
 62
7
 10
16.46021875
 20
18.68732813
  0
VERTEX
  8
0
 62
7
 10
16.42093359
 20
18.68536133
  0
VERTEX
  8
0
 62
7
 10
16.38200000
 20
18.67900000
  0
VERTEX
  8
0
 62
7
 10
16.35243945
 20
18.67137305
  0
VERTEX
  8
0
 62
7
 10
16.32382813
 20
18.66129688
  0
VERTEX
  8
0
 62
7
 10
16.29627148
 20
18.64885352
  0
VERTEX
  8
0
 62
7
 10
16.26987500
 20
18.63412500
  0
VERTEX
  8
0
 62
7
 10
16.24474414
 20
18.61719336
  0
VERTEX
  8
0
 62
7
 10
16.22098438
 20
18.59814063
  0
VERTEX
  8
0
 62
7
 10
16.19870117
 20
18.57704883
  0
VERTEX
  8
0
 62
7
 10
16.17800000
 20
18.55400000
  0
VERTEX
  8
0
 62
7
 10
16.22500000
 20
18.45200000
  0
VERTEX
  8
0
 62
7
 10
16.18304688
 20
18.45212500
  0
VERTEX
  8
0
 62
7
 10
16.14137500
 20
18.44925000
  0
VERTEX
  8
0
 62
7
 10
16.10026563
 20
18.44300000
  0
VERTEX
  8
0
 62
7
 10
16.06000000
 20
18.43300000
  0
VERTEX
  8
0
 62
7
 10
16.00014063
 20
18.41178125
  0
VERTEX
  8
0
 62
7
 10
15.93812500
 20
18.38400000
  0
VERTEX
  8
0
 62
7
 10
15.87704688
 20
18.35396875
  0
VERTEX
  8
0
 62
7
 10
15.82000000
 20
18.32600000
  0
VERTEX
  8
0
 62
7
 10
15.73289063
 20
18.28401563
  0
VERTEX
  8
0
 62
7
 10
15.63612500
 20
18.23837500
  0
VERTEX
  8
0
 62
7
 10
15.53354688
 20
18.19254688
  0
VERTEX
  8
0
 62
7
 10
15.42900000
 20
18.15000000
  0
VERTEX
  8
0
 62
7
 10
16.74100000
 20
18.15000000
  0
SEQEND
  0
POLYLINE
  8
0
 62
7
 66
1
 70
1
  0
VERTEX
  8
0
 62
7
 10
18.80800000
 20
11.50700000
  0
VERTEX
  8
0
 62
7
 10
18.74864063
 20
11.52218750
  0
VERTEX
  8
0
 62
7
 10
18.69087500
 20
11.54225000
  0
VERTEX
  8
0
 62
7
 10
18.63517188
 20
11.56718750
  0
VERTEX
  8
0
 62
7
 10
18.58200000
 20
11.59700000
  0
VERTEX
  8
0
 62
7
 10
18.54212500
 20
11.62321875
  0
VERTEX
  8
0
 62
7
 10
18.50375000
 20
11.65225000
  0
VERTEX
  8
0
 62
7
 10
18.46725000
 20
11.68390625
  0
VERTEX
  8
0
 62
7
 10
18.43300000
 20
11.71800000
  0
VERTEX
  8
0
 62
7
 10
18.43450000
 20
11.72887500
  0
VERTEX
  8
0
 62
7
 10
18.43900000
 20
11.73900000
  0
VERTEX
  8
0
 62
7
 10
18.45007813
 20
11.74946875
  0
VERTEX
  8
0
 62
7
 10
18.46387500
 20
11.75375000
  0
VERTEX
  8
0
 62
7
 10
18.47823438
 20
11.75165625
  0
VERTEX
  8
0
 62
7
 10
18.49100000
 20
11.74300000
  0
VERTEX
  8
0
 62
7
 10
18.55162500
 20
11.68462500
  0
VERTEX
  8
0
 62
7
 10
18.61900000
 20
11.63300000
  0
VERTEX
  8
0
 62
7
 10
18.66585938
 20
11.60287500
  0
VERTEX
  8
0
 62
7
 10
18.71487500
 20
11.57575000
  0
VERTEX
  8
0
 62
7
 10
18.76595313
 20
11.55200000
  0
VERTEX
  8
0
 62
7
 10
18.81900000
 20
11.53200000
  0
VERTEX
  8
0
 62
7
 10
18.80800000
 20
11.50700000
  0
SEQEND
  0
POLYLINE
  8
0
 62
7
 66
1
 70
1
  0
VERTEX
  8
0
 62
7
 10
20.72700000
 20
11.31300000
  0
VERTEX
  8
0
 62
7
 10
20.79587500
 20
11.28487500
  0
VERTEX
  8
0
 62
7
 10
20.86400000
 20
11.25300000
  0
VERTEX
  8
0
 62
7
 10
20.92625000
 20
11.22000000
  0
VERTEX
  8
0
 62
7
 10
20.98700000
 20
11.18400000
  0
VERTEX
  8
0
 62
7
 10
21.01175000
 20
11.27937500
  0
VERTEX
  8
0
 62
7
 10
21.04100000
 20
11.37400000
  0
VERTEX
  8
0
 62
7
 10
21.07500000
 20
11.47200000
  0
VERTEX
  8
0
 62
7
 10
21.04562500
 20
11.47595313
  0
VERTEX
  8
0
 62
7
 10
21.01625000
 20
11.48187500
  0
VERTEX
  8
0
 62
7
 10
20.98725000
 20
11.48985938
  0
VERTEX
  8
0
 62
7
 10
20.95900000
 20
11.50000000
  0
VERTEX
  8
0
 62
7
 10
20.92095313
 20
11.51737500
  0
VERTEX
  8
0
 62
7
 10
20.88487500
 20
11.53775000
  0
VERTEX
  8
0
 62
7
 10
20.85085938
 20
11.56075000
  0
VERTEX
  8
0
 62
7
 10
20.81900000
 20
11.58600000
  0
VERTEX
  8
0
 62
7
 10
20.82000000
 20
11.56600000
  0
VERTEX
  8
0
 62
7
 10
20.81822266
 20
11.53706250
  0
VERTEX
  8
0
 62
7
 10
20.81440625
 20
11.50812500
  0
VERTEX
  8
0
 62
7
 10
20.80857422
 20
11.47937500
  0
VERTEX
  8
0
 62
7
 10
20.80075000
 20
11.45100000
  0
VERTEX
  8
0
 62
7
 10
20.79095703
 20
11.42318750
  0
VERTEX
  8
0
 62
7
 10
20.77921875
 20
11.39612500
  0
VERTEX
  8
0
 62
7
 10
20.76555859
 20
11.37000000
  0
VERTEX
  8
0
 62
7
 10
20.75000000
 20
11.34500000
  0
VERTEX
  8
0
 62
7
 10
20.72700000
 20
11.31300000
  0
SEQEND
  0
POLYLINE
  8
0
 62
7
 66
1
 70
1
  0
VERTEX
  8
0
 62
7
 10
19.80900000
 20
11.53500000
  0
VERTEX
  8
0
 62
7
 10
19.82365430
 20
11.50718359
  0
VERTEX
  8
0
 62
7
 10
19.84054688
 20
11.48084375
  0
VERTEX
  8
0
 62
7
 10
19.85957227
 20
11.45614453
  0
VERTEX
  8
0
 62
7
 10
19.88062500
 20
11.43325000
  0
VERTEX
  8
0
 62
7
 10
19.90359961
 20
11.41232422
  0
VERTEX
  8
0
 62
7
 10
19.92839063
 20
11.39353125
  0
VERTEX
  8
0
 62
7
 10
19.95489258
 20
11.37703516
  0
VERTEX
  8
0
 62
7
 10
19.98300000
 20
11.36300000
  0
VERTEX
  8
0
 62
7
 10
20.03142188
 20
11.34496875
  0
VERTEX
  8
0
 62
7
 10
20.08162500
 20
11.33425000
  0
VERTEX
  8
0
 62
7
 10
20.13276563
 20
11.33065625
  0
VERTEX
  8
0
 62
7
 10
20.18400000
 20
11.33400000
  0
VERTEX
  8
0
 62
7
 10
20.22107813
 20
11.33984375
  0
VERTEX
  8
0
 62
7
 10
20.25337500
 20
11.34700000
  0
VERTEX
  8
0
 62
7
 10
20.28398438
 20
11.35790625
  0
VERTEX
  8
0
 62
7
 10
20.31600000
 20
11.37500000
  0
VERTEX
  8
0
 62
7
 10
20.38000000
 20
11.23600000
  0
VERTEX
  8
0
 62
7
 10
20.43591602
 20
11.23271094
  0
VERTEX
  8
0
 62
7
 10
20.48682813
 20
11.23668750
  0
VERTEX
  8
0
 62
7
 10
20.53298242
 20
11.24732031
  0
VERTEX
  8
0
 62
7
 10
20.57462500
 20
11.26400000
  0
VERTEX
  8
0
 62
7
 10
20.61200195
 20
11.28611719
  0
VERTEX
  8
0
 62
7
 10
20.64535938
 20
11.31306250
  0
VERTEX
  8
0
 62
7
 10
20.67494336
 20
11.34422656
  0
VERTEX
  8
0
 62
7
 10
20.70100000
 20
11.37900000
  0
VERTEX
  8
0
 62
7
 10
20.71710547
 20
11.40546484
  0
VERTEX
  8
0
 62
7
 10
20.73084375
 20
11.43359375
  0
VERTEX
  8
0
 62
7
 10
20.74209766
 20
11.46298828
  0
VERTEX
  8
0
 62
7
 10
20.75075000
 20
11.49325000
  0
VERTEX
  8
0
 62
7
 10
20.75668359
 20
11.52398047
  0
VERTEX
  8
0
 62
7
 10
20.75978125
 20
11.55478125
  0
VERTEX
  8
0
 62
7
 10
20.75992578
 20
11.58525391
  0
VERTEX
  8
0
 62
7
 10
20.75700000
 20
11.61500000
  0
VERTEX
  8
0
 62
7
 10
20.74767188
 20
11.65957813
  0
VERTEX
  8
0
 62
7
 10
20.73487500
 20
11.70012500
  0
VERTEX
  8
0
 62
7
 10
20.71889063
 20
11.73860938
  0
VERTEX
  8
0
 62
7
 10
20.70000000
 20
11.77700000
  0
VERTEX
  8
0
 62
7
 10
20.67814063
 20
11.81306250
  0
VERTEX
  8
0
 62
7
 10
20.65412500
 20
11.84500000
  0
VERTEX
  8
0
 62
7
 10
20.62954688
 20
11.87543750
  0
VERTEX
  8
0
 62
7
 10
20.60600000
 20
11.90700000
  0
VERTEX
  8
0
 62
7
 10
20.59792969
 20
11.92074023
  0
VERTEX
  8
0
 62
7
 10
20.59243750
 20
11.93404688
  0
VERTEX
  8
0
 62
7
 10
20.58947656
 20
11.94667383
  0
VERTEX
  8
0
 62
7
 10
20.58900000
 20
11.95837500
  0
VERTEX
  8
0
 62
7
 10
20.59096094
 20
11.96890430
  0
VERTEX
  8
0
 62
7
 10
20.59531250
 20
11.97801563
  0
VERTEX
  8
0
 62
7
 10
20.60200781
 20
11.98546289
  0
VERTEX
  8
0
 62
7
 10
20.61100000
 20
11.99100000
  0
VERTEX
  8
0
 62
7
 10
20.61948242
 20
11.99353320
  0
VERTEX
  8
0
 62
7
 10
20.62823438
 20
11.99382813
  0
VERTEX
  8
0
 62
7
 10
20.63696289
 20
11.99217773
  0
VERTEX
  8
0
 62
7
 10
20.64537500
 20
11.98887500
  0
VERTEX
  8
0
 62
7
 10
20.65317773
 20
11.98421289
  0
VERTEX
  8
0
 62
7
 10
20.66007813
 20
11.97848438
  0
VERTEX
  8
0
 62
7
 10
20.66578320
 20
11.97198242
  0
VERTEX
  8
0
 62
7
 10
20.67000000
 20
11.96500000
  0
VERTEX
  8
0
 62
7
 10
20.68200000
 20
11.92862500
  0
VERTEX
  8
0
 62
7
 10
20.69100000
 20
11.89000000
  0
VERTEX
  8
0
 62
7
 10
20.71040625
 20
11.83304688
  0
VERTEX
  8
0
 62
7
 10
20.73675000
 20
11.77937500
  0
VERTEX
  8
0
 62
7
 10
20.76946875
 20
11.72926563
  0
VERTEX
  8
0
 62
7
 10
20.80800000
 20
11.68300000
  0
VERTEX
  8
0
 62
7
 10
20.84614063
 20
11.64460938
  0
VERTEX
  8
0
 62
7
 10
20.88737500
 20
11.60987500
  0
VERTEX
  8
0
 62
7
 10
20.93217188
 20
11.58020313
  0
VERTEX
  8
0
 62
7
 10
20.98100000
 20
11.55700000
  0
VERTEX
  8
0
 62
7
 10
21.00905859
 20
11.54698633
  0
VERTEX
  8
0
 62
7
 10
21.03765625
 20
11.53932813
  0
VERTEX
  8
0
 62
7
 10
21.06667578
 20
11.53384961
  0
VERTEX
  8
0
 62
7
 10
21.09600000
 20
11.53037500
  0
VERTEX
  8
0
 62
7
 10
21.12551172
 20
11.52872852
  0
VERTEX
  8
0
 62
7
 10
21.15509375
 20
11.52873438
  0
VERTEX
  8
0
 62
7
 10
21.18462891
 20
11.53021680
  0
VERTEX
  8
0
 62
7
 10
21.21400000
 20
11.53300000
  0
VERTEX
  8
0
 62
7
 10
21.25800000
 20
11.53996875
  0
VERTEX
  8
0
 62
7
 10
21.30125000
 20
11.55050000
  0
VERTEX
  8
0
 62
7
 10
21.34337500
 20
11.56478125
  0
VERTEX
  8
0
 62
7
 10
21.38400000
 20
11.58300000
  0
VERTEX
  8
0
 62
7
 10
21.34500000
 20
11.67600000
  0
VERTEX
  8
0
 62
7
 10
21.37645313
 20
11.67863867
  0
VERTEX
  8
0
 62
7
 10
21.40762500
 20
11.68360938
  0
VERTEX
  8
0
 62
7
 10
21.43823438
 20
11.69099414
  0
VERTEX
  8
0
 62
7
 10
21.46800000
 20
11.70087500
  0
VERTEX
  8
0
 62
7
 10
21.49664063
 20
11.71333398
  0
VERTEX
  8
0
 62
7
 10
21.52387500
 20
11.72845313
  0
VERTEX
  8
0
 62
7
 10
21.54942188
 20
11.74631445
  0
VERTEX
  8
0
 62
7
 10
21.57300000
 20
11.76700000
  0
VERTEX
  8
0
 62
7
 10
21.59050000
 20
11.78574219
  0
VERTEX
  8
0
 62
7
 10
21.60556250
 20
11.80650000
  0
VERTEX
  8
0
 62
7
 10
21.61828125
 20
11.82894531
  0
VERTEX
  8
0
 62
7
 10
21.62875000
 20
11.85275000
  0
VERTEX
  8
0
 62
7
 10
21.63706250
 20
11.87758594
  0
VERTEX
  8
0
 62
7
 10
21.64331250
 20
11.90312500
  0
VERTEX
  8
0
 62
7
 10
21.64759375
 20
11.92903906
  0
VERTEX
  8
0
 62
7
 10
21.65000000
 20
11.95500000
  0
VERTEX
  8
0
 62
7
 10
21.65090625
 20
11.99362500
  0
VERTEX
  8
0
 62
7
 10
21.64750000
 20
12.02925000
  0
VERTEX
  8
0
 62
7
 10
21.63734375
 20
12.06300000
  0
VERTEX
  8
0
 62
7
 10
21.61800000
 20
12.09600000
  0
VERTEX
  8
0
 62
7
 10
21.59273438
 20
12.07485938
  0
VERTEX
  8
0
 62
7
 10
21.56512500
 20
12.05662500
  0
VERTEX
  8
0
 62
7
 10
21.53545313
 20
12.04157813
  0
VERTEX
  8
0
 62
7
 10
21.50400000
 20
12.03000000
  0
VERTEX
  8
0
 62
7
 10
21.47365625
 20
12.02354688
  0
VERTEX
  8
0
 62
7
 10
21.44275000
 20
12.02112500
  0
VERTEX
  8
0
 62
7
 10
21.41146875
 20
12.02114063
  0
VERTEX
  8
0
 62
7
 10
21.38000000
 20
12.02200000
  0
VERTEX
  8
0
 62
7
 10
21.33550000
 20
12.02667188
  0
VERTEX
  8
0
 62
7
 10
21.29175000
 20
12.03612500
  0
VERTEX
  8
0
 62
7
 10
21.24837500
 20
12.04801563
  0
VERTEX
  8
0
 62
7
 10
21.20500000
 20
12.06000000
  0
VERTEX
  8
0
 62
7
 10
21.13739063
 20
12.07854688
  0
VERTEX
  8
0
 62
7
 10
21.07062500
 20
12.09962500
  0
VERTEX
  8
0
 62
7
 10
21.00404688
 20
12.12089063
  0
VERTEX
  8
0
 62
7
 10
20.93700000
 20
12.14000000
  0
VERTEX
  8
0
 62
7
 10
20.87564063
 20
12.15739063
  0
VERTEX
  8
0
 62
7
 10
20.81437500
 20
12.17412500
  0
VERTEX
  8
0
 62
7
 10
20.75292188
 20
12.18879688
  0
VERTEX
  8
0
 62
7
 10
20.69100000
 20
12.20000000
  0
VERTEX
  8
0
 62
7
 10
20.66062500
 20
12.20466211
  0
VERTEX
  8
0
 62
7
 10
20.63025000
 20
12.20935938
  0
VERTEX
  8
0
 62
7
 10
20.59987500
 20
12.21365820
  0
VERTEX
  8
0
 62
7
 10
20.56950000
 20
12.21712500
  0
VERTEX
  8
0
 62
7
 10
20.53912500
 20
12.21932617
  0
VERTEX
  8
0
 62
7
 10
20.50875000
 20
12.21982813
  0
VERTEX
  8
0
 62
7
 10
20.47837500
 20
12.21819727
  0
VERTEX
  8
0
 62
7
 10
20.44800000
 20
12.21400000
  0
VERTEX
  8
0
 62
7
 10
20.39957813
 20
12.20185938
  0
VERTEX
  8
0
 62
7
 10
20.35237500
 20
12.18512500
  0
VERTEX
  8
0
 62
7
 10
20.30723438
 20
12.16407813
  0
VERTEX
  8
0
 62
7
 10
20.26500000
 20
12.13900000
  0
VERTEX
  8
0
 62
7
 10
20.22751563
 20
12.10942188
  0
VERTEX
  8
0
 62
7
 10
20.19312500
 20
12.07637500
  0
VERTEX
  8
0
 62
7
 10
20.16192188
 20
12.04014063
  0
VERTEX
  8
0
 62
7
 10
20.13400000
 20
12.00100000
  0
VERTEX
  8
0
 62
7
 10
20.11451563
 20
11.96403711
  0
VERTEX
  8
0
 62
7
 10
20.09887500
 20
11.92542188
  0
VERTEX
  8
0
 62
7
 10
20.08604688
 20
11.88556445
  0
VERTEX
  8
0
 62
7
 10
20.07500000
 20
11.84487500
  0
VERTEX
  8
0
 62
7
 10
20.06470313
 20
11.80376367
  0
VERTEX
  8
0
 62
7
 10
20.05412500
 20
11.76264063
  0
VERTEX
  8
0
 62
7
 10
20.04223438
 20
11.72191602
  0
VERTEX
  8
0
 62
7
 10
20.02800000
 20
11.68200000
  0
VERTEX
  8
0
 62
7
 10
20.01773438
 20
11.65507813
  0
VERTEX
  8
0
 62
7
 10
20.00662500
 20
11.62787500
  0
VERTEX
  8
0
 62
7
 10
19.99270313
 20
11.60198438
  0
VERTEX
  8
0
 62
7
 10
19.97400000
 20
11.57900000
  0
VERTEX
  8
0
 62
7
 10
19.95506250
 20
11.56190625
  0
VERTEX
  8
0
 62
7
 10
19.93425000
 20
11.54725000
  0
VERTEX
  8
0
 62
7
 10
19.91156250
 20
11.53596875
  0
VERTEX
  8
0
 62
7
 10
19.88700000
 20
11.52900000
  0
VERTEX
  8
0
 62
7
 10
19.86735938
 20
11.52712500
  0
VERTEX
  8
0
 62
7
 10
19.84762500
 20
11.52750000
  0
VERTEX
  8
0
 62
7
 10
19.82807813
 20
11.53012500
  0
VERTEX
  8
0
 62
7
 10
19.80900000
 20
11.53500000
  0
SEQEND
  0
POLYLINE
  8
0
 62
7
 66
1
 70
1
  0
VERTEX
  8
0
 62
7
 10
17.00000000
 20
12.97200000
  0
VERTEX
  8
0
 62
7
 10
17.03577393
 20
12.97681641
  0
VERTEX
  8
0
 62
7
 10
17.06878516
 20
12.98610938
  0
VERTEX
  8
0
 62
7
 10
17.09894287
 20
12.99945703
  0
VERTEX
  8
0
 62
7
 10
17.12615625
 20
13.01643750
  0
VERTEX
  8
0
 62
7
 10
17.15033447
 20
13.03662891
  0
VERTEX
  8
0
 62
7
 10
17.17138672
 20
13.05960938
  0
VERTEX
  8
0
 62
7
 10
17.18922217
 20
13.08495703
  0
VERTEX
  8
0
 62
7
 10
17.20375000
 20
13.11225000
  0
VERTEX
  8
0
 62
7
 10
17.21487939
 20
13.14106641
  0
VERTEX
  8
0
 62
7
 10
17.22251953
 20
13.17098438
  0
VERTEX
  8
0
 62
7
 10
17.22657959
 20
13.20158203
  0
VERTEX
  8
0
 62
7
 10
17.22696875
 20
13.23243750
  0
VERTEX
  8
0
 62
7
 10
17.22359619
 20
13.26312891
  0
VERTEX
  8
0
 62
7
 10
17.21637109
 20
13.29323438
  0
VERTEX
  8
0
 62
7
 10
17.20520264
 20
13.32233203
  0
VERTEX
  8
0
 62
7
 10
17.19000000
 20
13.35000000
  0
VERTEX
  8
0
 62
7
 10
17.00000000
 20
13.35000000
  0
VERTEX
  8
0
 62
7
 10
16.81000000
 20
13.35000000
  0
VERTEX
  8
0
 62
7
 10
16.79479736
 20
13.32233203
  0
VERTEX
  8
0
 62
7
 10
16.78362891
 20
13.29323438
  0
VERTEX
  8
0
 62
7
 10
16.77640381
 20
13.26312891
  0
VERTEX
  8
0
 62
7
 10
16.77303125
 20
13.23243750
  0
VERTEX
  8
0
 62
7
 10
16.77342041
 20
13.20158203
  0
VERTEX
  8
0
 62
7
 10
16.77748047
 20
13.17098438
  0
VERTEX
  8
0
 62
7
 10
16.78512061
 20
13.14106641
  0
VERTEX
  8
0
 62
7
 10
16.79625000
 20
13.11225000
  0
VERTEX
  8
0
 62
7
 10
16.81077783
 20
13.08495703
  0
VERTEX
  8
0
 62
7
 10
16.82861328
 20
13.05960938
  0
VERTEX
  8
0
 62
7
 10
16.84966553
 20
13.03662891
  0
VERTEX
  8
0
 62
7
 10
16.87384375
 20
13.01643750
  0
VERTEX
  8
0
 62
7
 10
16.90105713
 20
12.99945703
  0
VERTEX
  8
0
 62
7
 10
16.93121484
 20
12.98610938
  0
VERTEX
  8
0
 62
7
 10
16.96422607
 20
12.97681641
  0
VERTEX
  8
0
 62
7
 10
17.00000000
 20
12.97200000
  0
SEQEND
  0
POLYLINE
  8
0
 62
7
 66
1
 70
1
  0
VERTEX
  8
0
 62
7
 10
17.25900000
 20
13.35000000
  0
VERTEX
  8
0
 62
7
 10
17.27195313
 20
13.31781250
  0
VERTEX
  8
0
 62
7
 10
17.28087500
 20
13.28450000
  0
VERTEX
  8
0
 62
7
 10
17.28585938
 20
13.25043750
  0
VERTEX
  8
0
 62
7
 10
17.28700000
 20
13.21600000
  0
VERTEX
  8
0
 62
7
 10
17.28518164
 20
13.18599805
  0
VERTEX
  8
0
 62
7
 10
17.28051563
 20
13.15617188
  0
VERTEX
  8
0
 62
7
 10
17.27306055
 20
13.12679102
  0
VERTEX
  8
0
 62
7
 10
17.26287500
 20
13.09812500
  0
VERTEX
  8
0
 62
7
 10
17.25001758
 20
13.07044336
  0
VERTEX
  8
0
 62
7
 10
17.23454688
 20
13.04401563
  0
VERTEX
  8
0
 62
7
 10
17.21652148
 20
13.01911133
  0
VERTEX
  8
0
 62
7
 10
17.19600000
 20
12.99600000
  0
VERTEX
  8
0
 62
7
 10
17.22351563
 20
12.96454688
  0
VERTEX
  8
0
 62
7
 10
17.25337500
 20
12.93487500
  0
VERTEX
  8
0
 62
7
 10
17.28529688
 20
12.90726563
  0
VERTEX
  8
0
 62
7
 10
17.31900000
 20
12.88200000
  0
VERTEX
  8
0
 62
7
 10
17.35202734
 20
12.86178320
  0
VERTEX
  8
0
 62
7
 10
17.38709375
 20
12.84476563
  0
VERTEX
  8
0
 62
7
 10
17.42380078
 20
12.83114648
  0
VERTEX
  8
0
 62
7
 10
17.46175000
 20
12.82112500
  0
VERTEX
  8
0
 62
7
 10
17.50054297
 20
12.81490039
  0
VERTEX
  8
0
 62
7
 10
17.53978125
 20
12.81267188
  0
VERTEX
  8
0
 62
7
 10
17.57906641
 20
12.81463867
  0
VERTEX
  8
0
 62
7
 10
17.61800000
 20
12.82100000
  0
VERTEX
  8
0
 62
7
 10
17.64756055
 20
12.82862695
  0
VERTEX
  8
0
 62
7
 10
17.67617188
 20
12.83870313
  0
VERTEX
  8
0
 62
7
 10
17.70372852
 20
12.85114648
  0
VERTEX
  8
0
 62
7
 10
17.73012500
 20
12.86587500
  0
VERTEX
  8
0
 62
7
 10
17.75525586
 20
12.88280664
  0
VERTEX
  8
0
 62
7
 10
17.77901563
 20
12.90185938
  0
VERTEX
  8
0
 62
7
 10
17.80129883
 20
12.92295117
  0
VERTEX
  8
0
 62
7
 10
17.82200000
 20
12.94600000
  0
VERTEX
  8
0
 62
7
 10
17.77500000
 20
13.04800000
  0
VERTEX
  8
0
 62
7
 10
17.81695313
 20
13.04787500
  0
VERTEX
  8
0
 62
7
 10
17.85862500
 20
13.05075000
  0
VERTEX
  8
0
 62
7
 10
17.89973438
 20
13.05700000
  0
VERTEX
  8
0
 62
7
 10
17.94000000
 20
13.06700000
  0
VERTEX
  8
0
 62
7
 10
17.99985938
 20
13.08821875
  0
VERTEX
  8
0
 62
7
 10
18.06187500
 20
13.11600000
  0
VERTEX
  8
0
 62
7
 10
18.12295313
 20
13.14603125
  0
VERTEX
  8
0
 62
7
 10
18.18000000
 20
13.17400000
  0
VERTEX
  8
0
 62
7
 10
18.26710938
 20
13.21598438
  0
VERTEX
  8
0
 62
7
 10
18.36387500
 20
13.26162500
  0
VERTEX
  8
0
 62
7
 10
18.46645313
 20
13.30745313
  0
VERTEX
  8
0
 62
7
 10
18.57100000
 20
13.35000000
  0
VERTEX
  8
0
 62
7
 10
17.25900000
 20
13.35000000
  0
SEQEND
  0
POLYLINE
  8
0
 62
7
 66
1
 70
1
  0
VERTEX
  8
0
 62
7
 10
17.00000000
 20
11.38600000
  0
VERTEX
  8
0
 62
7
 10
17.00726563
 20
11.45123438
  0
VERTEX
  8
0
 62
7
 10
17.01762500
 20
11.51693750
  0
VERTEX
  8
0
 62
7
 10
17.03079688
 20
11.58273438
  0
VERTEX
  8
0
 62
7
 10
17.04650000
 20
11.64825000
  0
VERTEX
  8
0
 62
7
 10
17.06445313
 20
11.71310938
  0
VERTEX
  8
0
 62
7
 10
17.08437500
 20
11.77693750
  0
VERTEX
  8
0
 62
7
 10
17.10598438
 20
11.83935938
  0
VERTEX
  8
0
 62
7
 10
17.12900000
 20
11.90000000
  0
VERTEX
  8
0
 62
7
 10
17.15353125
 20
11.95885938
  0
VERTEX
  8
0
 62
7
 10
17.18350000
 20
12.02737500
  0
VERTEX
  8
0
 62
7
 10
17.21421875
 20
12.10095313
  0
VERTEX
  8
0
 62
7
 10
17.24100000
 20
12.17500000
  0
VERTEX
  8
0
 62
7
 10
17.26000000
 20
12.23643750
  0
VERTEX
  8
0
 62
7
 10
17.27900000
 20
12.30350000
  0
VERTEX
  8
0
 62
7
 10
17.29500000
 20
12.37131250
  0
VERTEX
  8
0
 62
7
 10
17.30500000
 20
12.43500000
  0
VERTEX
  8
0
 62
7
 10
17.40600000
 20
12.39500000
  0
VERTEX
  8
0
 62
7
 10
17.42392773
 20
12.44986133
  0
VERTEX
  8
0
 62
7
 10
17.43317188
 20
12.50389063
  0
VERTEX
  8
0
 62
7
 10
17.43442383
 20
12.55663086
  0
VERTEX
  8
0
 62
7
 10
17.42837500
 20
12.60762500
  0
VERTEX
  8
0
 62
7
 10
17.41571680
 20
12.65641602
  0
VERTEX
  8
0
 62
7
 10
17.39714063
 20
12.70254688
  0
VERTEX
  8
0
 62
7
 10
17.37333789
 20
12.74556055
  0
VERTEX
  8
0
 62
7
 10
17.34500000
 20
12.78500000
  0
VERTEX
  8
0
 62
7
 10
17.29459375
 20
12.84300000
  0
VERTEX
  8
0
 62
7
 10
17.24625000
 20
12.89050000
  0
VERTEX
  8
0
 62
7
 10
17.19903125
 20
12.92900000
  0
VERTEX
  8
0
 62
7
 10
17.15200000
 20
12.96000000
  0
VERTEX
  8
0
 62
7
 10
17.11939063
 20
12.94068750
  0
VERTEX
  8
0
 62
7
 10
17.08312500
 20
12.92625000
  0
VERTEX
  8
0
 62
7
 10
17.04329688
 20
12.91668750
  0
VERTEX
  8
0
 62
7
 10
17.00000000
 20
12.91200000
  0
VERTEX
  8
0
 62
7
 10
16.95670313
 20
12.91668750
  0
VERTEX
  8
0
 62
7
 10
16.91687500
 20
12.92625000
  0
VERTEX
  8
0
 62
7
 10
16.88060938
 20
12.94068750
  0
VERTEX
  8
0
 62
7
 10
16.84800000
 20
12.96000000
  0
VERTEX
  8
0
 62
7
 10
16.80096875
 20
12.92900000
  0
VERTEX
  8
0
 62
7
 10
16.75375000
 20
12.89050000
  0
VERTEX
  8
0
 62
7
 10
16.70540625
 20
12.84300000
  0
VERTEX
  8
0
 62
7
 10
16.65500000
 20
12.78500000
  0
VERTEX
  8
0
 62
7
 10
16.62666211
 20
12.74556055
  0
VERTEX
  8
0
 62
7
 10
16.60285938
 20
12.70254688
  0
VERTEX
  8
0
 62
7
 10
16.58428320
 20
12.65641602
  0
VERTEX
  8
0
 62
7
 10
16.57162500
 20
12.60762500
  0
VERTEX
  8
0
 62
7
 10
16.56557617
 20
12.55663086
  0
VERTEX
  8
0
 62
7
 10
16.56682813
 20
12.50389063
  0
VERTEX
  8
0
 62
7
 10
16.57607227
 20
12.44986133
  0
VERTEX
  8
0
 62
7
 10
16.59400000
 20
12.39500000
  0
VERTEX
  8
0
 62
7
 10
16.69500000
 20
12.43500000
  0
VERTEX
  8
0
 62
7
 10
16.70500000
 20
12.37131250
  0
VERTEX
  8
0
 62
7
 10
16.72100000
 20
12.30350000
  0
VERTEX
  8
0
 62
7
 10
16.74000000
 20
12.23643750
  0
VERTEX
  8
0
 62
7
 10
16.75900000
 20
12.17500000
  0
VERTEX
  8
0
 62
7
 10
16.78578125
 20
12.10095313
  0
VERTEX
  8
0
 62
7
 10
16.81650000
 20
12.02737500
  0
VERTEX
  8
0
 62
7
 10
16.84646875
 20
11.95885938
  0
VERTEX
  8
0
 62
7
 10
16.87100000
 20
11.90000000
  0
VERTEX
  8
0
 62
7
 10
16.89401563
 20
11.83935938
  0
VERTEX
  8
0
 62
7
 10
16.91562500
 20
11.77693750
  0
VERTEX
  8
0
 62
7
 10
16.93554688
 20
11.71310938
  0
VERTEX
  8
0
 62
7
 10
16.95350000
 20
11.64825000
  0
VERTEX
  8
0
 62
7
 10
16.96920313
 20
11.58273438
  0
VERTEX
  8
0
 62
7
 10
16.98237500
 20
11.51693750
  0
VERTEX
  8
0
 62
7
 10
16.99273438
 20
11.45123438
  0
VERTEX
  8
0
 62
7
 10
17.00000000
 20
11.38600000
  0
SEQEND
  0
POLYLINE
  8
0
 62
7
 66
1
 70
1
  0
VERTEX
  8
0
 62
7
 10
15.19200000
 20
11.50700000
  0
VERTEX
  8
0
 62
7
 10
15.18100000
 20
11.53200000
  0
VERTEX
  8
0
 62
7
 10
15.23404688
 20
11.55200000
  0
VERTEX
  8
0
 62
7
 10
15.28512500
 20
11.57575000
  0
VERTEX
  8
0
 62
7
 10
15.33414063
 20
11.60287500
  0
VERTEX
  8
0
 62
7
 10
15.38100000
 20
11.63300000
  0
VERTEX
  8
0
 62
7
 10
15.44837500
 20
11.68462500
  0
VERTEX
  8
0
 62
7
 10
15.50900000
 20
11.74300000
  0
VERTEX
  8
0
 62
7
 10
15.52176563
 20
11.75165625
  0
VERTEX
  8
0
 62
7
 10
15.53612500
 20
11.75375000
  0
VERTEX
  8
0
 62
7
 10
15.54992188
 20
11.74946875
  0
VERTEX
  8
0
 62
7
 10
15.56100000
 20
11.73900000
  0
VERTEX
  8
0
 62
7
 10
15.56550000
 20
11.72887500
  0
VERTEX
  8
0
 62
7
 10
15.56700000
 20
11.71800000
  0
VERTEX
  8
0
 62
7
 10
15.53275000
 20
11.68390625
  0
VERTEX
  8
0
 62
7
 10
15.49625000
 20
11.65225000
  0
VERTEX
  8
0
 62
7
 10
15.45787500
 20
11.62321875
  0
VERTEX
  8
0
 62
7
 10
15.41800000
 20
11.59700000
  0
VERTEX
  8
0
 62
7
 10
15.36482813
 20
11.56718750
  0
VERTEX
  8
0
 62
7
 10
15.30912500
 20
11.54225000
  0
VERTEX
  8
0
 62
7
 10
15.25135938
 20
11.52218750
  0
VERTEX
  8
0
 62
7
 10
15.19200000
 20
11.50700000
  0
SEQEND
  0
POLYLINE
  8
0
 62
7
 66
1
 70
1
  0
VERTEX
  8
0
 62
7
 10
13.27300000
 20
11.31300000
  0
VERTEX
  8
0
 62
7
 10
13.25000000
 20
11.34500000
  0
VERTEX
  8
0
 62
7
 10
13.23444141
 20
11.37000000
  0
VERTEX
  8
0
 62
7
 10
13.22078125
 20
11.39612500
  0
VERTEX
  8
0
 62
7
 10
13.20904297
 20
11.42318750
  0
VERTEX
  8
0
 62
7
 10
13.19925000
 20
11.45100000
  0
VERTEX
  8
0
 62
7
 10
13.19142578
 20
11.47937500
  0
VERTEX
  8
0
 62
7
 10
13.18559375
 20
11.50812500
  0
VERTEX
  8
0
 62
7
 10
13.18177734
 20
11.53706250
  0
VERTEX
  8
0
 62
7
 10
13.18000000
 20
11.56600000
  0
VERTEX
  8
0
 62
7
 10
13.18100000
 20
11.58600000
  0
VERTEX
  8
0
 62
7
 10
13.14914063
 20
11.56075000
  0
VERTEX
  8
0
 62
7
 10
13.11512500
 20
11.53775000
  0
VERTEX
  8
0
 62
7
 10
13.07904688
 20
11.51737500
  0
VERTEX
  8
0
 62
7
 10
13.04100000
 20
11.50000000
  0
VERTEX
  8
0
 62
7
 10
13.01275000
 20
11.48985938
  0
VERTEX
  8
0
 62
7
 10
12.98375000
 20
11.48187500
  0
VERTEX
  8
0
 62
7
 10
12.95437500
 20
11.47595313
  0
VERTEX
  8
0
 62
7
 10
12.92500000
 20
11.47200000
  0
VERTEX
  8
0
 62
7
 10
12.95900000
 20
11.37400000
  0
VERTEX
  8
0
 62
7
 10
12.98825000
 20
11.27937500
  0
VERTEX
  8
0
 62
7
 10
13.01300000
 20
11.18400000
  0
VERTEX
  8
0
 62
7
 10
13.07375000
 20
11.22000000
  0
VERTEX
  8
0
 62
7
 10
13.13600000
 20
11.25300000
  0
VERTEX
  8
0
 62
7
 10
13.20412500
 20
11.28487500
  0
VERTEX
  8
0
 62
7
 10
13.27300000
 20
11.31300000
  0
SEQEND
  0
POLYLINE
  8
0
 62
7
 66
1
 70
1
  0
VERTEX
  8
0
 62
7
 10
14.19100000
 20
11.53500000
  0
VERTEX
  8
0
 62
7
 10
14.17192188
 20
11.53012500
  0
VERTEX
  8
0
 62
7
 10
14.15237500
 20
11.52750000
  0
VERTEX
  8
0
 62
7
 10
14.13264063
 20
11.52712500
  0
VERTEX
  8
0
 62
7
 10
14.11300000
 20
11.52900000
  0
VERTEX
  8
0
 62
7
 10
14.08843750
 20
11.53596875
  0
VERTEX
  8
0
 62
7
 10
14.06575000
 20
11.54725000
  0
VERTEX
  8
0
 62
7
 10
14.04493750
 20
11.56190625
  0
VERTEX
  8
0
 62
7
 10
14.02600000
 20
11.57900000
  0
VERTEX
  8
0
 62
7
 10
14.00729688
 20
11.60198438
  0
VERTEX
  8
0
 62
7
 10
13.99337500
 20
11.62787500
  0
VERTEX
  8
0
 62
7
 10
13.98226563
 20
11.65507813
  0
VERTEX
  8
0
 62
7
 10
13.97200000
 20
11.68200000
  0
VERTEX
  8
0
 62
7
 10
13.95776563
 20
11.72191602
  0
VERTEX
  8
0
 62
7
 10
13.94587500
 20
11.76264063
  0
VERTEX
  8
0
 62
7
 10
13.93529688
 20
11.80376367
  0
VERTEX
  8
0
 62
7
 10
13.92500000
 20
11.84487500
  0
VERTEX
  8
0
 62
7
 10
13.91395313
 20
11.88556445
  0
VERTEX
  8
0
 62
7
 10
13.90112500
 20
11.92542188
  0
VERTEX
  8
0
 62
7
 10
13.88548438
 20
11.96403711
  0
VERTEX
  8
0
 62
7
 10
13.86600000
 20
12.00100000
  0
VERTEX
  8
0
 62
7
 10
13.83807813
 20
12.04014063
  0
VERTEX
  8
0
 62
7
 10
13.80687500
 20
12.07637500
  0
VERTEX
  8
0
 62
7
 10
13.77248438
 20
12.10942188
  0
VERTEX
  8
0
 62
7
 10
13.73500000
 20
12.13900000
  0
VERTEX
  8
0
 62
7
 10
13.69276563
 20
12.16407813
  0
VERTEX
  8
0
 62
7
 10
13.64762500
 20
12.18512500
  0
VERTEX
  8
0
 62
7
 10
13.60042188
 20
12.20185938
  0
VERTEX
  8
0
 62
7
 10
13.55200000
 20
12.21400000
  0
VERTEX
  8
0
 62
7
 10
13.52162500
 20
12.21819727
  0
VERTEX
  8
0
 62
7
 10
13.49125000
 20
12.21982813
  0
VERTEX
  8
0
 62
7
 10
13.46087500
 20
12.21932617
  0
VERTEX
  8
0
 62
7
 10
13.43050000
 20
12.21712500
  0
VERTEX
  8
0
 62
7
 10
13.40012500
 20
12.21365820
  0
VERTEX
  8
0
 62
7
 10
13.36975000
 20
12.20935938
  0
VERTEX
  8
0
 62
7
 10
13.33937500
 20
12.20466211
  0
VERTEX
  8
0
 62
7
 10
13.30900000
 20
12.20000000
  0
VERTEX
  8
0
 62
7
 10
13.24707813
 20
12.18879688
  0
VERTEX
  8
0
 62
7
 10
13.18562500
 20
12.17412500
  0
VERTEX
  8
0
 62
7
 10
13.12435938
 20
12.15739063
  0
VERTEX
  8
0
 62
7
 10
13.06300000
 20
12.14000000
  0
VERTEX
  8
0
 62
7
 10
12.99595313
 20
12.12089063
  0
VERTEX
  8
0
 62
7
 10
12.92937500
 20
12.09962500
  0
VERTEX
  8
0
 62
7
 10
12.86260938
 20
12.07854688
  0
VERTEX
  8
0
 62
7
 10
12.79500000
 20
12.06000000
  0
VERTEX
  8
0
 62
7
 10
12.75162500
 20
12.04801563
  0
VERTEX
  8
0
 62
7
 10
12.70825000
 20
12.03612500
  0
VERTEX
  8
0
 62
7
 10
12.66450000
 20
12.02667188
  0
VERTEX
  8
0
 62
7
 10
12.62000000
 20
12.02200000
  0
VERTEX
  8
0
 62
7
 10
12.58853125
 20
12.02114063
  0
VERTEX
  8
0
 62
7
 10
12.55725000
 20
12.02112500
  0
VERTEX
  8
0
 62
7
 10
12.52634375
 20
12.02354688
  0
VERTEX
  8
0
 62
7
 10
12.49600000
 20
12.03000000
  0
VERTEX
  8
0
 62
7
 10
12.46454688
 20
12.04157813
  0
VERTEX
  8
0
 62
7
 10
12.43487500
 20
12.05662500
  0
VERTEX
  8
0
 62
7
 10
12.40726563
 20
12.07485938
  0
VERTEX
  8
0
 62
7
 10
12.38200000
 20
12.09600000
  0
VERTEX
  8
0
 62
7
 10
12.36265625
 20
12.06300000
  0
VERTEX
  8
0
 62
7
 10
12.35250000
 20
12.02925000
  0
VERTEX
  8
0
 62
7
 10
12.34909375
 20
11.99362500
  0
VERTEX
  8
0
 62
7
 10
12.35000000
 20
11.95500000
  0
VERTEX
  8
0
 62
7
 10
12.35240625
 20
11.92903906
  0
VERTEX
  8
0
 62
7
 10
12.35668750
 20
11.90312500
  0
VERTEX
  8
0
 62
7
 10
12.36293750
 20
11.87758594
  0
VERTEX
  8
0
 62
7
 10
12.37125000
 20
11.85275000
  0
VERTEX
  8
0
 62
7
 10
12.38171875
 20
11.82894531
  0
VERTEX
  8
0
 62
7
 10
12.39443750
 20
11.80650000
  0
VERTEX
  8
0
 62
7
 10
12.40950000
 20
11.78574219
  0
VERTEX
  8
0
 62
7
 10
12.42700000
 20
11.76700000
  0
VERTEX
  8
0
 62
7
 10
12.45057813
 20
11.74631445
  0
VERTEX
  8
0
 62
7
 10
12.47612500
 20
11.72845313
  0
VERTEX
  8
0
 62
7
 10
12.50335938
 20
11.71333398
  0
VERTEX
  8
0
 62
7
 10
12.53200000
 20
11.70087500
  0
VERTEX
  8
0
 62
7
 10
12.56176563
 20
11.69099414
  0
VERTEX
  8
0
 62
7
 10
12.59237500
 20
11.68360938
  0
VERTEX
  8
0
 62
7
 10
12.62354688
 20
11.67863867
  0
VERTEX
  8
0
 62
7
 10
12.65500000
 20
11.67600000
  0
VERTEX
  8
0
 62
7
 10
12.61600000
 20
11.58300000
  0
VERTEX
  8
0
 62
7
 10
12.65662500
 20
11.56478125
  0
VERTEX
  8
0
 62
7
 10
12.69875000
 20
11.55050000
  0
VERTEX
  8
0
 62
7
 10
12.74200000
 20
11.53996875
  0
VERTEX
  8
0
 62
7
 10
12.78600000
 20
11.53300000
  0
VERTEX
  8
0
 62
7
 10
12.81537109
 20
11.53021680
  0
VERTEX
  8
0
 62
7
 10
12.84490625
 20
11.52873438
  0
VERTEX
  8
0
 62
7
 10
12.87448828
 20
11.52872852
  0
VERTEX
  8
0
 62
7
 10
12.90400000
 20
11.53037500
  0
VERTEX
  8
0
 62
7
 10
12.93332422
 20
11.53384961
  0
VERTEX
  8
0
 62
7
 10
12.96234375
 20
11.53932813
  0
VERTEX
  8
0
 62
7
 10
12.99094141
 20
11.54698633
  0
VERTEX
  8
0
 62
7
 10
13.01900000
 20
11.55700000
  0
VERTEX
  8
0
 62
7
 10
13.06782813
 20
11.58020313
  0
VERTEX
  8
0
 62
7
 10
13.11262500
 20
11.60987500
  0
VERTEX
  8
0
 62
7
 10
13.15385938
 20
11.64460938
  0
VERTEX
  8
0
 62
7
 10
13.19200000
 20
11.68300000
  0
VERTEX
  8
0
 62
7
 10
13.23053125
 20
11.72926563
  0
VERTEX
  8
0
 62
7
 10
13.26325000
 20
11.77937500
  0
VERTEX
  8
0
 62
7
 10
13.28959375
 20
11.83304688
  0
VERTEX
  8
0
 62
7
 10
13.30900000
 20
11.89000000
  0
VERTEX
  8
0
 62
7
 10
13.31800000
 20
11.92862500
  0
VERTEX
  8
0
 62
7
 10
13.33000000
 20
11.96500000
  0
VERTEX
  8
0
 62
7
 10
13.33421680
 20
11.97198242
  0
VERTEX
  8
0
 62
7
 10
13.33992188
 20
11.97848438
  0
VERTEX
  8
0
 62
7
 10
13.34682227
 20
11.98421289
  0
VERTEX
  8
0
 62
7
 10
13.35462500
 20
11.98887500
  0
VERTEX
  8
0
 62
7
 10
13.36303711
 20
11.99217773
  0
VERTEX
  8
0
 62
7
 10
13.37176563
 20
11.99382813
  0
VERTEX
  8
0
 62
7
 10
13.38051758
 20
11.99353320
  0
VERTEX
  8
0
 62
7
 10
13.38900000
 20
11.99100000
  0
VERTEX
  8
0
 62
7
 10
13.39799219
 20
11.98546289
  0
VERTEX
  8
0
 62
7
 10
13.40468750
 20
11.97801563
  0
VERTEX
  8
0
 62
7
 10
13.40903906
 20
11.96890430
  0
VERTEX
  8
0
 62
7
 10
13.41100000
 20
11.95837500
  0
VERTEX
  8
0
 62
7
 10
13.41052344
 20
11.94667383
  0
VERTEX
  8
0
 62
7
 10
13.40756250
 20
11.93404688
  0
VERTEX
  8
0
 62
7
 10
13.40207031
 20
11.92074023
  0
VERTEX
  8
0
 62
7
 10
13.39400000
 20
11.90700000
  0
VERTEX
  8
0
 62
7
 10
13.37045313
 20
11.87543750
  0
VERTEX
  8
0
 62
7
 10
13.34587500
 20
11.84500000
  0
VERTEX
  8
0
 62
7
 10
13.32185938
 20
11.81306250
  0
VERTEX
  8
0
 62
7
 10
13.30000000
 20
11.77700000
  0
VERTEX
  8
0
 62
7
 10
13.28110938
 20
11.73860938
  0
VERTEX
  8
0
 62
7
 10
13.26512500
 20
11.70012500
  0
VERTEX
  8
0
 62
7
 10
13.25232813
 20
11.65957813
  0
VERTEX
  8
0
 62
7
 10
13.24300000
 20
11.61500000
  0
VERTEX
  8
0
 62
7
 10
13.24007422
 20
11.58525391
  0
VERTEX
  8
0
 62
7
 10
13.24021875
 20
11.55478125
  0
VERTEX
  8
0
 62
7
 10
13.24331641
 20
11.52398047
  0
VERTEX
  8
0
 62
7
 10
13.24925000
 20
11.49325000
  0
VERTEX
  8
0
 62
7
 10
13.25790234
 20
11.46298828
  0
VERTEX
  8
0
 62
7
 10
13.26915625
 20
11.43359375
  0
VERTEX
  8
0
 62
7
 10
13.28289453
 20
11.40546484
  0
VERTEX
  8
0
 62
7
 10
13.29900000
 20
11.37900000
  0
VERTEX
  8
0
 62
7
 10
13.32505664
 20
11.34422656
  0
VERTEX
  8
0
 62
7
 10
13.35464063
 20
11.31306250
  0
VERTEX
  8
0
 62
7
 10
13.38799805
 20
11.28611719
  0
VERTEX
  8
0
 62
7
 10
13.42537500
 20
11.26400000
  0
VERTEX
  8
0
 62
7
 10
13.46701758
 20
11.24732031
  0
VERTEX
  8
0
 62
7
 10
13.51317188
 20
11.23668750
  0
VERTEX
  8
0
 62
7
 10
13.56408398
 20
11.23271094
  0
VERTEX
  8
0
 62
7
 10
13.62000000
 20
11.23600000
  0
VERTEX
  8
0
 62
7
 10
13.68400000
 20
11.37500000
  0
VERTEX
  8
0
 62
7
 10
13.71601563
 20
11.35790625
  0
VERTEX
  8
0
 62
7
 10
13.74662500
 20
11.34700000
  0
VERTEX
  8
0
 62
7
 10
13.77892188
 20
11.33984375
  0
VERTEX
  8
0
 62
7
 10
13.81600000
 20
11.33400000
  0
VERTEX
  8
0
 62
7
 10
13.86723438
 20
11.33065625
  0
VERTEX
  8
0
 62
7
 10
13.91837500
 20
11.33425000
  0
VERTEX
  8
0
 62
7
 10
13.96857813
 20
11.34496875
  0
VERTEX
  8
0
 62
7
 10
14.01700000
 20
11.36300000
  0
VERTEX
  8
0
 62
7
 10
14.04510742
 20
11.37703516
  0
VERTEX
  8
0
 62
7
 10
14.07160938
 20
11.39353125
  0
VERTEX
  8
0
 62
7
 10
14.09640039
 20
11.41232422
  0
VERTEX
  8
0
 62
7
 10
14.11937500
 20
11.43325000
  0
VERTEX
  8
0
 62
7
 10
14.14042773
 20
11.45614453
  0
VERTEX
  8
0
 62
7
 10
14.15945313
 20
11.48084375
  0
VERTEX
  8
0
 62
7
 10
14.17634570
 20
11.50718359
  0
VERTEX
  8
0
 62
7
 10
14.19100000
 20
11.53500000
  0
SEQEND
  0
POLYLINE
  8
0
 62
7
 66
1
 70
1
  0
VERTEX
  8
0
 62
7
 10
16.74100000
 20
13.35000000
  0
VERTEX
  8
0
 62
7
 10
15.42900000
 20
13.35000000
  0
VERTEX
  8
0
 62
7
 10
15.53354688
 20
13.30745313
  0
VERTEX
  8
0
 62
7
 10
15.63612500
 20
13.26162500
  0
VERTEX
  8
0
 62
7
 10
15.73289063
 20
13.21598438
  0
VERTEX
  8
0
 62
7
 10
15.82000000
 20
13.17400000
  0
VERTEX
  8
0
 62
7
 10
15.87704688
 20
13.14603125
  0
VERTEX
  8
0
 62
7
 10
15.93812500
 20
13.11600000
  0
VERTEX
  8
0
 62
7
 10
16.00014063
 20
13.08821875
  0
VERTEX
  8
0
 62
7
 10
16.06000000
 20
13.06700000
  0
VERTEX
  8
0
 62
7
 10
16.10026563
 20
13.05700000
  0
VERTEX
  8
0
 62
7
 10
16.14137500
 20
13.05075000
  0
VERTEX
  8
0
 62
7
 10
16.18304688
 20
13.04787500
  0
VERTEX
  8
0
 62
7
 10
16.22500000
 20
13.04800000
  0
VERTEX
  8
0
 62
7
 10
16.17800000
 20
12.94600000
  0
VERTEX
  8
0
 62
7
 10
16.19870117
 20
12.92295117
  0
VERTEX
  8
0
 62
7
 10
16.22098438
 20
12.90185938
  0
VERTEX
  8
0
 62
7
 10
16.24474414
 20
12.88280664
  0
VERTEX
  8
0
 62
7
 10
16.26987500
 20
12.86587500
  0
VERTEX
  8
0
 62
7
 10
16.29627148
 20
12.85114648
  0
VERTEX
  8
0
 62
7
 10
16.32382813
 20
12.83870313
  0
VERTEX
  8
0
 62
7
 10
16.35243945
 20
12.82862695
  0
VERTEX
  8
0
 62
7
 10
16.38200000
 20
12.82100000
  0
VERTEX
  8
0
 62
7
 10
16.42093359
 20
12.81463867
  0
VERTEX
  8
0
 62
7
 10
16.46021875
 20
12.81267188
  0
VERTEX
  8
0
 62
7
 10
16.49945703
 20
12.81490039
  0
VERTEX
  8
0
 62
7
 10
16.53825000
 20
12.82112500
  0
VERTEX
  8
0
 62
7
 10
16.57619922
 20
12.83114648
  0
VERTEX
  8
0
 62
7
 10
16.61290625
 20
12.84476563
  0
VERTEX
  8
0
 62
7
 10
16.64797266
 20
12.86178320
  0
VERTEX
  8
0
 62
7
 10
16.68100000
 20
12.88200000
  0
VERTEX
  8
0
 62
7
 10
16.71470313
 20
12.90726563
  0
VERTEX
  8
0
 62
7
 10
16.74662500
 20
12.93487500
  0
VERTEX
  8
0
 62
7
 10
16.77648438
 20
12.96454688
  0
VERTEX
  8
0
 62
7
 10
16.80400000
 20
12.99600000
  0
VERTEX
  8
0
 62
7
 10
16.78347852
 20
13.01911133
  0
VERTEX
  8
0
 62
7
 10
16.76545313
 20
13.04401563
  0
VERTEX
  8
0
 62
7
 10
16.74998242
 20
13.07044336
  0
VERTEX
  8
0
 62
7
 10
16.73712500
 20
13.09812500
  0
VERTEX
  8
0
 62
7
 10
16.72693945
 20
13.12679102
  0
VERTEX
  8
0
 62
7
 10
16.71948438
 20
13.15617188
  0
VERTEX
  8
0
 62
7
 10
16.71481836
 20
13.18599805
  0
VERTEX
  8
0
 62
7
 10
16.71300000
 20
13.21600000
  0
VERTEX
  8
0
 62
7
 10
16.71414063
 20
13.25043750
  0
VERTEX
  8
0
 62
7
 10
16.71912500
 20
13.28450000
  0
VERTEX
  8
0
 62
7
 10
16.72804688
 20
13.31781250
  0
VERTEX
  8
0
 62
7
 10
16.74100000
 20
13.35000000
  0
SEQEND
  0
ENDSEC
  0
EOF
