  0
SECTION
  2
ENTITIES
  0
POLYLINE
  8
0
 62
7
 66
1
 70
1
  0
VERTEX
  8
0
 62
7
 10
.00000000
 20
.00000000
  0
VERTEX
  8
0
 62
7
 10
32.00000000
 20
.00000000
  0
VERTEX
  8
0
 62
7
 10
30.54089484
 20
19.53803266
  0
VERTEX
  8
0
 62
7
 10
30.52495369
 20
19.63334765
  0
VERTEX
  8
0
 62
7
 10
30.49202052
 20
19.72110215
  0
VERTEX
  8
0
 62
7
 10
30.44391208
 20
19.79970940
  0
VERTEX
  8
0
 62
7
 10
30.38244514
 20
19.86758264
  0
VERTEX
  8
0
 62
7
 10
30.30943645
 20
19.92313508
  0
VERTEX
  8
0
 62
7
 10
30.22670276
 20
19.96477997
  0
VERTEX
  8
0
 62
7
 10
30.13606084
 20
19.99093053
  0
VERTEX
  8
0
 62
7
 10
30.03932744
 20
20.00000000
  0
VERTEX
  8
0
 62
7
 10
1.96067256
 20
20.00000000
  0
VERTEX
  8
0
 62
7
 10
1.86393916
 20
19.99093053
  0
VERTEX
  8
0
 62
7
 10
1.77329724
 20
19.96477997
  0
VERTEX
  8
0
 62
7
 10
1.69056355
 20
19.92313508
  0
VERTEX
  8
0
 62
7
 10
1.61755486
 20
19.86758264
  0
VERTEX
  8
0
 62
7
 10
1.55608792
 20
19.79970940
  0
VERTEX
  8
0
 62
7
 10
1.50797948
 20
19.72110215
  0
VERTEX
  8
0
 62
7
 10
1.47504631
 20
19.63334765
  0
VERTEX
  8
0
 62
7
 10
1.45910516
 20
19.53803266
  0
VERTEX
  8
0
 62
7
 10
.00000000
 20
.00000000
  0
SEQEND
  0
POLYLINE
  8
0
 62
7
 66
1
 70
1
  0
VERTEX
  8
0
 62
7
 10
14.08900000
 20
19.96000000
  0
VERTEX
  8
0
 62
7
 10
13.19200000
 20
19.96000000
  0
VERTEX
  8
0
 62
7
 10
14.08200000
 20
15.63800000
  0
VERTEX
  8
0
 62
7
 10
14.66500000
 20
15.63800000
  0
VERTEX
  8
0
 62
7
 10
14.08900000
 20
19.96000000
  0
SEQEND
  0
POLYLINE
  8
0
 62
7
 66
1
 70
1
  0
VERTEX
  8
0
 62
7
 10
15.02800000
 20
19.96000000
  0
VERTEX
  8
0
 62
7
 10
14.15000000
 20
19.96000000
  0
VERTEX
  8
0
 62
7
 10
14.72500000
 20
15.63800000
  0
VERTEX
  8
0
 62
7
 10
15.34200000
 20
15.63800000
  0
VERTEX
  8
0
 62
7
 10
15.02800000
 20
19.96000000
  0
SEQEND
  0
POLYLINE
  8
0
 62
7
 66
1
 70
1
  0
VERTEX
  8
0
 62
7
 10
15.96900000
 20
19.96000000
  0
VERTEX
  8
0
 62
7
 10
15.08800000
 20
19.96000000
  0
VERTEX
  8
0
 62
7
 10
15.40200000
 20
15.63800000
  0
VERTEX
  8
0
 62
7
 10
15.96900000
 20
15.63800000
  0
VERTEX
  8
0
 62
7
 10
15.96900000
 20
19.96000000
  0
SEQEND
  0
POLYLINE
  8
0
 62
7
 66
1
 70
1
  0
VERTEX
  8
0
 62
7
 10
16.91200000
 20
19.96000000
  0
VERTEX
  8
0
 62
7
 10
16.03100000
 20
19.96000000
  0
VERTEX
  8
0
 62
7
 10
16.03100000
 20
15.63800000
  0
VERTEX
  8
0
 62
7
 10
16.59800000
 20
15.63800000
  0
VERTEX
  8
0
 62
7
 10
16.91200000
 20
19.96000000
  0
SEQEND
  0
POLYLINE
  8
0
 62
7
 66
1
 70
1
  0
VERTEX
  8
0
 62
7
 10
17.85000000
 20
19.96000000
  0
VERTEX
  8
0
 62
7
 10
16.97200000
 20
19.96000000
  0
VERTEX
  8
0
 62
7
 10
16.65800000
 20
15.63800000
  0
VERTEX
  8
0
 62
7
 10
17.27500000
 20
15.63800000
  0
VERTEX
  8
0
 62
7
 10
17.85000000
 20
19.96000000
  0
SEQEND
  0
POLYLINE
  8
0
 62
7
 66
1
 70
1
  0
VERTEX
  8
0
 62
7
 10
18.80800000
 20
19.96000000
  0
VERTEX
  8
0
 62
7
 10
17.91100000
 20
19.96000000
  0
VERTEX
  8
0
 62
7
 10
17.33500000
 20
15.63800000
  0
VERTEX
  8
0
 62
7
 10
17.91800000
 20
15.63800000
  0
VERTEX
  8
0
 62
7
 10
18.80800000
 20
19.96000000
  0
SEQEND
  0
POLYLINE
  8
0
 62
7
 66
1
 70
1
  0
VERTEX
  8
0
 62
7
 10
15.18600000
 20
.02000000
  0
VERTEX
  8
0
 62
7
 10
15.18600000
 20
2.66500000
  0
VERTEX
  8
0
 62
7
 10
16.00000000
 20
2.66500000
  0
VERTEX
  8
0
 62
7
 10
16.81400000
 20
2.66500000
  0
VERTEX
  8
0
 62
7
 10
16.81400000
 20
.02000000
  0
VERTEX
  8
0
 62
7
 10
17.10300000
 20
.02000000
  0
VERTEX
  8
0
 62
7
 10
17.10300000
 20
2.83500000
  0
VERTEX
  8
0
 62
7
 10
17.10300000
 20
2.95500000
  0
VERTEX
  8
0
 62
7
 10
17.10300000
 20
3.00800000
  0
VERTEX
  8
0
 62
7
 10
17.15300000
 20
3.02300000
  0
VERTEX
  8
0
 62
7
 10
17.20681250
 20
3.04384375
  0
VERTEX
  8
0
 62
7
 10
17.25725000
 20
3.06975000
  0
VERTEX
  8
0
 62
7
 10
17.30431250
 20
3.09978125
  0
VERTEX
  8
0
 62
7
 10
17.34800000
 20
3.13300000
  0
VERTEX
  8
0
 62
7
 10
17.39840625
 20
3.17978125
  0
VERTEX
  8
0
 62
7
 10
17.44225000
 20
3.23050000
  0
VERTEX
  8
0
 62
7
 10
17.48046875
 20
3.28346875
  0
VERTEX
  8
0
 62
7
 10
17.51400000
 20
3.33700000
  0
VERTEX
  8
0
 62
7
 10
17.54507813
 20
3.39420313
  0
VERTEX
  8
0
 62
7
 10
17.57137500
 20
3.45262500
  0
VERTEX
  8
0
 62
7
 10
17.59373438
 20
3.51123438
  0
VERTEX
  8
0
 62
7
 10
17.61300000
 20
3.56900000
  0
VERTEX
  8
0
 62
7
 10
17.63887500
 20
3.66837500
  0
VERTEX
  8
0
 62
7
 10
17.65800000
 20
3.76400000
  0
VERTEX
  8
0
 62
7
 10
17.67362500
 20
3.86250000
  0
VERTEX
  8
0
 62
7
 10
17.68400000
 20
3.95800000
  0
VERTEX
  8
0
 62
7
 10
17.69200000
 20
4.03900000
  0
VERTEX
  8
0
 62
7
 10
17.69700000
 20
4.09300000
  0
VERTEX
  8
0
 62
7
 10
17.70600000
 20
4.17100000
  0
VERTEX
  8
0
 62
7
 10
17.71403125
 20
4.20865625
  0
VERTEX
  8
0
 62
7
 10
17.72225000
 20
4.24125000
  0
VERTEX
  8
0
 62
7
 10
17.73159375
 20
4.26971875
  0
VERTEX
  8
0
 62
7
 10
17.74300000
 20
4.29500000
  0
VERTEX
  8
0
 62
7
 10
17.76387500
 20
4.32825000
  0
VERTEX
  8
0
 62
7
 10
17.77800000
 20
4.34500000
  0
VERTEX
  8
0
 62
7
 10
17.79237500
 20
4.35434375
  0
VERTEX
  8
0
 62
7
 10
17.80825000
 20
4.36125000
  0
VERTEX
  8
0
 62
7
 10
17.82525000
 20
4.36553125
  0
VERTEX
  8
0
 62
7
 10
17.84300000
 20
4.36700000
  0
VERTEX
  8
0
 62
7
 10
17.86400000
 20
4.36500000
  0
VERTEX
  8
0
 62
7
 10
17.93300000
 20
4.35000000
  0
VERTEX
  8
0
 62
7
 10
17.96400000
 20
4.41400000
  0
VERTEX
  8
0
 62
7
 10
17.97807813
 20
4.44678125
  0
VERTEX
  8
0
 62
7
 10
17.98887500
 20
4.48050000
  0
VERTEX
  8
0
 62
7
 10
17.99648438
 20
4.51496875
  0
VERTEX
  8
0
 62
7
 10
18.00100000
 20
4.55000000
  0
VERTEX
  8
0
 62
7
 10
18.00200000
 20
4.58900000
  0
VERTEX
  8
0
 62
7
 10
18.00079688
 20
4.62051563
  0
VERTEX
  8
0
 62
7
 10
17.99612500
 20
4.65437500
  0
VERTEX
  8
0
 62
7
 10
17.98639063
 20
4.68954688
  0
VERTEX
  8
0
 62
7
 10
17.97000000
 20
4.72500000
  0
VERTEX
  8
0
 62
7
 10
17.94537500
 20
4.76000000
  0
VERTEX
  8
0
 62
7
 10
17.91700000
 20
4.78900000
  0
VERTEX
  8
0
 62
7
 10
17.93837500
 20
4.81150000
  0
VERTEX
  8
0
 62
7
 10
17.95750000
 20
4.83550000
  0
VERTEX
  8
0
 62
7
 10
17.97437500
 20
4.86100000
  0
VERTEX
  8
0
 62
7
 10
17.98900000
 20
4.88800000
  0
VERTEX
  8
0
 62
7
 10
18.00359375
 20
4.92220313
  0
VERTEX
  8
0
 62
7
 10
18.01425000
 20
4.95837500
  0
VERTEX
  8
0
 62
7
 10
18.02078125
 20
4.99585938
  0
VERTEX
  8
0
 62
7
 10
18.02300000
 20
5.03400000
  0
VERTEX
  8
0
 62
7
 10
18.02300000
 20
5.11800000
  0
VERTEX
  8
0
 62
7
 10
17.93900000
 20
5.12400000
  0
VERTEX
  8
0
 62
7
 10
17.94100000
 20
5.14800000
  0
VERTEX
  8
0
 62
7
 10
17.94600000
 20
5.16300000
  0
VERTEX
  8
0
 62
7
 10
17.95300000
 20
5.18400000
  0
VERTEX
  8
0
 62
7
 10
17.98100000
 20
5.25900000
  0
VERTEX
  8
0
 62
7
 10
17.99787500
 20
5.29975000
  0
VERTEX
  8
0
 62
7
 10
18.01400000
 20
5.34500000
  0
VERTEX
  8
0
 62
7
 10
18.02959375
 20
5.39632813
  0
VERTEX
  8
0
 62
7
 10
18.04425000
 20
5.44962500
  0
VERTEX
  8
0
 62
7
 10
18.05703125
 20
5.50460938
  0
VERTEX
  8
0
 62
7
 10
18.06700000
 20
5.56100000
  0
VERTEX
  8
0
 62
7
 10
18.07650000
 20
5.64412500
  0
VERTEX
  8
0
 62
7
 10
18.08000000
 20
5.72800000
  0
VERTEX
  8
0
 62
7
 10
18.07787500
 20
5.78800000
  0
VERTEX
  8
0
 62
7
 10
18.07200000
 20
5.84800000
  0
VERTEX
  8
0
 62
7
 10
18.06434766
 20
5.90037891
  0
VERTEX
  8
0
 62
7
 10
18.05409375
 20
5.95240625
  0
VERTEX
  8
0
 62
7
 10
18.04116797
 20
6.00391797
  0
VERTEX
  8
0
 62
7
 10
18.02550000
 20
6.05475000
  0
VERTEX
  8
0
 62
7
 10
18.00701953
 20
6.10473828
  0
VERTEX
  8
0
 62
7
 10
17.98565625
 20
6.15371875
  0
VERTEX
  8
0
 62
7
 10
17.96133984
 20
6.20152734
  0
VERTEX
  8
0
 62
7
 10
17.93400000
 20
6.24800000
  0
VERTEX
  8
0
 62
7
 10
17.96400000
 20
6.28100000
  0
VERTEX
  8
0
 62
7
 10
17.98126367
 20
6.30625586
  0
VERTEX
  8
0
 62
7
 10
17.99504688
 20
6.33229688
  0
VERTEX
  8
0
 62
7
 10
18.00571289
 20
6.35878320
  0
VERTEX
  8
0
 62
7
 10
18.01362500
 20
6.38537500
  0
VERTEX
  8
0
 62
7
 10
18.01914648
 20
6.41173242
  0
VERTEX
  8
0
 62
7
 10
18.02264063
 20
6.43751563
  0
VERTEX
  8
0
 62
7
 10
18.02447070
 20
6.46238477
  0
VERTEX
  8
0
 62
7
 10
18.02500000
 20
6.48600000
  0
VERTEX
  8
0
 62
7
 10
18.02346875
 20
6.51957813
  0
VERTEX
  8
0
 62
7
 10
18.01893750
 20
6.55268750
  0
VERTEX
  8
0
 62
7
 10
18.01150000
 20
6.58514063
  0
VERTEX
  8
0
 62
7
 10
18.00125000
 20
6.61675000
  0
VERTEX
  8
0
 62
7
 10
17.98828125
 20
6.64732813
  0
VERTEX
  8
0
 62
7
 10
17.97268750
 20
6.67668750
  0
VERTEX
  8
0
 62
7
 10
17.95456250
 20
6.70464063
  0
VERTEX
  8
0
 62
7
 10
17.93400000
 20
6.73100000
  0
VERTEX
  8
0
 62
7
 10
17.93400000
 20
6.75600000
  0
VERTEX
  8
0
 62
7
 10
17.93500000
 20
6.76400000
  0
VERTEX
  8
0
 62
7
 10
17.93700000
 20
6.79200000
  0
VERTEX
  8
0
 62
7
 10
17.93525000
 20
6.81275000
  0
VERTEX
  8
0
 62
7
 10
17.92900000
 20
6.83800000
  0
VERTEX
  8
0
 62
7
 10
17.91901563
 20
6.86143750
  0
VERTEX
  8
0
 62
7
 10
17.90612500
 20
6.88225000
  0
VERTEX
  8
0
 62
7
 10
17.89117188
 20
6.90043750
  0
VERTEX
  8
0
 62
7
 10
17.87500000
 20
6.91600000
  0
VERTEX
  8
0
 62
7
 10
17.84400000
 20
6.93600000
  0
VERTEX
  8
0
 62
7
 10
17.85318750
 20
6.95901563
  0
VERTEX
  8
0
 62
7
 10
17.85975000
 20
6.98287500
  0
VERTEX
  8
0
 62
7
 10
17.86368750
 20
7.00729688
  0
VERTEX
  8
0
 62
7
 10
17.86500000
 20
7.03200000
  0
VERTEX
  8
0
 62
7
 10
17.86500000
 20
7.04200000
  0
VERTEX
  8
0
 62
7
 10
17.86160938
 20
7.07025000
  0
VERTEX
  8
0
 62
7
 10
17.85512500
 20
7.09625000
  0
VERTEX
  8
0
 62
7
 10
17.84657813
 20
7.11962500
  0
VERTEX
  8
0
 62
7
 10
17.83700000
 20
7.14000000
  0
VERTEX
  8
0
 62
7
 10
17.82450000
 20
7.16100000
  0
VERTEX
  8
0
 62
7
 10
17.81500000
 20
7.17300000
  0
VERTEX
  8
0
 62
7
 10
17.81300000
 20
7.17600000
  0
VERTEX
  8
0
 62
7
 10
17.81025000
 20
7.18512500
  0
VERTEX
  8
0
 62
7
 10
17.80900000
 20
7.19800000
  0
VERTEX
  8
0
 62
7
 10
17.81100000
 20
7.21100000
  0
VERTEX
  8
0
 62
7
 10
17.81500000
 20
7.23400000
  0
VERTEX
  8
0
 62
7
 10
17.82000000
 20
7.26500000
  0
VERTEX
  8
0
 62
7
 10
17.82650000
 20
7.30337500
  0
VERTEX
  8
0
 62
7
 10
17.83000000
 20
7.35000000
  0
VERTEX
  8
0
 62
7
 10
17.82910938
 20
7.38479688
  0
VERTEX
  8
0
 62
7
 10
17.82512500
 20
7.42362500
  0
VERTEX
  8
0
 62
7
 10
17.81607813
 20
7.46489063
  0
VERTEX
  8
0
 62
7
 10
17.80000000
 20
7.50700000
  0
VERTEX
  8
0
 62
7
 10
17.77621875
 20
7.54793750
  0
VERTEX
  8
0
 62
7
 10
17.74700000
 20
7.58475000
  0
VERTEX
  8
0
 62
7
 10
17.71253125
 20
7.61668750
  0
VERTEX
  8
0
 62
7
 10
17.67300000
 20
7.64300000
  0
VERTEX
  8
0
 62
7
 10
17.64603125
 20
7.65682813
  0
VERTEX
  8
0
 62
7
 10
17.61775000
 20
7.66812500
  0
VERTEX
  8
0
 62
7
 10
17.58834375
 20
7.67660938
  0
VERTEX
  8
0
 62
7
 10
17.55800000
 20
7.68200000
  0
VERTEX
  8
0
 62
7
 10
17.55700000
 20
7.69200000
  0
VERTEX
  8
0
 62
7
 10
17.54530859
 20
7.75557031
  0
VERTEX
  8
0
 62
7
 10
17.52796875
 20
7.81656250
  0
VERTEX
  8
0
 62
7
 10
17.50570703
 20
7.87502344
  0
VERTEX
  8
0
 62
7
 10
17.47925000
 20
7.93100000
  0
VERTEX
  8
0
 62
7
 10
17.44932422
 20
7.98453906
  0
VERTEX
  8
0
 62
7
 10
17.41665625
 20
8.03568750
  0
VERTEX
  8
0
 62
7
 10
17.38197266
 20
8.08449219
  0
VERTEX
  8
0
 62
7
 10
17.34600000
 20
8.13100000
  0
VERTEX
  8
0
 62
7
 10
17.29600000
 20
8.18900000
  0
VERTEX
  8
0
 62
7
 10
17.25675000
 20
8.23362500
  0
VERTEX
  8
0
 62
7
 10
17.22500000
 20
8.27600000
  0
VERTEX
  8
0
 62
7
 10
17.21600000
 20
8.28900000
  0
VERTEX
  8
0
 62
7
 10
17.18600000
 20
8.33800000
  0
VERTEX
  8
0
 62
7
 10
17.17623438
 20
8.36162500
  0
VERTEX
  8
0
 62
7
 10
17.16937500
 20
8.38075000
  0
VERTEX
  8
0
 62
7
 10
17.16532813
 20
8.39650000
  0
VERTEX
  8
0
 62
7
 10
17.16400000
 20
8.41000000
  0
VERTEX
  8
0
 62
7
 10
17.16400000
 20
8.41500000
  0
VERTEX
  8
0
 62
7
 10
17.16521875
 20
8.43432813
  0
VERTEX
  8
0
 62
7
 10
17.16850000
 20
8.45037500
  0
VERTEX
  8
0
 62
7
 10
17.17328125
 20
8.46323438
  0
VERTEX
  8
0
 62
7
 10
17.17900000
 20
8.47300000
  0
VERTEX
  8
0
 62
7
 10
17.19675000
 20
8.49037500
  0
VERTEX
  8
0
 62
7
 10
17.21000000
 20
8.49800000
  0
VERTEX
  8
0
 62
7
 10
17.22700000
 20
8.50000000
  0
VERTEX
  8
0
 62
7
 10
17.23300000
 20
8.50000000
  0
VERTEX
  8
0
 62
7
 10
17.32800000
 20
8.48600000
  0
VERTEX
  8
0
 62
7
 10
17.33600000
 20
8.58100000
  0
VERTEX
  8
0
 62
7
 10
17.33700000
 20
8.61600000
  0
VERTEX
  8
0
 62
7
 10
17.33371875
 20
8.66794531
  0
VERTEX
  8
0
 62
7
 10
17.32406250
 20
8.71843750
  0
VERTEX
  8
0
 62
7
 10
17.30831250
 20
8.76696094
  0
VERTEX
  8
0
 62
7
 10
17.28675000
 20
8.81300000
  0
VERTEX
  8
0
 62
7
 10
17.25965625
 20
8.85603906
  0
VERTEX
  8
0
 62
7
 10
17.22731250
 20
8.89556250
  0
VERTEX
  8
0
 62
7
 10
17.19000000
 20
8.93105469
  0
VERTEX
  8
0
 62
7
 10
17.14800000
 20
8.96200000
  0
VERTEX
  8
0
 62
7
 10
17.11504688
 20
8.98171875
  0
VERTEX
  8
0
 62
7
 10
17.08087500
 20
8.99750000
  0
VERTEX
  8
0
 62
7
 10
17.04576563
 20
9.00953125
  0
VERTEX
  8
0
 62
7
 10
17.01000000
 20
9.01800000
  0
VERTEX
  8
0
 62
7
 10
17.02610938
 20
9.06804688
  0
VERTEX
  8
0
 62
7
 10
17.03837500
 20
9.11912500
  0
VERTEX
  8
0
 62
7
 10
17.04670313
 20
9.17114063
  0
VERTEX
  8
0
 62
7
 10
17.05100000
 20
9.22400000
  0
VERTEX
  8
0
 62
7
 10
17.05300000
 20
9.28400000
  0
VERTEX
  8
0
 62
7
 10
17.05185938
 20
9.32020313
  0
VERTEX
  8
0
 62
7
 10
17.04762500
 20
9.35912500
  0
VERTEX
  8
0
 62
7
 10
17.03907813
 20
9.39973438
  0
VERTEX
  8
0
 62
7
 10
17.02500000
 20
9.44100000
  0
VERTEX
  8
0
 62
7
 10
17.00626563
 20
9.47970313
  0
VERTEX
  8
0
 62
7
 10
16.98237500
 20
9.51812500
  0
VERTEX
  8
0
 62
7
 10
16.95229688
 20
9.55448437
  0
VERTEX
  8
0
 62
7
 10
16.91500000
 20
9.58700000
  0
VERTEX
  8
0
 62
7
 10
16.88542188
 20
9.60629688
  0
VERTEX
  8
0
 62
7
 10
16.85387500
 20
9.62212500
  0
VERTEX
  8
0
 62
7
 10
16.82064063
 20
9.63439063
  0
VERTEX
  8
0
 62
7
 10
16.78600000
 20
9.64300000
  0
VERTEX
  8
0
 62
7
 10
16.81000000
 20
9.76200000
  0
VERTEX
  8
0
 62
7
 10
17.24400000
 20
11.90800000
  0
VERTEX
  8
0
 62
7
 10
25.38000000
 20
11.90800000
  0
VERTEX
  8
0
 62
7
 10
25.38000000
 20
15.66800000
  0
VERTEX
  8
0
 62
7
 10
18.01600000
 20
15.66800000
  0
VERTEX
  8
0
 62
7
 10
18.90400000
 20
19.98000000
  0
VERTEX
  8
0
 62
7
 10
13.09600000
 20
19.98000000
  0
VERTEX
  8
0
 62
7
 10
13.98400000
 20
15.66800000
  0
VERTEX
  8
0
 62
7
 10
6.62000000
 20
15.66800000
  0
VERTEX
  8
0
 62
7
 10
6.62000000
 20
11.90800000
  0
VERTEX
  8
0
 62
7
 10
14.75600000
 20
11.90800000
  0
VERTEX
  8
0
 62
7
 10
15.19000000
 20
9.76200000
  0
VERTEX
  8
0
 62
7
 10
15.21400000
 20
9.64300000
  0
VERTEX
  8
0
 62
7
 10
15.17935938
 20
9.63439063
  0
VERTEX
  8
0
 62
7
 10
15.14612500
 20
9.62212500
  0
VERTEX
  8
0
 62
7
 10
15.11457813
 20
9.60629688
  0
VERTEX
  8
0
 62
7
 10
15.08500000
 20
9.58700000
  0
VERTEX
  8
0
 62
7
 10
15.04770313
 20
9.55448437
  0
VERTEX
  8
0
 62
7
 10
15.01762500
 20
9.51812500
  0
VERTEX
  8
0
 62
7
 10
14.99373438
 20
9.47970313
  0
VERTEX
  8
0
 62
7
 10
14.97500000
 20
9.44100000
  0
VERTEX
  8
0
 62
7
 10
14.96092188
 20
9.39973438
  0
VERTEX
  8
0
 62
7
 10
14.95237500
 20
9.35912500
  0
VERTEX
  8
0
 62
7
 10
14.94814063
 20
9.32020313
  0
VERTEX
  8
0
 62
7
 10
14.94700000
 20
9.28400000
  0
VERTEX
  8
0
 62
7
 10
14.94900000
 20
9.22400000
  0
VERTEX
  8
0
 62
7
 10
14.95329688
 20
9.17114063
  0
VERTEX
  8
0
 62
7
 10
14.96162500
 20
9.11912500
  0
VERTEX
  8
0
 62
7
 10
14.97389063
 20
9.06804688
  0
VERTEX
  8
0
 62
7
 10
14.99000000
 20
9.01800000
  0
VERTEX
  8
0
 62
7
 10
14.95423438
 20
9.00953125
  0
VERTEX
  8
0
 62
7
 10
14.91912500
 20
8.99750000
  0
VERTEX
  8
0
 62
7
 10
14.88495313
 20
8.98171875
  0
VERTEX
  8
0
 62
7
 10
14.85200000
 20
8.96200000
  0
VERTEX
  8
0
 62
7
 10
14.81000000
 20
8.93105469
  0
VERTEX
  8
0
 62
7
 10
14.77268750
 20
8.89556250
  0
VERTEX
  8
0
 62
7
 10
14.74034375
 20
8.85603906
  0
VERTEX
  8
0
 62
7
 10
14.71325000
 20
8.81300000
  0
VERTEX
  8
0
 62
7
 10
14.69168750
 20
8.76696094
  0
VERTEX
  8
0
 62
7
 10
14.67593750
 20
8.71843750
  0
VERTEX
  8
0
 62
7
 10
14.66628125
 20
8.66794531
  0
VERTEX
  8
0
 62
7
 10
14.66300000
 20
8.61600000
  0
VERTEX
  8
0
 62
7
 10
14.66400000
 20
8.58100000
  0
VERTEX
  8
0
 62
7
 10
14.67200000
 20
8.48600000
  0
VERTEX
  8
0
 62
7
 10
14.76700000
 20
8.50000000
  0
VERTEX
  8
0
 62
7
 10
14.77300000
 20
8.50000000
  0
VERTEX
  8
0
 62
7
 10
14.79000000
 20
8.49800000
  0
VERTEX
  8
0
 62
7
 10
14.80325000
 20
8.49037500
  0
VERTEX
  8
0
 62
7
 10
14.82100000
 20
8.47300000
  0
VERTEX
  8
0
 62
7
 10
14.82671875
 20
8.46323438
  0
VERTEX
  8
0
 62
7
 10
14.83150000
 20
8.45037500
  0
VERTEX
  8
0
 62
7
 10
14.83478125
 20
8.43432813
  0
VERTEX
  8
0
 62
7
 10
14.83600000
 20
8.41500000
  0
VERTEX
  8
0
 62
7
 10
14.83600000
 20
8.41000000
  0
VERTEX
  8
0
 62
7
 10
14.83467188
 20
8.39650000
  0
VERTEX
  8
0
 62
7
 10
14.83062500
 20
8.38075000
  0
VERTEX
  8
0
 62
7
 10
14.82376563
 20
8.36162500
  0
VERTEX
  8
0
 62
7
 10
14.81400000
 20
8.33800000
  0
VERTEX
  8
0
 62
7
 10
14.78400000
 20
8.28900000
  0
VERTEX
  8
0
 62
7
 10
14.77500000
 20
8.27600000
  0
VERTEX
  8
0
 62
7
 10
14.74325000
 20
8.23362500
  0
VERTEX
  8
0
 62
7
 10
14.70400000
 20
8.18900000
  0
VERTEX
  8
0
 62
7
 10
14.65400000
 20
8.13100000
  0
VERTEX
  8
0
 62
7
 10
14.61802734
 20
8.08449219
  0
VERTEX
  8
0
 62
7
 10
14.58334375
 20
8.03568750
  0
VERTEX
  8
0
 62
7
 10
14.55067578
 20
7.98453906
  0
VERTEX
  8
0
 62
7
 10
14.52075000
 20
7.93100000
  0
VERTEX
  8
0
 62
7
 10
14.49429297
 20
7.87502344
  0
VERTEX
  8
0
 62
7
 10
14.47203125
 20
7.81656250
  0
VERTEX
  8
0
 62
7
 10
14.45469141
 20
7.75557031
  0
VERTEX
  8
0
 62
7
 10
14.44300000
 20
7.69200000
  0
VERTEX
  8
0
 62
7
 10
14.44200000
 20
7.68200000
  0
VERTEX
  8
0
 62
7
 10
14.41165625
 20
7.67660938
  0
VERTEX
  8
0
 62
7
 10
14.38225000
 20
7.66812500
  0
VERTEX
  8
0
 62
7
 10
14.35396875
 20
7.65682813
  0
VERTEX
  8
0
 62
7
 10
14.32700000
 20
7.64300000
  0
VERTEX
  8
0
 62
7
 10
14.28746875
 20
7.61668750
  0
VERTEX
  8
0
 62
7
 10
14.25300000
 20
7.58475000
  0
VERTEX
  8
0
 62
7
 10
14.22378125
 20
7.54793750
  0
VERTEX
  8
0
 62
7
 10
14.20000000
 20
7.50700000
  0
VERTEX
  8
0
 62
7
 10
14.18392188
 20
7.46489063
  0
VERTEX
  8
0
 62
7
 10
14.17487500
 20
7.42362500
  0
VERTEX
  8
0
 62
7
 10
14.17089063
 20
7.38479688
  0
VERTEX
  8
0
 62
7
 10
14.17000000
 20
7.35000000
  0
VERTEX
  8
0
 62
7
 10
14.17350000
 20
7.30337500
  0
VERTEX
  8
0
 62
7
 10
14.18000000
 20
7.26500000
  0
VERTEX
  8
0
 62
7
 10
14.18500000
 20
7.23400000
  0
VERTEX
  8
0
 62
7
 10
14.18900000
 20
7.21100000
  0
VERTEX
  8
0
 62
7
 10
14.19100000
 20
7.19800000
  0
VERTEX
  8
0
 62
7
 10
14.18975000
 20
7.18512500
  0
VERTEX
  8
0
 62
7
 10
14.18700000
 20
7.17600000
  0
VERTEX
  8
0
 62
7
 10
14.18500000
 20
7.17300000
  0
VERTEX
  8
0
 62
7
 10
14.17550000
 20
7.16100000
  0
VERTEX
  8
0
 62
7
 10
14.16300000
 20
7.14000000
  0
VERTEX
  8
0
 62
7
 10
14.15342188
 20
7.11962500
  0
VERTEX
  8
0
 62
7
 10
14.14487500
 20
7.09625000
  0
VERTEX
  8
0
 62
7
 10
14.13839063
 20
7.07025000
  0
VERTEX
  8
0
 62
7
 10
14.13500000
 20
7.04200000
  0
VERTEX
  8
0
 62
7
 10
14.13500000
 20
7.03200000
  0
VERTEX
  8
0
 62
7
 10
14.13631250
 20
7.00729688
  0
VERTEX
  8
0
 62
7
 10
14.14025000
 20
6.98287500
  0
VERTEX
  8
0
 62
7
 10
14.14681250
 20
6.95901563
  0
VERTEX
  8
0
 62
7
 10
14.15600000
 20
6.93600000
  0
VERTEX
  8
0
 62
7
 10
14.12500000
 20
6.91600000
  0
VERTEX
  8
0
 62
7
 10
14.10882813
 20
6.90043750
  0
VERTEX
  8
0
 62
7
 10
14.09387500
 20
6.88225000
  0
VERTEX
  8
0
 62
7
 10
14.08098438
 20
6.86143750
  0
VERTEX
  8
0
 62
7
 10
14.07100000
 20
6.83800000
  0
VERTEX
  8
0
 62
7
 10
14.06475000
 20
6.81275000
  0
VERTEX
  8
0
 62
7
 10
14.06300000
 20
6.79200000
  0
VERTEX
  8
0
 62
7
 10
14.06500000
 20
6.76400000
  0
VERTEX
  8
0
 62
7
 10
14.06600000
 20
6.75600000
  0
VERTEX
  8
0
 62
7
 10
14.06600000
 20
6.73100000
  0
VERTEX
  8
0
 62
7
 10
14.04543750
 20
6.70464063
  0
VERTEX
  8
0
 62
7
 10
14.02731250
 20
6.67668750
  0
VERTEX
  8
0
 62
7
 10
14.01171875
 20
6.64732813
  0
VERTEX
  8
0
 62
7
 10
13.99875000
 20
6.61675000
  0
VERTEX
  8
0
 62
7
 10
13.98850000
 20
6.58514063
  0
VERTEX
  8
0
 62
7
 10
13.98106250
 20
6.55268750
  0
VERTEX
  8
0
 62
7
 10
13.97653125
 20
6.51957813
  0
VERTEX
  8
0
 62
7
 10
13.97500000
 20
6.48600000
  0
VERTEX
  8
0
 62
7
 10
13.97552930
 20
6.46238477
  0
VERTEX
  8
0
 62
7
 10
13.97735938
 20
6.43751563
  0
VERTEX
  8
0
 62
7
 10
13.98085352
 20
6.41173242
  0
VERTEX
  8
0
 62
7
 10
13.98637500
 20
6.38537500
  0
VERTEX
  8
0
 62
7
 10
13.99428711
 20
6.35878320
  0
VERTEX
  8
0
 62
7
 10
14.00495313
 20
6.33229688
  0
VERTEX
  8
0
 62
7
 10
14.01873633
 20
6.30625586
  0
VERTEX
  8
0
 62
7
 10
14.03600000
 20
6.28100000
  0
VERTEX
  8
0
 62
7
 10
14.06600000
 20
6.24800000
  0
VERTEX
  8
0
 62
7
 10
14.03866016
 20
6.20152734
  0
VERTEX
  8
0
 62
7
 10
14.01434375
 20
6.15371875
  0
VERTEX
  8
0
 62
7
 10
13.99298047
 20
6.10473828
  0
VERTEX
  8
0
 62
7
 10
13.97450000
 20
6.05475000
  0
VERTEX
  8
0
 62
7
 10
13.95883203
 20
6.00391797
  0
VERTEX
  8
0
 62
7
 10
13.94590625
 20
5.95240625
  0
VERTEX
  8
0
 62
7
 10
13.93565234
 20
5.90037891
  0
VERTEX
  8
0
 62
7
 10
13.92800000
 20
5.84800000
  0
VERTEX
  8
0
 62
7
 10
13.92212500
 20
5.78800000
  0
VERTEX
  8
0
 62
7
 10
13.92000000
 20
5.72800000
  0
VERTEX
  8
0
 62
7
 10
13.92350000
 20
5.64412500
  0
VERTEX
  8
0
 62
7
 10
13.93300000
 20
5.56100000
  0
VERTEX
  8
0
 62
7
 10
13.94296875
 20
5.50460938
  0
VERTEX
  8
0
 62
7
 10
13.95575000
 20
5.44962500
  0
VERTEX
  8
0
 62
7
 10
13.97040625
 20
5.39632813
  0
VERTEX
  8
0
 62
7
 10
13.98600000
 20
5.34500000
  0
VERTEX
  8
0
 62
7
 10
14.00212500
 20
5.29975000
  0
VERTEX
  8
0
 62
7
 10
14.01900000
 20
5.25900000
  0
VERTEX
  8
0
 62
7
 10
14.04700000
 20
5.18400000
  0
VERTEX
  8
0
 62
7
 10
14.05400000
 20
5.16300000
  0
VERTEX
  8
0
 62
7
 10
14.05900000
 20
5.14800000
  0
VERTEX
  8
0
 62
7
 10
14.06100000
 20
5.12400000
  0
VERTEX
  8
0
 62
7
 10
13.97700000
 20
5.11800000
  0
VERTEX
  8
0
 62
7
 10
13.97700000
 20
5.03400000
  0
VERTEX
  8
0
 62
7
 10
13.97921875
 20
4.99585938
  0
VERTEX
  8
0
 62
7
 10
13.98575000
 20
4.95837500
  0
VERTEX
  8
0
 62
7
 10
13.99640625
 20
4.92220313
  0
VERTEX
  8
0
 62
7
 10
14.01100000
 20
4.88800000
  0
VERTEX
  8
0
 62
7
 10
14.02562500
 20
4.86100000
  0
VERTEX
  8
0
 62
7
 10
14.04250000
 20
4.83550000
  0
VERTEX
  8
0
 62
7
 10
14.06162500
 20
4.81150000
  0
VERTEX
  8
0
 62
7
 10
14.08300000
 20
4.78900000
  0
VERTEX
  8
0
 62
7
 10
14.05462500
 20
4.76000000
  0
VERTEX
  8
0
 62
7
 10
14.03000000
 20
4.72500000
  0
VERTEX
  8
0
 62
7
 10
14.01360938
 20
4.68954688
  0
VERTEX
  8
0
 62
7
 10
14.00387500
 20
4.65437500
  0
VERTEX
  8
0
 62
7
 10
13.99920313
 20
4.62051563
  0
VERTEX
  8
0
 62
7
 10
13.99800000
 20
4.58900000
  0
VERTEX
  8
0
 62
7
 10
13.99900000
 20
4.55000000
  0
VERTEX
  8
0
 62
7
 10
14.00351563
 20
4.51496875
  0
VERTEX
  8
0
 62
7
 10
14.01112500
 20
4.48050000
  0
VERTEX
  8
0
 62
7
 10
14.02192188
 20
4.44678125
  0
VERTEX
  8
0
 62
7
 10
14.03600000
 20
4.41400000
  0
VERTEX
  8
0
 62
7
 10
14.06700000
 20
4.35000000
  0
VERTEX
  8
0
 62
7
 10
14.13600000
 20
4.36500000
  0
VERTEX
  8
0
 62
7
 10
14.15700000
 20
4.36700000
  0
VERTEX
  8
0
 62
7
 10
14.17475000
 20
4.36553125
  0
VERTEX
  8
0
 62
7
 10
14.19175000
 20
4.36125000
  0
VERTEX
  8
0
 62
7
 10
14.20762500
 20
4.35434375
  0
VERTEX
  8
0
 62
7
 10
14.22200000
 20
4.34500000
  0
VERTEX
  8
0
 62
7
 10
14.23612500
 20
4.32825000
  0
VERTEX
  8
0
 62
7
 10
14.25700000
 20
4.29500000
  0
VERTEX
  8
0
 62
7
 10
14.26840625
 20
4.26971875
  0
VERTEX
  8
0
 62
7
 10
14.27775000
 20
4.24125000
  0
VERTEX
  8
0
 62
7
 10
14.28596875
 20
4.20865625
  0
VERTEX
  8
0
 62
7
 10
14.29400000
 20
4.17100000
  0
VERTEX
  8
0
 62
7
 10
14.30300000
 20
4.09300000
  0
VERTEX
  8
0
 62
7
 10
14.30800000
 20
4.03900000
  0
VERTEX
  8
0
 62
7
 10
14.31600000
 20
3.95800000
  0
VERTEX
  8
0
 62
7
 10
14.32637500
 20
3.86250000
  0
VERTEX
  8
0
 62
7
 10
14.34200000
 20
3.76400000
  0
VERTEX
  8
0
 62
7
 10
14.36112500
 20
3.66837500
  0
VERTEX
  8
0
 62
7
 10
14.38700000
 20
3.56900000
  0
VERTEX
  8
0
 62
7
 10
14.40626563
 20
3.51123438
  0
VERTEX
  8
0
 62
7
 10
14.42862500
 20
3.45262500
  0
VERTEX
  8
0
 62
7
 10
14.45492188
 20
3.39420313
  0
VERTEX
  8
0
 62
7
 10
14.48600000
 20
3.33700000
  0
VERTEX
  8
0
 62
7
 10
14.51953125
 20
3.28346875
  0
VERTEX
  8
0
 62
7
 10
14.55775000
 20
3.23050000
  0
VERTEX
  8
0
 62
7
 10
14.60159375
 20
3.17978125
  0
VERTEX
  8
0
 62
7
 10
14.65200000
 20
3.13300000
  0
VERTEX
  8
0
 62
7
 10
14.69568750
 20
3.09978125
  0
VERTEX
  8
0
 62
7
 10
14.74275000
 20
3.06975000
  0
VERTEX
  8
0
 62
7
 10
14.79318750
 20
3.04384375
  0
VERTEX
  8
0
 62
7
 10
14.84700000
 20
3.02300000
  0
VERTEX
  8
0
 62
7
 10
14.89700000
 20
3.00800000
  0
VERTEX
  8
0
 62
7
 10
14.89700000
 20
2.95500000
  0
VERTEX
  8
0
 62
7
 10
14.89700000
 20
2.83500000
  0
VERTEX
  8
0
 62
7
 10
14.89700000
 20
.02000000
  0
VERTEX
  8
0
 62
7
 10
15.18600000
 20
.02000000
  0
SEQEND
  0
POLYLINE
  8
0
 62
7
 66
1
 70
1
  0
VERTEX
  8
0
 62
7
 10
15.12600000
 20
.04000000
  0
VERTEX
  8
0
 62
7
 10
15.12600000
 20
2.72500000
  0
VERTEX
  8
0
 62
7
 10
16.00000000
 20
2.72500000
  0
VERTEX
  8
0
 62
7
 10
16.87400000
 20
2.72500000
  0
VERTEX
  8
0
 62
7
 10
16.87400000
 20
.04000000
  0
VERTEX
  8
0
 62
7
 10
17.01300000
 20
.04000000
  0
VERTEX
  8
0
 62
7
 10
17.01300000
 20
2.86500000
  0
VERTEX
  8
0
 62
7
 10
16.00000000
 20
2.86500000
  0
VERTEX
  8
0
 62
7
 10
14.98700000
 20
2.86500000
  0
VERTEX
  8
0
 62
7
 10
14.98700000
 20
.04000000
  0
VERTEX
  8
0
 62
7
 10
15.12600000
 20
.04000000
  0
SEQEND
  0
POLYLINE
  8
0
 62
7
 66
1
 70
1
  0
VERTEX
  8
0
 62
7
 10
16.00000000
 20
3.55000000
  0
VERTEX
  8
0
 62
7
 10
15.68600000
 20
3.55000000
  0
VERTEX
  8
0
 62
7
 10
15.68600000
 20
3.53200000
  0
VERTEX
  8
0
 62
7
 10
15.68425000
 20
3.48137500
  0
VERTEX
  8
0
 62
7
 10
15.67800000
 20
3.43000000
  0
VERTEX
  8
0
 62
7
 10
15.67093750
 20
3.39067188
  0
VERTEX
  8
0
 62
7
 10
15.66125000
 20
3.35087500
  0
VERTEX
  8
0
 62
7
 10
15.64818750
 20
3.31089063
  0
VERTEX
  8
0
 62
7
 10
15.63100000
 20
3.27100000
  0
VERTEX
  8
0
 62
7
 10
15.59500000
 20
3.20900000
  0
VERTEX
  8
0
 62
7
 10
16.00000000
 20
3.20900000
  0
VERTEX
  8
0
 62
7
 10
16.40500000
 20
3.20900000
  0
VERTEX
  8
0
 62
7
 10
16.36900000
 20
3.27100000
  0
VERTEX
  8
0
 62
7
 10
16.35181250
 20
3.31089063
  0
VERTEX
  8
0
 62
7
 10
16.33875000
 20
3.35087500
  0
VERTEX
  8
0
 62
7
 10
16.32906250
 20
3.39067188
  0
VERTEX
  8
0
 62
7
 10
16.32200000
 20
3.43000000
  0
VERTEX
  8
0
 62
7
 10
16.31575000
 20
3.48137500
  0
VERTEX
  8
0
 62
7
 10
16.31400000
 20
3.53200000
  0
VERTEX
  8
0
 62
7
 10
16.31400000
 20
3.55000000
  0
VERTEX
  8
0
 62
7
 10
16.00000000
 20
3.55000000
  0
SEQEND
  0
POLYLINE
  8
0
 62
7
 66
1
 70
1
  0
VERTEX
  8
0
 62
7
 10
17.32900000
 20
4.31500000
  0
VERTEX
  8
0
 62
7
 10
17.30045313
 20
4.25934375
  0
VERTEX
  8
0
 62
7
 10
17.26862500
 20
4.20500000
  0
VERTEX
  8
0
 62
7
 10
17.23323438
 20
4.15215625
  0
VERTEX
  8
0
 62
7
 10
17.19400000
 20
4.10100000
  0
VERTEX
  8
0
 62
7
 10
17.12900000
 20
4.03200000
  0
VERTEX
  8
0
 62
7
 10
17.07700000
 20
3.98300000
  0
VERTEX
  8
0
 62
7
 10
17.10250000
 20
3.95162500
  0
VERTEX
  8
0
 62
7
 10
17.12500000
 20
3.91800000
  0
VERTEX
  8
0
 62
7
 10
17.13863672
 20
3.89209375
  0
VERTEX
  8
0
 62
7
 10
17.15028125
 20
3.86543750
  0
VERTEX
  8
0
 62
7
 10
17.15991016
 20
3.83812500
  0
VERTEX
  8
0
 62
7
 10
17.16750000
 20
3.81025000
  0
VERTEX
  8
0
 62
7
 10
17.17302734
 20
3.78190625
  0
VERTEX
  8
0
 62
7
 10
17.17646875
 20
3.75318750
  0
VERTEX
  8
0
 62
7
 10
17.17780078
 20
3.72418750
  0
VERTEX
  8
0
 62
7
 10
17.17700000
 20
3.69500000
  0
VERTEX
  8
0
 62
7
 10
17.16801563
 20
3.72793750
  0
VERTEX
  8
0
 62
7
 10
17.15462500
 20
3.75900000
  0
VERTEX
  8
0
 62
7
 10
17.13692188
 20
3.78781250
  0
VERTEX
  8
0
 62
7
 10
17.11500000
 20
3.81400000
  0
VERTEX
  8
0
 62
7
 10
17.08832813
 20
3.83710938
  0
VERTEX
  8
0
 62
7
 10
17.05837500
 20
3.85562500
  0
VERTEX
  8
0
 62
7
 10
17.02598438
 20
3.86982813
  0
VERTEX
  8
0
 62
7
 10
16.99200000
 20
3.88000000
  0
VERTEX
  8
0
 62
7
 10
16.95404688
 20
3.88562500
  0
VERTEX
  8
0
 62
7
 10
16.91562500
 20
3.88525000
  0
VERTEX
  8
0
 62
7
 10
16.87739063
 20
3.88000000
  0
VERTEX
  8
0
 62
7
 10
16.84000000
 20
3.87100000
  0
VERTEX
  8
0
 62
7
 10
16.80671875
 20
3.86018750
  0
VERTEX
  8
0
 62
7
 10
16.77475000
 20
3.84675000
  0
VERTEX
  8
0
 62
7
 10
16.74465625
 20
3.82993750
  0
VERTEX
  8
0
 62
7
 10
16.71700000
 20
3.80900000
  0
VERTEX
  8
0
 62
7
 10
16.68867188
 20
3.78062500
  0
VERTEX
  8
0
 62
7
 10
16.66512500
 20
3.74850000
  0
VERTEX
  8
0
 62
7
 10
16.64626563
 20
3.71337500
  0
VERTEX
  8
0
 62
7
 10
16.63200000
 20
3.67600000
  0
VERTEX
  8
0
 62
7
 10
16.62214063
 20
3.63876563
  0
VERTEX
  8
0
 62
7
 10
16.61687500
 20
3.60087500
  0
VERTEX
  8
0
 62
7
 10
16.61667188
 20
3.56279688
  0
VERTEX
  8
0
 62
7
 10
16.62200000
 20
3.52500000
  0
VERTEX
  8
0
 62
7
 10
16.62746680
 20
3.50292383
  0
VERTEX
  8
0
 62
7
 10
16.63423438
 20
3.48114063
  0
VERTEX
  8
0
 62
7
 10
16.64247852
 20
3.45994336
  0
VERTEX
  8
0
 62
7
 10
16.65237500
 20
3.43962500
  0
VERTEX
  8
0
 62
7
 10
16.66409961
 20
3.42047852
  0
VERTEX
  8
0
 62
7
 10
16.67782813
 20
3.40279688
  0
VERTEX
  8
0
 62
7
 10
16.69373633
 20
3.38687305
  0
VERTEX
  8
0
 62
7
 10
16.71200000
 20
3.37300000
  0
VERTEX
  8
0
 62
7
 10
16.73295313
 20
3.36067188
  0
VERTEX
  8
0
 62
7
 10
16.75512500
 20
3.35087500
  0
VERTEX
  8
0
 62
7
 10
16.77823438
 20
3.34389063
  0
VERTEX
  8
0
 62
7
 10
16.80200000
 20
3.34000000
  0
VERTEX
  8
0
 62
7
 10
16.83860938
 20
3.33960938
  0
VERTEX
  8
0
 62
7
 10
16.87437500
 20
3.34587500
  0
VERTEX
  8
0
 62
7
 10
16.90845313
 20
3.35870313
  0
VERTEX
  8
0
 62
7
 10
16.94000000
 20
3.37800000
  0
VERTEX
  8
0
 62
7
 10
16.92212500
 20
3.39187500
  0
VERTEX
  8
0
 62
7
 10
16.91100000
 20
3.41100000
  0
VERTEX
  8
0
 62
7
 10
16.90832813
 20
3.42031250
  0
VERTEX
  8
0
 62
7
 10
16.90687500
 20
3.43000000
  0
VERTEX
  8
0
 62
7
 10
16.90748438
 20
3.43968750
  0
VERTEX
  8
0
 62
7
 10
16.91100000
 20
3.44900000
  0
VERTEX
  8
0
 62
7
 10
16.91884375
 20
3.45843750
  0
VERTEX
  8
0
 62
7
 10
16.92950000
 20
3.46450000
  0
VERTEX
  8
0
 62
7
 10
16.94165625
 20
3.46756250
  0
VERTEX
  8
0
 62
7
 10
16.95400000
 20
3.46800000
  0
VERTEX
  8
0
 62
7
 10
16.96634375
 20
3.46565625
  0
VERTEX
  8
0
 62
7
 10
16.97775000
 20
3.46050000
  0
VERTEX
  8
0
 62
7
 10
16.98803125
 20
3.45309375
  0
VERTEX
  8
0
 62
7
 10
16.99700000
 20
3.44400000
  0
VERTEX
  8
0
 62
7
 10
17.00495313
 20
3.43131250
  0
VERTEX
  8
0
 62
7
 10
17.00962500
 20
3.41750000
  0
VERTEX
  8
0
 62
7
 10
17.01148438
 20
3.40293750
  0
VERTEX
  8
0
 62
7
 10
17.01100000
 20
3.38800000
  0
VERTEX
  8
0
 62
7
 10
17.00596875
 20
3.36825000
  0
VERTEX
  8
0
 62
7
 10
16.99625000
 20
3.35075000
  0
VERTEX
  8
0
 62
7
 10
16.98315625
 20
3.33512500
  0
VERTEX
  8
0
 62
7
 10
16.96800000
 20
3.32100000
  0
VERTEX
  8
0
 62
7
 10
16.94789063
 20
3.30768750
  0
VERTEX
  8
0
 62
7
 10
16.92562500
 20
3.29850000
  0
VERTEX
  8
0
 62
7
 10
16.90204688
 20
3.29231250
  0
VERTEX
  8
0
 62
7
 10
16.87800000
 20
3.28800000
  0
VERTEX
  8
0
 62
7
 10
16.84710938
 20
3.28478125
  0
VERTEX
  8
0
 62
7
 10
16.81612500
 20
3.28550000
  0
VERTEX
  8
0
 62
7
 10
16.78532813
 20
3.28996875
  0
VERTEX
  8
0
 62
7
 10
16.75500000
 20
3.29800000
  0
VERTEX
  8
0
 62
7
 10
16.72932813
 20
3.30829688
  0
VERTEX
  8
0
 62
7
 10
16.70487500
 20
3.32112500
  0
VERTEX
  8
0
 62
7
 10
16.68173438
 20
3.33639063
  0
VERTEX
  8
0
 62
7
 10
16.66000000
 20
3.35400000
  0
VERTEX
  8
0
 62
7
 10
16.63850000
 20
3.37637500
  0
VERTEX
  8
0
 62
7
 10
16.62000000
 20
3.40100000
  0
VERTEX
  8
0
 62
7
 10
16.60375000
 20
3.42712500
  0
VERTEX
  8
0
 62
7
 10
16.58900000
 20
3.45400000
  0
VERTEX
  8
0
 62
7
 10
16.56737500
 20
3.50125000
  0
VERTEX
  8
0
 62
7
 10
16.55100000
 20
3.55000000
  0
VERTEX
  8
0
 62
7
 10
16.37400000
 20
3.55000000
  0
VERTEX
  8
0
 62
7
 10
16.37487500
 20
3.49500000
  0
VERTEX
  8
0
 62
7
 10
16.38100000
 20
3.44000000
  0
VERTEX
  8
0
 62
7
 10
16.38784375
 20
3.40346875
  0
VERTEX
  8
0
 62
7
 10
16.39675000
 20
3.36750000
  0
VERTEX
  8
0
 62
7
 10
16.40828125
 20
3.33228125
  0
VERTEX
  8
0
 62
7
 10
16.42300000
 20
3.29800000
  0
VERTEX
  8
0
 62
7
 10
16.44937500
 20
3.25162500
  0
VERTEX
  8
0
 62
7
 10
16.48100000
 20
3.20900000
  0
VERTEX
  8
0
 62
7
 10
17.07300000
 20
3.20900000
  0
VERTEX
  8
0
 62
7
 10
17.07300000
 20
3.09400000
  0
VERTEX
  8
0
 62
7
 10
17.12500000
 20
3.10800000
  0
VERTEX
  8
0
 62
7
 10
17.16964063
 20
3.12551563
  0
VERTEX
  8
0
 62
7
 10
17.21212500
 20
3.14762500
  0
VERTEX
  8
0
 62
7
 10
17.25254688
 20
3.17367188
  0
VERTEX
  8
0
 62
7
 10
17.29100000
 20
3.20300000
  0
VERTEX
  8
0
 62
7
 10
17.33350000
 20
3.24237500
  0
VERTEX
  8
0
 62
7
 10
17.37150000
 20
3.28625000
  0
VERTEX
  8
0
 62
7
 10
17.40575000
 20
3.33350000
  0
VERTEX
  8
0
 62
7
 10
17.43700000
 20
3.38300000
  0
VERTEX
  8
0
 62
7
 10
17.46470313
 20
3.43371875
  0
VERTEX
  8
0
 62
7
 10
17.48837500
 20
3.48650000
  0
VERTEX
  8
0
 62
7
 10
17.50885938
 20
3.54078125
  0
VERTEX
  8
0
 62
7
 10
17.52700000
 20
3.59600000
  0
VERTEX
  8
0
 62
7
 10
17.54004688
 20
3.64150000
  0
VERTEX
  8
0
 62
7
 10
17.55112500
 20
3.68775000
  0
VERTEX
  8
0
 62
7
 10
17.56089063
 20
3.73437500
  0
VERTEX
  8
0
 62
7
 10
17.57000000
 20
3.78100000
  0
VERTEX
  8
0
 62
7
 10
17.58078125
 20
3.84792188
  0
VERTEX
  8
0
 62
7
 10
17.58875000
 20
3.91512500
  0
VERTEX
  8
0
 62
7
 10
17.59559375
 20
3.98251563
  0
VERTEX
  8
0
 62
7
 10
17.60300000
 20
4.05000000
  0
VERTEX
  8
0
 62
7
 10
17.60900000
 20
4.11937500
  0
VERTEX
  8
0
 62
7
 10
17.61800000
 20
4.18800000
  0
VERTEX
  8
0
 62
7
 10
17.62590625
 20
4.22706250
  0
VERTEX
  8
0
 62
7
 10
17.63550000
 20
4.26575000
  0
VERTEX
  8
0
 62
7
 10
17.64809375
 20
4.30331250
  0
VERTEX
  8
0
 62
7
 10
17.66500000
 20
4.33900000
  0
VERTEX
  8
0
 62
7
 10
17.67714063
 20
4.35987500
  0
VERTEX
  8
0
 62
7
 10
17.69012500
 20
4.38000000
  0
VERTEX
  8
0
 62
7
 10
17.70479688
 20
4.39862500
  0
VERTEX
  8
0
 62
7
 10
17.72200000
 20
4.41500000
  0
VERTEX
  8
0
 62
7
 10
17.73950000
 20
4.42746094
  0
VERTEX
  8
0
 62
7
 10
17.75812500
 20
4.43781250
  0
VERTEX
  8
0
 62
7
 10
17.77768750
 20
4.44600781
  0
VERTEX
  8
0
 62
7
 10
17.79800000
 20
4.45200000
  0
VERTEX
  8
0
 62
7
 10
17.81887500
 20
4.45574219
  0
VERTEX
  8
0
 62
7
 10
17.84012500
 20
4.45718750
  0
VERTEX
  8
0
 62
7
 10
17.86156250
 20
4.45628906
  0
VERTEX
  8
0
 62
7
 10
17.88300000
 20
4.45300000
  0
VERTEX
  8
0
 62
7
 10
17.89370313
 20
4.47810938
  0
VERTEX
  8
0
 62
7
 10
17.90187500
 20
4.50387500
  0
VERTEX
  8
0
 62
7
 10
17.90760938
 20
4.53020313
  0
VERTEX
  8
0
 62
7
 10
17.91100000
 20
4.55700000
  0
VERTEX
  8
0
 62
7
 10
17.91225000
 20
4.58873438
  0
VERTEX
  8
0
 62
7
 10
17.91050000
 20
4.62037500
  0
VERTEX
  8
0
 62
7
 10
17.90425000
 20
4.65107813
  0
VERTEX
  8
0
 62
7
 10
17.89200000
 20
4.68000000
  0
VERTEX
  8
0
 62
7
 10
17.87965625
 20
4.69840625
  0
VERTEX
  8
0
 62
7
 10
17.86525000
 20
4.71475000
  0
VERTEX
  8
0
 62
7
 10
17.84896875
 20
4.72921875
  0
VERTEX
  8
0
 62
7
 10
17.83100000
 20
4.74200000
  0
VERTEX
  8
0
 62
7
 10
17.80264063
 20
4.75685938
  0
VERTEX
  8
0
 62
7
 10
17.77212500
 20
4.76637500
  0
VERTEX
  8
0
 62
7
 10
17.74029688
 20
4.77195313
  0
VERTEX
  8
0
 62
7
 10
17.70800000
 20
4.77500000
  0
VERTEX
  8
0
 62
7
 10
17.67893750
 20
4.77520313
  0
VERTEX
  8
0
 62
7
 10
17.65025000
 20
4.77287500
  0
VERTEX
  8
0
 62
7
 10
17.62193750
 20
4.76810938
  0
VERTEX
  8
0
 62
7
 10
17.59400000
 20
4.76100000
  0
VERTEX
  8
0
 62
7
 10
17.57023438
 20
4.75287500
  0
VERTEX
  8
0
 62
7
 10
17.54712500
 20
4.74325000
  0
VERTEX
  8
0
 62
7
 10
17.52495313
 20
4.73175000
  0
VERTEX
  8
0
 62
7
 10
17.50400000
 20
4.71800000
  0
VERTEX
  8
0
 62
7
 10
17.47093750
 20
4.68757813
  0
VERTEX
  8
0
 62
7
 10
17.44425000
 20
4.65162500
  0
VERTEX
  8
0
 62
7
 10
17.42243750
 20
4.61210938
  0
VERTEX
  8
0
 62
7
 10
17.40400000
 20
4.57100000
  0
VERTEX
  8
0
 62
7
 10
17.39110938
 20
4.53298438
  0
VERTEX
  8
0
 62
7
 10
17.38187500
 20
4.49412500
  0
VERTEX
  8
0
 62
7
 10
17.37545313
 20
4.45470313
  0
VERTEX
  8
0
 62
7
 10
17.37100000
 20
4.41500000
  0
VERTEX
  8
0
 62
7
 10
17.36860938
 20
4.37959375
  0
VERTEX
  8
0
 62
7
 10
17.36837500
 20
4.34400000
  0
VERTEX
  8
0
 62
7
 10
17.36945313
 20
4.30840625
  0
VERTEX
  8
0
 62
7
 10
17.37100000
 20
4.27300000
  0
VERTEX
  8
0
 62
7
 10
17.38100000
 20
4.15000000
  0
VERTEX
  8
0
 62
7
 10
17.39000000
 20
3.95600000
  0
VERTEX
  8
0
 62
7
 10
17.37600000
 20
3.95600000
  0
VERTEX
  8
0
 62
7
 10
17.36875000
 20
4.05787500
  0
VERTEX
  8
0
 62
7
 10
17.35700000
 20
4.15900000
  0
VERTEX
  8
0
 62
7
 10
17.34450000
 20
4.23700000
  0
VERTEX
  8
0
 62
7
 10
17.32900000
 20
4.31500000
  0
SEQEND
  0
POLYLINE
  8
0
 62
7
 66
1
 70
1
  0
VERTEX
  8
0
 62
7
 10
16.00000000
 20
3.14900000
  0
VERTEX
  8
0
 62
7
 10
14.98700000
 20
3.14900000
  0
VERTEX
  8
0
 62
7
 10
14.98700000
 20
2.92500000
  0
VERTEX
  8
0
 62
7
 10
16.00000000
 20
2.92500000
  0
VERTEX
  8
0
 62
7
 10
17.01300000
 20
2.92500000
  0
VERTEX
  8
0
 62
7
 10
17.01300000
 20
3.14900000
  0
VERTEX
  8
0
 62
7
 10
16.00000000
 20
3.14900000
  0
SEQEND
  0
POLYLINE
  8
0
 62
7
 66
1
 70
1
  0
VERTEX
  8
0
 62
7
 10
16.00000000
 20
3.73900000
  0
VERTEX
  8
0
 62
7
 10
15.45800000
 20
3.73900000
  0
VERTEX
  8
0
 62
7
 10
15.45800000
 20
3.61000000
  0
VERTEX
  8
0
 62
7
 10
16.00000000
 20
3.61000000
  0
VERTEX
  8
0
 62
7
 10
16.54200000
 20
3.61000000
  0
VERTEX
  8
0
 62
7
 10
16.54200000
 20
3.73900000
  0
VERTEX
  8
0
 62
7
 10
16.00000000
 20
3.73900000
  0
SEQEND
  0
POLYLINE
  8
0
 62
7
 66
1
 70
1
  0
VERTEX
  8
0
 62
7
 10
16.00000000
 20
4.98100000
  0
VERTEX
  8
0
 62
7
 10
16.37500000
 20
4.98100000
  0
VERTEX
  8
0
 62
7
 10
16.35500000
 20
5.00900000
  0
VERTEX
  8
0
 62
7
 10
16.33185742
 20
5.04414063
  0
VERTEX
  8
0
 62
7
 10
16.31048438
 20
5.08050000
  0
VERTEX
  8
0
 62
7
 10
16.29096289
 20
5.11798438
  0
VERTEX
  8
0
 62
7
 10
16.27337500
 20
5.15650000
  0
VERTEX
  8
0
 62
7
 10
16.25780273
 20
5.19595313
  0
VERTEX
  8
0
 62
7
 10
16.24432813
 20
5.23625000
  0
VERTEX
  8
0
 62
7
 10
16.23303320
 20
5.27729688
  0
VERTEX
  8
0
 62
7
 10
16.22400000
 20
5.31900000
  0
VERTEX
  8
0
 62
7
 10
16.21412500
 20
5.38937500
  0
VERTEX
  8
0
 62
7
 10
16.21100000
 20
5.45900000
  0
VERTEX
  8
0
 62
7
 10
16.21200000
 20
5.50700000
  0
VERTEX
  8
0
 62
7
 10
16.00000000
 20
5.50700000
  0
VERTEX
  8
0
 62
7
 10
15.78800000
 20
5.50700000
  0
VERTEX
  8
0
 62
7
 10
15.78900000
 20
5.45900000
  0
VERTEX
  8
0
 62
7
 10
15.78587500
 20
5.38937500
  0
VERTEX
  8
0
 62
7
 10
15.77600000
 20
5.31900000
  0
VERTEX
  8
0
 62
7
 10
15.76696680
 20
5.27729688
  0
VERTEX
  8
0
 62
7
 10
15.75567188
 20
5.23625000
  0
VERTEX
  8
0
 62
7
 10
15.74219727
 20
5.19595313
  0
VERTEX
  8
0
 62
7
 10
15.72662500
 20
5.15650000
  0
VERTEX
  8
0
 62
7
 10
15.70903711
 20
5.11798438
  0
VERTEX
  8
0
 62
7
 10
15.68951563
 20
5.08050000
  0
VERTEX
  8
0
 62
7
 10
15.66814258
 20
5.04414063
  0
VERTEX
  8
0
 62
7
 10
15.64500000
 20
5.00900000
  0
VERTEX
  8
0
 62
7
 10
15.62500000
 20
4.98100000
  0
VERTEX
  8
0
 62
7
 10
16.00000000
 20
4.98100000
  0
SEQEND
  0
POLYLINE
  8
0
 62
7
 66
1
 70
1
  0
VERTEX
  8
0
 62
7
 10
16.00000000
 20
10.04200000
  0
VERTEX
  8
0
 62
7
 10
15.93081445
 20
9.80466016
  0
VERTEX
  8
0
 62
7
 10
15.86951563
 20
9.56528125
  0
VERTEX
  8
0
 62
7
 10
15.81611523
 20
9.32407422
  0
VERTEX
  8
0
 62
7
 10
15.77062500
 20
9.08125000
  0
VERTEX
  8
0
 62
7
 10
15.73305664
 20
8.83701953
  0
VERTEX
  8
0
 62
7
 10
15.70342188
 20
8.59159375
  0
VERTEX
  8
0
 62
7
 10
15.68173242
 20
8.34518359
  0
VERTEX
  8
0
 62
7
 10
15.66800000
 20
8.09800000
  0
VERTEX
  8
0
 62
7
 10
15.66374585
 20
7.95288135
  0
VERTEX
  8
0
 62
7
 10
15.66223242
 20
7.80780078
  0
VERTEX
  8
0
 62
7
 10
15.66345825
 20
7.66279639
  0
VERTEX
  8
0
 62
7
 10
15.66742188
 20
7.51790625
  0
VERTEX
  8
0
 62
7
 10
15.67412183
 20
7.37316846
  0
VERTEX
  8
0
 62
7
 10
15.68355664
 20
7.22862109
  0
VERTEX
  8
0
 62
7
 10
15.69572485
 20
7.08430225
  0
VERTEX
  8
0
 62
7
 10
15.71062500
 20
6.94025000
  0
VERTEX
  8
0
 62
7
 10
15.72825562
 20
6.79650244
  0
VERTEX
  8
0
 62
7
 10
15.74861523
 20
6.65309766
  0
VERTEX
  8
0
 62
7
 10
15.77170239
 20
6.51007373
  0
VERTEX
  8
0
 62
7
 10
15.79751563
 20
6.36746875
  0
VERTEX
  8
0
 62
7
 10
15.82605347
 20
6.22532080
  0
VERTEX
  8
0
 62
7
 10
15.85731445
 20
6.08366797
  0
VERTEX
  8
0
 62
7
 10
15.89129712
 20
5.94254834
  0
VERTEX
  8
0
 62
7
 10
15.92800000
 20
5.80200000
  0
VERTEX
  8
0
 62
7
 10
15.99800000
 20
5.80200000
  0
VERTEX
  8
0
 62
7
 10
16.07200000
 20
5.80200000
  0
VERTEX
  8
0
 62
7
 10
16.10870288
 20
5.94254834
  0
VERTEX
  8
0
 62
7
 10
16.14268555
 20
6.08366797
  0
VERTEX
  8
0
 62
7
 10
16.17394653
 20
6.22532080
  0
VERTEX
  8
0
 62
7
 10
16.20248438
 20
6.36746875
  0
VERTEX
  8
0
 62
7
 10
16.22829761
 20
6.51007373
  0
VERTEX
  8
0
 62
7
 10
16.25138477
 20
6.65309766
  0
VERTEX
  8
0
 62
7
 10
16.27174438
 20
6.79650244
  0
VERTEX
  8
0
 62
7
 10
16.28937500
 20
6.94025000
  0
VERTEX
  8
0
 62
7
 10
16.30427515
 20
7.08430225
  0
VERTEX
  8
0
 62
7
 10
16.31644336
 20
7.22862109
  0
VERTEX
  8
0
 62
7
 10
16.32587817
 20
7.37316846
  0
VERTEX
  8
0
 62
7
 10
16.33257813
 20
7.51790625
  0
VERTEX
  8
0
 62
7
 10
16.33654175
 20
7.66279639
  0
VERTEX
  8
0
 62
7
 10
16.33776758
 20
7.80780078
  0
VERTEX
  8
0
 62
7
 10
16.33625415
 20
7.95288135
  0
VERTEX
  8
0
 62
7
 10
16.33200000
 20
8.09800000
  0
VERTEX
  8
0
 62
7
 10
16.31826758
 20
8.34518359
  0
VERTEX
  8
0
 62
7
 10
16.29657813
 20
8.59159375
  0
VERTEX
  8
0
 62
7
 10
16.26694336
 20
8.83701953
  0
VERTEX
  8
0
 62
7
 10
16.22937500
 20
9.08125000
  0
VERTEX
  8
0
 62
7
 10
16.18388477
 20
9.32407422
  0
VERTEX
  8
0
 62
7
 10
16.13048438
 20
9.56528125
  0
VERTEX
  8
0
 62
7
 10
16.06918555
 20
9.80466016
  0
VERTEX
  8
0
 62
7
 10
16.00000000
 20
10.04200000
  0
SEQEND
  0
POLYLINE
  8
0
 62
7
 66
1
 70
1
  0
VERTEX
  8
0
 62
7
 10
17.15800000
 20
11.93900000
  0
VERTEX
  8
0
 62
7
 10
16.83100000
 20
11.93900000
  0
VERTEX
  8
0
 62
7
 10
16.56000000
 20
9.87300000
  0
VERTEX
  8
0
 62
7
 10
16.56500000
 20
9.87300000
  0
VERTEX
  8
0
 62
7
 10
16.58995703
 20
9.87125977
  0
VERTEX
  8
0
 62
7
 10
16.61371875
 20
9.86620313
  0
VERTEX
  8
0
 62
7
 10
16.63612109
 20
9.85807617
  0
VERTEX
  8
0
 62
7
 10
16.65700000
 20
9.84712500
  0
VERTEX
  8
0
 62
7
 10
16.67619141
 20
9.83359570
  0
VERTEX
  8
0
 62
7
 10
16.69353125
 20
9.81773438
  0
VERTEX
  8
0
 62
7
 10
16.70885547
 20
9.79978711
  0
VERTEX
  8
0
 62
7
 10
16.72200000
 20
9.78000000
  0
VERTEX
  8
0
 62
7
 10
17.15800000
 20
11.93900000
  0
SEQEND
  0
POLYLINE
  8
0
 62
7
 66
1
 70
1
  0
VERTEX
  8
0
 62
7
 10
16.77100000
 20
11.93900000
  0
VERTEX
  8
0
 62
7
 10
16.39000000
 20
11.93900000
  0
VERTEX
  8
0
 62
7
 10
16.28100000
 20
10.39500000
  0
VERTEX
  8
0
 62
7
 10
16.27700000
 20
10.33500000
  0
VERTEX
  8
0
 62
7
 10
16.31654688
 20
10.20320313
  0
VERTEX
  8
0
 62
7
 10
16.35412500
 20
10.07037500
  0
VERTEX
  8
0
 62
7
 10
16.38964063
 20
9.93660938
  0
VERTEX
  8
0
 62
7
 10
16.42300000
 20
9.80200000
  0
VERTEX
  8
0
 62
7
 10
16.43851563
 20
9.81978125
  0
VERTEX
  8
0
 62
7
 10
16.45637500
 20
9.83550000
  0
VERTEX
  8
0
 62
7
 10
16.47629688
 20
9.84896875
  0
VERTEX
  8
0
 62
7
 10
16.49800000
 20
9.86000000
  0
VERTEX
  8
0
 62
7
 10
16.77100000
 20
11.93900000
  0
SEQEND
  0
POLYLINE
  8
0
 62
7
 66
1
 70
1
  0
VERTEX
  8
0
 62
7
 10
16.33100000
 20
11.93900000
  0
VERTEX
  8
0
 62
7
 10
16.02900000
 20
11.93900000
  0
VERTEX
  8
0
 62
7
 10
16.02900000
 20
11.01800000
  0
VERTEX
  8
0
 62
7
 10
16.08309375
 20
10.88171875
  0
VERTEX
  8
0
 62
7
 10
16.13175000
 20
10.74975000
  0
VERTEX
  8
0
 62
7
 10
16.17778125
 20
10.61665625
  0
VERTEX
  8
0
 62
7
 10
16.22400000
 20
10.47700000
  0
VERTEX
  8
0
 62
7
 10
16.33100000
 20
11.93900000
  0
SEQEND
  0
POLYLINE
  8
0
 62
7
 66
1
 70
1
  0
VERTEX
  8
0
 62
7
 10
16.00000000
 20
10.93100000
  0
VERTEX
  8
0
 62
7
 10
15.93079004
 20
10.75325708
  0
VERTEX
  8
0
 62
7
 10
15.86571094
 20
10.57340039
  0
VERTEX
  8
0
 62
7
 10
15.80483887
 20
10.39161304
  0
VERTEX
  8
0
 62
7
 10
15.74825000
 20
10.20807813
  0
VERTEX
  8
0
 62
7
 10
15.69602051
 20
10.02297876
  0
VERTEX
  8
0
 62
7
 10
15.64822656
 20
9.83649805
  0
VERTEX
  8
0
 62
7
 10
15.60494434
 20
9.64881909
  0
VERTEX
  8
0
 62
7
 10
15.56625000
 20
9.46012500
  0
VERTEX
  8
0
 62
7
 10
15.53221973
 20
9.27059888
  0
VERTEX
  8
0
 62
7
 10
15.50292969
 20
9.08042383
  0
VERTEX
  8
0
 62
7
 10
15.47845605
 20
8.88978296
  0
VERTEX
  8
0
 62
7
 10
15.45887500
 20
8.69885938
  0
VERTEX
  8
0
 62
7
 10
15.44426270
 20
8.50783618
  0
VERTEX
  8
0
 62
7
 10
15.43469531
 20
8.31689648
  0
VERTEX
  8
0
 62
7
 10
15.43024902
 20
8.12622339
  0
VERTEX
  8
0
 62
7
 10
15.43100000
 20
7.93600000
  0
VERTEX
  8
0
 62
7
 10
15.43483545
 20
7.80030322
  0
VERTEX
  8
0
 62
7
 10
15.44143359
 20
7.66473828
  0
VERTEX
  8
0
 62
7
 10
15.45074463
 20
7.52934326
  0
VERTEX
  8
0
 62
7
 10
15.46271875
 20
7.39415625
  0
VERTEX
  8
0
 62
7
 10
15.47730615
 20
7.25921533
  0
VERTEX
  8
0
 62
7
 10
15.49445703
 20
7.12455859
  0
VERTEX
  8
0
 62
7
 10
15.51412158
 20
6.99022412
  0
VERTEX
  8
0
 62
7
 10
15.53625000
 20
6.85625000
  0
VERTEX
  8
0
 62
7
 10
15.56079248
 20
6.72267432
  0
VERTEX
  8
0
 62
7
 10
15.58769922
 20
6.58953516
  0
VERTEX
  8
0
 62
7
 10
15.61692041
 20
6.45687061
  0
VERTEX
  8
0
 62
7
 10
15.64840625
 20
6.32471875
  0
VERTEX
  8
0
 62
7
 10
15.68210693
 20
6.19311768
  0
VERTEX
  8
0
 62
7
 10
15.71797266
 20
6.06210547
  0
VERTEX
  8
0
 62
7
 10
15.75595361
 20
5.93172021
  0
VERTEX
  8
0
 62
7
 10
15.79600000
 20
5.80200000
  0
VERTEX
  8
0
 62
7
 10
15.86500000
 20
5.80200000
  0
VERTEX
  8
0
 62
7
 10
15.83337207
 20
5.92445776
  0
VERTEX
  8
0
 62
7
 10
15.80374219
 20
6.04731836
  0
VERTEX
  8
0
 62
7
 10
15.77611621
 20
6.17056274
  0
VERTEX
  8
0
 62
7
 10
15.75050000
 20
6.29417188
  0
VERTEX
  8
0
 62
7
 10
15.72689941
 20
6.41812671
  0
VERTEX
  8
0
 62
7
 10
15.70532031
 20
6.54240820
  0
VERTEX
  8
0
 62
7
 10
15.68576855
 20
6.66699731
  0
VERTEX
  8
0
 62
7
 10
15.66825000
 20
6.79187500
  0
VERTEX
  8
0
 62
7
 10
15.65277051
 20
6.91702222
  0
VERTEX
  8
0
 62
7
 10
15.63933594
 20
7.04241992
  0
VERTEX
  8
0
 62
7
 10
15.62795215
 20
7.16804907
  0
VERTEX
  8
0
 62
7
 10
15.61862500
 20
7.29389063
  0
VERTEX
  8
0
 62
7
 10
15.61136035
 20
7.41992554
  0
VERTEX
  8
0
 62
7
 10
15.60616406
 20
7.54613477
  0
VERTEX
  8
0
 62
7
 10
15.60304199
 20
7.67249927
  0
VERTEX
  8
0
 62
7
 10
15.60200000
 20
7.79900000
  0
VERTEX
  8
0
 62
7
 10
15.60350000
 20
7.94950000
  0
VERTEX
  8
0
 62
7
 10
15.60800000
 20
8.10000000
  0
VERTEX
  8
0
 62
7
 10
15.61445605
 20
8.23583838
  0
VERTEX
  8
0
 62
7
 10
15.62332031
 20
8.37145703
  0
VERTEX
  8
0
 62
7
 10
15.63458691
 20
8.50682373
  0
VERTEX
  8
0
 62
7
 10
15.64825000
 20
8.64190625
  0
VERTEX
  8
0
 62
7
 10
15.66430371
 20
8.77667236
  0
VERTEX
  8
0
 62
7
 10
15.68274219
 20
8.91108984
  0
VERTEX
  8
0
 62
7
 10
15.70355957
 20
9.04512646
  0
VERTEX
  8
0
 62
7
 10
15.72675000
 20
9.17875000
  0
VERTEX
  8
0
 62
7
 10
15.75230762
 20
9.31192822
  0
VERTEX
  8
0
 62
7
 10
15.78022656
 20
9.44462891
  0
VERTEX
  8
0
 62
7
 10
15.81050098
 20
9.57681982
  0
VERTEX
  8
0
 62
7
 10
15.84312500
 20
9.70846875
  0
VERTEX
  8
0
 62
7
 10
15.87809277
 20
9.83954346
  0
VERTEX
  8
0
 62
7
 10
15.91539844
 20
9.97001172
  0
VERTEX
  8
0
 62
7
 10
15.95503613
 20
10.09984131
  0
VERTEX
  8
0
 62
7
 10
15.99700000
 20
10.22900000
  0
VERTEX
  8
0
 62
7
 10
16.03903125
 20
10.09984131
  0
VERTEX
  8
0
 62
7
 10
16.07885938
 20
9.97001172
  0
VERTEX
  8
0
 62
7
 10
16.11646094
 20
9.83954346
  0
VERTEX
  8
0
 62
7
 10
16.15181250
 20
9.70846875
  0
VERTEX
  8
0
 62
7
 10
16.18489063
 20
9.57681982
  0
VERTEX
  8
0
 62
7
 10
16.21567188
 20
9.44462891
  0
VERTEX
  8
0
 62
7
 10
16.24413281
 20
9.31192822
  0
VERTEX
  8
0
 62
7
 10
16.27025000
 20
9.17875000
  0
VERTEX
  8
0
 62
7
 10
16.29400000
 20
9.04512646
  0
VERTEX
  8
0
 62
7
 10
16.31535938
 20
8.91108984
  0
VERTEX
  8
0
 62
7
 10
16.33430469
 20
8.77667236
  0
VERTEX
  8
0
 62
7
 10
16.35081250
 20
8.64190625
  0
VERTEX
  8
0
 62
7
 10
16.36485938
 20
8.50682373
  0
VERTEX
  8
0
 62
7
 10
16.37642188
 20
8.37145703
  0
VERTEX
  8
0
 62
7
 10
16.38547656
 20
8.23583838
  0
VERTEX
  8
0
 62
7
 10
16.39200000
 20
8.10000000
  0
VERTEX
  8
0
 62
7
 10
16.39650000
 20
7.94950000
  0
VERTEX
  8
0
 62
7
 10
16.39800000
 20
7.79900000
  0
VERTEX
  8
0
 62
7
 10
16.39695801
 20
7.67249927
  0
VERTEX
  8
0
 62
7
 10
16.39383594
 20
7.54613477
  0
VERTEX
  8
0
 62
7
 10
16.38863965
 20
7.41992554
  0
VERTEX
  8
0
 62
7
 10
16.38137500
 20
7.29389063
  0
VERTEX
  8
0
 62
7
 10
16.37204785
 20
7.16804907
  0
VERTEX
  8
0
 62
7
 10
16.36066406
 20
7.04241992
  0
VERTEX
  8
0
 62
7
 10
16.34722949
 20
6.91702222
  0
VERTEX
  8
0
 62
7
 10
16.33175000
 20
6.79187500
  0
VERTEX
  8
0
 62
7
 10
16.31423145
 20
6.66699731
  0
VERTEX
  8
0
 62
7
 10
16.29467969
 20
6.54240820
  0
VERTEX
  8
0
 62
7
 10
16.27310059
 20
6.41812671
  0
VERTEX
  8
0
 62
7
 10
16.24950000
 20
6.29417188
  0
VERTEX
  8
0
 62
7
 10
16.22388379
 20
6.17056274
  0
VERTEX
  8
0
 62
7
 10
16.19625781
 20
6.04731836
  0
VERTEX
  8
0
 62
7
 10
16.16662793
 20
5.92445776
  0
VERTEX
  8
0
 62
7
 10
16.13500000
 20
5.80200000
  0
VERTEX
  8
0
 62
7
 10
16.20400000
 20
5.80200000
  0
VERTEX
  8
0
 62
7
 10
16.24404639
 20
5.93172021
  0
VERTEX
  8
0
 62
7
 10
16.28202734
 20
6.06210547
  0
VERTEX
  8
0
 62
7
 10
16.31789307
 20
6.19311768
  0
VERTEX
  8
0
 62
7
 10
16.35159375
 20
6.32471875
  0
VERTEX
  8
0
 62
7
 10
16.38307959
 20
6.45687061
  0
VERTEX
  8
0
 62
7
 10
16.41230078
 20
6.58953516
  0
VERTEX
  8
0
 62
7
 10
16.43920752
 20
6.72267432
  0
VERTEX
  8
0
 62
7
 10
16.46375000
 20
6.85625000
  0
VERTEX
  8
0
 62
7
 10
16.48587842
 20
6.99022412
  0
VERTEX
  8
0
 62
7
 10
16.50554297
 20
7.12455859
  0
VERTEX
  8
0
 62
7
 10
16.52269385
 20
7.25921533
  0
VERTEX
  8
0
 62
7
 10
16.53728125
 20
7.39415625
  0
VERTEX
  8
0
 62
7
 10
16.54925537
 20
7.52934326
  0
VERTEX
  8
0
 62
7
 10
16.55856641
 20
7.66473828
  0
VERTEX
  8
0
 62
7
 10
16.56516455
 20
7.80030322
  0
VERTEX
  8
0
 62
7
 10
16.56900000
 20
7.93600000
  0
VERTEX
  8
0
 62
7
 10
16.56975098
 20
8.12622339
  0
VERTEX
  8
0
 62
7
 10
16.56530469
 20
8.31689648
  0
VERTEX
  8
0
 62
7
 10
16.55573730
 20
8.50783618
  0
VERTEX
  8
0
 62
7
 10
16.54112500
 20
8.69885938
  0
VERTEX
  8
0
 62
7
 10
16.52154395
 20
8.88978296
  0
VERTEX
  8
0
 62
7
 10
16.49707031
 20
9.08042383
  0
VERTEX
  8
0
 62
7
 10
16.46778027
 20
9.27059888
  0
VERTEX
  8
0
 62
7
 10
16.43375000
 20
9.46012500
  0
VERTEX
  8
0
 62
7
 10
16.39505566
 20
9.64881909
  0
VERTEX
  8
0
 62
7
 10
16.35177344
 20
9.83649805
  0
VERTEX
  8
0
 62
7
 10
16.30397949
 20
10.02297876
  0
VERTEX
  8
0
 62
7
 10
16.25175000
 20
10.20807813
  0
VERTEX
  8
0
 62
7
 10
16.19516113
 20
10.39161304
  0
VERTEX
  8
0
 62
7
 10
16.13428906
 20
10.57340039
  0
VERTEX
  8
0
 62
7
 10
16.06920996
 20
10.75325708
  0
VERTEX
  8
0
 62
7
 10
16.00000000
 20
10.93100000
  0
SEQEND
  0
POLYLINE
  8
0
 62
7
 66
1
 70
1
  0
VERTEX
  8
0
 62
7
 10
16.25500000
 20
5.80200000
  0
VERTEX
  8
0
 62
7
 10
16.25500000
 20
5.80200000
  0
VERTEX
  8
0
 62
7
 10
16.27600000
 20
5.80200000
  0
VERTEX
  8
0
 62
7
 10
16.30015356
 20
5.85975000
  0
VERTEX
  8
0
 62
7
 10
16.32790039
 20
5.91581250
  0
VERTEX
  8
0
 62
7
 10
16.35910718
 20
5.96990625
  0
VERTEX
  8
0
 62
7
 10
16.39364063
 20
6.02175000
  0
VERTEX
  8
0
 62
7
 10
16.43136743
 20
6.07106250
  0
VERTEX
  8
0
 62
7
 10
16.47215430
 20
6.11756250
  0
VERTEX
  8
0
 62
7
 10
16.51586792
 20
6.16096875
  0
VERTEX
  8
0
 62
7
 10
16.56237500
 20
6.20100000
  0
VERTEX
  8
0
 62
7
 10
16.61154224
 20
6.23737500
  0
VERTEX
  8
0
 62
7
 10
16.66323633
 20
6.26981250
  0
VERTEX
  8
0
 62
7
 10
16.71732397
 20
6.29803125
  0
VERTEX
  8
0
 62
7
 10
16.77367188
 20
6.32175000
  0
VERTEX
  8
0
 62
7
 10
16.83214673
 20
6.34068750
  0
VERTEX
  8
0
 62
7
 10
16.89261523
 20
6.35456250
  0
VERTEX
  8
0
 62
7
 10
16.95494409
 20
6.36309375
  0
VERTEX
  8
0
 62
7
 10
17.01900000
 20
6.36600000
  0
VERTEX
  8
0
 62
7
 10
17.08275000
 20
6.36300000
  0
VERTEX
  8
0
 62
7
 10
17.14800000
 20
6.35400000
  0
VERTEX
  8
0
 62
7
 10
17.20509180
 20
6.34113672
  0
VERTEX
  8
0
 62
7
 10
17.26104688
 20
6.32271875
  0
VERTEX
  8
0
 62
7
 10
17.31500977
 20
6.29862891
  0
VERTEX
  8
0
 62
7
 10
17.36612500
 20
6.26875000
  0
VERTEX
  8
0
 62
7
 10
17.41353711
 20
6.23296484
  0
VERTEX
  8
0
 62
7
 10
17.45639063
 20
6.19115625
  0
VERTEX
  8
0
 62
7
 10
17.49383008
 20
6.14320703
  0
VERTEX
  8
0
 62
7
 10
17.52500000
 20
6.08900000
  0
VERTEX
  8
0
 62
7
 10
17.54778125
 20
6.03421875
  0
VERTEX
  8
0
 62
7
 10
17.56475000
 20
5.97700000
  0
VERTEX
  8
0
 62
7
 10
17.57534375
 20
5.91828125
  0
VERTEX
  8
0
 62
7
 10
17.57900000
 20
5.85900000
  0
VERTEX
  8
0
 62
7
 10
17.57733203
 20
5.81929688
  0
VERTEX
  8
0
 62
7
 10
17.57221875
 20
5.77987500
  0
VERTEX
  8
0
 62
7
 10
17.56349609
 20
5.74101563
  0
VERTEX
  8
0
 62
7
 10
17.55100000
 20
5.70300000
  0
VERTEX
  8
0
 62
7
 10
17.53456641
 20
5.66610938
  0
VERTEX
  8
0
 62
7
 10
17.51403125
 20
5.63062500
  0
VERTEX
  8
0
 62
7
 10
17.48923047
 20
5.59682813
  0
VERTEX
  8
0
 62
7
 10
17.46000000
 20
5.56500000
  0
VERTEX
  8
0
 62
7
 10
17.43260547
 20
5.54146680
  0
VERTEX
  8
0
 62
7
 10
17.40190625
 20
5.52110938
  0
VERTEX
  8
0
 62
7
 10
17.36862891
 20
5.50391602
  0
VERTEX
  8
0
 62
7
 10
17.33350000
 20
5.48987500
  0
VERTEX
  8
0
 62
7
 10
17.29724609
 20
5.47897461
  0
VERTEX
  8
0
 62
7
 10
17.26059375
 20
5.47120313
  0
VERTEX
  8
0
 62
7
 10
17.22426953
 20
5.46654883
  0
VERTEX
  8
0
 62
7
 10
17.18900000
 20
5.46500000
  0
VERTEX
  8
0
 62
7
 10
17.15042188
 20
5.46700000
  0
VERTEX
  8
0
 62
7
 10
17.11212500
 20
5.47350000
  0
VERTEX
  8
0
 62
7
 10
17.07551563
 20
5.48525000
  0
VERTEX
  8
0
 62
7
 10
17.04200000
 20
5.50300000
  0
VERTEX
  8
0
 62
7
 10
17.01264063
 20
5.52789063
  0
VERTEX
  8
0
 62
7
 10
16.99012500
 20
5.55587500
  0
VERTEX
  8
0
 62
7
 10
16.97379688
 20
5.58667188
  0
VERTEX
  8
0
 62
7
 10
16.96300000
 20
5.62000000
  0
VERTEX
  8
0
 62
7
 10
16.96132617
 20
5.63232422
  0
VERTEX
  8
0
 62
7
 10
16.96217188
 20
5.64434375
  0
VERTEX
  8
0
 62
7
 10
16.96533789
 20
5.65575391
  0
VERTEX
  8
0
 62
7
 10
16.97062500
 20
5.66625000
  0
VERTEX
  8
0
 62
7
 10
16.97783398
 20
5.67552734
  0
VERTEX
  8
0
 62
7
 10
16.98676563
 20
5.68328125
  0
VERTEX
  8
0
 62
7
 10
16.99722070
 20
5.68920703
  0
VERTEX
  8
0
 62
7
 10
17.00900000
 20
5.69300000
  0
VERTEX
  8
0
 62
7
 10
17.02112500
 20
5.69700000
  0
VERTEX
  8
0
 62
7
 10
17.03100000
 20
5.70400000
  0
VERTEX
  8
0
 62
7
 10
17.03540625
 20
5.70909375
  0
VERTEX
  8
0
 62
7
 10
17.03925000
 20
5.71775000
  0
VERTEX
  8
0
 62
7
 10
17.04196875
 20
5.73128125
  0
VERTEX
  8
0
 62
7
 10
17.04300000
 20
5.75100000
  0
VERTEX
  8
0
 62
7
 10
17.04200000
 20
5.77200000
  0
VERTEX
  8
0
 62
7
 10
17.03907813
 20
5.79448438
  0
VERTEX
  8
0
 62
7
 10
17.03212500
 20
5.81687500
  0
VERTEX
  8
0
 62
7
 10
17.02160938
 20
5.83907813
  0
VERTEX
  8
0
 62
7
 10
17.00800000
 20
5.86100000
  0
VERTEX
  8
0
 62
7
 10
16.98987500
 20
5.88142188
  0
VERTEX
  8
0
 62
7
 10
16.96875000
 20
5.89912500
  0
VERTEX
  8
0
 62
7
 10
16.94500000
 20
5.91401563
  0
VERTEX
  8
0
 62
7
 10
16.91900000
 20
5.92600000
  0
VERTEX
  8
0
 62
7
 10
16.88750000
 20
5.93412500
  0
VERTEX
  8
0
 62
7
 10
16.85300000
 20
5.93700000
  0
VERTEX
  8
0
 62
7
 10
16.81775000
 20
5.93475000
  0
VERTEX
  8
0
 62
7
 10
16.78100000
 20
5.92800000
  0
VERTEX
  8
0
 62
7
 10
16.73992188
 20
5.91554688
  0
VERTEX
  8
0
 62
7
 10
16.70062500
 20
5.89662500
  0
VERTEX
  8
0
 62
7
 10
16.66301563
 20
5.87189063
  0
VERTEX
  8
0
 62
7
 10
16.62700000
 20
5.84200000
  0
VERTEX
  8
0
 62
7
 10
16.59412500
 20
5.80721875
  0
VERTEX
  8
0
 62
7
 10
16.56575000
 20
5.76775000
  0
VERTEX
  8
0
 62
7
 10
16.54150000
 20
5.72415625
  0
VERTEX
  8
0
 62
7
 10
16.52100000
 20
5.67700000
  0
VERTEX
  8
0
 62
7
 10
16.50656250
 20
5.63354688
  0
VERTEX
  8
0
 62
7
 10
16.49625000
 20
5.58887500
  0
VERTEX
  8
0
 62
7
 10
16.49006250
 20
5.54326563
  0
VERTEX
  8
0
 62
7
 10
16.48800000
 20
5.49700000
  0
VERTEX
  8
0
 62
7
 10
16.48965625
 20
5.45560938
  0
VERTEX
  8
0
 62
7
 10
16.49450000
 20
5.41412500
  0
VERTEX
  8
0
 62
7
 10
16.50234375
 20
5.37282813
  0
VERTEX
  8
0
 62
7
 10
16.51300000
 20
5.33200000
  0
VERTEX
  8
0
 62
7
 10
16.52416772
 20
5.29780493
  0
VERTEX
  8
0
 62
7
 10
16.53737305
 20
5.26464258
  0
VERTEX
  8
0
 62
7
 10
16.55254419
 20
5.23258472
  0
VERTEX
  8
0
 62
7
 10
16.56960938
 20
5.20170313
  0
VERTEX
  8
0
 62
7
 10
16.58849683
 20
5.17206958
  0
VERTEX
  8
0
 62
7
 10
16.60913477
 20
5.14375586
  0
VERTEX
  8
0
 62
7
 10
16.63145142
 20
5.11683374
  0
VERTEX
  8
0
 62
7
 10
16.65537500
 20
5.09137500
  0
VERTEX
  8
0
 62
7
 10
16.68083374
 20
5.06745142
  0
VERTEX
  8
0
 62
7
 10
16.70775586
 20
5.04513477
  0
VERTEX
  8
0
 62
7
 10
16.73606958
 20
5.02449683
  0
VERTEX
  8
0
 62
7
 10
16.76570313
 20
5.00560938
  0
VERTEX
  8
0
 62
7
 10
16.79658472
 20
4.98854419
  0
VERTEX
  8
0
 62
7
 10
16.82864258
 20
4.97337305
  0
VERTEX
  8
0
 62
7
 10
16.86180493
 20
4.96016772
  0
VERTEX
  8
0
 62
7
 10
16.89600000
 20
4.94900000
  0
VERTEX
  8
0
 62
7
 10
16.91800000
 20
4.94200000
  0
VERTEX
  8
0
 62
7
 10
16.96931250
 20
4.93715625
  0
VERTEX
  8
0
 62
7
 10
17.02100000
 20
4.93550000
  0
VERTEX
  8
0
 62
7
 10
17.07268750
 20
4.93609375
  0
VERTEX
  8
0
 62
7
 10
17.12400000
 20
4.93800000
  0
VERTEX
  8
0
 62
7
 10
17.16839063
 20
4.94000000
  0
VERTEX
  8
0
 62
7
 10
17.21287500
 20
4.94350000
  0
VERTEX
  8
0
 62
7
 10
17.25717188
 20
4.94925000
  0
VERTEX
  8
0
 62
7
 10
17.30100000
 20
4.95800000
  0
VERTEX
  8
0
 62
7
 10
17.33185938
 20
4.96579688
  0
VERTEX
  8
0
 62
7
 10
17.36262500
 20
4.97462500
  0
VERTEX
  8
0
 62
7
 10
17.39282813
 20
4.98514063
  0
VERTEX
  8
0
 62
7
 10
17.42200000
 20
4.99800000
  0
VERTEX
  8
0
 62
7
 10
17.47225000
 20
5.02800000
  0
VERTEX
  8
0
 62
7
 10
17.51800000
 20
5.06400000
  0
VERTEX
  8
0
 62
7
 10
17.51147852
 20
5.04046094
  0
VERTEX
  8
0
 62
7
 10
17.50764063
 20
5.01650000
  0
VERTEX
  8
0
 62
7
 10
17.50645117
 20
4.99235156
  0
VERTEX
  8
0
 62
7
 10
17.50787500
 20
4.96825000
  0
VERTEX
  8
0
 62
7
 10
17.51187695
 20
4.94442969
  0
VERTEX
  8
0
 62
7
 10
17.51842188
 20
4.92112500
  0
VERTEX
  8
0
 62
7
 10
17.52747461
 20
4.89857031
  0
VERTEX
  8
0
 62
7
 10
17.53900000
 20
4.87700000
  0
VERTEX
  8
0
 62
7
 10
17.55331250
 20
4.85592188
  0
VERTEX
  8
0
 62
7
 10
17.56950000
 20
4.83662500
  0
VERTEX
  8
0
 62
7
 10
17.58793750
 20
4.81976563
  0
VERTEX
  8
0
 62
7
 10
17.60900000
 20
4.80600000
  0
VERTEX
  8
0
 62
7
 10
17.62622656
 20
4.79785938
  0
VERTEX
  8
0
 62
7
 10
17.64406250
 20
4.79206250
  0
VERTEX
  8
0
 62
7
 10
17.66236719
 20
4.78842188
  0
VERTEX
  8
0
 62
7
 10
17.68100000
 20
4.78675000
  0
VERTEX
  8
0
 62
7
 10
17.69982031
 20
4.78685938
  0
VERTEX
  8
0
 62
7
 10
17.71868750
 20
4.78856250
  0
VERTEX
  8
0
 62
7
 10
17.73746094
 20
4.79167188
  0
VERTEX
  8
0
 62
7
 10
17.75600000
 20
4.79600000
  0
VERTEX
  8
0
 62
7
 10
17.77942188
 20
4.80403125
  0
VERTEX
  8
0
 62
7
 10
17.80162500
 20
4.81450000
  0
VERTEX
  8
0
 62
7
 10
17.82251563
 20
4.82721875
  0
VERTEX
  8
0
 62
7
 10
17.84200000
 20
4.84200000
  0
VERTEX
  8
0
 62
7
 10
17.86187500
 20
4.86034375
  0
VERTEX
  8
0
 62
7
 10
17.87950000
 20
4.88075000
  0
VERTEX
  8
0
 62
7
 10
17.89487500
 20
4.90303125
  0
VERTEX
  8
0
 62
7
 10
17.90800000
 20
4.92700000
  0
VERTEX
  8
0
 62
7
 10
17.91865625
 20
4.95243750
  0
VERTEX
  8
0
 62
7
 10
17.92650000
 20
4.97900000
  0
VERTEX
  8
0
 62
7
 10
17.93134375
 20
5.00631250
  0
VERTEX
  8
0
 62
7
 10
17.93300000
 20
5.03400000
  0
VERTEX
  8
0
 62
7
 10
17.91192188
 20
5.03771875
  0
VERTEX
  8
0
 62
7
 10
17.89262500
 20
5.04575000
  0
VERTEX
  8
0
 62
7
 10
17.87576563
 20
5.05790625
  0
VERTEX
  8
0
 62
7
 10
17.86200000
 20
5.07400000
  0
VERTEX
  8
0
 62
7
 10
17.85270313
 20
5.09390625
  0
VERTEX
  8
0
 62
7
 10
17.84912500
 20
5.11550000
  0
VERTEX
  8
0
 62
7
 10
17.84948438
 20
5.13784375
  0
VERTEX
  8
0
 62
7
 10
17.85200000
 20
5.16000000
  0
VERTEX
  8
0
 62
7
 10
17.85837500
 20
5.18500000
  0
VERTEX
  8
0
 62
7
 10
17.86700000
 20
5.21000000
  0
VERTEX
  8
0
 62
7
 10
17.92800000
 20
5.37200000
  0
VERTEX
  8
0
 62
7
 10
17.94326563
 20
5.42170313
  0
VERTEX
  8
0
 62
7
 10
17.95712500
 20
5.47187500
  0
VERTEX
  8
0
 62
7
 10
17.96892188
 20
5.52260938
  0
VERTEX
  8
0
 62
7
 10
17.97800000
 20
5.57400000
  0
VERTEX
  8
0
 62
7
 10
17.98581250
 20
5.63956250
  0
VERTEX
  8
0
 62
7
 10
17.98950000
 20
5.70550000
  0
VERTEX
  8
0
 62
7
 10
17.98868750
 20
5.77143750
  0
VERTEX
  8
0
 62
7
 10
17.98300000
 20
5.83700000
  0
VERTEX
  8
0
 62
7
 10
17.97375195
 20
5.89597070
  0
VERTEX
  8
0
 62
7
 10
17.96095313
 20
5.95420313
  0
VERTEX
  8
0
 62
7
 10
17.94452148
 20
6.01142773
  0
VERTEX
  8
0
 62
7
 10
17.92437500
 20
6.06737500
  0
VERTEX
  8
0
 62
7
 10
17.90043164
 20
6.12177539
  0
VERTEX
  8
0
 62
7
 10
17.87260938
 20
6.17435938
  0
VERTEX
  8
0
 62
7
 10
17.84082617
 20
6.22485742
  0
VERTEX
  8
0
 62
7
 10
17.80500000
 20
6.27300000
  0
VERTEX
  8
0
 62
7
 10
17.77664063
 20
6.30614063
  0
VERTEX
  8
0
 62
7
 10
17.74687500
 20
6.33787500
  0
VERTEX
  8
0
 62
7
 10
17.71542188
 20
6.36792188
  0
VERTEX
  8
0
 62
7
 10
17.68200000
 20
6.39600000
  0
VERTEX
  8
0
 62
7
 10
17.64810938
 20
6.42054688
  0
VERTEX
  8
0
 62
7
 10
17.61262500
 20
6.44312500
  0
VERTEX
  8
0
 62
7
 10
17.57582813
 20
6.46364063
  0
VERTEX
  8
0
 62
7
 10
17.53800000
 20
6.48200000
  0
VERTEX
  8
0
 62
7
 10
17.46712500
 20
6.50825000
  0
VERTEX
  8
0
 62
7
 10
17.39400000
 20
6.52700000
  0
VERTEX
  8
0
 62
7
 10
17.32137500
 20
6.53825000
  0
VERTEX
  8
0
 62
7
 10
17.24800000
 20
6.54200000
  0
VERTEX
  8
0
 62
7
 10
17.20393750
 20
6.53950000
  0
VERTEX
  8
0
 62
7
 10
17.16025000
 20
6.53400000
  0
VERTEX
  8
0
 62
7
 10
17.11693750
 20
6.52625000
  0
VERTEX
  8
0
 62
7
 10
17.07400000
 20
6.51700000
  0
VERTEX
  8
0
 62
7
 10
17.00025000
 20
6.49712500
  0
VERTEX
  8
0
 62
7
 10
16.92800000
 20
6.47200000
  0
VERTEX
  8
0
 62
7
 10
16.85925000
 20
6.44487500
  0
VERTEX
  8
0
 62
7
 10
16.79200000
 20
6.41400000
  0
VERTEX
  8
0
 62
7
 10
16.82967188
 20
6.44493750
  0
VERTEX
  8
0
 62
7
 10
16.86912500
 20
6.47325000
  0
VERTEX
  8
0
 62
7
 10
16.91026563
 20
6.49893750
  0
VERTEX
  8
0
 62
7
 10
16.95300000
 20
6.52200000
  0
VERTEX
  8
0
 62
7
 10
16.99025000
 20
6.54000000
  0
VERTEX
  8
0
 62
7
 10
17.02900000
 20
6.55500000
  0
VERTEX
  8
0
 62
7
 10
17.05362500
 20
6.56150000
  0
VERTEX
  8
0
 62
7
 10
17.07900000
 20
6.56500000
  0
VERTEX
  8
0
 62
7
 10
17.08965625
 20
6.56579688
  0
VERTEX
  8
0
 62
7
 10
17.10050000
 20
6.56612500
  0
VERTEX
  8
0
 62
7
 10
17.11134375
 20
6.56514063
  0
VERTEX
  8
0
 62
7
 10
17.12200000
 20
6.56200000
  0
VERTEX
  8
0
 62
7
 10
17.12900000
 20
6.55900000
  0
VERTEX
  8
0
 62
7
 10
17.17100000
 20
6.56700000
  0
VERTEX
  8
0
 62
7
 10
17.22400000
 20
6.57100000
  0
VERTEX
  8
0
 62
7
 10
17.21953125
 20
6.59326563
  0
VERTEX
  8
0
 62
7
 10
17.21225000
 20
6.61487500
  0
VERTEX
  8
0
 62
7
 10
17.20234375
 20
6.63554688
  0
VERTEX
  8
0
 62
7
 10
17.19000000
 20
6.65500000
  0
VERTEX
  8
0
 62
7
 10
17.16000000
 20
6.68800000
  0
VERTEX
  8
0
 62
7
 10
17.16862500
 20
6.71850000
  0
VERTEX
  8
0
 62
7
 10
17.17275000
 20
6.74900000
  0
VERTEX
  8
0
 62
7
 10
17.17350000
 20
6.77800000
  0
VERTEX
  8
0
 62
7
 10
17.17200000
 20
6.80400000
  0
VERTEX
  8
0
 62
7
 10
17.16737500
 20
6.82512500
  0
VERTEX
  8
0
 62
7
 10
17.15900000
 20
6.84400000
  0
VERTEX
  8
0
 62
7
 10
17.10800000
 20
6.78300000
  0
VERTEX
  8
0
 62
7
 10
17.06400000
 20
6.73800000
  0
VERTEX
  8
0
 62
7
 10
17.06051563
 20
6.72381250
  0
VERTEX
  8
0
 62
7
 10
17.05487500
 20
6.71000000
  0
VERTEX
  8
0
 62
7
 10
17.04754688
 20
6.69693750
  0
VERTEX
  8
0
 62
7
 10
17.03900000
 20
6.68500000
  0
VERTEX
  8
0
 62
7
 10
17.01462500
 20
6.66350000
  0
VERTEX
  8
0
 62
7
 10
16.98800000
 20
6.64500000
  0
VERTEX
  8
0
 62
7
 10
16.91900000
 20
6.59725000
  0
VERTEX
  8
0
 62
7
 10
16.84700000
 20
6.55400000
  0
VERTEX
  8
0
 62
7
 10
16.93900000
 20
6.64850000
  0
VERTEX
  8
0
 62
7
 10
17.02800000
 20
6.74600000
  0
VERTEX
  8
0
 62
7
 10
17.07178125
 20
6.79566797
  0
VERTEX
  8
0
 62
7
 10
17.11518750
 20
6.84578125
  0
VERTEX
  8
0
 62
7
 10
17.15793750
 20
6.89650391
  0
VERTEX
  8
0
 62
7
 10
17.19975000
 20
6.94800000
  0
VERTEX
  8
0
 62
7
 10
17.24034375
 20
7.00043359
  0
VERTEX
  8
0
 62
7
 10
17.27943750
 20
7.05396875
  0
VERTEX
  8
0
 62
7
 10
17.31675000
 20
7.10876953
  0
VERTEX
  8
0
 62
7
 10
17.35200000
 20
7.16500000
  0
VERTEX
  8
0
 62
7
 10
17.37245313
 20
7.19850000
  0
VERTEX
  8
0
 62
7
 10
17.39262500
 20
7.23200000
  0
VERTEX
  8
0
 62
7
 10
17.41148438
 20
7.26625000
  0
VERTEX
  8
0
 62
7
 10
17.42800000
 20
7.30200000
  0
VERTEX
  8
0
 62
7
 10
17.44375000
 20
7.34468750
  0
VERTEX
  8
0
 62
7
 10
17.45650000
 20
7.38850000
  0
VERTEX
  8
0
 62
7
 10
17.46625000
 20
7.43306250
  0
VERTEX
  8
0
 62
7
 10
17.47300000
 20
7.47800000
  0
VERTEX
  8
0
 62
7
 10
17.47685938
 20
7.52840625
  0
VERTEX
  8
0
 62
7
 10
17.47687500
 20
7.57900000
  0
VERTEX
  8
0
 62
7
 10
17.47370313
 20
7.62959375
  0
VERTEX
  8
0
 62
7
 10
17.46800000
 20
7.68000000
  0
VERTEX
  8
0
 62
7
 10
17.45782227
 20
7.73499219
  0
VERTEX
  8
0
 62
7
 10
17.44264063
 20
7.78825000
  0
VERTEX
  8
0
 62
7
 10
17.42298242
 20
7.83982031
  0
VERTEX
  8
0
 62
7
 10
17.39937500
 20
7.88975000
  0
VERTEX
  8
0
 62
7
 10
17.37234570
 20
7.93808594
  0
VERTEX
  8
0
 62
7
 10
17.34242188
 20
7.98487500
  0
VERTEX
  8
0
 62
7
 10
17.31013086
 20
8.03016406
  0
VERTEX
  8
0
 62
7
 10
17.27600000
 20
8.07400000
  0
VERTEX
  8
0
 62
7
 10
17.24421875
 20
8.11153125
  0
VERTEX
  8
0
 62
7
 10
17.21150000
 20
8.14850000
  0
VERTEX
  8
0
 62
7
 10
17.17953125
 20
8.18621875
  0
VERTEX
  8
0
 62
7
 10
17.15000000
 20
8.22600000
  0
VERTEX
  8
0
 62
7
 10
17.12550000
 20
8.26325000
  0
VERTEX
  8
0
 62
7
 10
17.10400000
 20
8.30200000
  0
VERTEX
  8
0
 62
7
 10
17.09312500
 20
8.32770312
  0
VERTEX
  8
0
 62
7
 10
17.08375000
 20
8.35387500
  0
VERTEX
  8
0
 62
7
 10
17.07700000
 20
8.38060938
  0
VERTEX
  8
0
 62
7
 10
17.07400000
 20
8.40800000
  0
VERTEX
  8
0
 62
7
 10
17.07525000
 20
8.44026563
  0
VERTEX
  8
0
 62
7
 10
17.08100000
 20
8.47187500
  0
VERTEX
  8
0
 62
7
 10
17.09200000
 20
8.50179688
  0
VERTEX
  8
0
 62
7
 10
17.10900000
 20
8.52900000
  0
VERTEX
  8
0
 62
7
 10
17.12495313
 20
8.54687500
  0
VERTEX
  8
0
 62
7
 10
17.14287500
 20
8.56250000
  0
VERTEX
  8
0
 62
7
 10
17.16285938
 20
8.57512500
  0
VERTEX
  8
0
 62
7
 10
17.18500000
 20
8.58400000
  0
VERTEX
  8
0
 62
7
 10
17.21550000
 20
8.58987500
  0
VERTEX
  8
0
 62
7
 10
17.24600000
 20
8.58900000
  0
VERTEX
  8
0
 62
7
 10
17.24665625
 20
8.63330469
  0
VERTEX
  8
0
 62
7
 10
17.24131250
 20
8.67662500
  0
VERTEX
  8
0
 62
7
 10
17.23025000
 20
8.71844531
  0
VERTEX
  8
0
 62
7
 10
17.21375000
 20
8.75825000
  0
VERTEX
  8
0
 62
7
 10
17.19209375
 20
8.79552344
  0
VERTEX
  8
0
 62
7
 10
17.16556250
 20
8.82975000
  0
VERTEX
  8
0
 62
7
 10
17.13443750
 20
8.86041406
  0
VERTEX
  8
0
 62
7
 10
17.09900000
 20
8.88700000
  0
VERTEX
  8
0
 62
7
 10
17.05437500
 20
8.91071875
  0
VERTEX
  8
0
 62
7
 10
17.00675000
 20
8.92675000
  0
VERTEX
  8
0
 62
7
 10
16.95725000
 20
8.93565625
  0
VERTEX
  8
0
 62
7
 10
16.90700000
 20
8.93800000
  0
VERTEX
  8
0
 62
7
 10
16.87048438
 20
8.93598438
  0
VERTEX
  8
0
 62
7
 10
16.83462500
 20
8.93087500
  0
VERTEX
  8
0
 62
7
 10
16.79970313
 20
8.92182812
  0
VERTEX
  8
0
 62
7
 10
16.76600000
 20
8.90800000
  0
VERTEX
  8
0
 62
7
 10
16.73317188
 20
8.88842188
  0
VERTEX
  8
0
 62
7
 10
16.70362500
 20
8.86462500
  0
VERTEX
  8
0
 62
7
 10
16.67726563
 20
8.83726563
  0
VERTEX
  8
0
 62
7
 10
16.65400000
 20
8.80700000
  0
VERTEX
  8
0
 62
7
 10
16.64051172
 20
8.78541992
  0
VERTEX
  8
0
 62
7
 10
16.62915625
 20
8.76279687
  0
VERTEX
  8
0
 62
7
 10
16.61972266
 20
8.73930664
  0
VERTEX
  8
0
 62
7
 10
16.61200000
 20
8.71512500
  0
VERTEX
  8
0
 62
7
 10
16.60577734
 20
8.69042773
  0
VERTEX
  8
0
 62
7
 10
16.60084375
 20
8.66539063
  0
VERTEX
  8
0
 62
7
 10
16.59698828
 20
8.64018945
  0
VERTEX
  8
0
 62
7
 10
16.59400000
 20
8.61500000
  0
VERTEX
  8
0
 62
7
 10
16.59143750
 20
8.56106250
  0
VERTEX
  8
0
 62
7
 10
16.59450000
 20
8.50750000
  0
VERTEX
  8
0
 62
7
 10
16.60356250
 20
8.45468750
  0
VERTEX
  8
0
 62
7
 10
16.61900000
 20
8.40300000
  0
VERTEX
  8
0
 62
7
 10
16.63346875
 20
8.36953125
  0
VERTEX
  8
0
 62
7
 10
16.65075000
 20
8.33775000
  0
VERTEX
  8
0
 62
7
 10
16.66990625
 20
8.30709375
  0
VERTEX
  8
0
 62
7
 10
16.69000000
 20
8.27700000
  0
VERTEX
  8
0
 62
7
 10
16.73750000
 20
8.21137500
  0
VERTEX
  8
0
 62
7
 10
16.79100000
 20
8.15100000
  0
VERTEX
  8
0
 62
7
 10
16.85387500
 20
8.09425000
  0
VERTEX
  8
0
 62
7
 10
16.92200000
 20
8.04500000
  0
VERTEX
  8
0
 62
7
 10
16.88759375
 20
8.05640625
  0
VERTEX
  8
0
 62
7
 10
16.85225000
 20
8.06200000
  0
VERTEX
  8
0
 62
7
 10
16.81653125
 20
8.06159375
  0
VERTEX
  8
0
 62
7
 10
16.78100000
 20
8.05500000
  0
VERTEX
  8
0
 62
7
 10
16.75284375
 20
8.04518750
  0
VERTEX
  8
0
 62
7
 10
16.72675000
 20
8.03125000
  0
VERTEX
  8
0
 62
7
 10
16.70253125
 20
8.01393750
  0
VERTEX
  8
0
 62
7
 10
16.68000000
 20
7.99400000
  0
VERTEX
  8
0
 62
7
 10
16.65681250
 20
7.96735938
  0
VERTEX
  8
0
 62
7
 10
16.63775000
 20
7.93762500
  0
VERTEX
  8
0
 62
7
 10
16.62206250
 20
7.90582813
  0
VERTEX
  8
0
 62
7
 10
16.60900000
 20
7.87300000
  0
VERTEX
  8
0
 62
7
 10
16.59504688
 20
7.82357813
  0
VERTEX
  8
0
 62
7
 10
16.58812500
 20
7.77312500
  0
VERTEX
  8
0
 62
7
 10
16.58664063
 20
7.72210938
  0
VERTEX
  8
0
 62
7
 10
16.58900000
 20
7.67100000
  0
VERTEX
  8
0
 62
7
 10
16.59356250
 20
7.62668750
  0
VERTEX
  8
0
 62
7
 10
16.60075000
 20
7.58275000
  0
VERTEX
  8
0
 62
7
 10
16.61206250
 20
7.53993750
  0
VERTEX
  8
0
 62
7
 10
16.62900000
 20
7.49900000
  0
VERTEX
  8
0
 62
7
 10
16.64460938
 20
7.46893750
  0
VERTEX
  8
0
 62
7
 10
16.66237500
 20
7.44000000
  0
VERTEX
  8
0
 62
7
 10
16.68370313
 20
7.41406250
  0
VERTEX
  8
0
 62
7
 10
16.71000000
 20
7.39300000
  0
VERTEX
  8
0
 62
7
 10
16.73337500
 20
7.38045313
  0
VERTEX
  8
0
 62
7
 10
16.75825000
 20
7.37137500
  0
VERTEX
  8
0
 62
7
 10
16.78425000
 20
7.36585938
  0
VERTEX
  8
0
 62
7
 10
16.81100000
 20
7.36400000
  0
VERTEX
  8
0
 62
7
 10
16.81206250
 20
7.39364063
  0
VERTEX
  8
0
 62
7
 10
16.81950000
 20
7.42187500
  0
VERTEX
  8
0
 62
7
 10
16.83293750
 20
7.44767188
  0
VERTEX
  8
0
 62
7
 10
16.85200000
 20
7.47000000
  0
VERTEX
  8
0
 62
7
 10
16.86469531
 20
7.48006836
  0
VERTEX
  8
0
 62
7
 10
16.87856250
 20
7.48773438
  0
VERTEX
  8
0
 62
7
 10
16.89327344
 20
7.49293945
  0
VERTEX
  8
0
 62
7
 10
16.90850000
 20
7.49562500
  0
VERTEX
  8
0
 62
7
 10
16.92391406
 20
7.49573242
  0
VERTEX
  8
0
 62
7
 10
16.93918750
 20
7.49320313
  0
VERTEX
  8
0
 62
7
 10
16.95399219
 20
7.48797852
  0
VERTEX
  8
0
 62
7
 10
16.96800000
 20
7.48000000
  0
VERTEX
  8
0
 62
7
 10
16.98875000
 20
7.45971875
  0
VERTEX
  8
0
 62
7
 10
17.00275000
 20
7.43475000
  0
VERTEX
  8
0
 62
7
 10
17.01187500
 20
7.40715625
  0
VERTEX
  8
0
 62
7
 10
17.01800000
 20
7.37900000
  0
VERTEX
  8
0
 62
7
 10
17.02100000
 20
7.34601563
  0
VERTEX
  8
0
 62
7
 10
17.01800000
 20
7.31312500
  0
VERTEX
  8
0
 62
7
 10
17.01125000
 20
7.28042188
  0
VERTEX
  8
0
 62
7
 10
17.00300000
 20
7.24800000
  0
VERTEX
  8
0
 62
7
 10
16.99321875
 20
7.21535938
  0
VERTEX
  8
0
 62
7
 10
16.98100000
 20
7.18337500
  0
VERTEX
  8
0
 62
7
 10
16.96728125
 20
7.15195313
  0
VERTEX
  8
0
 62
7
 10
16.95300000
 20
7.12100000
  0
VERTEX
  8
0
 62
7
 10
16.92684375
 20
7.07040625
  0
VERTEX
  8
0
 62
7
 10
16.89750000
 20
7.02150000
  0
VERTEX
  8
0
 62
7
 10
16.86665625
 20
6.97334375
  0
VERTEX
  8
0
 62
7
 10
16.83600000
 20
6.92500000
  0
VERTEX
  8
0
 62
7
 10
16.67500000
 20
6.68200000
  0
VERTEX
  8
0
 62
7
 10
16.54800000
 20
6.48500000
  0
VERTEX
  8
0
 62
7
 10
16.49137500
 20
6.39725000
  0
VERTEX
  8
0
 62
7
 10
16.43700000
 20
6.30800000
  0
VERTEX
  8
0
 62
7
 10
16.41103125
 20
6.26218750
  0
VERTEX
  8
0
 62
7
 10
16.38600000
 20
6.21600000
  0
VERTEX
  8
0
 62
7
 10
16.36246875
 20
6.16906250
  0
VERTEX
  8
0
 62
7
 10
16.34100000
 20
6.12100000
  0
VERTEX
  8
0
 62
7
 10
16.32140625
 20
6.07278125
  0
VERTEX
  8
0
 62
7
 10
16.30350000
 20
6.02400000
  0
VERTEX
  8
0
 62
7
 10
16.28784375
 20
5.97446875
  0
VERTEX
  8
0
 62
7
 10
16.27500000
 20
5.92400000
  0
VERTEX
  8
0
 62
7
 10
16.26275000
 20
5.86337500
  0
VERTEX
  8
0
 62
7
 10
16.25500000
 20
5.80200000
  0
SEQEND
  0
POLYLINE
  8
0
 62
7
 66
1
 70
1
  0
VERTEX
  8
0
 62
7
 10
16.00000000
 20
5.56700000
  0
VERTEX
  8
0
 62
7
 10
16.21800000
 20
5.56700000
  0
VERTEX
  8
0
 62
7
 10
16.22487500
 20
5.61487500
  0
VERTEX
  8
0
 62
7
 10
16.23400000
 20
5.66200000
  0
VERTEX
  8
0
 62
7
 10
16.25500000
 20
5.74200000
  0
VERTEX
  8
0
 62
7
 10
16.00000000
 20
5.74200000
  0
VERTEX
  8
0
 62
7
 10
15.74500000
 20
5.74200000
  0
VERTEX
  8
0
 62
7
 10
15.76600000
 20
5.66200000
  0
VERTEX
  8
0
 62
7
 10
15.77512500
 20
5.61487500
  0
VERTEX
  8
0
 62
7
 10
15.78200000
 20
5.56700000
  0
VERTEX
  8
0
 62
7
 10
16.00000000
 20
5.56700000
  0
SEQEND
  0
POLYLINE
  8
0
 62
7
 66
1
 70
1
  0
VERTEX
  8
0
 62
7
 10
16.45100000
 20
4.98100000
  0
VERTEX
  8
0
 62
7
 10
16.69400000
 20
4.98100000
  0
VERTEX
  8
0
 62
7
 10
16.65264063
 20
5.01270117
  0
VERTEX
  8
0
 62
7
 10
16.61418750
 20
5.04767188
  0
VERTEX
  8
0
 62
7
 10
16.57882813
 20
5.08571289
  0
VERTEX
  8
0
 62
7
 10
16.54675000
 20
5.12662500
  0
VERTEX
  8
0
 62
7
 10
16.51814063
 20
5.17020898
  0
VERTEX
  8
0
 62
7
 10
16.49318750
 20
5.21626563
  0
VERTEX
  8
0
 62
7
 10
16.47207813
 20
5.26459570
  0
VERTEX
  8
0
 62
7
 10
16.45500000
 20
5.31500000
  0
VERTEX
  8
0
 62
7
 10
16.44283789
 20
5.36263086
  0
VERTEX
  8
0
 62
7
 10
16.43420313
 20
5.41085938
  0
VERTEX
  8
0
 62
7
 10
16.42924805
 20
5.45943945
  0
VERTEX
  8
0
 62
7
 10
16.42812500
 20
5.50812500
  0
VERTEX
  8
0
 62
7
 10
16.43098633
 20
5.55666992
  0
VERTEX
  8
0
 62
7
 10
16.43798438
 20
5.60482813
  0
VERTEX
  8
0
 62
7
 10
16.44927148
 20
5.65235352
  0
VERTEX
  8
0
 62
7
 10
16.46500000
 20
5.69900000
  0
VERTEX
  8
0
 62
7
 10
16.48742188
 20
5.75057813
  0
VERTEX
  8
0
 62
7
 10
16.51462500
 20
5.79962500
  0
VERTEX
  8
0
 62
7
 10
16.54726563
 20
5.84510938
  0
VERTEX
  8
0
 62
7
 10
16.58600000
 20
5.88600000
  0
VERTEX
  8
0
 62
7
 10
16.60591992
 20
5.90350586
  0
VERTEX
  8
0
 62
7
 10
16.62667188
 20
5.91992188
  0
VERTEX
  8
0
 62
7
 10
16.64824414
 20
5.93509570
  0
VERTEX
  8
0
 62
7
 10
16.67062500
 20
5.94887500
  0
VERTEX
  8
0
 62
7
 10
16.69380273
 20
5.96110742
  0
VERTEX
  8
0
 62
7
 10
16.71776563
 20
5.97164063
  0
VERTEX
  8
0
 62
7
 10
16.74250195
 20
5.98032227
  0
VERTEX
  8
0
 62
7
 10
16.76800000
 20
5.98700000
  0
VERTEX
  8
0
 62
7
 10
16.78950000
 20
5.99109180
  0
VERTEX
  8
0
 62
7
 10
16.81118750
 20
5.99423438
  0
VERTEX
  8
0
 62
7
 10
16.83296875
 20
5.99622852
  0
VERTEX
  8
0
 62
7
 10
16.85475000
 20
5.99687500
  0
VERTEX
  8
0
 62
7
 10
16.87643750
 20
5.99597461
  0
VERTEX
  8
0
 62
7
 10
16.89793750
 20
5.99332813
  0
VERTEX
  8
0
 62
7
 10
16.91915625
 20
5.98873633
  0
VERTEX
  8
0
 62
7
 10
16.94000000
 20
5.98200000
  0
VERTEX
  8
0
 62
7
 10
16.97345313
 20
5.96701563
  0
VERTEX
  8
0
 62
7
 10
17.00437500
 20
5.94762500
  0
VERTEX
  8
0
 62
7
 10
17.03210938
 20
5.92392188
  0
VERTEX
  8
0
 62
7
 10
17.05600000
 20
5.89600000
  0
VERTEX
  8
0
 62
7
 10
17.07387500
 20
5.86851563
  0
VERTEX
  8
0
 62
7
 10
17.08800000
 20
5.83887500
  0
VERTEX
  8
0
 62
7
 10
17.09762500
 20
5.80754688
  0
VERTEX
  8
0
 62
7
 10
17.10200000
 20
5.77500000
  0
VERTEX
  8
0
 62
7
 10
17.10259570
 20
5.75943359
  0
VERTEX
  8
0
 62
7
 10
17.10264063
 20
5.74365625
  0
VERTEX
  8
0
 62
7
 10
17.10177148
 20
5.72792578
  0
VERTEX
  8
0
 62
7
 10
17.09962500
 20
5.71250000
  0
VERTEX
  8
0
 62
7
 10
17.09583789
 20
5.69763672
  0
VERTEX
  8
0
 62
7
 10
17.09004688
 20
5.68359375
  0
VERTEX
  8
0
 62
7
 10
17.08188867
 20
5.67062891
  0
VERTEX
  8
0
 62
7
 10
17.07100000
 20
5.65900000
  0
VERTEX
  8
0
 62
7
 10
17.04787500
 20
5.64312500
  0
VERTEX
  8
0
 62
7
 10
17.02100000
 20
5.63400000
  0
VERTEX
  8
0
 62
7
 10
17.02860938
 20
5.61023438
  0
VERTEX
  8
0
 62
7
 10
17.03987500
 20
5.58862500
  0
VERTEX
  8
0
 62
7
 10
17.05545313
 20
5.56945313
  0
VERTEX
  8
0
 62
7
 10
17.07600000
 20
5.55300000
  0
VERTEX
  8
0
 62
7
 10
17.09193677
 20
5.54365308
  0
VERTEX
  8
0
 62
7
 10
17.10993164
 20
5.53620898
  0
VERTEX
  8
0
 62
7
 10
17.12969897
 20
5.53062524
  0
VERTEX
  8
0
 62
7
 10
17.15095313
 20
5.52685938
  0
VERTEX
  8
0
 62
7
 10
17.17340845
 20
5.52486890
  0
VERTEX
  8
0
 62
7
 10
17.19677930
 20
5.52461133
  0
VERTEX
  8
0
 62
7
 10
17.22078003
 20
5.52604419
  0
VERTEX
  8
0
 62
7
 10
17.24512500
 20
5.52912500
  0
VERTEX
  8
0
 62
7
 10
17.26952856
 20
5.53381128
  0
VERTEX
  8
0
 62
7
 10
17.29370508
 20
5.54006055
  0
VERTEX
  8
0
 62
7
 10
17.31736890
 20
5.54783032
  0
VERTEX
  8
0
 62
7
 10
17.34023438
 20
5.55707813
  0
VERTEX
  8
0
 62
7
 10
17.36201587
 20
5.56776147
  0
VERTEX
  8
0
 62
7
 10
17.38242773
 20
5.57983789
  0
VERTEX
  8
0
 62
7
 10
17.40118433
 20
5.59326489
  0
VERTEX
  8
0
 62
7
 10
17.41800000
 20
5.60800000
  0
VERTEX
  8
0
 62
7
 10
17.43965601
 20
5.63124829
  0
VERTEX
  8
0
 62
7
 10
17.45854492
 20
5.65589258
  0
VERTEX
  8
0
 62
7
 10
17.47473560
 20
5.68178198
  0
VERTEX
  8
0
 62
7
 10
17.48829688
 20
5.70876563
  0
VERTEX
  8
0
 62
7
 10
17.49929761
 20
5.73669263
  0
VERTEX
  8
0
 62
7
 10
17.50780664
 20
5.76541211
  0
VERTEX
  8
0
 62
7
 10
17.51389282
 20
5.79477319
  0
VERTEX
  8
0
 62
7
 10
17.51762500
 20
5.82462500
  0
VERTEX
  8
0
 62
7
 10
17.51907202
 20
5.85481665
  0
VERTEX
  8
0
 62
7
 10
17.51830273
 20
5.88519727
  0
VERTEX
  8
0
 62
7
 10
17.51538599
 20
5.91561597
  0
VERTEX
  8
0
 62
7
 10
17.51039063
 20
5.94592188
  0
VERTEX
  8
0
 62
7
 10
17.50338550
 20
5.97596411
  0
VERTEX
  8
0
 62
7
 10
17.49443945
 20
6.00559180
  0
VERTEX
  8
0
 62
7
 10
17.48362134
 20
6.03465405
  0
VERTEX
  8
0
 62
7
 10
17.47100000
 20
6.06300000
  0
VERTEX
  8
0
 62
7
 10
17.44430273
 20
6.10955469
  0
VERTEX
  8
0
 62
7
 10
17.41192188
 20
6.15100000
  0
VERTEX
  8
0
 62
7
 10
17.37454883
 20
6.18738281
  0
VERTEX
  8
0
 62
7
 10
17.33287500
 20
6.21875000
  0
VERTEX
  8
0
 62
7
 10
17.28759180
 20
6.24514844
  0
VERTEX
  8
0
 62
7
 10
17.23939063
 20
6.26662500
  0
VERTEX
  8
0
 62
7
 10
17.18896289
 20
6.28322656
  0
VERTEX
  8
0
 62
7
 10
17.13700000
 20
6.29500000
  0
VERTEX
  8
0
 62
7
 10
17.09822235
 20
6.30077008
  0
VERTEX
  8
0
 62
7
 10
17.05991162
 20
6.30424658
  0
VERTEX
  8
0
 62
7
 10
17.02210114
 20
6.30549139
  0
VERTEX
  8
0
 62
7
 10
16.98482422
 20
6.30456641
  0
VERTEX
  8
0
 62
7
 10
16.94811420
 20
6.30153351
  0
VERTEX
  8
0
 62
7
 10
16.91200439
 20
6.29645459
  0
VERTEX
  8
0
 62
7
 10
16.87652814
 20
6.28939154
  0
VERTEX
  8
0
 62
7
 10
16.84171875
 20
6.28040625
  0
VERTEX
  8
0
 62
7
 10
16.80760956
 20
6.26956061
  0
VERTEX
  8
0
 62
7
 10
16.77423389
 20
6.25691650
  0
VERTEX
  8
0
 62
7
 10
16.74162506
 20
6.24253583
  0
VERTEX
  8
0
 62
7
 10
16.70981641
 20
6.22648047
  0
VERTEX
  8
0
 62
7
 10
16.67884125
 20
6.20881232
  0
VERTEX
  8
0
 62
7
 10
16.64873291
 20
6.18959326
  0
VERTEX
  8
0
 62
7
 10
16.61952472
 20
6.16888519
  0
VERTEX
  8
0
 62
7
 10
16.59125000
 20
6.14675000
  0
VERTEX
  8
0
 62
7
 10
16.56394208
 20
6.12324957
  0
VERTEX
  8
0
 62
7
 10
16.53763428
 20
6.09844580
  0
VERTEX
  8
0
 62
7
 10
16.51235992
 20
6.07240057
  0
VERTEX
  8
0
 62
7
 10
16.48815234
 20
6.04517578
  0
VERTEX
  8
0
 62
7
 10
16.46504486
 20
6.01683331
  0
VERTEX
  8
0
 62
7
 10
16.44307080
 20
5.98743506
  0
VERTEX
  8
0
 62
7
 10
16.42226349
 20
5.95704291
  0
VERTEX
  8
0
 62
7
 10
16.40265625
 20
5.92571875
  0
VERTEX
  8
0
 62
7
 10
16.38428241
 20
5.89352448
  0
VERTEX
  8
0
 62
7
 10
16.36717529
 20
5.86052197
  0
VERTEX
  8
0
 62
7
 10
16.35136823
 20
5.82677313
  0
VERTEX
  8
0
 62
7
 10
16.33689453
 20
5.79233984
  0
VERTEX
  8
0
 62
7
 10
16.32378754
 20
5.75728400
  0
VERTEX
  8
0
 62
7
 10
16.31208057
 20
5.72166748
  0
VERTEX
  8
0
 62
7
 10
16.30180695
 20
5.68555219
  0
VERTEX
  8
0
 62
7
 10
16.29300000
 20
5.64900000
  0
VERTEX
  8
0
 62
7
 10
16.28514648
 20
5.60949414
  0
VERTEX
  8
0
 62
7
 10
16.27892188
 20
5.56976563
  0
VERTEX
  8
0
 62
7
 10
16.27445508
 20
5.52987305
  0
VERTEX
  8
0
 62
7
 10
16.27187500
 20
5.48987500
  0
VERTEX
  8
0
 62
7
 10
16.27131055
 20
5.44983008
  0
VERTEX
  8
0
 62
7
 10
16.27289063
 20
5.40979688
  0
VERTEX
  8
0
 62
7
 10
16.27674414
 20
5.36983398
  0
VERTEX
  8
0
 62
7
 10
16.28300000
 20
5.33000000
  0
VERTEX
  8
0
 62
7
 10
16.29123438
 20
5.29162305
  0
VERTEX
  8
0
 62
7
 10
16.30162500
 20
5.25379688
  0
VERTEX
  8
0
 62
7
 10
16.31407813
 20
5.21660352
  0
VERTEX
  8
0
 62
7
 10
16.32850000
 20
5.18012500
  0
VERTEX
  8
0
 62
7
 10
16.34479688
 20
5.14444336
  0
VERTEX
  8
0
 62
7
 10
16.36287500
 20
5.10964063
  0
VERTEX
  8
0
 62
7
 10
16.38264063
 20
5.07579883
  0
VERTEX
  8
0
 62
7
 10
16.40400000
 20
5.04300000
  0
VERTEX
  8
0
 62
7
 10
16.45100000
 20
4.98100000
  0
SEQEND
  0
POLYLINE
  8
0
 62
7
 66
1
 70
1
  0
VERTEX
  8
0
 62
7
 10
16.00000000
 20
4.92100000
  0
VERTEX
  8
0
 62
7
 10
14.56300000
 20
4.92100000
  0
VERTEX
  8
0
 62
7
 10
14.56819727
 20
4.86523047
  0
VERTEX
  8
0
 62
7
 10
14.57551563
 20
4.80971875
  0
VERTEX
  8
0
 62
7
 10
14.58491992
 20
4.75453516
  0
VERTEX
  8
0
 62
7
 10
14.59637500
 20
4.69975000
  0
VERTEX
  8
0
 62
7
 10
14.60984570
 20
4.64543359
  0
VERTEX
  8
0
 62
7
 10
14.62529688
 20
4.59165625
  0
VERTEX
  8
0
 62
7
 10
14.64269336
 20
4.53848828
  0
VERTEX
  8
0
 62
7
 10
14.66200000
 20
4.48600000
  0
VERTEX
  8
0
 62
7
 10
14.68041797
 20
4.44000195
  0
VERTEX
  8
0
 62
7
 10
14.69984375
 20
4.39439063
  0
VERTEX
  8
0
 62
7
 10
14.72053516
 20
4.34936523
  0
VERTEX
  8
0
 62
7
 10
14.74275000
 20
4.30512500
  0
VERTEX
  8
0
 62
7
 10
14.76674609
 20
4.26186914
  0
VERTEX
  8
0
 62
7
 10
14.79278125
 20
4.21979688
  0
VERTEX
  8
0
 62
7
 10
14.82111328
 20
4.17910742
  0
VERTEX
  8
0
 62
7
 10
14.85200000
 20
4.14000000
  0
VERTEX
  8
0
 62
7
 10
14.91300000
 20
4.07400000
  0
VERTEX
  8
0
 62
7
 10
14.95159375
 20
4.03762500
  0
VERTEX
  8
0
 62
7
 10
14.99225000
 20
4.00350000
  0
VERTEX
  8
0
 62
7
 10
15.03478125
 20
3.97162500
  0
VERTEX
  8
0
 62
7
 10
15.07900000
 20
3.94200000
  0
VERTEX
  8
0
 62
7
 10
15.12006250
 20
3.91654688
  0
VERTEX
  8
0
 62
7
 10
15.16225000
 20
3.89287500
  0
VERTEX
  8
0
 62
7
 10
15.20556250
 20
3.87126563
  0
VERTEX
  8
0
 62
7
 10
15.25000000
 20
3.85200000
  0
VERTEX
  8
0
 62
7
 10
15.28229688
 20
3.83937500
  0
VERTEX
  8
0
 62
7
 10
15.31487500
 20
3.82750000
  0
VERTEX
  8
0
 62
7
 10
15.34801563
 20
3.81712500
  0
VERTEX
  8
0
 62
7
 10
15.38200000
 20
3.80900000
  0
VERTEX
  8
0
 62
7
 10
15.44562500
 20
3.80100000
  0
VERTEX
  8
0
 62
7
 10
15.51000000
 20
3.79900000
  0
VERTEX
  8
0
 62
7
 10
16.00000000
 20
3.79900000
  0
VERTEX
  8
0
 62
7
 10
16.49000000
 20
3.79900000
  0
VERTEX
  8
0
 62
7
 10
16.55437500
 20
3.80100000
  0
VERTEX
  8
0
 62
7
 10
16.61800000
 20
3.80900000
  0
VERTEX
  8
0
 62
7
 10
16.65198438
 20
3.81712500
  0
VERTEX
  8
0
 62
7
 10
16.68512500
 20
3.82750000
  0
VERTEX
  8
0
 62
7
 10
16.71770313
 20
3.83937500
  0
VERTEX
  8
0
 62
7
 10
16.75000000
 20
3.85200000
  0
VERTEX
  8
0
 62
7
 10
16.79443750
 20
3.87126563
  0
VERTEX
  8
0
 62
7
 10
16.83775000
 20
3.89287500
  0
VERTEX
  8
0
 62
7
 10
16.87993750
 20
3.91654688
  0
VERTEX
  8
0
 62
7
 10
16.92100000
 20
3.94200000
  0
VERTEX
  8
0
 62
7
 10
16.96521875
 20
3.97162500
  0
VERTEX
  8
0
 62
7
 10
17.00775000
 20
4.00350000
  0
VERTEX
  8
0
 62
7
 10
17.04840625
 20
4.03762500
  0
VERTEX
  8
0
 62
7
 10
17.08700000
 20
4.07400000
  0
VERTEX
  8
0
 62
7
 10
17.14800000
 20
4.14000000
  0
VERTEX
  8
0
 62
7
 10
17.17888672
 20
4.17910742
  0
VERTEX
  8
0
 62
7
 10
17.20721875
 20
4.21979688
  0
VERTEX
  8
0
 62
7
 10
17.23325391
 20
4.26186914
  0
VERTEX
  8
0
 62
7
 10
17.25725000
 20
4.30512500
  0
VERTEX
  8
0
 62
7
 10
17.27946484
 20
4.34936523
  0
VERTEX
  8
0
 62
7
 10
17.30015625
 20
4.39439063
  0
VERTEX
  8
0
 62
7
 10
17.31958203
 20
4.44000195
  0
VERTEX
  8
0
 62
7
 10
17.33800000
 20
4.48600000
  0
VERTEX
  8
0
 62
7
 10
17.35730664
 20
4.53848828
  0
VERTEX
  8
0
 62
7
 10
17.37470313
 20
4.59165625
  0
VERTEX
  8
0
 62
7
 10
17.39015430
 20
4.64543359
  0
VERTEX
  8
0
 62
7
 10
17.40362500
 20
4.69975000
  0
VERTEX
  8
0
 62
7
 10
17.41508008
 20
4.75453516
  0
VERTEX
  8
0
 62
7
 10
17.42448438
 20
4.80971875
  0
VERTEX
  8
0
 62
7
 10
17.43180273
 20
4.86523047
  0
VERTEX
  8
0
 62
7
 10
17.43700000
 20
4.92100000
  0
VERTEX
  8
0
 62
7
 10
16.00000000
 20
4.92100000
  0
SEQEND
  0
POLYLINE
  8
0
 62
7
 66
1
 70
1
  0
VERTEX
  8
0
 62
7
 10
16.56400000
 20
8.76100000
  0
VERTEX
  8
0
 62
7
 10
16.58150000
 20
8.80212500
  0
VERTEX
  8
0
 62
7
 10
16.60500000
 20
8.84100000
  0
VERTEX
  8
0
 62
7
 10
16.63184375
 20
8.87607812
  0
VERTEX
  8
0
 62
7
 10
16.66300000
 20
8.90862500
  0
VERTEX
  8
0
 62
7
 10
16.69865625
 20
8.93760937
  0
VERTEX
  8
0
 62
7
 10
16.73900000
 20
8.96200000
  0
VERTEX
  8
0
 62
7
 10
16.78054688
 20
8.97887500
  0
VERTEX
  8
0
 62
7
 10
16.82237500
 20
8.98975000
  0
VERTEX
  8
0
 62
7
 10
16.86401563
 20
8.99575000
  0
VERTEX
  8
0
 62
7
 10
16.90500000
 20
8.99800000
  0
VERTEX
  8
0
 62
7
 10
16.92725000
 20
9.05306250
  0
VERTEX
  8
0
 62
7
 10
16.94425000
 20
9.11000000
  0
VERTEX
  8
0
 62
7
 10
16.95562500
 20
9.16843750
  0
VERTEX
  8
0
 62
7
 10
16.96100000
 20
9.22800000
  0
VERTEX
  8
0
 62
7
 10
16.96202930
 20
9.25057813
  0
VERTEX
  8
0
 62
7
 10
16.96267188
 20
9.27325000
  0
VERTEX
  8
0
 62
7
 10
16.96263477
 20
9.29592187
  0
VERTEX
  8
0
 62
7
 10
16.96162500
 20
9.31850000
  0
VERTEX
  8
0
 62
7
 10
16.95934961
 20
9.34089063
  0
VERTEX
  8
0
 62
7
 10
16.95551563
 20
9.36300000
  0
VERTEX
  8
0
 62
7
 10
16.94983008
 20
9.38473438
  0
VERTEX
  8
0
 62
7
 10
16.94200000
 20
9.40600000
  0
VERTEX
  8
0
 62
7
 10
16.92710938
 20
9.43679688
  0
VERTEX
  8
0
 62
7
 10
16.90912500
 20
9.46562500
  0
VERTEX
  8
0
 62
7
 10
16.88757813
 20
9.49164063
  0
VERTEX
  8
0
 62
7
 10
16.86200000
 20
9.51400000
  0
VERTEX
  8
0
 62
7
 10
16.83301563
 20
9.53214063
  0
VERTEX
  8
0
 62
7
 10
16.80187500
 20
9.54587500
  0
VERTEX
  8
0
 62
7
 10
16.76904688
 20
9.55492188
  0
VERTEX
  8
0
 62
7
 10
16.73500000
 20
9.55900000
  0
VERTEX
  8
0
 62
7
 10
16.70507813
 20
9.55845313
  0
VERTEX
  8
0
 62
7
 10
16.67562500
 20
9.55387500
  0
VERTEX
  8
0
 62
7
 10
16.64710938
 20
9.54535938
  0
VERTEX
  8
0
 62
7
 10
16.62000000
 20
9.53300000
  0
VERTEX
  8
0
 62
7
 10
16.59489063
 20
9.51770313
  0
VERTEX
  8
0
 62
7
 10
16.57212500
 20
9.49912500
  0
VERTEX
  8
0
 62
7
 10
16.55179688
 20
9.47773438
  0
VERTEX
  8
0
 62
7
 10
16.53400000
 20
9.45400000
  0
VERTEX
  8
0
 62
7
 10
16.51765625
 20
9.42279688
  0
VERTEX
  8
0
 62
7
 10
16.50675000
 20
9.38962500
  0
VERTEX
  8
0
 62
7
 10
16.49996875
 20
9.35514063
  0
VERTEX
  8
0
 62
7
 10
16.49600000
 20
9.32000000
  0
VERTEX
  8
0
 62
7
 10
16.49450000
 20
9.27512500
  0
VERTEX
  8
0
 62
7
 10
16.49900000
 20
9.23100000
  0
VERTEX
  8
0
 62
7
 10
16.52403125
 20
9.23928125
  0
VERTEX
  8
0
 62
7
 10
16.55000000
 20
9.24025000
  0
VERTEX
  8
0
 62
7
 10
16.57521875
 20
9.23409375
  0
VERTEX
  8
0
 62
7
 10
16.59800000
 20
9.22100000
  0
VERTEX
  8
0
 62
7
 10
16.61035938
 20
9.20839063
  0
VERTEX
  8
0
 62
7
 10
16.61962500
 20
9.19362500
  0
VERTEX
  8
0
 62
7
 10
16.62682813
 20
9.17754688
  0
VERTEX
  8
0
 62
7
 10
16.63300000
 20
9.16100000
  0
VERTEX
  8
0
 62
7
 10
16.63843750
 20
9.13907812
  0
VERTEX
  8
0
 62
7
 10
16.64050000
 20
9.11687500
  0
VERTEX
  8
0
 62
7
 10
16.64031250
 20
9.09448438
  0
VERTEX
  8
0
 62
7
 10
16.63900000
 20
9.07200000
  0
VERTEX
  8
0
 62
7
 10
16.63598438
 20
9.04757812
  0
VERTEX
  8
0
 62
7
 10
16.63062500
 20
9.02362500
  0
VERTEX
  8
0
 62
7
 10
16.62395313
 20
8.99985938
  0
VERTEX
  8
0
 62
7
 10
16.61700000
 20
8.97600000
  0
VERTEX
  8
0
 62
7
 10
16.58800000
 20
8.89300000
  0
VERTEX
  8
0
 62
7
 10
16.57475000
 20
8.84625000
  0
VERTEX
  8
0
 62
7
 10
16.56600000
 20
8.79800000
  0
VERTEX
  8
0
 62
7
 10
16.56400000
 20
8.76100000
  0
SEQEND
  0
POLYLINE
  8
0
 62
7
 66
1
 70
1
  0
VERTEX
  8
0
 62
7
 10
17.50700000
 20
7.59300000
  0
VERTEX
  8
0
 62
7
 10
17.50925000
 20
7.53550000
  0
VERTEX
  8
0
 62
7
 10
17.50700000
 20
7.47800000
  0
VERTEX
  8
0
 62
7
 10
17.49861523
 20
7.41813867
  0
VERTEX
  8
0
 62
7
 10
17.48379688
 20
7.36004688
  0
VERTEX
  8
0
 62
7
 10
17.46342383
 20
7.30371289
  0
VERTEX
  8
0
 62
7
 10
17.43837500
 20
7.24912500
  0
VERTEX
  8
0
 62
7
 10
17.40952930
 20
7.19627148
  0
VERTEX
  8
0
 62
7
 10
17.37776563
 20
7.14514063
  0
VERTEX
  8
0
 62
7
 10
17.34396289
 20
7.09572070
  0
VERTEX
  8
0
 62
7
 10
17.30900000
 20
7.04800000
  0
VERTEX
  8
0
 62
7
 10
17.29887476
 20
7.03433105
  0
VERTEX
  8
0
 62
7
 10
17.28813867
 20
7.01927344
  0
VERTEX
  8
0
 62
7
 10
17.27700122
 20
7.00293848
  0
VERTEX
  8
0
 62
7
 10
17.26567188
 20
6.98543750
  0
VERTEX
  8
0
 62
7
 10
17.25436011
 20
6.96688184
  0
VERTEX
  8
0
 62
7
 10
17.24327539
 20
6.94738281
  0
VERTEX
  8
0
 62
7
 10
17.23262720
 20
6.92705176
  0
VERTEX
  8
0
 62
7
 10
17.22262500
 20
6.90600000
  0
VERTEX
  8
0
 62
7
 10
17.21347827
 20
6.88433887
  0
VERTEX
  8
0
 62
7
 10
17.20539648
 20
6.86217969
  0
VERTEX
  8
0
 62
7
 10
17.19858911
 20
6.83963379
  0
VERTEX
  8
0
 62
7
 10
17.19326563
 20
6.81681250
  0
VERTEX
  8
0
 62
7
 10
17.18963550
 20
6.79382715
  0
VERTEX
  8
0
 62
7
 10
17.18790820
 20
6.77078906
  0
VERTEX
  8
0
 62
7
 10
17.18829321
 20
6.74780957
  0
VERTEX
  8
0
 62
7
 10
17.19100000
 20
6.72500000
  0
VERTEX
  8
0
 62
7
 10
17.19651563
 20
6.69976563
  0
VERTEX
  8
0
 62
7
 10
17.20437500
 20
6.67537500
  0
VERTEX
  8
0
 62
7
 10
17.21504688
 20
6.65229688
  0
VERTEX
  8
0
 62
7
 10
17.22900000
 20
6.63100000
  0
VERTEX
  8
0
 62
7
 10
17.24690625
 20
6.61160938
  0
VERTEX
  8
0
 62
7
 10
17.26725000
 20
6.59512500
  0
VERTEX
  8
0
 62
7
 10
17.28946875
 20
6.58107813
  0
VERTEX
  8
0
 62
7
 10
17.31300000
 20
6.56900000
  0
VERTEX
  8
0
 62
7
 10
17.33825000
 20
6.55900000
  0
VERTEX
  8
0
 62
7
 10
17.36425000
 20
6.55200000
  0
VERTEX
  8
0
 62
7
 10
17.39062500
 20
6.54650000
  0
VERTEX
  8
0
 62
7
 10
17.41700000
 20
6.54100000
  0
VERTEX
  8
0
 62
7
 10
17.50400000
 20
6.52400000
  0
VERTEX
  8
0
 62
7
 10
17.55675000
 20
6.50687500
  0
VERTEX
  8
0
 62
7
 10
17.60800000
 20
6.48600000
  0
VERTEX
  8
0
 62
7
 10
17.65412500
 20
6.46375000
  0
VERTEX
  8
0
 62
7
 10
17.69800000
 20
6.43700000
  0
VERTEX
  8
0
 62
7
 10
17.71889063
 20
6.42171875
  0
VERTEX
  8
0
 62
7
 10
17.73912500
 20
6.40550000
  0
VERTEX
  8
0
 62
7
 10
17.75804688
 20
6.38778125
  0
VERTEX
  8
0
 62
7
 10
17.77500000
 20
6.36800000
  0
VERTEX
  8
0
 62
7
 10
17.78962500
 20
6.34703125
  0
VERTEX
  8
0
 62
7
 10
17.80200000
 20
6.32475000
  0
VERTEX
  8
0
 62
7
 10
17.81212500
 20
6.30134375
  0
VERTEX
  8
0
 62
7
 10
17.82000000
 20
6.27700000
  0
VERTEX
  8
0
 62
7
 10
17.84096875
 20
6.28860938
  0
VERTEX
  8
0
 62
7
 10
17.86025000
 20
6.30237500
  0
VERTEX
  8
0
 62
7
 10
17.87765625
 20
6.31820313
  0
VERTEX
  8
0
 62
7
 10
17.89300000
 20
6.33600000
  0
VERTEX
  8
0
 62
7
 10
17.91348438
 20
6.37012500
  0
VERTEX
  8
0
 62
7
 10
17.92637500
 20
6.40725000
  0
VERTEX
  8
0
 62
7
 10
17.93307813
 20
6.44625000
  0
VERTEX
  8
0
 62
7
 10
17.93500000
 20
6.48600000
  0
VERTEX
  8
0
 62
7
 10
17.93342188
 20
6.51582031
  0
VERTEX
  8
0
 62
7
 10
17.92875000
 20
6.54512500
  0
VERTEX
  8
0
 62
7
 10
17.92107813
 20
6.57367969
  0
VERTEX
  8
0
 62
7
 10
17.91050000
 20
6.60125000
  0
VERTEX
  8
0
 62
7
 10
17.89710938
 20
6.62760156
  0
VERTEX
  8
0
 62
7
 10
17.88100000
 20
6.65250000
  0
VERTEX
  8
0
 62
7
 10
17.86226563
 20
6.67571094
  0
VERTEX
  8
0
 62
7
 10
17.84100000
 20
6.69700000
  0
VERTEX
  8
0
 62
7
 10
17.84400000
 20
6.75600000
  0
VERTEX
  8
0
 62
7
 10
17.84484375
 20
6.76948438
  0
VERTEX
  8
0
 62
7
 10
17.84625000
 20
6.78287500
  0
VERTEX
  8
0
 62
7
 10
17.84653125
 20
6.79607813
  0
VERTEX
  8
0
 62
7
 10
17.84400000
 20
6.80900000
  0
VERTEX
  8
0
 62
7
 10
17.83312500
 20
6.82987500
  0
VERTEX
  8
0
 62
7
 10
17.81700000
 20
6.84700000
  0
VERTEX
  8
0
 62
7
 10
17.80265625
 20
6.85604688
  0
VERTEX
  8
0
 62
7
 10
17.78700000
 20
6.86162500
  0
VERTEX
  8
0
 62
7
 10
17.77059375
 20
6.86514063
  0
VERTEX
  8
0
 62
7
 10
17.75400000
 20
6.86800000
  0
VERTEX
  8
0
 62
7
 10
17.73225000
 20
6.87039063
  0
VERTEX
  8
0
 62
7
 10
17.71050000
 20
6.87062500
  0
VERTEX
  8
0
 62
7
 10
17.68875000
 20
6.86954688
  0
VERTEX
  8
0
 62
7
 10
17.66700000
 20
6.86800000
  0
VERTEX
  8
0
 62
7
 10
17.58700000
 20
6.85700000
  0
VERTEX
  8
0
 62
7
 10
17.44800000
 20
6.83300000
  0
VERTEX
  8
0
 62
7
 10
17.42750000
 20
6.82837500
  0
VERTEX
  8
0
 62
7
 10
17.40700000
 20
6.82600000
  0
VERTEX
  8
0
 62
7
 10
17.40000000
 20
6.82625000
  0
VERTEX
  8
0
 62
7
 10
17.39300000
 20
6.82650000
  0
VERTEX
  8
0
 62
7
 10
17.38675000
 20
6.82825000
  0
VERTEX
  8
0
 62
7
 10
17.38200000
 20
6.83300000
  0
VERTEX
  8
0
 62
7
 10
17.38006250
 20
6.84103125
  0
VERTEX
  8
0
 62
7
 10
17.38225000
 20
6.84850000
  0
VERTEX
  8
0
 62
7
 10
17.38706250
 20
6.85521875
  0
VERTEX
  8
0
 62
7
 10
17.39300000
 20
6.86100000
  0
VERTEX
  8
0
 62
7
 10
17.40575000
 20
6.86600000
  0
VERTEX
  8
0
 62
7
 10
17.42000000
 20
6.86800000
  0
VERTEX
  8
0
 62
7
 10
17.48300000
 20
6.87400000
  0
VERTEX
  8
0
 62
7
 10
17.57700000
 20
6.87800000
  0
VERTEX
  8
0
 62
7
 10
17.60185938
 20
6.88009375
  0
VERTEX
  8
0
 62
7
 10
17.62662500
 20
6.88275000
  0
VERTEX
  8
0
 62
7
 10
17.65082813
 20
6.88728125
  0
VERTEX
  8
0
 62
7
 10
17.67400000
 20
6.89500000
  0
VERTEX
  8
0
 62
7
 10
17.69746875
 20
6.90653125
  0
VERTEX
  8
0
 62
7
 10
17.71925000
 20
6.92050000
  0
VERTEX
  8
0
 62
7
 10
17.73840625
 20
6.93746875
  0
VERTEX
  8
0
 62
7
 10
17.75400000
 20
6.95800000
  0
VERTEX
  8
0
 62
7
 10
17.76375000
 20
6.97668750
  0
VERTEX
  8
0
 62
7
 10
17.77050000
 20
6.99650000
  0
VERTEX
  8
0
 62
7
 10
17.77425000
 20
7.01706250
  0
VERTEX
  8
0
 62
7
 10
17.77500000
 20
7.03800000
  0
VERTEX
  8
0
 62
7
 10
17.76937500
 20
7.07012500
  0
VERTEX
  8
0
 62
7
 10
17.75700000
 20
7.10000000
  0
VERTEX
  8
0
 62
7
 10
17.73300000
 20
7.13500000
  0
VERTEX
  8
0
 62
7
 10
17.72300000
 20
7.16375000
  0
VERTEX
  8
0
 62
7
 10
17.71900000
 20
7.19400000
  0
VERTEX
  8
0
 62
7
 10
17.72137500
 20
7.22037500
  0
VERTEX
  8
0
 62
7
 10
17.72600000
 20
7.24600000
  0
VERTEX
  8
0
 62
7
 10
17.73029688
 20
7.27209375
  0
VERTEX
  8
0
 62
7
 10
17.73487500
 20
7.29800000
  0
VERTEX
  8
0
 62
7
 10
17.73851563
 20
7.32390625
  0
VERTEX
  8
0
 62
7
 10
17.74000000
 20
7.35000000
  0
VERTEX
  8
0
 62
7
 10
17.73925000
 20
7.38010938
  0
VERTEX
  8
0
 62
7
 10
17.73625000
 20
7.41012500
  0
VERTEX
  8
0
 62
7
 10
17.72987500
 20
7.43957813
  0
VERTEX
  8
0
 62
7
 10
17.71900000
 20
7.46800000
  0
VERTEX
  8
0
 62
7
 10
17.70198438
 20
7.49735938
  0
VERTEX
  8
0
 62
7
 10
17.68112500
 20
7.52362500
  0
VERTEX
  8
0
 62
7
 10
17.65670313
 20
7.54632813
  0
VERTEX
  8
0
 62
7
 10
17.62900000
 20
7.56500000
  0
VERTEX
  8
0
 62
7
 10
17.60037500
 20
7.57865625
  0
VERTEX
  8
0
 62
7
 10
17.57025000
 20
7.58800000
  0
VERTEX
  8
0
 62
7
 10
17.53900000
 20
7.59284375
  0
VERTEX
  8
0
 62
7
 10
17.50700000
 20
7.59300000
  0
SEQEND
  0
POLYLINE
  8
0
 62
7
 66
1
 70
1
  0
VERTEX
  8
0
 62
7
 10
16.56500000
 20
9.81300000
  0
VERTEX
  8
0
 62
7
 10
16.53978168
 20
9.81018945
  0
VERTEX
  8
0
 62
7
 10
16.51621236
 20
9.80214063
  0
VERTEX
  8
0
 62
7
 10
16.49482017
 20
9.78942773
  0
VERTEX
  8
0
 62
7
 10
16.47613321
 20
9.77262500
  0
VERTEX
  8
0
 62
7
 10
16.46067960
 20
9.75230664
  0
VERTEX
  8
0
 62
7
 10
16.44898745
 20
9.72904688
  0
VERTEX
  8
0
 62
7
 10
16.44158488
 20
9.70341992
  0
VERTEX
  8
0
 62
7
 10
16.43900000
 20
9.67600000
  0
VERTEX
  8
0
 62
7
 10
16.44158488
 20
9.64858008
  0
VERTEX
  8
0
 62
7
 10
16.44898745
 20
9.62295313
  0
VERTEX
  8
0
 62
7
 10
16.46067960
 20
9.59969336
  0
VERTEX
  8
0
 62
7
 10
16.47613321
 20
9.57937500
  0
VERTEX
  8
0
 62
7
 10
16.49482017
 20
9.56257227
  0
VERTEX
  8
0
 62
7
 10
16.51621236
 20
9.54985938
  0
VERTEX
  8
0
 62
7
 10
16.53978168
 20
9.54181055
  0
VERTEX
  8
0
 62
7
 10
16.56500000
 20
9.53900000
  0
VERTEX
  8
0
 62
7
 10
16.59021832
 20
9.54181055
  0
VERTEX
  8
0
 62
7
 10
16.61378764
 20
9.54985938
  0
VERTEX
  8
0
 62
7
 10
16.63517983
 20
9.56257227
  0
VERTEX
  8
0
 62
7
 10
16.65386679
 20
9.57937500
  0
VERTEX
  8
0
 62
7
 10
16.66932040
 20
9.59969336
  0
VERTEX
  8
0
 62
7
 10
16.68101255
 20
9.62295313
  0
VERTEX
  8
0
 62
7
 10
16.68841512
 20
9.64858008
  0
VERTEX
  8
0
 62
7
 10
16.69100000
 20
9.67600000
  0
VERTEX
  8
0
 62
7
 10
16.68841512
 20
9.70341992
  0
VERTEX
  8
0
 62
7
 10
16.68101255
 20
9.72904688
  0
VERTEX
  8
0
 62
7
 10
16.66932040
 20
9.75230664
  0
VERTEX
  8
0
 62
7
 10
16.65386679
 20
9.77262500
  0
VERTEX
  8
0
 62
7
 10
16.63517983
 20
9.78942773
  0
VERTEX
  8
0
 62
7
 10
16.61378764
 20
9.80214063
  0
VERTEX
  8
0
 62
7
 10
16.59021832
 20
9.81018945
  0
VERTEX
  8
0
 62
7
 10
16.56500000
 20
9.81300000
  0
SEQEND
  0
POLYLINE
  8
0
 62
7
 66
1
 70
1
  0
VERTEX
  8
0
 62
7
 10
6.71000000
 20
11.99800000
  0
VERTEX
  8
0
 62
7
 10
25.29000000
 20
11.99800000
  0
VERTEX
  8
0
 62
7
 10
25.29000000
 20
15.57800000
  0
VERTEX
  8
0
 62
7
 10
6.71000000
 20
15.57800000
  0
VERTEX
  8
0
 62
7
 10
6.71000000
 20
11.99800000
  0
SEQEND
  0
POLYLINE
  8
0
 62
7
 66
1
 70
1
  0
VERTEX
  8
0
 62
7
 10
6.91000000
 20
12.19800000
  0
VERTEX
  8
0
 62
7
 10
25.09000000
 20
12.19800000
  0
VERTEX
  8
0
 62
7
 10
25.09000000
 20
15.37800000
  0
VERTEX
  8
0
 62
7
 10
6.91000000
 20
15.37800000
  0
VERTEX
  8
0
 62
7
 10
6.91000000
 20
12.19800000
  0
SEQEND
  0
POLYLINE
  8
0
 62
7
 66
1
 70
1
  0
VERTEX
  8
0
 62
7
 10
7.00000000
 20
12.28800000
  0
VERTEX
  8
0
 62
7
 10
25.00000000
 20
12.28800000
  0
VERTEX
  8
0
 62
7
 10
25.00000000
 20
15.28800000
  0
VERTEX
  8
0
 62
7
 10
7.00000000
 20
15.28800000
  0
VERTEX
  8
0
 62
7
 10
7.00000000
 20
12.28800000
  0
SEQEND
  0
POLYLINE
  8
0
 62
7
 66
1
 70
1
  0
VERTEX
  8
0
 62
7
 10
14.67100000
 20
4.31500000
  0
VERTEX
  8
0
 62
7
 10
14.65550000
 20
4.23700000
  0
VERTEX
  8
0
 62
7
 10
14.64300000
 20
4.15900000
  0
VERTEX
  8
0
 62
7
 10
14.63125000
 20
4.05787500
  0
VERTEX
  8
0
 62
7
 10
14.62400000
 20
3.95600000
  0
VERTEX
  8
0
 62
7
 10
14.61000000
 20
3.95600000
  0
VERTEX
  8
0
 62
7
 10
14.61900000
 20
4.15000000
  0
VERTEX
  8
0
 62
7
 10
14.62900000
 20
4.27300000
  0
VERTEX
  8
0
 62
7
 10
14.63054688
 20
4.30840625
  0
VERTEX
  8
0
 62
7
 10
14.63162500
 20
4.34400000
  0
VERTEX
  8
0
 62
7
 10
14.63139063
 20
4.37959375
  0
VERTEX
  8
0
 62
7
 10
14.62900000
 20
4.41500000
  0
VERTEX
  8
0
 62
7
 10
14.62454688
 20
4.45470313
  0
VERTEX
  8
0
 62
7
 10
14.61812500
 20
4.49412500
  0
VERTEX
  8
0
 62
7
 10
14.60889063
 20
4.53298438
  0
VERTEX
  8
0
 62
7
 10
14.59600000
 20
4.57100000
  0
VERTEX
  8
0
 62
7
 10
14.57756250
 20
4.61210938
  0
VERTEX
  8
0
 62
7
 10
14.55575000
 20
4.65162500
  0
VERTEX
  8
0
 62
7
 10
14.52906250
 20
4.68757813
  0
VERTEX
  8
0
 62
7
 10
14.49600000
 20
4.71800000
  0
VERTEX
  8
0
 62
7
 10
14.47504688
 20
4.73175000
  0
VERTEX
  8
0
 62
7
 10
14.45287500
 20
4.74325000
  0
VERTEX
  8
0
 62
7
 10
14.42976563
 20
4.75287500
  0
VERTEX
  8
0
 62
7
 10
14.40600000
 20
4.76100000
  0
VERTEX
  8
0
 62
7
 10
14.37806250
 20
4.76810938
  0
VERTEX
  8
0
 62
7
 10
14.34975000
 20
4.77287500
  0
VERTEX
  8
0
 62
7
 10
14.32106250
 20
4.77520313
  0
VERTEX
  8
0
 62
7
 10
14.29200000
 20
4.77500000
  0
VERTEX
  8
0
 62
7
 10
14.25970313
 20
4.77195313
  0
VERTEX
  8
0
 62
7
 10
14.22787500
 20
4.76637500
  0
VERTEX
  8
0
 62
7
 10
14.19735938
 20
4.75685938
  0
VERTEX
  8
0
 62
7
 10
14.16900000
 20
4.74200000
  0
VERTEX
  8
0
 62
7
 10
14.15103125
 20
4.72921875
  0
VERTEX
  8
0
 62
7
 10
14.13475000
 20
4.71475000
  0
VERTEX
  8
0
 62
7
 10
14.12034375
 20
4.69840625
  0
VERTEX
  8
0
 62
7
 10
14.10800000
 20
4.68000000
  0
VERTEX
  8
0
 62
7
 10
14.09575000
 20
4.65107813
  0
VERTEX
  8
0
 62
7
 10
14.08950000
 20
4.62037500
  0
VERTEX
  8
0
 62
7
 10
14.08775000
 20
4.58873438
  0
VERTEX
  8
0
 62
7
 10
14.08900000
 20
4.55700000
  0
VERTEX
  8
0
 62
7
 10
14.09239063
 20
4.53020313
  0
VERTEX
  8
0
 62
7
 10
14.09812500
 20
4.50387500
  0
VERTEX
  8
0
 62
7
 10
14.10629688
 20
4.47810938
  0
VERTEX
  8
0
 62
7
 10
14.11700000
 20
4.45300000
  0
VERTEX
  8
0
 62
7
 10
14.13843750
 20
4.45628906
  0
VERTEX
  8
0
 62
7
 10
14.15987500
 20
4.45718750
  0
VERTEX
  8
0
 62
7
 10
14.18112500
 20
4.45574219
  0
VERTEX
  8
0
 62
7
 10
14.20200000
 20
4.45200000
  0
VERTEX
  8
0
 62
7
 10
14.22231250
 20
4.44600781
  0
VERTEX
  8
0
 62
7
 10
14.24187500
 20
4.43781250
  0
VERTEX
  8
0
 62
7
 10
14.26050000
 20
4.42746094
  0
VERTEX
  8
0
 62
7
 10
14.27800000
 20
4.41500000
  0
VERTEX
  8
0
 62
7
 10
14.29520313
 20
4.39862500
  0
VERTEX
  8
0
 62
7
 10
14.30987500
 20
4.38000000
  0
VERTEX
  8
0
 62
7
 10
14.32285938
 20
4.35987500
  0
VERTEX
  8
0
 62
7
 10
14.33500000
 20
4.33900000
  0
VERTEX
  8
0
 62
7
 10
14.35190625
 20
4.30331250
  0
VERTEX
  8
0
 62
7
 10
14.36450000
 20
4.26575000
  0
VERTEX
  8
0
 62
7
 10
14.37409375
 20
4.22706250
  0
VERTEX
  8
0
 62
7
 10
14.38200000
 20
4.18800000
  0
VERTEX
  8
0
 62
7
 10
14.39100000
 20
4.11937500
  0
VERTEX
  8
0
 62
7
 10
14.39700000
 20
4.05000000
  0
VERTEX
  8
0
 62
7
 10
14.40440625
 20
3.98251563
  0
VERTEX
  8
0
 62
7
 10
14.41125000
 20
3.91512500
  0
VERTEX
  8
0
 62
7
 10
14.41921875
 20
3.84792188
  0
VERTEX
  8
0
 62
7
 10
14.43000000
 20
3.78100000
  0
VERTEX
  8
0
 62
7
 10
14.43910938
 20
3.73437500
  0
VERTEX
  8
0
 62
7
 10
14.44887500
 20
3.68775000
  0
VERTEX
  8
0
 62
7
 10
14.45995313
 20
3.64150000
  0
VERTEX
  8
0
 62
7
 10
14.47300000
 20
3.59600000
  0
VERTEX
  8
0
 62
7
 10
14.49114063
 20
3.54078125
  0
VERTEX
  8
0
 62
7
 10
14.51162500
 20
3.48650000
  0
VERTEX
  8
0
 62
7
 10
14.53529688
 20
3.43371875
  0
VERTEX
  8
0
 62
7
 10
14.56300000
 20
3.38300000
  0
VERTEX
  8
0
 62
7
 10
14.59425000
 20
3.33350000
  0
VERTEX
  8
0
 62
7
 10
14.62850000
 20
3.28625000
  0
VERTEX
  8
0
 62
7
 10
14.66650000
 20
3.24237500
  0
VERTEX
  8
0
 62
7
 10
14.70900000
 20
3.20300000
  0
VERTEX
  8
0
 62
7
 10
14.74745313
 20
3.17367188
  0
VERTEX
  8
0
 62
7
 10
14.78787500
 20
3.14762500
  0
VERTEX
  8
0
 62
7
 10
14.83035938
 20
3.12551563
  0
VERTEX
  8
0
 62
7
 10
14.87500000
 20
3.10800000
  0
VERTEX
  8
0
 62
7
 10
14.92700000
 20
3.09400000
  0
VERTEX
  8
0
 62
7
 10
14.92700000
 20
3.20900000
  0
VERTEX
  8
0
 62
7
 10
15.51900000
 20
3.20900000
  0
VERTEX
  8
0
 62
7
 10
15.55062500
 20
3.25162500
  0
VERTEX
  8
0
 62
7
 10
15.57700000
 20
3.29800000
  0
VERTEX
  8
0
 62
7
 10
15.59171875
 20
3.33228125
  0
VERTEX
  8
0
 62
7
 10
15.60325000
 20
3.36750000
  0
VERTEX
  8
0
 62
7
 10
15.61215625
 20
3.40346875
  0
VERTEX
  8
0
 62
7
 10
15.61900000
 20
3.44000000
  0
VERTEX
  8
0
 62
7
 10
15.62512500
 20
3.49500000
  0
VERTEX
  8
0
 62
7
 10
15.62600000
 20
3.55000000
  0
VERTEX
  8
0
 62
7
 10
15.44900000
 20
3.55000000
  0
VERTEX
  8
0
 62
7
 10
15.43262500
 20
3.50125000
  0
VERTEX
  8
0
 62
7
 10
15.41100000
 20
3.45400000
  0
VERTEX
  8
0
 62
7
 10
15.39625000
 20
3.42712500
  0
VERTEX
  8
0
 62
7
 10
15.38000000
 20
3.40100000
  0
VERTEX
  8
0
 62
7
 10
15.36150000
 20
3.37637500
  0
VERTEX
  8
0
 62
7
 10
15.34000000
 20
3.35400000
  0
VERTEX
  8
0
 62
7
 10
15.31826563
 20
3.33639063
  0
VERTEX
  8
0
 62
7
 10
15.29512500
 20
3.32112500
  0
VERTEX
  8
0
 62
7
 10
15.27067188
 20
3.30829688
  0
VERTEX
  8
0
 62
7
 10
15.24500000
 20
3.29800000
  0
VERTEX
  8
0
 62
7
 10
15.21467188
 20
3.28996875
  0
VERTEX
  8
0
 62
7
 10
15.18387500
 20
3.28550000
  0
VERTEX
  8
0
 62
7
 10
15.15289063
 20
3.28478125
  0
VERTEX
  8
0
 62
7
 10
15.12200000
 20
3.28800000
  0
VERTEX
  8
0
 62
7
 10
15.09795313
 20
3.29231250
  0
VERTEX
  8
0
 62
7
 10
15.07437500
 20
3.29850000
  0
VERTEX
  8
0
 62
7
 10
15.05210938
 20
3.30768750
  0
VERTEX
  8
0
 62
7
 10
15.03200000
 20
3.32100000
  0
VERTEX
  8
0
 62
7
 10
15.01684375
 20
3.33512500
  0
VERTEX
  8
0
 62
7
 10
15.00375000
 20
3.35075000
  0
VERTEX
  8
0
 62
7
 10
14.99403125
 20
3.36825000
  0
VERTEX
  8
0
 62
7
 10
14.98900000
 20
3.38800000
  0
VERTEX
  8
0
 62
7
 10
14.98851563
 20
3.40293750
  0
VERTEX
  8
0
 62
7
 10
14.99037500
 20
3.41750000
  0
VERTEX
  8
0
 62
7
 10
14.99504688
 20
3.43131250
  0
VERTEX
  8
0
 62
7
 10
15.00300000
 20
3.44400000
  0
VERTEX
  8
0
 62
7
 10
15.01196875
 20
3.45309375
  0
VERTEX
  8
0
 62
7
 10
15.02225000
 20
3.46050000
  0
VERTEX
  8
0
 62
7
 10
15.03365625
 20
3.46565625
  0
VERTEX
  8
0
 62
7
 10
15.04600000
 20
3.46800000
  0
VERTEX
  8
0
 62
7
 10
15.05834375
 20
3.46756250
  0
VERTEX
  8
0
 62
7
 10
15.07050000
 20
3.46450000
  0
VERTEX
  8
0
 62
7
 10
15.08115625
 20
3.45843750
  0
VERTEX
  8
0
 62
7
 10
15.08900000
 20
3.44900000
  0
VERTEX
  8
0
 62
7
 10
15.09251563
 20
3.43968750
  0
VERTEX
  8
0
 62
7
 10
15.09312500
 20
3.43000000
  0
VERTEX
  8
0
 62
7
 10
15.09167188
 20
3.42031250
  0
VERTEX
  8
0
 62
7
 10
15.08900000
 20
3.41100000
  0
VERTEX
  8
0
 62
7
 10
15.07787500
 20
3.39187500
  0
VERTEX
  8
0
 62
7
 10
15.06000000
 20
3.37800000
  0
VERTEX
  8
0
 62
7
 10
15.09154688
 20
3.35870313
  0
VERTEX
  8
0
 62
7
 10
15.12562500
 20
3.34587500
  0
VERTEX
  8
0
 62
7
 10
15.16139063
 20
3.33960938
  0
VERTEX
  8
0
 62
7
 10
15.19800000
 20
3.34000000
  0
VERTEX
  8
0
 62
7
 10
15.22176563
 20
3.34389063
  0
VERTEX
  8
0
 62
7
 10
15.24487500
 20
3.35087500
  0
VERTEX
  8
0
 62
7
 10
15.26704688
 20
3.36067188
  0
VERTEX
  8
0
 62
7
 10
15.28800000
 20
3.37300000
  0
VERTEX
  8
0
 62
7
 10
15.30626367
 20
3.38687305
  0
VERTEX
  8
0
 62
7
 10
15.32217188
 20
3.40279688
  0
VERTEX
  8
0
 62
7
 10
15.33590039
 20
3.42047852
  0
VERTEX
  8
0
 62
7
 10
15.34762500
 20
3.43962500
  0
VERTEX
  8
0
 62
7
 10
15.35752148
 20
3.45994336
  0
VERTEX
  8
0
 62
7
 10
15.36576563
 20
3.48114063
  0
VERTEX
  8
0
 62
7
 10
15.37253320
 20
3.50292383
  0
VERTEX
  8
0
 62
7
 10
15.37800000
 20
3.52500000
  0
VERTEX
  8
0
 62
7
 10
15.38332813
 20
3.56279688
  0
VERTEX
  8
0
 62
7
 10
15.38312500
 20
3.60087500
  0
VERTEX
  8
0
 62
7
 10
15.37785938
 20
3.63876563
  0
VERTEX
  8
0
 62
7
 10
15.36800000
 20
3.67600000
  0
VERTEX
  8
0
 62
7
 10
15.35373438
 20
3.71337500
  0
VERTEX
  8
0
 62
7
 10
15.33487500
 20
3.74850000
  0
VERTEX
  8
0
 62
7
 10
15.31132813
 20
3.78062500
  0
VERTEX
  8
0
 62
7
 10
15.28300000
 20
3.80900000
  0
VERTEX
  8
0
 62
7
 10
15.25534375
 20
3.82993750
  0
VERTEX
  8
0
 62
7
 10
15.22525000
 20
3.84675000
  0
VERTEX
  8
0
 62
7
 10
15.19328125
 20
3.86018750
  0
VERTEX
  8
0
 62
7
 10
15.16000000
 20
3.87100000
  0
VERTEX
  8
0
 62
7
 10
15.12260938
 20
3.88000000
  0
VERTEX
  8
0
 62
7
 10
15.08437500
 20
3.88525000
  0
VERTEX
  8
0
 62
7
 10
15.04595313
 20
3.88562500
  0
VERTEX
  8
0
 62
7
 10
15.00800000
 20
3.88000000
  0
VERTEX
  8
0
 62
7
 10
14.97401563
 20
3.86982813
  0
VERTEX
  8
0
 62
7
 10
14.94162500
 20
3.85562500
  0
VERTEX
  8
0
 62
7
 10
14.91167188
 20
3.83710938
  0
VERTEX
  8
0
 62
7
 10
14.88500000
 20
3.81400000
  0
VERTEX
  8
0
 62
7
 10
14.86307813
 20
3.78781250
  0
VERTEX
  8
0
 62
7
 10
14.84537500
 20
3.75900000
  0
VERTEX
  8
0
 62
7
 10
14.83198438
 20
3.72793750
  0
VERTEX
  8
0
 62
7
 10
14.82300000
 20
3.69500000
  0
VERTEX
  8
0
 62
7
 10
14.82219922
 20
3.72418750
  0
VERTEX
  8
0
 62
7
 10
14.82353125
 20
3.75318750
  0
VERTEX
  8
0
 62
7
 10
14.82697266
 20
3.78190625
  0
VERTEX
  8
0
 62
7
 10
14.83250000
 20
3.81025000
  0
VERTEX
  8
0
 62
7
 10
14.84008984
 20
3.83812500
  0
VERTEX
  8
0
 62
7
 10
14.84971875
 20
3.86543750
  0
VERTEX
  8
0
 62
7
 10
14.86136328
 20
3.89209375
  0
VERTEX
  8
0
 62
7
 10
14.87500000
 20
3.91800000
  0
VERTEX
  8
0
 62
7
 10
14.89750000
 20
3.95162500
  0
VERTEX
  8
0
 62
7
 10
14.92300000
 20
3.98300000
  0
VERTEX
  8
0
 62
7
 10
14.87100000
 20
4.03200000
  0
VERTEX
  8
0
 62
7
 10
14.80600000
 20
4.10100000
  0
VERTEX
  8
0
 62
7
 10
14.76676563
 20
4.15215625
  0
VERTEX
  8
0
 62
7
 10
14.73137500
 20
4.20500000
  0
VERTEX
  8
0
 62
7
 10
14.69954688
 20
4.25934375
  0
VERTEX
  8
0
 62
7
 10
14.67100000
 20
4.31500000
  0
SEQEND
  0
POLYLINE
  8
0
 62
7
 66
1
 70
1
  0
VERTEX
  8
0
 62
7
 10
14.84200000
 20
11.93900000
  0
VERTEX
  8
0
 62
7
 10
15.27800000
 20
9.78000000
  0
VERTEX
  8
0
 62
7
 10
15.29114453
 20
9.79978711
  0
VERTEX
  8
0
 62
7
 10
15.30646875
 20
9.81773438
  0
VERTEX
  8
0
 62
7
 10
15.32380859
 20
9.83359570
  0
VERTEX
  8
0
 62
7
 10
15.34300000
 20
9.84712500
  0
VERTEX
  8
0
 62
7
 10
15.36387891
 20
9.85807617
  0
VERTEX
  8
0
 62
7
 10
15.38628125
 20
9.86620313
  0
VERTEX
  8
0
 62
7
 10
15.41004297
 20
9.87125977
  0
VERTEX
  8
0
 62
7
 10
15.43500000
 20
9.87300000
  0
VERTEX
  8
0
 62
7
 10
15.44000000
 20
9.87300000
  0
VERTEX
  8
0
 62
7
 10
15.16900000
 20
11.93900000
  0
VERTEX
  8
0
 62
7
 10
14.84200000
 20
11.93900000
  0
SEQEND
  0
POLYLINE
  8
0
 62
7
 66
1
 70
1
  0
VERTEX
  8
0
 62
7
 10
15.22900000
 20
11.93900000
  0
VERTEX
  8
0
 62
7
 10
15.50200000
 20
9.86000000
  0
VERTEX
  8
0
 62
7
 10
15.52370313
 20
9.84896875
  0
VERTEX
  8
0
 62
7
 10
15.54362500
 20
9.83550000
  0
VERTEX
  8
0
 62
7
 10
15.56148438
 20
9.81978125
  0
VERTEX
  8
0
 62
7
 10
15.57700000
 20
9.80200000
  0
VERTEX
  8
0
 62
7
 10
15.61035938
 20
9.93660938
  0
VERTEX
  8
0
 62
7
 10
15.64587500
 20
10.07037500
  0
VERTEX
  8
0
 62
7
 10
15.68345313
 20
10.20320313
  0
VERTEX
  8
0
 62
7
 10
15.72300000
 20
10.33500000
  0
VERTEX
  8
0
 62
7
 10
15.71900000
 20
10.39500000
  0
VERTEX
  8
0
 62
7
 10
15.61000000
 20
11.93900000
  0
VERTEX
  8
0
 62
7
 10
15.22900000
 20
11.93900000
  0
SEQEND
  0
POLYLINE
  8
0
 62
7
 66
1
 70
1
  0
VERTEX
  8
0
 62
7
 10
15.66900000
 20
11.93900000
  0
VERTEX
  8
0
 62
7
 10
15.77600000
 20
10.47700000
  0
VERTEX
  8
0
 62
7
 10
15.82221875
 20
10.61665625
  0
VERTEX
  8
0
 62
7
 10
15.86825000
 20
10.74975000
  0
VERTEX
  8
0
 62
7
 10
15.91690625
 20
10.88171875
  0
VERTEX
  8
0
 62
7
 10
15.97100000
 20
11.01800000
  0
VERTEX
  8
0
 62
7
 10
15.97100000
 20
11.93900000
  0
VERTEX
  8
0
 62
7
 10
15.66900000
 20
11.93900000
  0
SEQEND
  0
POLYLINE
  8
0
 62
7
 66
1
 70
1
  0
VERTEX
  8
0
 62
7
 10
15.74500000
 20
5.80200000
  0
VERTEX
  8
0
 62
7
 10
15.73725000
 20
5.86337500
  0
VERTEX
  8
0
 62
7
 10
15.72500000
 20
5.92400000
  0
VERTEX
  8
0
 62
7
 10
15.71215625
 20
5.97446875
  0
VERTEX
  8
0
 62
7
 10
15.69650000
 20
6.02400000
  0
VERTEX
  8
0
 62
7
 10
15.67859375
 20
6.07278125
  0
VERTEX
  8
0
 62
7
 10
15.65900000
 20
6.12100000
  0
VERTEX
  8
0
 62
7
 10
15.63753125
 20
6.16906250
  0
VERTEX
  8
0
 62
7
 10
15.61400000
 20
6.21600000
  0
VERTEX
  8
0
 62
7
 10
15.58896875
 20
6.26218750
  0
VERTEX
  8
0
 62
7
 10
15.56300000
 20
6.30800000
  0
VERTEX
  8
0
 62
7
 10
15.50862500
 20
6.39725000
  0
VERTEX
  8
0
 62
7
 10
15.45200000
 20
6.48500000
  0
VERTEX
  8
0
 62
7
 10
15.32500000
 20
6.68200000
  0
VERTEX
  8
0
 62
7
 10
15.16400000
 20
6.92500000
  0
VERTEX
  8
0
 62
7
 10
15.13334375
 20
6.97334375
  0
VERTEX
  8
0
 62
7
 10
15.10250000
 20
7.02150000
  0
VERTEX
  8
0
 62
7
 10
15.07315625
 20
7.07040625
  0
VERTEX
  8
0
 62
7
 10
15.04700000
 20
7.12100000
  0
VERTEX
  8
0
 62
7
 10
15.03271875
 20
7.15195313
  0
VERTEX
  8
0
 62
7
 10
15.01900000
 20
7.18337500
  0
VERTEX
  8
0
 62
7
 10
15.00678125
 20
7.21535938
  0
VERTEX
  8
0
 62
7
 10
14.99700000
 20
7.24800000
  0
VERTEX
  8
0
 62
7
 10
14.98875000
 20
7.28042188
  0
VERTEX
  8
0
 62
7
 10
14.98200000
 20
7.31312500
  0
VERTEX
  8
0
 62
7
 10
14.97900000
 20
7.34601563
  0
VERTEX
  8
0
 62
7
 10
14.98200000
 20
7.37900000
  0
VERTEX
  8
0
 62
7
 10
14.98812500
 20
7.40715625
  0
VERTEX
  8
0
 62
7
 10
14.99725000
 20
7.43475000
  0
VERTEX
  8
0
 62
7
 10
15.01125000
 20
7.45971875
  0
VERTEX
  8
0
 62
7
 10
15.03200000
 20
7.48000000
  0
VERTEX
  8
0
 62
7
 10
15.04600781
 20
7.48797852
  0
VERTEX
  8
0
 62
7
 10
15.06081250
 20
7.49320313
  0
VERTEX
  8
0
 62
7
 10
15.07608594
 20
7.49573242
  0
VERTEX
  8
0
 62
7
 10
15.09150000
 20
7.49562500
  0
VERTEX
  8
0
 62
7
 10
15.10672656
 20
7.49293945
  0
VERTEX
  8
0
 62
7
 10
15.12143750
 20
7.48773438
  0
VERTEX
  8
0
 62
7
 10
15.13530469
 20
7.48006836
  0
VERTEX
  8
0
 62
7
 10
15.14800000
 20
7.47000000
  0
VERTEX
  8
0
 62
7
 10
15.16706250
 20
7.44767188
  0
VERTEX
  8
0
 62
7
 10
15.18050000
 20
7.42187500
  0
VERTEX
  8
0
 62
7
 10
15.18793750
 20
7.39364063
  0
VERTEX
  8
0
 62
7
 10
15.18900000
 20
7.36400000
  0
VERTEX
  8
0
 62
7
 10
15.21575000
 20
7.36585938
  0
VERTEX
  8
0
 62
7
 10
15.24175000
 20
7.37137500
  0
VERTEX
  8
0
 62
7
 10
15.26662500
 20
7.38045313
  0
VERTEX
  8
0
 62
7
 10
15.29000000
 20
7.39300000
  0
VERTEX
  8
0
 62
7
 10
15.31629688
 20
7.41406250
  0
VERTEX
  8
0
 62
7
 10
15.33762500
 20
7.44000000
  0
VERTEX
  8
0
 62
7
 10
15.35539063
 20
7.46893750
  0
VERTEX
  8
0
 62
7
 10
15.37100000
 20
7.49900000
  0
VERTEX
  8
0
 62
7
 10
15.38793750
 20
7.53993750
  0
VERTEX
  8
0
 62
7
 10
15.39925000
 20
7.58275000
  0
VERTEX
  8
0
 62
7
 10
15.40643750
 20
7.62668750
  0
VERTEX
  8
0
 62
7
 10
15.41100000
 20
7.67100000
  0
VERTEX
  8
0
 62
7
 10
15.41335938
 20
7.72210938
  0
VERTEX
  8
0
 62
7
 10
15.41187500
 20
7.77312500
  0
VERTEX
  8
0
 62
7
 10
15.40495313
 20
7.82357813
  0
VERTEX
  8
0
 62
7
 10
15.39100000
 20
7.87300000
  0
VERTEX
  8
0
 62
7
 10
15.37793750
 20
7.90582813
  0
VERTEX
  8
0
 62
7
 10
15.36225000
 20
7.93762500
  0
VERTEX
  8
0
 62
7
 10
15.34318750
 20
7.96735938
  0
VERTEX
  8
0
 62
7
 10
15.32000000
 20
7.99400000
  0
VERTEX
  8
0
 62
7
 10
15.29746875
 20
8.01393750
  0
VERTEX
  8
0
 62
7
 10
15.27325000
 20
8.03125000
  0
VERTEX
  8
0
 62
7
 10
15.24715625
 20
8.04518750
  0
VERTEX
  8
0
 62
7
 10
15.21900000
 20
8.05500000
  0
VERTEX
  8
0
 62
7
 10
15.18346875
 20
8.06159375
  0
VERTEX
  8
0
 62
7
 10
15.14775000
 20
8.06200000
  0
VERTEX
  8
0
 62
7
 10
15.11240625
 20
8.05640625
  0
VERTEX
  8
0
 62
7
 10
15.07800000
 20
8.04500000
  0
VERTEX
  8
0
 62
7
 10
15.14612500
 20
8.09425000
  0
VERTEX
  8
0
 62
7
 10
15.20900000
 20
8.15100000
  0
VERTEX
  8
0
 62
7
 10
15.26250000
 20
8.21137500
  0
VERTEX
  8
0
 62
7
 10
15.31000000
 20
8.27700000
  0
VERTEX
  8
0
 62
7
 10
15.33009375
 20
8.30709375
  0
VERTEX
  8
0
 62
7
 10
15.34925000
 20
8.33775000
  0
VERTEX
  8
0
 62
7
 10
15.36653125
 20
8.36953125
  0
VERTEX
  8
0
 62
7
 10
15.38100000
 20
8.40300000
  0
VERTEX
  8
0
 62
7
 10
15.39643750
 20
8.45468750
  0
VERTEX
  8
0
 62
7
 10
15.40550000
 20
8.50750000
  0
VERTEX
  8
0
 62
7
 10
15.40856250
 20
8.56106250
  0
VERTEX
  8
0
 62
7
 10
15.40600000
 20
8.61500000
  0
VERTEX
  8
0
 62
7
 10
15.40301172
 20
8.64018945
  0
VERTEX
  8
0
 62
7
 10
15.39915625
 20
8.66539063
  0
VERTEX
  8
0
 62
7
 10
15.39422266
 20
8.69042773
  0
VERTEX
  8
0
 62
7
 10
15.38800000
 20
8.71512500
  0
VERTEX
  8
0
 62
7
 10
15.38027734
 20
8.73930664
  0
VERTEX
  8
0
 62
7
 10
15.37084375
 20
8.76279687
  0
VERTEX
  8
0
 62
7
 10
15.35948828
 20
8.78541992
  0
VERTEX
  8
0
 62
7
 10
15.34600000
 20
8.80700000
  0
VERTEX
  8
0
 62
7
 10
15.32273438
 20
8.83726563
  0
VERTEX
  8
0
 62
7
 10
15.29637500
 20
8.86462500
  0
VERTEX
  8
0
 62
7
 10
15.26682813
 20
8.88842188
  0
VERTEX
  8
0
 62
7
 10
15.23400000
 20
8.90800000
  0
VERTEX
  8
0
 62
7
 10
15.20029688
 20
8.92182812
  0
VERTEX
  8
0
 62
7
 10
15.16537500
 20
8.93087500
  0
VERTEX
  8
0
 62
7
 10
15.12951563
 20
8.93598438
  0
VERTEX
  8
0
 62
7
 10
15.09300000
 20
8.93800000
  0
VERTEX
  8
0
 62
7
 10
15.04275000
 20
8.93565625
  0
VERTEX
  8
0
 62
7
 10
14.99325000
 20
8.92675000
  0
VERTEX
  8
0
 62
7
 10
14.94562500
 20
8.91071875
  0
VERTEX
  8
0
 62
7
 10
14.90100000
 20
8.88700000
  0
VERTEX
  8
0
 62
7
 10
14.86556250
 20
8.86041406
  0
VERTEX
  8
0
 62
7
 10
14.83443750
 20
8.82975000
  0
VERTEX
  8
0
 62
7
 10
14.80790625
 20
8.79552344
  0
VERTEX
  8
0
 62
7
 10
14.78625000
 20
8.75825000
  0
VERTEX
  8
0
 62
7
 10
14.76975000
 20
8.71844531
  0
VERTEX
  8
0
 62
7
 10
14.75868750
 20
8.67662500
  0
VERTEX
  8
0
 62
7
 10
14.75334375
 20
8.63330469
  0
VERTEX
  8
0
 62
7
 10
14.75400000
 20
8.58900000
  0
VERTEX
  8
0
 62
7
 10
14.78450000
 20
8.58987500
  0
VERTEX
  8
0
 62
7
 10
14.81500000
 20
8.58400000
  0
VERTEX
  8
0
 62
7
 10
14.83714063
 20
8.57512500
  0
VERTEX
  8
0
 62
7
 10
14.85712500
 20
8.56250000
  0
VERTEX
  8
0
 62
7
 10
14.87504688
 20
8.54687500
  0
VERTEX
  8
0
 62
7
 10
14.89100000
 20
8.52900000
  0
VERTEX
  8
0
 62
7
 10
14.90800000
 20
8.50179688
  0
VERTEX
  8
0
 62
7
 10
14.91900000
 20
8.47187500
  0
VERTEX
  8
0
 62
7
 10
14.92475000
 20
8.44026563
  0
VERTEX
  8
0
 62
7
 10
14.92600000
 20
8.40800000
  0
VERTEX
  8
0
 62
7
 10
14.92300000
 20
8.38060938
  0
VERTEX
  8
0
 62
7
 10
14.91625000
 20
8.35387500
  0
VERTEX
  8
0
 62
7
 10
14.90687500
 20
8.32770312
  0
VERTEX
  8
0
 62
7
 10
14.89600000
 20
8.30200000
  0
VERTEX
  8
0
 62
7
 10
14.87450000
 20
8.26325000
  0
VERTEX
  8
0
 62
7
 10
14.85000000
 20
8.22600000
  0
VERTEX
  8
0
 62
7
 10
14.82046875
 20
8.18621875
  0
VERTEX
  8
0
 62
7
 10
14.78850000
 20
8.14850000
  0
VERTEX
  8
0
 62
7
 10
14.75578125
 20
8.11153125
  0
VERTEX
  8
0
 62
7
 10
14.72400000
 20
8.07400000
  0
VERTEX
  8
0
 62
7
 10
14.68986914
 20
8.03016406
  0
VERTEX
  8
0
 62
7
 10
14.65757813
 20
7.98487500
  0
VERTEX
  8
0
 62
7
 10
14.62765430
 20
7.93808594
  0
VERTEX
  8
0
 62
7
 10
14.60062500
 20
7.88975000
  0
VERTEX
  8
0
 62
7
 10
14.57701758
 20
7.83982031
  0
VERTEX
  8
0
 62
7
 10
14.55735938
 20
7.78825000
  0
VERTEX
  8
0
 62
7
 10
14.54217773
 20
7.73499219
  0
VERTEX
  8
0
 62
7
 10
14.53200000
 20
7.68000000
  0
VERTEX
  8
0
 62
7
 10
14.52629688
 20
7.62959375
  0
VERTEX
  8
0
 62
7
 10
14.52312500
 20
7.57900000
  0
VERTEX
  8
0
 62
7
 10
14.52314063
 20
7.52840625
  0
VERTEX
  8
0
 62
7
 10
14.52700000
 20
7.47800000
  0
VERTEX
  8
0
 62
7
 10
14.53375000
 20
7.43306250
  0
VERTEX
  8
0
 62
7
 10
14.54350000
 20
7.38850000
  0
VERTEX
  8
0
 62
7
 10
14.55625000
 20
7.34468750
  0
VERTEX
  8
0
 62
7
 10
14.57200000
 20
7.30200000
  0
VERTEX
  8
0
 62
7
 10
14.58851563
 20
7.26625000
  0
VERTEX
  8
0
 62
7
 10
14.60737500
 20
7.23200000
  0
VERTEX
  8
0
 62
7
 10
14.62754688
 20
7.19850000
  0
VERTEX
  8
0
 62
7
 10
14.64800000
 20
7.16500000
  0
VERTEX
  8
0
 62
7
 10
14.68325000
 20
7.10876953
  0
VERTEX
  8
0
 62
7
 10
14.72056250
 20
7.05396875
  0
VERTEX
  8
0
 62
7
 10
14.75965625
 20
7.00043359
  0
VERTEX
  8
0
 62
7
 10
14.80025000
 20
6.94800000
  0
VERTEX
  8
0
 62
7
 10
14.84206250
 20
6.89650391
  0
VERTEX
  8
0
 62
7
 10
14.88481250
 20
6.84578125
  0
VERTEX
  8
0
 62
7
 10
14.92821875
 20
6.79566797
  0
VERTEX
  8
0
 62
7
 10
14.97200000
 20
6.74600000
  0
VERTEX
  8
0
 62
7
 10
15.06100000
 20
6.64850000
  0
VERTEX
  8
0
 62
7
 10
15.15300000
 20
6.55400000
  0
VERTEX
  8
0
 62
7
 10
15.08100000
 20
6.59725000
  0
VERTEX
  8
0
 62
7
 10
15.01200000
 20
6.64500000
  0
VERTEX
  8
0
 62
7
 10
14.98537500
 20
6.66350000
  0
VERTEX
  8
0
 62
7
 10
14.96100000
 20
6.68500000
  0
VERTEX
  8
0
 62
7
 10
14.95245313
 20
6.69693750
  0
VERTEX
  8
0
 62
7
 10
14.94512500
 20
6.71000000
  0
VERTEX
  8
0
 62
7
 10
14.93948438
 20
6.72381250
  0
VERTEX
  8
0
 62
7
 10
14.93600000
 20
6.73800000
  0
VERTEX
  8
0
 62
7
 10
14.89200000
 20
6.78300000
  0
VERTEX
  8
0
 62
7
 10
14.84100000
 20
6.84400000
  0
VERTEX
  8
0
 62
7
 10
14.83262500
 20
6.82512500
  0
VERTEX
  8
0
 62
7
 10
14.82800000
 20
6.80400000
  0
VERTEX
  8
0
 62
7
 10
14.82650000
 20
6.77800000
  0
VERTEX
  8
0
 62
7
 10
14.82725000
 20
6.74900000
  0
VERTEX
  8
0
 62
7
 10
14.83137500
 20
6.71850000
  0
VERTEX
  8
0
 62
7
 10
14.84000000
 20
6.68800000
  0
VERTEX
  8
0
 62
7
 10
14.81000000
 20
6.65500000
  0
VERTEX
  8
0
 62
7
 10
14.79765625
 20
6.63554688
  0
VERTEX
  8
0
 62
7
 10
14.78775000
 20
6.61487500
  0
VERTEX
  8
0
 62
7
 10
14.78046875
 20
6.59326563
  0
VERTEX
  8
0
 62
7
 10
14.77600000
 20
6.57100000
  0
VERTEX
  8
0
 62
7
 10
14.82900000
 20
6.56700000
  0
VERTEX
  8
0
 62
7
 10
14.87100000
 20
6.55900000
  0
VERTEX
  8
0
 62
7
 10
14.87800000
 20
6.56200000
  0
VERTEX
  8
0
 62
7
 10
14.88865625
 20
6.56514063
  0
VERTEX
  8
0
 62
7
 10
14.89950000
 20
6.56612500
  0
VERTEX
  8
0
 62
7
 10
14.91034375
 20
6.56579688
  0
VERTEX
  8
0
 62
7
 10
14.92100000
 20
6.56500000
  0
VERTEX
  8
0
 62
7
 10
14.94637500
 20
6.56150000
  0
VERTEX
  8
0
 62
7
 10
14.97100000
 20
6.55500000
  0
VERTEX
  8
0
 62
7
 10
15.00975000
 20
6.54000000
  0
VERTEX
  8
0
 62
7
 10
15.04700000
 20
6.52200000
  0
VERTEX
  8
0
 62
7
 10
15.08973438
 20
6.49893750
  0
VERTEX
  8
0
 62
7
 10
15.13087500
 20
6.47325000
  0
VERTEX
  8
0
 62
7
 10
15.17032813
 20
6.44493750
  0
VERTEX
  8
0
 62
7
 10
15.20800000
 20
6.41400000
  0
VERTEX
  8
0
 62
7
 10
15.14075000
 20
6.44487500
  0
VERTEX
  8
0
 62
7
 10
15.07200000
 20
6.47200000
  0
VERTEX
  8
0
 62
7
 10
14.99975000
 20
6.49712500
  0
VERTEX
  8
0
 62
7
 10
14.92600000
 20
6.51700000
  0
VERTEX
  8
0
 62
7
 10
14.88306250
 20
6.52625000
  0
VERTEX
  8
0
 62
7
 10
14.83975000
 20
6.53400000
  0
VERTEX
  8
0
 62
7
 10
14.79606250
 20
6.53950000
  0
VERTEX
  8
0
 62
7
 10
14.75200000
 20
6.54200000
  0
VERTEX
  8
0
 62
7
 10
14.67862500
 20
6.53825000
  0
VERTEX
  8
0
 62
7
 10
14.60600000
 20
6.52700000
  0
VERTEX
  8
0
 62
7
 10
14.53287500
 20
6.50825000
  0
VERTEX
  8
0
 62
7
 10
14.46200000
 20
6.48200000
  0
VERTEX
  8
0
 62
7
 10
14.42417188
 20
6.46364063
  0
VERTEX
  8
0
 62
7
 10
14.38737500
 20
6.44312500
  0
VERTEX
  8
0
 62
7
 10
14.35189063
 20
6.42054688
  0
VERTEX
  8
0
 62
7
 10
14.31800000
 20
6.39600000
  0
VERTEX
  8
0
 62
7
 10
14.28457813
 20
6.36792188
  0
VERTEX
  8
0
 62
7
 10
14.25312500
 20
6.33787500
  0
VERTEX
  8
0
 62
7
 10
14.22335938
 20
6.30614063
  0
VERTEX
  8
0
 62
7
 10
14.19500000
 20
6.27300000
  0
VERTEX
  8
0
 62
7
 10
14.15917383
 20
6.22485742
  0
VERTEX
  8
0
 62
7
 10
14.12739063
 20
6.17435938
  0
VERTEX
  8
0
 62
7
 10
14.09956836
 20
6.12177539
  0
VERTEX
  8
0
 62
7
 10
14.07562500
 20
6.06737500
  0
VERTEX
  8
0
 62
7
 10
14.05547852
 20
6.01142773
  0
VERTEX
  8
0
 62
7
 10
14.03904688
 20
5.95420313
  0
VERTEX
  8
0
 62
7
 10
14.02624805
 20
5.89597070
  0
VERTEX
  8
0
 62
7
 10
14.01700000
 20
5.83700000
  0
VERTEX
  8
0
 62
7
 10
14.01131250
 20
5.77143750
  0
VERTEX
  8
0
 62
7
 10
14.01050000
 20
5.70550000
  0
VERTEX
  8
0
 62
7
 10
14.01418750
 20
5.63956250
  0
VERTEX
  8
0
 62
7
 10
14.02200000
 20
5.57400000
  0
VERTEX
  8
0
 62
7
 10
14.03107813
 20
5.52260938
  0
VERTEX
  8
0
 62
7
 10
14.04287500
 20
5.47187500
  0
VERTEX
  8
0
 62
7
 10
14.05673438
 20
5.42170313
  0
VERTEX
  8
0
 62
7
 10
14.07200000
 20
5.37200000
  0
VERTEX
  8
0
 62
7
 10
14.13300000
 20
5.21000000
  0
VERTEX
  8
0
 62
7
 10
14.14162500
 20
5.18500000
  0
VERTEX
  8
0
 62
7
 10
14.14800000
 20
5.16000000
  0
VERTEX
  8
0
 62
7
 10
14.15051563
 20
5.13784375
  0
VERTEX
  8
0
 62
7
 10
14.15087500
 20
5.11550000
  0
VERTEX
  8
0
 62
7
 10
14.14729688
 20
5.09390625
  0
VERTEX
  8
0
 62
7
 10
14.13800000
 20
5.07400000
  0
VERTEX
  8
0
 62
7
 10
14.12423438
 20
5.05790625
  0
VERTEX
  8
0
 62
7
 10
14.10737500
 20
5.04575000
  0
VERTEX
  8
0
 62
7
 10
14.08807813
 20
5.03771875
  0
VERTEX
  8
0
 62
7
 10
14.06700000
 20
5.03400000
  0
VERTEX
  8
0
 62
7
 10
14.06865625
 20
5.00631250
  0
VERTEX
  8
0
 62
7
 10
14.07350000
 20
4.97900000
  0
VERTEX
  8
0
 62
7
 10
14.08134375
 20
4.95243750
  0
VERTEX
  8
0
 62
7
 10
14.09200000
 20
4.92700000
  0
VERTEX
  8
0
 62
7
 10
14.10512500
 20
4.90303125
  0
VERTEX
  8
0
 62
7
 10
14.12050000
 20
4.88075000
  0
VERTEX
  8
0
 62
7
 10
14.13812500
 20
4.86034375
  0
VERTEX
  8
0
 62
7
 10
14.15800000
 20
4.84200000
  0
VERTEX
  8
0
 62
7
 10
14.17748438
 20
4.82721875
  0
VERTEX
  8
0
 62
7
 10
14.19837500
 20
4.81450000
  0
VERTEX
  8
0
 62
7
 10
14.22057813
 20
4.80403125
  0
VERTEX
  8
0
 62
7
 10
14.24400000
 20
4.79600000
  0
VERTEX
  8
0
 62
7
 10
14.26253906
 20
4.79167188
  0
VERTEX
  8
0
 62
7
 10
14.28131250
 20
4.78856250
  0
VERTEX
  8
0
 62
7
 10
14.30017969
 20
4.78685938
  0
VERTEX
  8
0
 62
7
 10
14.31900000
 20
4.78675000
  0
VERTEX
  8
0
 62
7
 10
14.33763281
 20
4.78842188
  0
VERTEX
  8
0
 62
7
 10
14.35593750
 20
4.79206250
  0
VERTEX
  8
0
 62
7
 10
14.37377344
 20
4.79785938
  0
VERTEX
  8
0
 62
7
 10
14.39100000
 20
4.80600000
  0
VERTEX
  8
0
 62
7
 10
14.41206250
 20
4.81976563
  0
VERTEX
  8
0
 62
7
 10
14.43050000
 20
4.83662500
  0
VERTEX
  8
0
 62
7
 10
14.44668750
 20
4.85592188
  0
VERTEX
  8
0
 62
7
 10
14.46100000
 20
4.87700000
  0
VERTEX
  8
0
 62
7
 10
14.47252539
 20
4.89857031
  0
VERTEX
  8
0
 62
7
 10
14.48157813
 20
4.92112500
  0
VERTEX
  8
0
 62
7
 10
14.48812305
 20
4.94442969
  0
VERTEX
  8
0
 62
7
 10
14.49212500
 20
4.96825000
  0
VERTEX
  8
0
 62
7
 10
14.49354883
 20
4.99235156
  0
VERTEX
  8
0
 62
7
 10
14.49235938
 20
5.01650000
  0
VERTEX
  8
0
 62
7
 10
14.48852148
 20
5.04046094
  0
VERTEX
  8
0
 62
7
 10
14.48200000
 20
5.06400000
  0
VERTEX
  8
0
 62
7
 10
14.52775000
 20
5.02800000
  0
VERTEX
  8
0
 62
7
 10
14.57800000
 20
4.99800000
  0
VERTEX
  8
0
 62
7
 10
14.60717188
 20
4.98514063
  0
VERTEX
  8
0
 62
7
 10
14.63737500
 20
4.97462500
  0
VERTEX
  8
0
 62
7
 10
14.66814063
 20
4.96579688
  0
VERTEX
  8
0
 62
7
 10
14.69900000
 20
4.95800000
  0
VERTEX
  8
0
 62
7
 10
14.74282813
 20
4.94925000
  0
VERTEX
  8
0
 62
7
 10
14.78712500
 20
4.94350000
  0
VERTEX
  8
0
 62
7
 10
14.83160938
 20
4.94000000
  0
VERTEX
  8
0
 62
7
 10
14.87600000
 20
4.93800000
  0
VERTEX
  8
0
 62
7
 10
14.92731250
 20
4.93609375
  0
VERTEX
  8
0
 62
7
 10
14.97900000
 20
4.93550000
  0
VERTEX
  8
0
 62
7
 10
15.03068750
 20
4.93715625
  0
VERTEX
  8
0
 62
7
 10
15.08200000
 20
4.94200000
  0
VERTEX
  8
0
 62
7
 10
15.10400000
 20
4.94900000
  0
VERTEX
  8
0
 62
7
 10
15.13819507
 20
4.96016772
  0
VERTEX
  8
0
 62
7
 10
15.17135742
 20
4.97337305
  0
VERTEX
  8
0
 62
7
 10
15.20341528
 20
4.98854419
  0
VERTEX
  8
0
 62
7
 10
15.23429688
 20
5.00560938
  0
VERTEX
  8
0
 62
7
 10
15.26393042
 20
5.02449683
  0
VERTEX
  8
0
 62
7
 10
15.29224414
 20
5.04513477
  0
VERTEX
  8
0
 62
7
 10
15.31916626
 20
5.06745142
  0
VERTEX
  8
0
 62
7
 10
15.34462500
 20
5.09137500
  0
VERTEX
  8
0
 62
7
 10
15.36854858
 20
5.11683374
  0
VERTEX
  8
0
 62
7
 10
15.39086523
 20
5.14375586
  0
VERTEX
  8
0
 62
7
 10
15.41150317
 20
5.17206958
  0
VERTEX
  8
0
 62
7
 10
15.43039063
 20
5.20170313
  0
VERTEX
  8
0
 62
7
 10
15.44745581
 20
5.23258472
  0
VERTEX
  8
0
 62
7
 10
15.46262695
 20
5.26464258
  0
VERTEX
  8
0
 62
7
 10
15.47583228
 20
5.29780493
  0
VERTEX
  8
0
 62
7
 10
15.48700000
 20
5.33200000
  0
VERTEX
  8
0
 62
7
 10
15.49765625
 20
5.37282813
  0
VERTEX
  8
0
 62
7
 10
15.50550000
 20
5.41412500
  0
VERTEX
  8
0
 62
7
 10
15.51034375
 20
5.45560938
  0
VERTEX
  8
0
 62
7
 10
15.51200000
 20
5.49700000
  0
VERTEX
  8
0
 62
7
 10
15.50993750
 20
5.54326563
  0
VERTEX
  8
0
 62
7
 10
15.50375000
 20
5.58887500
  0
VERTEX
  8
0
 62
7
 10
15.49343750
 20
5.63354688
  0
VERTEX
  8
0
 62
7
 10
15.47900000
 20
5.67700000
  0
VERTEX
  8
0
 62
7
 10
15.45850000
 20
5.72415625
  0
VERTEX
  8
0
 62
7
 10
15.43425000
 20
5.76775000
  0
VERTEX
  8
0
 62
7
 10
15.40587500
 20
5.80721875
  0
VERTEX
  8
0
 62
7
 10
15.37300000
 20
5.84200000
  0
VERTEX
  8
0
 62
7
 10
15.33698438
 20
5.87189063
  0
VERTEX
  8
0
 62
7
 10
15.29937500
 20
5.89662500
  0
VERTEX
  8
0
 62
7
 10
15.26007813
 20
5.91554688
  0
VERTEX
  8
0
 62
7
 10
15.21900000
 20
5.92800000
  0
VERTEX
  8
0
 62
7
 10
15.18225000
 20
5.93475000
  0
VERTEX
  8
0
 62
7
 10
15.14700000
 20
5.93700000
  0
VERTEX
  8
0
 62
7
 10
15.11250000
 20
5.93412500
  0
VERTEX
  8
0
 62
7
 10
15.08100000
 20
5.92600000
  0
VERTEX
  8
0
 62
7
 10
15.05500000
 20
5.91401563
  0
VERTEX
  8
0
 62
7
 10
15.03125000
 20
5.89912500
  0
VERTEX
  8
0
 62
7
 10
15.01012500
 20
5.88142188
  0
VERTEX
  8
0
 62
7
 10
14.99200000
 20
5.86100000
  0
VERTEX
  8
0
 62
7
 10
14.97839063
 20
5.83907813
  0
VERTEX
  8
0
 62
7
 10
14.96787500
 20
5.81687500
  0
VERTEX
  8
0
 62
7
 10
14.96092188
 20
5.79448438
  0
VERTEX
  8
0
 62
7
 10
14.95800000
 20
5.77200000
  0
VERTEX
  8
0
 62
7
 10
14.95700000
 20
5.75100000
  0
VERTEX
  8
0
 62
7
 10
14.95803125
 20
5.73128125
  0
VERTEX
  8
0
 62
7
 10
14.96075000
 20
5.71775000
  0
VERTEX
  8
0
 62
7
 10
14.96459375
 20
5.70909375
  0
VERTEX
  8
0
 62
7
 10
14.96900000
 20
5.70400000
  0
VERTEX
  8
0
 62
7
 10
14.97887500
 20
5.69700000
  0
VERTEX
  8
0
 62
7
 10
14.99100000
 20
5.69300000
  0
VERTEX
  8
0
 62
7
 10
15.00277930
 20
5.68920703
  0
VERTEX
  8
0
 62
7
 10
15.01323438
 20
5.68328125
  0
VERTEX
  8
0
 62
7
 10
15.02216602
 20
5.67552734
  0
VERTEX
  8
0
 62
7
 10
15.02937500
 20
5.66625000
  0
VERTEX
  8
0
 62
7
 10
15.03466211
 20
5.65575391
  0
VERTEX
  8
0
 62
7
 10
15.03782813
 20
5.64434375
  0
VERTEX
  8
0
 62
7
 10
15.03867383
 20
5.63232422
  0
VERTEX
  8
0
 62
7
 10
15.03700000
 20
5.62000000
  0
VERTEX
  8
0
 62
7
 10
15.02620313
 20
5.58667188
  0
VERTEX
  8
0
 62
7
 10
15.00987500
 20
5.55587500
  0
VERTEX
  8
0
 62
7
 10
14.98735938
 20
5.52789063
  0
VERTEX
  8
0
 62
7
 10
14.95800000
 20
5.50300000
  0
VERTEX
  8
0
 62
7
 10
14.92448438
 20
5.48525000
  0
VERTEX
  8
0
 62
7
 10
14.88787500
 20
5.47350000
  0
VERTEX
  8
0
 62
7
 10
14.84957813
 20
5.46700000
  0
VERTEX
  8
0
 62
7
 10
14.81100000
 20
5.46500000
  0
VERTEX
  8
0
 62
7
 10
14.77573047
 20
5.46654883
  0
VERTEX
  8
0
 62
7
 10
14.73940625
 20
5.47120313
  0
VERTEX
  8
0
 62
7
 10
14.70275391
 20
5.47897461
  0
VERTEX
  8
0
 62
7
 10
14.66650000
 20
5.48987500
  0
VERTEX
  8
0
 62
7
 10
14.63137109
 20
5.50391602
  0
VERTEX
  8
0
 62
7
 10
14.59809375
 20
5.52110938
  0
VERTEX
  8
0
 62
7
 10
14.56739453
 20
5.54146680
  0
VERTEX
  8
0
 62
7
 10
14.54000000
 20
5.56500000
  0
VERTEX
  8
0
 62
7
 10
14.51076953
 20
5.59682813
  0
VERTEX
  8
0
 62
7
 10
14.48596875
 20
5.63062500
  0
VERTEX
  8
0
 62
7
 10
14.46543359
 20
5.66610938
  0
VERTEX
  8
0
 62
7
 10
14.44900000
 20
5.70300000
  0
VERTEX
  8
0
 62
7
 10
14.43650391
 20
5.74101563
  0
VERTEX
  8
0
 62
7
 10
14.42778125
 20
5.77987500
  0
VERTEX
  8
0
 62
7
 10
14.42266797
 20
5.81929688
  0
VERTEX
  8
0
 62
7
 10
14.42100000
 20
5.85900000
  0
VERTEX
  8
0
 62
7
 10
14.42465625
 20
5.91828125
  0
VERTEX
  8
0
 62
7
 10
14.43525000
 20
5.97700000
  0
VERTEX
  8
0
 62
7
 10
14.45221875
 20
6.03421875
  0
VERTEX
  8
0
 62
7
 10
14.47500000
 20
6.08900000
  0
VERTEX
  8
0
 62
7
 10
14.50616992
 20
6.14320703
  0
VERTEX
  8
0
 62
7
 10
14.54360938
 20
6.19115625
  0
VERTEX
  8
0
 62
7
 10
14.58646289
 20
6.23296484
  0
VERTEX
  8
0
 62
7
 10
14.63387500
 20
6.26875000
  0
VERTEX
  8
0
 62
7
 10
14.68499023
 20
6.29862891
  0
VERTEX
  8
0
 62
7
 10
14.73895313
 20
6.32271875
  0
VERTEX
  8
0
 62
7
 10
14.79490820
 20
6.34113672
  0
VERTEX
  8
0
 62
7
 10
14.85200000
 20
6.35400000
  0
VERTEX
  8
0
 62
7
 10
14.91725000
 20
6.36300000
  0
VERTEX
  8
0
 62
7
 10
14.98100000
 20
6.36600000
  0
VERTEX
  8
0
 62
7
 10
15.04505591
 20
6.36309375
  0
VERTEX
  8
0
 62
7
 10
15.10738477
 20
6.35456250
  0
VERTEX
  8
0
 62
7
 10
15.16785327
 20
6.34068750
  0
VERTEX
  8
0
 62
7
 10
15.22632813
 20
6.32175000
  0
VERTEX
  8
0
 62
7
 10
15.28267603
 20
6.29803125
  0
VERTEX
  8
0
 62
7
 10
15.33676367
 20
6.26981250
  0
VERTEX
  8
0
 62
7
 10
15.38845776
 20
6.23737500
  0
VERTEX
  8
0
 62
7
 10
15.43762500
 20
6.20100000
  0
VERTEX
  8
0
 62
7
 10
15.48413208
 20
6.16096875
  0
VERTEX
  8
0
 62
7
 10
15.52784570
 20
6.11756250
  0
VERTEX
  8
0
 62
7
 10
15.56863257
 20
6.07106250
  0
VERTEX
  8
0
 62
7
 10
15.60635938
 20
6.02175000
  0
VERTEX
  8
0
 62
7
 10
15.64089282
 20
5.96990625
  0
VERTEX
  8
0
 62
7
 10
15.67209961
 20
5.91581250
  0
VERTEX
  8
0
 62
7
 10
15.69984644
 20
5.85975000
  0
VERTEX
  8
0
 62
7
 10
15.72400000
 20
5.80200000
  0
VERTEX
  8
0
 62
7
 10
15.74500000
 20
5.80200000
  0
VERTEX
  8
0
 62
7
 10
15.74500000
 20
5.80200000
  0
SEQEND
  0
POLYLINE
  8
0
 62
7
 66
1
 70
1
  0
VERTEX
  8
0
 62
7
 10
15.54900000
 20
4.98100000
  0
VERTEX
  8
0
 62
7
 10
15.59600000
 20
5.04300000
  0
VERTEX
  8
0
 62
7
 10
15.61735938
 20
5.07579883
  0
VERTEX
  8
0
 62
7
 10
15.63712500
 20
5.10964063
  0
VERTEX
  8
0
 62
7
 10
15.65520313
 20
5.14444336
  0
VERTEX
  8
0
 62
7
 10
15.67150000
 20
5.18012500
  0
VERTEX
  8
0
 62
7
 10
15.68592188
 20
5.21660352
  0
VERTEX
  8
0
 62
7
 10
15.69837500
 20
5.25379688
  0
VERTEX
  8
0
 62
7
 10
15.70876563
 20
5.29162305
  0
VERTEX
  8
0
 62
7
 10
15.71700000
 20
5.33000000
  0
VERTEX
  8
0
 62
7
 10
15.72325586
 20
5.36983398
  0
VERTEX
  8
0
 62
7
 10
15.72710938
 20
5.40979688
  0
VERTEX
  8
0
 62
7
 10
15.72868945
 20
5.44983008
  0
VERTEX
  8
0
 62
7
 10
15.72812500
 20
5.48987500
  0
VERTEX
  8
0
 62
7
 10
15.72554492
 20
5.52987305
  0
VERTEX
  8
0
 62
7
 10
15.72107813
 20
5.56976563
  0
VERTEX
  8
0
 62
7
 10
15.71485352
 20
5.60949414
  0
VERTEX
  8
0
 62
7
 10
15.70700000
 20
5.64900000
  0
VERTEX
  8
0
 62
7
 10
15.69819305
 20
5.68555219
  0
VERTEX
  8
0
 62
7
 10
15.68791943
 20
5.72166748
  0
VERTEX
  8
0
 62
7
 10
15.67621246
 20
5.75728400
  0
VERTEX
  8
0
 62
7
 10
15.66310547
 20
5.79233984
  0
VERTEX
  8
0
 62
7
 10
15.64863177
 20
5.82677313
  0
VERTEX
  8
0
 62
7
 10
15.63282471
 20
5.86052197
  0
VERTEX
  8
0
 62
7
 10
15.61571759
 20
5.89352448
  0
VERTEX
  8
0
 62
7
 10
15.59734375
 20
5.92571875
  0
VERTEX
  8
0
 62
7
 10
15.57773651
 20
5.95704291
  0
VERTEX
  8
0
 62
7
 10
15.55692920
 20
5.98743506
  0
VERTEX
  8
0
 62
7
 10
15.53495514
 20
6.01683331
  0
VERTEX
  8
0
 62
7
 10
15.51184766
 20
6.04517578
  0
VERTEX
  8
0
 62
7
 10
15.48764008
 20
6.07240057
  0
VERTEX
  8
0
 62
7
 10
15.46236572
 20
6.09844580
  0
VERTEX
  8
0
 62
7
 10
15.43605792
 20
6.12324957
  0
VERTEX
  8
0
 62
7
 10
15.40875000
 20
6.14675000
  0
VERTEX
  8
0
 62
7
 10
15.38047528
 20
6.16888519
  0
VERTEX
  8
0
 62
7
 10
15.35126709
 20
6.18959326
  0
VERTEX
  8
0
 62
7
 10
15.32115875
 20
6.20881232
  0
VERTEX
  8
0
 62
7
 10
15.29018359
 20
6.22648047
  0
VERTEX
  8
0
 62
7
 10
15.25837494
 20
6.24253583
  0
VERTEX
  8
0
 62
7
 10
15.22576611
 20
6.25691650
  0
VERTEX
  8
0
 62
7
 10
15.19239044
 20
6.26956061
  0
VERTEX
  8
0
 62
7
 10
15.15828125
 20
6.28040625
  0
VERTEX
  8
0
 62
7
 10
15.12347186
 20
6.28939154
  0
VERTEX
  8
0
 62
7
 10
15.08799561
 20
6.29645459
  0
VERTEX
  8
0
 62
7
 10
15.05188580
 20
6.30153351
  0
VERTEX
  8
0
 62
7
 10
15.01517578
 20
6.30456641
  0
VERTEX
  8
0
 62
7
 10
14.97789886
 20
6.30549139
  0
VERTEX
  8
0
 62
7
 10
14.94008838
 20
6.30424658
  0
VERTEX
  8
0
 62
7
 10
14.90177765
 20
6.30077008
  0
VERTEX
  8
0
 62
7
 10
14.86300000
 20
6.29500000
  0
VERTEX
  8
0
 62
7
 10
14.81103711
 20
6.28322656
  0
VERTEX
  8
0
 62
7
 10
14.76060938
 20
6.26662500
  0
VERTEX
  8
0
 62
7
 10
14.71240820
 20
6.24514844
  0
VERTEX
  8
0
 62
7
 10
14.66712500
 20
6.21875000
  0
VERTEX
  8
0
 62
7
 10
14.62545117
 20
6.18738281
  0
VERTEX
  8
0
 62
7
 10
14.58807813
 20
6.15100000
  0
VERTEX
  8
0
 62
7
 10
14.55569727
 20
6.10955469
  0
VERTEX
  8
0
 62
7
 10
14.52900000
 20
6.06300000
  0
VERTEX
  8
0
 62
7
 10
14.51637866
 20
6.03465405
  0
VERTEX
  8
0
 62
7
 10
14.50556055
 20
6.00559180
  0
VERTEX
  8
0
 62
7
 10
14.49661450
 20
5.97596411
  0
VERTEX
  8
0
 62
7
 10
14.48960938
 20
5.94592188
  0
VERTEX
  8
0
 62
7
 10
14.48461401
 20
5.91561597
  0
VERTEX
  8
0
 62
7
 10
14.48169727
 20
5.88519727
  0
VERTEX
  8
0
 62
7
 10
14.48092798
 20
5.85481665
  0
VERTEX
  8
0
 62
7
 10
14.48237500
 20
5.82462500
  0
VERTEX
  8
0
 62
7
 10
14.48610718
 20
5.79477319
  0
VERTEX
  8
0
 62
7
 10
14.49219336
 20
5.76541211
  0
VERTEX
  8
0
 62
7
 10
14.50070239
 20
5.73669263
  0
VERTEX
  8
0
 62
7
 10
14.51170313
 20
5.70876563
  0
VERTEX
  8
0
 62
7
 10
14.52526440
 20
5.68178198
  0
VERTEX
  8
0
 62
7
 10
14.54145508
 20
5.65589258
  0
VERTEX
  8
0
 62
7
 10
14.56034399
 20
5.63124829
  0
VERTEX
  8
0
 62
7
 10
14.58200000
 20
5.60800000
  0
VERTEX
  8
0
 62
7
 10
14.59881567
 20
5.59326489
  0
VERTEX
  8
0
 62
7
 10
14.61757227
 20
5.57983789
  0
VERTEX
  8
0
 62
7
 10
14.63798413
 20
5.56776147
  0
VERTEX
  8
0
 62
7
 10
14.65976563
 20
5.55707813
  0
VERTEX
  8
0
 62
7
 10
14.68263110
 20
5.54783032
  0
VERTEX
  8
0
 62
7
 10
14.70629492
 20
5.54006055
  0
VERTEX
  8
0
 62
7
 10
14.73047144
 20
5.53381128
  0
VERTEX
  8
0
 62
7
 10
14.75487500
 20
5.52912500
  0
VERTEX
  8
0
 62
7
 10
14.77921997
 20
5.52604419
  0
VERTEX
  8
0
 62
7
 10
14.80322070
 20
5.52461133
  0
VERTEX
  8
0
 62
7
 10
14.82659155
 20
5.52486890
  0
VERTEX
  8
0
 62
7
 10
14.84904688
 20
5.52685938
  0
VERTEX
  8
0
 62
7
 10
14.87030103
 20
5.53062524
  0
VERTEX
  8
0
 62
7
 10
14.89006836
 20
5.53620898
  0
VERTEX
  8
0
 62
7
 10
14.90806323
 20
5.54365308
  0
VERTEX
  8
0
 62
7
 10
14.92400000
 20
5.55300000
  0
VERTEX
  8
0
 62
7
 10
14.94454688
 20
5.56945313
  0
VERTEX
  8
0
 62
7
 10
14.96012500
 20
5.58862500
  0
VERTEX
  8
0
 62
7
 10
14.97139063
 20
5.61023438
  0
VERTEX
  8
0
 62
7
 10
14.97900000
 20
5.63400000
  0
VERTEX
  8
0
 62
7
 10
14.95212500
 20
5.64312500
  0
VERTEX
  8
0
 62
7
 10
14.92900000
 20
5.65900000
  0
VERTEX
  8
0
 62
7
 10
14.91811133
 20
5.67062891
  0
VERTEX
  8
0
 62
7
 10
14.90995313
 20
5.68359375
  0
VERTEX
  8
0
 62
7
 10
14.90416211
 20
5.69763672
  0
VERTEX
  8
0
 62
7
 10
14.90037500
 20
5.71250000
  0
VERTEX
  8
0
 62
7
 10
14.89822852
 20
5.72792578
  0
VERTEX
  8
0
 62
7
 10
14.89735938
 20
5.74365625
  0
VERTEX
  8
0
 62
7
 10
14.89740430
 20
5.75943359
  0
VERTEX
  8
0
 62
7
 10
14.89800000
 20
5.77500000
  0
VERTEX
  8
0
 62
7
 10
14.90237500
 20
5.80754688
  0
VERTEX
  8
0
 62
7
 10
14.91200000
 20
5.83887500
  0
VERTEX
  8
0
 62
7
 10
14.92612500
 20
5.86851563
  0
VERTEX
  8
0
 62
7
 10
14.94400000
 20
5.89600000
  0
VERTEX
  8
0
 62
7
 10
14.96789063
 20
5.92392188
  0
VERTEX
  8
0
 62
7
 10
14.99562500
 20
5.94762500
  0
VERTEX
  8
0
 62
7
 10
15.02654688
 20
5.96701563
  0
VERTEX
  8
0
 62
7
 10
15.06000000
 20
5.98200000
  0
VERTEX
  8
0
 62
7
 10
15.08084375
 20
5.98873633
  0
VERTEX
  8
0
 62
7
 10
15.10206250
 20
5.99332813
  0
VERTEX
  8
0
 62
7
 10
15.12356250
 20
5.99597461
  0
VERTEX
  8
0
 62
7
 10
15.14525000
 20
5.99687500
  0
VERTEX
  8
0
 62
7
 10
15.16703125
 20
5.99622852
  0
VERTEX
  8
0
 62
7
 10
15.18881250
 20
5.99423438
  0
VERTEX
  8
0
 62
7
 10
15.21050000
 20
5.99109180
  0
VERTEX
  8
0
 62
7
 10
15.23200000
 20
5.98700000
  0
VERTEX
  8
0
 62
7
 10
15.25749805
 20
5.98032227
  0
VERTEX
  8
0
 62
7
 10
15.28223438
 20
5.97164063
  0
VERTEX
  8
0
 62
7
 10
15.30619727
 20
5.96110742
  0
VERTEX
  8
0
 62
7
 10
15.32937500
 20
5.94887500
  0
VERTEX
  8
0
 62
7
 10
15.35175586
 20
5.93509570
  0
VERTEX
  8
0
 62
7
 10
15.37332813
 20
5.91992188
  0
VERTEX
  8
0
 62
7
 10
15.39408008
 20
5.90350586
  0
VERTEX
  8
0
 62
7
 10
15.41400000
 20
5.88600000
  0
VERTEX
  8
0
 62
7
 10
15.45273438
 20
5.84510938
  0
VERTEX
  8
0
 62
7
 10
15.48537500
 20
5.79962500
  0
VERTEX
  8
0
 62
7
 10
15.51257813
 20
5.75057813
  0
VERTEX
  8
0
 62
7
 10
15.53500000
 20
5.69900000
  0
VERTEX
  8
0
 62
7
 10
15.55072852
 20
5.65235352
  0
VERTEX
  8
0
 62
7
 10
15.56201563
 20
5.60482813
  0
VERTEX
  8
0
 62
7
 10
15.56901367
 20
5.55666992
  0
VERTEX
  8
0
 62
7
 10
15.57187500
 20
5.50812500
  0
VERTEX
  8
0
 62
7
 10
15.57075195
 20
5.45943945
  0
VERTEX
  8
0
 62
7
 10
15.56579688
 20
5.41085938
  0
VERTEX
  8
0
 62
7
 10
15.55716211
 20
5.36263086
  0
VERTEX
  8
0
 62
7
 10
15.54500000
 20
5.31500000
  0
VERTEX
  8
0
 62
7
 10
15.52792188
 20
5.26459570
  0
VERTEX
  8
0
 62
7
 10
15.50681250
 20
5.21626563
  0
VERTEX
  8
0
 62
7
 10
15.48185938
 20
5.17020898
  0
VERTEX
  8
0
 62
7
 10
15.45325000
 20
5.12662500
  0
VERTEX
  8
0
 62
7
 10
15.42117188
 20
5.08571289
  0
VERTEX
  8
0
 62
7
 10
15.38581250
 20
5.04767188
  0
VERTEX
  8
0
 62
7
 10
15.34735938
 20
5.01270117
  0
VERTEX
  8
0
 62
7
 10
15.30600000
 20
4.98100000
  0
VERTEX
  8
0
 62
7
 10
15.54900000
 20
4.98100000
  0
SEQEND
  0
POLYLINE
  8
0
 62
7
 66
1
 70
1
  0
VERTEX
  8
0
 62
7
 10
15.43600000
 20
8.76100000
  0
VERTEX
  8
0
 62
7
 10
15.43400000
 20
8.79800000
  0
VERTEX
  8
0
 62
7
 10
15.42525000
 20
8.84625000
  0
VERTEX
  8
0
 62
7
 10
15.41200000
 20
8.89300000
  0
VERTEX
  8
0
 62
7
 10
15.38300000
 20
8.97600000
  0
VERTEX
  8
0
 62
7
 10
15.37604688
 20
8.99985938
  0
VERTEX
  8
0
 62
7
 10
15.36937500
 20
9.02362500
  0
VERTEX
  8
0
 62
7
 10
15.36401563
 20
9.04757812
  0
VERTEX
  8
0
 62
7
 10
15.36100000
 20
9.07200000
  0
VERTEX
  8
0
 62
7
 10
15.35968750
 20
9.09448438
  0
VERTEX
  8
0
 62
7
 10
15.35950000
 20
9.11687500
  0
VERTEX
  8
0
 62
7
 10
15.36156250
 20
9.13907812
  0
VERTEX
  8
0
 62
7
 10
15.36700000
 20
9.16100000
  0
VERTEX
  8
0
 62
7
 10
15.37317188
 20
9.17754688
  0
VERTEX
  8
0
 62
7
 10
15.38037500
 20
9.19362500
  0
VERTEX
  8
0
 62
7
 10
15.38964063
 20
9.20839063
  0
VERTEX
  8
0
 62
7
 10
15.40200000
 20
9.22100000
  0
VERTEX
  8
0
 62
7
 10
15.42478125
 20
9.23409375
  0
VERTEX
  8
0
 62
7
 10
15.45000000
 20
9.24025000
  0
VERTEX
  8
0
 62
7
 10
15.47596875
 20
9.23928125
  0
VERTEX
  8
0
 62
7
 10
15.50100000
 20
9.23100000
  0
VERTEX
  8
0
 62
7
 10
15.50550000
 20
9.27512500
  0
VERTEX
  8
0
 62
7
 10
15.50400000
 20
9.32000000
  0
VERTEX
  8
0
 62
7
 10
15.50003125
 20
9.35514063
  0
VERTEX
  8
0
 62
7
 10
15.49325000
 20
9.38962500
  0
VERTEX
  8
0
 62
7
 10
15.48234375
 20
9.42279688
  0
VERTEX
  8
0
 62
7
 10
15.46600000
 20
9.45400000
  0
VERTEX
  8
0
 62
7
 10
15.44820313
 20
9.47773438
  0
VERTEX
  8
0
 62
7
 10
15.42787500
 20
9.49912500
  0
VERTEX
  8
0
 62
7
 10
15.40510938
 20
9.51770313
  0
VERTEX
  8
0
 62
7
 10
15.38000000
 20
9.53300000
  0
VERTEX
  8
0
 62
7
 10
15.35289063
 20
9.54535938
  0
VERTEX
  8
0
 62
7
 10
15.32437500
 20
9.55387500
  0
VERTEX
  8
0
 62
7
 10
15.29492188
 20
9.55845313
  0
VERTEX
  8
0
 62
7
 10
15.26500000
 20
9.55900000
  0
VERTEX
  8
0
 62
7
 10
15.23095313
 20
9.55492188
  0
VERTEX
  8
0
 62
7
 10
15.19812500
 20
9.54587500
  0
VERTEX
  8
0
 62
7
 10
15.16698438
 20
9.53214063
  0
VERTEX
  8
0
 62
7
 10
15.13800000
 20
9.51400000
  0
VERTEX
  8
0
 62
7
 10
15.11242188
 20
9.49164063
  0
VERTEX
  8
0
 62
7
 10
15.09087500
 20
9.46562500
  0
VERTEX
  8
0
 62
7
 10
15.07289063
 20
9.43679688
  0
VERTEX
  8
0
 62
7
 10
15.05800000
 20
9.40600000
  0
VERTEX
  8
0
 62
7
 10
15.05016992
 20
9.38473438
  0
VERTEX
  8
0
 62
7
 10
15.04448438
 20
9.36300000
  0
VERTEX
  8
0
 62
7
 10
15.04065039
 20
9.34089063
  0
VERTEX
  8
0
 62
7
 10
15.03837500
 20
9.31850000
  0
VERTEX
  8
0
 62
7
 10
15.03736523
 20
9.29592187
  0
VERTEX
  8
0
 62
7
 10
15.03732813
 20
9.27325000
  0
VERTEX
  8
0
 62
7
 10
15.03797070
 20
9.25057813
  0
VERTEX
  8
0
 62
7
 10
15.03900000
 20
9.22800000
  0
VERTEX
  8
0
 62
7
 10
15.04437500
 20
9.16843750
  0
VERTEX
  8
0
 62
7
 10
15.05575000
 20
9.11000000
  0
VERTEX
  8
0
 62
7
 10
15.07275000
 20
9.05306250
  0
VERTEX
  8
0
 62
7
 10
15.09500000
 20
8.99800000
  0
VERTEX
  8
0
 62
7
 10
15.13598438
 20
8.99575000
  0
VERTEX
  8
0
 62
7
 10
15.17762500
 20
8.98975000
  0
VERTEX
  8
0
 62
7
 10
15.21945313
 20
8.97887500
  0
VERTEX
  8
0
 62
7
 10
15.26100000
 20
8.96200000
  0
VERTEX
  8
0
 62
7
 10
15.30134375
 20
8.93760937
  0
VERTEX
  8
0
 62
7
 10
15.33700000
 20
8.90862500
  0
VERTEX
  8
0
 62
7
 10
15.36815625
 20
8.87607812
  0
VERTEX
  8
0
 62
7
 10
15.39500000
 20
8.84100000
  0
VERTEX
  8
0
 62
7
 10
15.41850000
 20
8.80212500
  0
VERTEX
  8
0
 62
7
 10
15.43600000
 20
8.76100000
  0
SEQEND
  0
POLYLINE
  8
0
 62
7
 66
1
 70
1
  0
VERTEX
  8
0
 62
7
 10
14.49300000
 20
7.59300000
  0
VERTEX
  8
0
 62
7
 10
14.46100000
 20
7.59284375
  0
VERTEX
  8
0
 62
7
 10
14.42975000
 20
7.58800000
  0
VERTEX
  8
0
 62
7
 10
14.39962500
 20
7.57865625
  0
VERTEX
  8
0
 62
7
 10
14.37100000
 20
7.56500000
  0
VERTEX
  8
0
 62
7
 10
14.34329688
 20
7.54632813
  0
VERTEX
  8
0
 62
7
 10
14.31887500
 20
7.52362500
  0
VERTEX
  8
0
 62
7
 10
14.29801563
 20
7.49735938
  0
VERTEX
  8
0
 62
7
 10
14.28100000
 20
7.46800000
  0
VERTEX
  8
0
 62
7
 10
14.27012500
 20
7.43957813
  0
VERTEX
  8
0
 62
7
 10
14.26375000
 20
7.41012500
  0
VERTEX
  8
0
 62
7
 10
14.26075000
 20
7.38010938
  0
VERTEX
  8
0
 62
7
 10
14.26000000
 20
7.35000000
  0
VERTEX
  8
0
 62
7
 10
14.26148438
 20
7.32390625
  0
VERTEX
  8
0
 62
7
 10
14.26512500
 20
7.29800000
  0
VERTEX
  8
0
 62
7
 10
14.26970313
 20
7.27209375
  0
VERTEX
  8
0
 62
7
 10
14.27400000
 20
7.24600000
  0
VERTEX
  8
0
 62
7
 10
14.27862500
 20
7.22037500
  0
VERTEX
  8
0
 62
7
 10
14.28100000
 20
7.19400000
  0
VERTEX
  8
0
 62
7
 10
14.27700000
 20
7.16375000
  0
VERTEX
  8
0
 62
7
 10
14.26700000
 20
7.13500000
  0
VERTEX
  8
0
 62
7
 10
14.24300000
 20
7.10000000
  0
VERTEX
  8
0
 62
7
 10
14.23062500
 20
7.07012500
  0
VERTEX
  8
0
 62
7
 10
14.22500000
 20
7.03800000
  0
VERTEX
  8
0
 62
7
 10
14.22575000
 20
7.01706250
  0
VERTEX
  8
0
 62
7
 10
14.22950000
 20
6.99650000
  0
VERTEX
  8
0
 62
7
 10
14.23625000
 20
6.97668750
  0
VERTEX
  8
0
 62
7
 10
14.24600000
 20
6.95800000
  0
VERTEX
  8
0
 62
7
 10
14.26159375
 20
6.93746875
  0
VERTEX
  8
0
 62
7
 10
14.28075000
 20
6.92050000
  0
VERTEX
  8
0
 62
7
 10
14.30253125
 20
6.90653125
  0
VERTEX
  8
0
 62
7
 10
14.32600000
 20
6.89500000
  0
VERTEX
  8
0
 62
7
 10
14.34917188
 20
6.88728125
  0
VERTEX
  8
0
 62
7
 10
14.37337500
 20
6.88275000
  0
VERTEX
  8
0
 62
7
 10
14.39814063
 20
6.88009375
  0
VERTEX
  8
0
 62
7
 10
14.42300000
 20
6.87800000
  0
VERTEX
  8
0
 62
7
 10
14.51700000
 20
6.87400000
  0
VERTEX
  8
0
 62
7
 10
14.58000000
 20
6.86800000
  0
VERTEX
  8
0
 62
7
 10
14.59425000
 20
6.86600000
  0
VERTEX
  8
0
 62
7
 10
14.60700000
 20
6.86100000
  0
VERTEX
  8
0
 62
7
 10
14.61293750
 20
6.85521875
  0
VERTEX
  8
0
 62
7
 10
14.61775000
 20
6.84850000
  0
VERTEX
  8
0
 62
7
 10
14.61993750
 20
6.84103125
  0
VERTEX
  8
0
 62
7
 10
14.61800000
 20
6.83300000
  0
VERTEX
  8
0
 62
7
 10
14.61325000
 20
6.82825000
  0
VERTEX
  8
0
 62
7
 10
14.60700000
 20
6.82650000
  0
VERTEX
  8
0
 62
7
 10
14.60000000
 20
6.82625000
  0
VERTEX
  8
0
 62
7
 10
14.59300000
 20
6.82600000
  0
VERTEX
  8
0
 62
7
 10
14.57250000
 20
6.82837500
  0
VERTEX
  8
0
 62
7
 10
14.55200000
 20
6.83300000
  0
VERTEX
  8
0
 62
7
 10
14.41300000
 20
6.85700000
  0
VERTEX
  8
0
 62
7
 10
14.33300000
 20
6.86800000
  0
VERTEX
  8
0
 62
7
 10
14.31125000
 20
6.86954688
  0
VERTEX
  8
0
 62
7
 10
14.28950000
 20
6.87062500
  0
VERTEX
  8
0
 62
7
 10
14.26775000
 20
6.87039063
  0
VERTEX
  8
0
 62
7
 10
14.24600000
 20
6.86800000
  0
VERTEX
  8
0
 62
7
 10
14.22940625
 20
6.86514063
  0
VERTEX
  8
0
 62
7
 10
14.21300000
 20
6.86162500
  0
VERTEX
  8
0
 62
7
 10
14.19734375
 20
6.85604688
  0
VERTEX
  8
0
 62
7
 10
14.18300000
 20
6.84700000
  0
VERTEX
  8
0
 62
7
 10
14.16687500
 20
6.82987500
  0
VERTEX
  8
0
 62
7
 10
14.15600000
 20
6.80900000
  0
VERTEX
  8
0
 62
7
 10
14.15346875
 20
6.79607813
  0
VERTEX
  8
0
 62
7
 10
14.15375000
 20
6.78287500
  0
VERTEX
  8
0
 62
7
 10
14.15515625
 20
6.76948438
  0
VERTEX
  8
0
 62
7
 10
14.15600000
 20
6.75600000
  0
VERTEX
  8
0
 62
7
 10
14.15900000
 20
6.69700000
  0
VERTEX
  8
0
 62
7
 10
14.13773438
 20
6.67571094
  0
VERTEX
  8
0
 62
7
 10
14.11900000
 20
6.65250000
  0
VERTEX
  8
0
 62
7
 10
14.10289063
 20
6.62760156
  0
VERTEX
  8
0
 62
7
 10
14.08950000
 20
6.60125000
  0
VERTEX
  8
0
 62
7
 10
14.07892188
 20
6.57367969
  0
VERTEX
  8
0
 62
7
 10
14.07125000
 20
6.54512500
  0
VERTEX
  8
0
 62
7
 10
14.06657813
 20
6.51582031
  0
VERTEX
  8
0
 62
7
 10
14.06500000
 20
6.48600000
  0
VERTEX
  8
0
 62
7
 10
14.06692188
 20
6.44625000
  0
VERTEX
  8
0
 62
7
 10
14.07362500
 20
6.40725000
  0
VERTEX
  8
0
 62
7
 10
14.08651563
 20
6.37012500
  0
VERTEX
  8
0
 62
7
 10
14.10700000
 20
6.33600000
  0
VERTEX
  8
0
 62
7
 10
14.12234375
 20
6.31820313
  0
VERTEX
  8
0
 62
7
 10
14.13975000
 20
6.30237500
  0
VERTEX
  8
0
 62
7
 10
14.15903125
 20
6.28860938
  0
VERTEX
  8
0
 62
7
 10
14.18000000
 20
6.27700000
  0
VERTEX
  8
0
 62
7
 10
14.18787500
 20
6.30134375
  0
VERTEX
  8
0
 62
7
 10
14.19800000
 20
6.32475000
  0
VERTEX
  8
0
 62
7
 10
14.21037500
 20
6.34703125
  0
VERTEX
  8
0
 62
7
 10
14.22500000
 20
6.36800000
  0
VERTEX
  8
0
 62
7
 10
14.24195313
 20
6.38778125
  0
VERTEX
  8
0
 62
7
 10
14.26087500
 20
6.40550000
  0
VERTEX
  8
0
 62
7
 10
14.28110938
 20
6.42171875
  0
VERTEX
  8
0
 62
7
 10
14.30200000
 20
6.43700000
  0
VERTEX
  8
0
 62
7
 10
14.34587500
 20
6.46375000
  0
VERTEX
  8
0
 62
7
 10
14.39200000
 20
6.48600000
  0
VERTEX
  8
0
 62
7
 10
14.44325000
 20
6.50687500
  0
VERTEX
  8
0
 62
7
 10
14.49600000
 20
6.52400000
  0
VERTEX
  8
0
 62
7
 10
14.58300000
 20
6.54100000
  0
VERTEX
  8
0
 62
7
 10
14.60937500
 20
6.54650000
  0
VERTEX
  8
0
 62
7
 10
14.63575000
 20
6.55200000
  0
VERTEX
  8
0
 62
7
 10
14.66175000
 20
6.55900000
  0
VERTEX
  8
0
 62
7
 10
14.68700000
 20
6.56900000
  0
VERTEX
  8
0
 62
7
 10
14.71053125
 20
6.58107813
  0
VERTEX
  8
0
 62
7
 10
14.73275000
 20
6.59512500
  0
VERTEX
  8
0
 62
7
 10
14.75309375
 20
6.61160938
  0
VERTEX
  8
0
 62
7
 10
14.77100000
 20
6.63100000
  0
VERTEX
  8
0
 62
7
 10
14.78495313
 20
6.65229688
  0
VERTEX
  8
0
 62
7
 10
14.79562500
 20
6.67537500
  0
VERTEX
  8
0
 62
7
 10
14.80348438
 20
6.69976563
  0
VERTEX
  8
0
 62
7
 10
14.80900000
 20
6.72500000
  0
VERTEX
  8
0
 62
7
 10
14.81170679
 20
6.74780957
  0
VERTEX
  8
0
 62
7
 10
14.81209180
 20
6.77078906
  0
VERTEX
  8
0
 62
7
 10
14.81036450
 20
6.79382715
  0
VERTEX
  8
0
 62
7
 10
14.80673438
 20
6.81681250
  0
VERTEX
  8
0
 62
7
 10
14.80141089
 20
6.83963379
  0
VERTEX
  8
0
 62
7
 10
14.79460352
 20
6.86217969
  0
VERTEX
  8
0
 62
7
 10
14.78652173
 20
6.88433887
  0
VERTEX
  8
0
 62
7
 10
14.77737500
 20
6.90600000
  0
VERTEX
  8
0
 62
7
 10
14.76737280
 20
6.92705176
  0
VERTEX
  8
0
 62
7
 10
14.75672461
 20
6.94738281
  0
VERTEX
  8
0
 62
7
 10
14.74563989
 20
6.96688184
  0
VERTEX
  8
0
 62
7
 10
14.73432813
 20
6.98543750
  0
VERTEX
  8
0
 62
7
 10
14.72299878
 20
7.00293848
  0
VERTEX
  8
0
 62
7
 10
14.71186133
 20
7.01927344
  0
VERTEX
  8
0
 62
7
 10
14.70112524
 20
7.03433105
  0
VERTEX
  8
0
 62
7
 10
14.69100000
 20
7.04800000
  0
VERTEX
  8
0
 62
7
 10
14.65603711
 20
7.09572070
  0
VERTEX
  8
0
 62
7
 10
14.62223438
 20
7.14514063
  0
VERTEX
  8
0
 62
7
 10
14.59047070
 20
7.19627148
  0
VERTEX
  8
0
 62
7
 10
14.56162500
 20
7.24912500
  0
VERTEX
  8
0
 62
7
 10
14.53657617
 20
7.30371289
  0
VERTEX
  8
0
 62
7
 10
14.51620313
 20
7.36004688
  0
VERTEX
  8
0
 62
7
 10
14.50138477
 20
7.41813867
  0
VERTEX
  8
0
 62
7
 10
14.49300000
 20
7.47800000
  0
VERTEX
  8
0
 62
7
 10
14.49075000
 20
7.53550000
  0
VERTEX
  8
0
 62
7
 10
14.49300000
 20
7.59300000
  0
SEQEND
  0
POLYLINE
  8
0
 62
7
 66
1
 70
1
  0
VERTEX
  8
0
 62
7
 10
15.43500000
 20
9.81300000
  0
VERTEX
  8
0
 62
7
 10
15.40978168
 20
9.81018945
  0
VERTEX
  8
0
 62
7
 10
15.38621236
 20
9.80214063
  0
VERTEX
  8
0
 62
7
 10
15.36482017
 20
9.78942773
  0
VERTEX
  8
0
 62
7
 10
15.34613321
 20
9.77262500
  0
VERTEX
  8
0
 62
7
 10
15.33067960
 20
9.75230664
  0
VERTEX
  8
0
 62
7
 10
15.31898745
 20
9.72904688
  0
VERTEX
  8
0
 62
7
 10
15.31158488
 20
9.70341992
  0
VERTEX
  8
0
 62
7
 10
15.30900000
 20
9.67600000
  0
VERTEX
  8
0
 62
7
 10
15.31158488
 20
9.64858008
  0
VERTEX
  8
0
 62
7
 10
15.31898745
 20
9.62295313
  0
VERTEX
  8
0
 62
7
 10
15.33067960
 20
9.59969336
  0
VERTEX
  8
0
 62
7
 10
15.34613321
 20
9.57937500
  0
VERTEX
  8
0
 62
7
 10
15.36482017
 20
9.56257227
  0
VERTEX
  8
0
 62
7
 10
15.38621236
 20
9.54985938
  0
VERTEX
  8
0
 62
7
 10
15.40978168
 20
9.54181055
  0
VERTEX
  8
0
 62
7
 10
15.43500000
 20
9.53900000
  0
VERTEX
  8
0
 62
7
 10
15.46021832
 20
9.54181055
  0
VERTEX
  8
0
 62
7
 10
15.48378764
 20
9.54985938
  0
VERTEX
  8
0
 62
7
 10
15.50517983
 20
9.56257227
  0
VERTEX
  8
0
 62
7
 10
15.52386679
 20
9.57937500
  0
VERTEX
  8
0
 62
7
 10
15.53932040
 20
9.59969336
  0
VERTEX
  8
0
 62
7
 10
15.55101255
 20
9.62295313
  0
VERTEX
  8
0
 62
7
 10
15.55841512
 20
9.64858008
  0
VERTEX
  8
0
 62
7
 10
15.56100000
 20
9.67600000
  0
VERTEX
  8
0
 62
7
 10
15.55841512
 20
9.70341992
  0
VERTEX
  8
0
 62
7
 10
15.55101255
 20
9.72904688
  0
VERTEX
  8
0
 62
7
 10
15.53932040
 20
9.75230664
  0
VERTEX
  8
0
 62
7
 10
15.52386679
 20
9.77262500
  0
VERTEX
  8
0
 62
7
 10
15.50517983
 20
9.78942773
  0
VERTEX
  8
0
 62
7
 10
15.48378764
 20
9.80214063
  0
VERTEX
  8
0
 62
7
 10
15.46021832
 20
9.81018945
  0
VERTEX
  8
0
 62
7
 10
15.43500000
 20
9.81300000
  0
SEQEND
  0
POLYLINE
  8
0
 62
7
 66
1
 70
1
  0
VERTEX
  8
0
 62
7
 10
18.91800000
 20
4.76300000
  0
VERTEX
  8
0
 62
7
 10
28.59800000
 20
4.76300000
  0
VERTEX
  8
0
 62
7
 10
28.59800000
 20
8.94300000
  0
VERTEX
  8
0
 62
7
 10
18.91800000
 20
8.94300000
  0
VERTEX
  8
0
 62
7
 10
18.91800000
 20
4.76300000
  0
SEQEND
  0
POLYLINE
  8
0
 62
7
 66
1
 70
1
  0
VERTEX
  8
0
 62
7
 10
19.00800000
 20
4.85300000
  0
VERTEX
  8
0
 62
7
 10
28.50800000
 20
4.85300000
  0
VERTEX
  8
0
 62
7
 10
28.50800000
 20
8.85300000
  0
VERTEX
  8
0
 62
7
 10
19.00800000
 20
8.85300000
  0
VERTEX
  8
0
 62
7
 10
19.00800000
 20
4.85300000
  0
SEQEND
  0
POLYLINE
  8
0
 62
7
 66
1
 70
1
  0
VERTEX
  8
0
 62
7
 10
19.20800000
 20
5.05300000
  0
VERTEX
  8
0
 62
7
 10
28.30800000
 20
5.05300000
  0
VERTEX
  8
0
 62
7
 10
28.30800000
 20
8.65300000
  0
VERTEX
  8
0
 62
7
 10
19.20800000
 20
8.65300000
  0
VERTEX
  8
0
 62
7
 10
19.20800000
 20
5.05300000
  0
SEQEND
  0
POLYLINE
  8
0
 62
7
 66
1
 70
1
  0
VERTEX
  8
0
 62
7
 10
19.29800000
 20
5.14300000
  0
VERTEX
  8
0
 62
7
 10
28.21800000
 20
5.14300000
  0
VERTEX
  8
0
 62
7
 10
28.21800000
 20
8.56300000
  0
VERTEX
  8
0
 62
7
 10
19.29800000
 20
8.56300000
  0
VERTEX
  8
0
 62
7
 10
19.29800000
 20
5.14300000
  0
SEQEND
  0
POLYLINE
  8
0
 62
7
 66
1
 70
1
  0
VERTEX
  8
0
 62
7
 10
13.08200000
 20
4.76300000
  0
VERTEX
  8
0
 62
7
 10
3.40200000
 20
4.76300000
  0
VERTEX
  8
0
 62
7
 10
3.40200000
 20
8.94300000
  0
VERTEX
  8
0
 62
7
 10
13.08200000
 20
8.94300000
  0
VERTEX
  8
0
 62
7
 10
13.08200000
 20
4.76300000
  0
SEQEND
  0
POLYLINE
  8
0
 62
7
 66
1
 70
1
  0
VERTEX
  8
0
 62
7
 10
12.99200000
 20
4.85300000
  0
VERTEX
  8
0
 62
7
 10
3.49200000
 20
4.85300000
  0
VERTEX
  8
0
 62
7
 10
3.49200000
 20
8.85300000
  0
VERTEX
  8
0
 62
7
 10
12.99200000
 20
8.85300000
  0
VERTEX
  8
0
 62
7
 10
12.99200000
 20
4.85300000
  0
SEQEND
  0
POLYLINE
  8
0
 62
7
 66
1
 70
1
  0
VERTEX
  8
0
 62
7
 10
12.79200000
 20
5.05300000
  0
VERTEX
  8
0
 62
7
 10
3.69200000
 20
5.05300000
  0
VERTEX
  8
0
 62
7
 10
3.69200000
 20
8.65300000
  0
VERTEX
  8
0
 62
7
 10
12.79200000
 20
8.65300000
  0
VERTEX
  8
0
 62
7
 10
12.79200000
 20
5.05300000
  0
SEQEND
  0
POLYLINE
  8
0
 62
7
 66
1
 70
1
  0
VERTEX
  8
0
 62
7
 10
12.70200000
 20
5.14300000
  0
VERTEX
  8
0
 62
7
 10
3.78200000
 20
5.14300000
  0
VERTEX
  8
0
 62
7
 10
3.78200000
 20
8.56300000
  0
VERTEX
  8
0
 62
7
 10
12.70200000
 20
8.56300000
  0
VERTEX
  8
0
 62
7
 10
12.70200000
 20
5.14300000
  0
SEQEND
  0
ENDSEC
  0
EOF
