  0
SECTION
  2
ENTITIES
  0
POLYLINE
  8
0
 62
7
 66
1
 70
1
  0
VERTEX
  8
0
 62
7
 10
32.75000000
 20
.04000000
  0
VERTEX
  8
0
 62
7
 10
33.97500000
 20
.04000000
  0
VERTEX
  8
0
 62
7
 10
34.41800000
 20
.55800000
  0
VERTEX
  8
0
 62
7
 10
32.74800000
 20
.55800000
  0
VERTEX
  8
0
 62
7
 10
31.08200000
 20
.55800000
  0
VERTEX
  8
0
 62
7
 10
31.52500000
 20
.04000000
  0
VERTEX
  8
0
 62
7
 10
32.75000000
 20
.04000000
  0
SEQEND
  0
POLYLINE
  8
0
 62
7
 66
1
 70
1
  0
VERTEX
  8
0
 62
7
 10
33.56200000
 20
11.05900000
  0
VERTEX
  8
0
 62
7
 10
33.57800000
 20
11.05500000
  0
VERTEX
  8
0
 62
7
 10
33.60600000
 20
11.04800000
  0
VERTEX
  8
0
 62
7
 10
33.62800000
 20
11.04700000
  0
VERTEX
  8
0
 62
7
 10
33.64950000
 20
11.04650000
  0
VERTEX
  8
0
 62
7
 10
33.67700000
 20
11.04300000
  0
VERTEX
  8
0
 62
7
 10
33.69200000
 20
11.03900000
  0
VERTEX
  8
0
 62
7
 10
33.70200000
 20
11.07800000
  0
VERTEX
  8
0
 62
7
 10
33.71725000
 20
11.11975000
  0
VERTEX
  8
0
 62
7
 10
33.73700000
 20
11.16000000
  0
VERTEX
  8
0
 62
7
 10
33.76900000
 20
11.08800000
  0
VERTEX
  8
0
 62
7
 10
33.80700000
 20
11.01900000
  0
VERTEX
  8
0
 62
7
 10
33.82487500
 20
10.98807813
  0
VERTEX
  8
0
 62
7
 10
33.84350000
 20
10.95762500
  0
VERTEX
  8
0
 62
7
 10
33.86437500
 20
10.92885938
  0
VERTEX
  8
0
 62
7
 10
33.88900000
 20
10.90300000
  0
VERTEX
  8
0
 62
7
 10
33.91815625
 20
10.88010938
  0
VERTEX
  8
0
 62
7
 10
33.94975000
 20
10.86087500
  0
VERTEX
  8
0
 62
7
 10
33.98321875
 20
10.84520313
  0
VERTEX
  8
0
 62
7
 10
34.01800000
 20
10.83300000
  0
VERTEX
  8
0
 62
7
 10
34.05225000
 20
10.82493750
  0
VERTEX
  8
0
 62
7
 10
34.08725000
 20
10.82025000
  0
VERTEX
  8
0
 62
7
 10
34.12262500
 20
10.81893750
  0
VERTEX
  8
0
 62
7
 10
34.15800000
 20
10.82100000
  0
VERTEX
  8
0
 62
7
 10
34.14600000
 20
10.89198438
  0
VERTEX
  8
0
 62
7
 10
34.14000000
 20
10.96362500
  0
VERTEX
  8
0
 62
7
 10
34.14000000
 20
11.03545313
  0
VERTEX
  8
0
 62
7
 10
34.14600000
 20
11.10700000
  0
VERTEX
  8
0
 62
7
 10
34.15273438
 20
11.14701563
  0
VERTEX
  8
0
 62
7
 10
34.16162500
 20
11.18637500
  0
VERTEX
  8
0
 62
7
 10
34.17145313
 20
11.22554688
  0
VERTEX
  8
0
 62
7
 10
34.18100000
 20
11.26500000
  0
VERTEX
  8
0
 62
7
 10
34.25100000
 20
11.54500000
  0
VERTEX
  8
0
 62
7
 10
34.29312500
 20
11.69962500
  0
VERTEX
  8
0
 62
7
 10
34.33300000
 20
11.85500000
  0
VERTEX
  8
0
 62
7
 10
34.34943750
 20
11.92667773
  0
VERTEX
  8
0
 62
7
 10
34.36550000
 20
11.99848438
  0
VERTEX
  8
0
 62
7
 10
34.38081250
 20
12.07045508
  0
VERTEX
  8
0
 62
7
 10
34.39500000
 20
12.14262500
  0
VERTEX
  8
0
 62
7
 10
34.40768750
 20
12.21502930
  0
VERTEX
  8
0
 62
7
 10
34.41850000
 20
12.28770313
  0
VERTEX
  8
0
 62
7
 10
34.42706250
 20
12.36068164
  0
VERTEX
  8
0
 62
7
 10
34.43300000
 20
12.43400000
  0
VERTEX
  8
0
 62
7
 10
34.43679688
 20
12.51875000
  0
VERTEX
  8
0
 62
7
 10
34.43787500
 20
12.60350000
  0
VERTEX
  8
0
 62
7
 10
34.43651563
 20
12.68825000
  0
VERTEX
  8
0
 62
7
 10
34.43300000
 20
12.77300000
  0
VERTEX
  8
0
 62
7
 10
34.42701563
 20
12.86671875
  0
VERTEX
  8
0
 62
7
 10
34.41887500
 20
12.96025000
  0
VERTEX
  8
0
 62
7
 10
34.40754688
 20
13.05340625
  0
VERTEX
  8
0
 62
7
 10
34.39200000
 20
13.14600000
  0
VERTEX
  8
0
 62
7
 10
34.38025195
 20
13.20293555
  0
VERTEX
  8
0
 62
7
 10
34.36739063
 20
13.25967188
  0
VERTEX
  8
0
 62
7
 10
34.35324023
 20
13.31610352
  0
VERTEX
  8
0
 62
7
 10
34.33762500
 20
13.37212500
  0
VERTEX
  8
0
 62
7
 10
34.32036914
 20
13.42763086
  0
VERTEX
  8
0
 62
7
 10
34.30129688
 20
13.48251563
  0
VERTEX
  8
0
 62
7
 10
34.28023242
 20
13.53667383
  0
VERTEX
  8
0
 62
7
 10
34.25700000
 20
13.59000000
  0
VERTEX
  8
0
 62
7
 10
34.21559375
 20
13.67432813
  0
VERTEX
  8
0
 62
7
 10
34.16950000
 20
13.75612500
  0
VERTEX
  8
0
 62
7
 10
34.11890625
 20
13.83510938
  0
VERTEX
  8
0
 62
7
 10
34.06400000
 20
13.91100000
  0
VERTEX
  8
0
 62
7
 10
33.98587500
 20
14.00500000
  0
VERTEX
  8
0
 62
7
 10
33.90100000
 20
14.09300000
  0
VERTEX
  8
0
 62
7
 10
33.92527930
 20
14.02954102
  0
VERTEX
  8
0
 62
7
 10
33.94410938
 20
13.96464063
  0
VERTEX
  8
0
 62
7
 10
33.95747852
 20
13.89863867
  0
VERTEX
  8
0
 62
7
 10
33.96537500
 20
13.83187500
  0
VERTEX
  8
0
 62
7
 10
33.96778711
 20
13.76468945
  0
VERTEX
  8
0
 62
7
 10
33.96470313
 20
13.69742188
  0
VERTEX
  8
0
 62
7
 10
33.95611133
 20
13.63041211
  0
VERTEX
  8
0
 62
7
 10
33.94200000
 20
13.56400000
  0
VERTEX
  8
0
 62
7
 10
33.92782813
 20
13.51757813
  0
VERTEX
  8
0
 62
7
 10
33.91037500
 20
13.47237500
  0
VERTEX
  8
0
 62
7
 10
33.89123438
 20
13.42773438
  0
VERTEX
  8
0
 62
7
 10
33.87200000
 20
13.38300000
  0
VERTEX
  8
0
 62
7
 10
33.81200000
 20
13.25375000
  0
VERTEX
  8
0
 62
7
 10
33.74900000
 20
13.12600000
  0
VERTEX
  8
0
 62
7
 10
33.70856250
 20
13.04453125
  0
VERTEX
  8
0
 62
7
 10
33.66775000
 20
12.96325000
  0
VERTEX
  8
0
 62
7
 10
33.62806250
 20
12.88159375
  0
VERTEX
  8
0
 62
7
 10
33.59100000
 20
12.79900000
  0
VERTEX
  8
0
 62
7
 10
33.54519336
 20
12.68543945
  0
VERTEX
  8
0
 62
7
 10
33.50298438
 20
12.57057813
  0
VERTEX
  8
0
 62
7
 10
33.46431445
 20
12.45452148
  0
VERTEX
  8
0
 62
7
 10
33.42912500
 20
12.33737500
  0
VERTEX
  8
0
 62
7
 10
33.39735742
 20
12.21924414
  0
VERTEX
  8
0
 62
7
 10
33.36895313
 20
12.10023438
  0
VERTEX
  8
0
 62
7
 10
33.34385352
 20
11.98045117
  0
VERTEX
  8
0
 62
7
 10
33.32200000
 20
11.86000000
  0
VERTEX
  8
0
 62
7
 10
33.30979688
 20
11.78410938
  0
VERTEX
  8
0
 62
7
 10
33.29787500
 20
11.70812500
  0
VERTEX
  8
0
 62
7
 10
33.28501563
 20
11.63232813
  0
VERTEX
  8
0
 62
7
 10
33.27000000
 20
11.55700000
  0
VERTEX
  8
0
 62
7
 10
33.26176563
 20
11.51414063
  0
VERTEX
  8
0
 62
7
 10
33.25362500
 20
11.47137500
  0
VERTEX
  8
0
 62
7
 10
33.24342188
 20
11.42917188
  0
VERTEX
  8
0
 62
7
 10
33.22900000
 20
11.38800000
  0
VERTEX
  8
0
 62
7
 10
33.21439063
 20
11.35692188
  0
VERTEX
  8
0
 62
7
 10
33.19762500
 20
11.32687500
  0
VERTEX
  8
0
 62
7
 10
33.17879688
 20
11.29814063
  0
VERTEX
  8
0
 62
7
 10
33.15800000
 20
11.27100000
  0
VERTEX
  8
0
 62
7
 10
33.13012500
 20
11.24087500
  0
VERTEX
  8
0
 62
7
 10
33.10000000
 20
11.21300000
  0
VERTEX
  8
0
 62
7
 10
33.12130664
 20
11.19519141
  0
VERTEX
  8
0
 62
7
 10
33.14389063
 20
11.17928125
  0
VERTEX
  8
0
 62
7
 10
33.16762305
 20
11.16529297
  0
VERTEX
  8
0
 62
7
 10
33.19237500
 20
11.15325000
  0
VERTEX
  8
0
 62
7
 10
33.21801758
 20
11.14317578
  0
VERTEX
  8
0
 62
7
 10
33.24442188
 20
11.13509375
  0
VERTEX
  8
0
 62
7
 10
33.27145898
 20
11.12902734
  0
VERTEX
  8
0
 62
7
 10
33.29900000
 20
11.12500000
  0
VERTEX
  8
0
 62
7
 10
33.34171875
 20
11.12396875
  0
VERTEX
  8
0
 62
7
 10
33.38425000
 20
11.12875000
  0
VERTEX
  8
0
 62
7
 10
33.42640625
 20
11.13765625
  0
VERTEX
  8
0
 62
7
 10
33.46800000
 20
11.14900000
  0
VERTEX
  8
0
 62
7
 10
33.53100000
 20
11.17162500
  0
VERTEX
  8
0
 62
7
 10
33.59100000
 20
11.20100000
  0
VERTEX
  8
0
 62
7
 10
33.57837500
 20
11.14850000
  0
VERTEX
  8
0
 62
7
 10
33.56800000
 20
11.09600000
  0
VERTEX
  8
0
 62
7
 10
33.56200000
 20
11.05900000
  0
SEQEND
  0
POLYLINE
  8
0
 62
7
 66
1
 70
1
  0
VERTEX
  8
0
 62
7
 10
33.07700000
 20
8.87700000
  0
VERTEX
  8
0
 62
7
 10
33.04600000
 20
8.95200000
  0
VERTEX
  8
0
 62
7
 10
32.99762500
 20
8.93112500
  0
VERTEX
  8
0
 62
7
 10
32.94700000
 20
8.91700000
  0
VERTEX
  8
0
 62
7
 10
32.94700000
 20
8.06000000
  0
VERTEX
  8
0
 62
7
 10
33.07700000
 20
8.06000000
  0
VERTEX
  8
0
 62
7
 10
33.07700000
 20
8.87700000
  0
SEQEND
  0
POLYLINE
  8
0
 62
7
 66
1
 70
1
  0
VERTEX
  8
0
 62
7
 10
30.86300000
 20
14.98000000
  0
VERTEX
  8
0
 62
7
 10
30.55536719
 20
14.98601514
  0
VERTEX
  8
0
 62
7
 10
30.26076563
 20
14.99418359
  0
VERTEX
  8
0
 62
7
 10
29.97832813
 20
15.00431494
  0
VERTEX
  8
0
 62
7
 10
29.70718750
 20
15.01621875
  0
VERTEX
  8
0
 62
7
 10
29.44647656
 20
15.02970459
  0
VERTEX
  8
0
 62
7
 10
29.19532813
 20
15.04458203
  0
VERTEX
  8
0
 62
7
 10
28.95287500
 20
15.06066064
  0
VERTEX
  8
0
 62
7
 10
28.71825000
 20
15.07775000
  0
VERTEX
  8
0
 62
7
 10
28.49058594
 20
15.09565967
  0
VERTEX
  8
0
 62
7
 10
28.26901563
 20
15.11419922
  0
VERTEX
  8
0
 62
7
 10
28.05267188
 20
15.13317822
  0
VERTEX
  8
0
 62
7
 10
27.84068750
 20
15.15240625
  0
VERTEX
  8
0
 62
7
 10
27.63219531
 20
15.17169287
  0
VERTEX
  8
0
 62
7
 10
27.42632813
 20
15.19084766
  0
VERTEX
  8
0
 62
7
 10
27.22221875
 20
15.20968018
  0
VERTEX
  8
0
 62
7
 10
27.01900000
 20
15.22800000
  0
VERTEX
  8
0
 62
7
 10
26.65553711
 20
15.26175391
  0
VERTEX
  8
0
 62
7
 10
26.26004688
 20
15.30134375
  0
VERTEX
  8
0
 62
7
 10
25.83762695
 20
15.34538672
  0
VERTEX
  8
0
 62
7
 10
25.39337500
 20
15.39250000
  0
VERTEX
  8
0
 62
7
 10
24.93238867
 20
15.44130078
  0
VERTEX
  8
0
 62
7
 10
24.45976563
 20
15.49040625
  0
VERTEX
  8
0
 62
7
 10
23.98060352
 20
15.53843359
  0
VERTEX
  8
0
 62
7
 10
23.50000000
 20
15.58400000
  0
VERTEX
  8
0
 62
7
 10
23.18806396
 20
15.61070752
  0
VERTEX
  8
0
 62
7
 10
22.87590234
 20
15.63383203
  0
VERTEX
  8
0
 62
7
 10
22.56354736
 20
15.65337646
  0
VERTEX
  8
0
 62
7
 10
22.25103125
 20
15.66934375
  0
VERTEX
  8
0
 62
7
 10
21.93838623
 20
15.68173682
  0
VERTEX
  8
0
 62
7
 10
21.62564453
 20
15.69055859
  0
VERTEX
  8
0
 62
7
 10
21.31283838
 20
15.69581201
  0
VERTEX
  8
0
 62
7
 10
21.00000000
 20
15.69750000
  0
VERTEX
  8
0
 62
7
 10
20.68716162
 20
15.69562549
  0
VERTEX
  8
0
 62
7
 10
20.37435547
 20
15.69019141
  0
VERTEX
  8
0
 62
7
 10
20.06161377
 20
15.68120068
  0
VERTEX
  8
0
 62
7
 10
19.74896875
 20
15.66865625
  0
VERTEX
  8
0
 62
7
 10
19.43645264
 20
15.65256104
  0
VERTEX
  8
0
 62
7
 10
19.12409766
 20
15.63291797
  0
VERTEX
  8
0
 62
7
 10
18.81193604
 20
15.60972998
  0
VERTEX
  8
0
 62
7
 10
18.50000000
 20
15.58300000
  0
VERTEX
  8
0
 62
7
 10
18.01902734
 20
15.53776367
  0
VERTEX
  8
0
 62
7
 10
17.53953125
 20
15.48998438
  0
VERTEX
  8
0
 62
7
 10
17.06664453
 20
15.44105664
  0
VERTEX
  8
0
 62
7
 10
16.60550000
 20
15.39237500
  0
VERTEX
  8
0
 62
7
 10
16.16123047
 20
15.34533398
  0
VERTEX
  8
0
 62
7
 10
15.73896875
 20
15.30132813
  0
VERTEX
  8
0
 62
7
 10
15.34384766
 20
15.26175195
  0
VERTEX
  8
0
 62
7
 10
14.98100000
 20
15.22800000
  0
VERTEX
  8
0
 62
7
 10
14.77761646
 20
15.20984497
  0
VERTEX
  8
0
 62
7
 10
14.57338477
 20
15.19113477
  0
VERTEX
  8
0
 62
7
 10
14.36743335
 20
15.17206421
  0
VERTEX
  8
0
 62
7
 10
14.15889063
 20
15.15282813
  0
VERTEX
  8
0
 62
7
 10
13.94688501
 20
15.13362134
  0
VERTEX
  8
0
 62
7
 10
13.73054492
 20
15.11463867
  0
VERTEX
  8
0
 62
7
 10
13.50899878
 20
15.09607495
  0
VERTEX
  8
0
 62
7
 10
13.28137500
 20
15.07812500
  0
VERTEX
  8
0
 62
7
 10
13.04680200
 20
15.06098364
  0
VERTEX
  8
0
 62
7
 10
12.80440820
 20
15.04484570
  0
VERTEX
  8
0
 62
7
 10
12.55332202
 20
15.02990601
  0
VERTEX
  8
0
 62
7
 10
12.29267188
 20
15.01635938
  0
VERTEX
  8
0
 62
7
 10
12.02158618
 20
15.00440063
  0
VERTEX
  8
0
 62
7
 10
11.73919336
 20
14.99422461
  0
VERTEX
  8
0
 62
7
 10
11.44462183
 20
14.98602612
  0
VERTEX
  8
0
 62
7
 10
11.13700000
 20
14.98000000
  0
VERTEX
  8
0
 62
7
 10
11.13210938
 20
14.91701563
  0
VERTEX
  8
0
 62
7
 10
11.12487500
 20
14.85412500
  0
VERTEX
  8
0
 62
7
 10
11.11520313
 20
14.79142188
  0
VERTEX
  8
0
 62
7
 10
11.10300000
 20
14.72900000
  0
VERTEX
  8
0
 62
7
 10
11.61859766
 20
14.74009570
  0
VERTEX
  8
0
 62
7
 10
12.09859375
 20
14.75701563
  0
VERTEX
  8
0
 62
7
 10
12.54704297
 20
14.77883398
  0
VERTEX
  8
0
 62
7
 10
12.96800000
 20
14.80462500
  0
VERTEX
  8
0
 62
7
 10
13.36551953
 20
14.83346289
  0
VERTEX
  8
0
 62
7
 10
13.74365625
 20
14.86442188
  0
VERTEX
  8
0
 62
7
 10
14.10646484
 20
14.89657617
  0
VERTEX
  8
0
 62
7
 10
14.45800000
 20
14.92900000
  0
VERTEX
  8
0
 62
7
 10
15.00300000
 20
14.97900000
  0
VERTEX
  8
0
 62
7
 10
15.35395313
 20
15.01142188
  0
VERTEX
  8
0
 62
7
 10
15.73462500
 20
15.04937500
  0
VERTEX
  8
0
 62
7
 10
16.14023438
 20
15.09164063
  0
VERTEX
  8
0
 62
7
 10
16.56600000
 20
15.13700000
  0
VERTEX
  8
0
 62
7
 10
17.04207813
 20
15.18718750
  0
VERTEX
  8
0
 62
7
 10
17.53062500
 20
15.23775000
  0
VERTEX
  8
0
 62
7
 10
18.02610938
 20
15.28718750
  0
VERTEX
  8
0
 62
7
 10
18.52300000
 20
15.33400000
  0
VERTEX
  8
0
 62
7
 10
18.83330273
 20
15.36038867
  0
VERTEX
  8
0
 62
7
 10
19.14392188
 20
15.38329688
  0
VERTEX
  8
0
 62
7
 10
19.45479883
 20
15.40271289
  0
VERTEX
  8
0
 62
7
 10
19.76587500
 20
15.41862500
  0
VERTEX
  8
0
 62
7
 10
20.07709180
 20
15.43102148
  0
VERTEX
  8
0
 62
7
 10
20.38839063
 20
15.43989063
  0
VERTEX
  8
0
 62
7
 10
20.69971289
 20
15.44522070
  0
VERTEX
  8
0
 62
7
 10
21.01100000
 20
15.44700000
  0
VERTEX
  8
0
 62
7
 10
21.31961914
 20
15.44526367
  0
VERTEX
  8
0
 62
7
 10
21.62820313
 20
15.44004688
  0
VERTEX
  8
0
 62
7
 10
21.93671680
 20
15.43133789
  0
VERTEX
  8
0
 62
7
 10
22.24512500
 20
15.41912500
  0
VERTEX
  8
0
 62
7
 10
22.55339258
 20
15.40339648
  0
VERTEX
  8
0
 62
7
 10
22.86148438
 20
15.38414063
  0
VERTEX
  8
0
 62
7
 10
23.16936523
 20
15.36134570
  0
VERTEX
  8
0
 62
7
 10
23.47700000
 20
15.33500000
  0
VERTEX
  8
0
 62
7
 10
23.97015625
 20
15.28818750
  0
VERTEX
  8
0
 62
7
 10
24.46200000
 20
15.23875000
  0
VERTEX
  8
0
 62
7
 10
24.94709375
 20
15.18818750
  0
VERTEX
  8
0
 62
7
 10
25.42000000
 20
15.13800000
  0
VERTEX
  8
0
 62
7
 10
25.84950000
 20
15.09262500
  0
VERTEX
  8
0
 62
7
 10
26.25875000
 20
15.05025000
  0
VERTEX
  8
0
 62
7
 10
26.64287500
 20
15.01200000
  0
VERTEX
  8
0
 62
7
 10
26.99700000
 20
14.97900000
  0
VERTEX
  8
0
 62
7
 10
27.54500000
 20
14.92900000
  0
VERTEX
  8
0
 62
7
 10
27.89611914
 20
14.89657617
  0
VERTEX
  8
0
 62
7
 10
28.25845313
 20
14.86442188
  0
VERTEX
  8
0
 62
7
 10
28.63609180
 20
14.83346289
  0
VERTEX
  8
0
 62
7
 10
29.03312500
 20
14.80462500
  0
VERTEX
  8
0
 62
7
 10
29.45364258
 20
14.77883398
  0
VERTEX
  8
0
 62
7
 10
29.90173438
 20
14.75701563
  0
VERTEX
  8
0
 62
7
 10
30.38149023
 20
14.74009570
  0
VERTEX
  8
0
 62
7
 10
30.89700000
 20
14.72900000
  0
VERTEX
  8
0
 62
7
 10
30.88479688
 20
14.79142188
  0
VERTEX
  8
0
 62
7
 10
30.87512500
 20
14.85412500
  0
VERTEX
  8
0
 62
7
 10
30.86789063
 20
14.91701563
  0
VERTEX
  8
0
 62
7
 10
30.86300000
 20
14.98000000
  0
SEQEND
  0
POLYLINE
  8
0
 62
7
 66
1
 70
1
  0
VERTEX
  8
0
 62
7
 10
32.39800000
 20
12.65600000
  0
VERTEX
  8
0
 62
7
 10
32.36040625
 20
12.77256250
  0
VERTEX
  8
0
 62
7
 10
32.31775000
 20
12.88725000
  0
VERTEX
  8
0
 62
7
 10
32.27171875
 20
13.00081250
  0
VERTEX
  8
0
 62
7
 10
32.22400000
 20
13.11400000
  0
VERTEX
  8
0
 62
7
 10
32.16375000
 20
13.25325000
  0
VERTEX
  8
0
 62
7
 10
32.09900000
 20
13.39100000
  0
VERTEX
  8
0
 62
7
 10
32.03825000
 20
13.50875000
  0
VERTEX
  8
0
 62
7
 10
31.97300000
 20
13.62500000
  0
VERTEX
  8
0
 62
7
 10
31.99556836
 20
13.61408008
  0
VERTEX
  8
0
 62
7
 10
32.01892188
 20
13.60532813
  0
VERTEX
  8
0
 62
7
 10
32.04290820
 20
13.59875586
  0
VERTEX
  8
0
 62
7
 10
32.06737500
 20
13.59437500
  0
VERTEX
  8
0
 62
7
 10
32.09216992
 20
13.59219727
  0
VERTEX
  8
0
 62
7
 10
32.11714063
 20
13.59223438
  0
VERTEX
  8
0
 62
7
 10
32.14213477
 20
13.59449805
  0
VERTEX
  8
0
 62
7
 10
32.16700000
 20
13.59900000
  0
VERTEX
  8
0
 62
7
 10
32.19628125
 20
13.60798438
  0
VERTEX
  8
0
 62
7
 10
32.22425000
 20
13.62062500
  0
VERTEX
  8
0
 62
7
 10
32.25109375
 20
13.63570313
  0
VERTEX
  8
0
 62
7
 10
32.27700000
 20
13.65200000
  0
VERTEX
  8
0
 62
7
 10
32.31300000
 20
13.67800000
  0
VERTEX
  8
0
 62
7
 10
32.32800000
 20
13.72700000
  0
VERTEX
  8
0
 62
7
 10
32.34692188
 20
13.77706250
  0
VERTEX
  8
0
 62
7
 10
32.36837500
 20
13.82525000
  0
VERTEX
  8
0
 62
7
 10
32.39114063
 20
13.87156250
  0
VERTEX
  8
0
 62
7
 10
32.41400000
 20
13.91600000
  0
VERTEX
  8
0
 62
7
 10
32.43200000
 20
13.95000000
  0
VERTEX
  8
0
 62
7
 10
32.45800000
 20
13.99800000
  0
VERTEX
  8
0
 62
7
 10
32.40834375
 20
14.03700000
  0
VERTEX
  8
0
 62
7
 10
32.36150000
 20
14.07900000
  0
VERTEX
  8
0
 62
7
 10
32.31765625
 20
14.12400000
  0
VERTEX
  8
0
 62
7
 10
32.27700000
 20
14.17200000
  0
VERTEX
  8
0
 62
7
 10
32.24850000
 20
14.21067188
  0
VERTEX
  8
0
 62
7
 10
32.22225000
 20
14.25112500
  0
VERTEX
  8
0
 62
7
 10
32.19712500
 20
14.29251563
  0
VERTEX
  8
0
 62
7
 10
32.17200000
 20
14.33400000
  0
VERTEX
  8
0
 62
7
 10
32.06800000
 20
14.51200000
  0
VERTEX
  8
0
 62
7
 10
32.02775000
 20
14.57815625
  0
VERTEX
  8
0
 62
7
 10
31.98675000
 20
14.64375000
  0
VERTEX
  8
0
 62
7
 10
31.94312500
 20
14.70746875
  0
VERTEX
  8
0
 62
7
 10
31.89500000
 20
14.76800000
  0
VERTEX
  8
0
 62
7
 10
31.85298438
 20
14.81223438
  0
VERTEX
  8
0
 62
7
 10
31.80862500
 20
14.85412500
  0
VERTEX
  8
0
 62
7
 10
31.76295313
 20
14.89470313
  0
VERTEX
  8
0
 62
7
 10
31.71700000
 20
14.93500000
  0
VERTEX
  8
0
 62
7
 10
31.55500000
 20
15.07100000
  0
VERTEX
  8
0
 62
7
 10
31.48437500
 20
15.14137500
  0
VERTEX
  8
0
 62
7
 10
31.41900000
 20
15.21700000
  0
VERTEX
  8
0
 62
7
 10
31.37475000
 20
15.27850000
  0
VERTEX
  8
0
 62
7
 10
31.33500000
 20
15.34300000
  0
VERTEX
  8
0
 62
7
 10
31.31537500
 20
15.37939063
  0
VERTEX
  8
0
 62
7
 10
31.29725000
 20
15.41662500
  0
VERTEX
  8
0
 62
7
 10
31.28100000
 20
15.45479688
  0
VERTEX
  8
0
 62
7
 10
31.26700000
 20
15.49400000
  0
VERTEX
  8
0
 62
7
 10
31.25498438
 20
15.53635938
  0
VERTEX
  8
0
 62
7
 10
31.24587500
 20
15.57937500
  0
VERTEX
  8
0
 62
7
 10
31.23957813
 20
15.62295313
  0
VERTEX
  8
0
 62
7
 10
31.23600000
 20
15.66700000
  0
VERTEX
  8
0
 62
7
 10
31.23562500
 20
15.71721875
  0
VERTEX
  8
0
 62
7
 10
31.23900000
 20
15.76725000
  0
VERTEX
  8
0
 62
7
 10
31.24612500
 20
15.81690625
  0
VERTEX
  8
0
 62
7
 10
31.25700000
 20
15.86600000
  0
VERTEX
  8
0
 62
7
 10
31.19664063
 20
15.81018750
  0
VERTEX
  8
0
 62
7
 10
31.14162500
 20
15.74950000
  0
VERTEX
  8
0
 62
7
 10
31.09204688
 20
15.68431250
  0
VERTEX
  8
0
 62
7
 10
31.04800000
 20
15.61500000
  0
VERTEX
  8
0
 62
7
 10
31.02045313
 20
15.56490625
  0
VERTEX
  8
0
 62
7
 10
30.99562500
 20
15.51350000
  0
VERTEX
  8
0
 62
7
 10
30.97473438
 20
15.46059375
  0
VERTEX
  8
0
 62
7
 10
30.95900000
 20
15.40600000
  0
VERTEX
  8
0
 62
7
 10
30.94640942
 20
15.34548340
  0
VERTEX
  8
0
 62
7
 10
30.93636914
 20
15.28472656
  0
VERTEX
  8
0
 62
7
 10
30.92885132
 20
15.22379395
  0
VERTEX
  8
0
 62
7
 10
30.92382813
 20
15.16275000
  0
VERTEX
  8
0
 62
7
 10
30.92127173
 20
15.10165918
  0
VERTEX
  8
0
 62
7
 10
30.92115430
 20
15.04058594
  0
VERTEX
  8
0
 62
7
 10
30.92344800
 20
14.97959473
  0
VERTEX
  8
0
 62
7
 10
30.92812500
 20
14.91875000
  0
VERTEX
  8
0
 62
7
 10
30.93515747
 20
14.85811621
  0
VERTEX
  8
0
 62
7
 10
30.94451758
 20
14.79775781
  0
VERTEX
  8
0
 62
7
 10
30.95617749
 20
14.73773926
  0
VERTEX
  8
0
 62
7
 10
30.97010938
 20
14.67812500
  0
VERTEX
  8
0
 62
7
 10
30.98628540
 20
14.61897949
  0
VERTEX
  8
0
 62
7
 10
31.00467773
 20
14.56036719
  0
VERTEX
  8
0
 62
7
 10
31.02525854
 20
14.50235254
  0
VERTEX
  8
0
 62
7
 10
31.04800000
 20
14.44500000
  0
VERTEX
  8
0
 62
7
 10
31.07182813
 20
14.39159375
  0
VERTEX
  8
0
 62
7
 10
31.09687500
 20
14.33875000
  0
VERTEX
  8
0
 62
7
 10
31.12098438
 20
14.28553125
  0
VERTEX
  8
0
 62
7
 10
31.14200000
 20
14.23100000
  0
VERTEX
  8
0
 62
7
 10
31.16401563
 20
14.15907813
  0
VERTEX
  8
0
 62
7
 10
31.18162500
 20
14.08612500
  0
VERTEX
  8
0
 62
7
 10
31.19642188
 20
14.01260938
  0
VERTEX
  8
0
 62
7
 10
31.21000000
 20
13.93900000
  0
VERTEX
  8
0
 62
7
 10
31.21816211
 20
13.88666797
  0
VERTEX
  8
0
 62
7
 10
31.22448438
 20
13.83403125
  0
VERTEX
  8
0
 62
7
 10
31.22984570
 20
13.78125391
  0
VERTEX
  8
0
 62
7
 10
31.23512500
 20
13.72850000
  0
VERTEX
  8
0
 62
7
 10
31.24120117
 20
13.67593359
  0
VERTEX
  8
0
 62
7
 10
31.24895313
 20
13.62371875
  0
VERTEX
  8
0
 62
7
 10
31.25925977
 20
13.57201953
  0
VERTEX
  8
0
 62
7
 10
31.27300000
 20
13.52100000
  0
VERTEX
  8
0
 62
7
 10
31.28700000
 20
13.48029688
  0
VERTEX
  8
0
 62
7
 10
31.30325000
 20
13.44062500
  0
VERTEX
  8
0
 62
7
 10
31.32137500
 20
13.40189063
  0
VERTEX
  8
0
 62
7
 10
31.34100000
 20
13.36400000
  0
VERTEX
  8
0
 62
7
 10
31.36300000
 20
13.32500000
  0
VERTEX
  8
0
 62
7
 10
31.36400000
 20
13.32500000
  0
VERTEX
  8
0
 62
7
 10
31.38500000
 20
13.33300000
  0
VERTEX
  8
0
 62
7
 10
31.42500000
 20
13.34800000
  0
VERTEX
  8
0
 62
7
 10
31.44906250
 20
13.35337500
  0
VERTEX
  8
0
 62
7
 10
31.47275000
 20
13.35650000
  0
VERTEX
  8
0
 62
7
 10
31.49531250
 20
13.35812500
  0
VERTEX
  8
0
 62
7
 10
31.51600000
 20
13.35900000
  0
VERTEX
  8
0
 62
7
 10
31.53200000
 20
13.35900000
  0
VERTEX
  8
0
 62
7
 10
31.56925000
 20
13.35775000
  0
VERTEX
  8
0
 62
7
 10
31.60725000
 20
13.35350000
  0
VERTEX
  8
0
 62
7
 10
31.64562500
 20
13.34550000
  0
VERTEX
  8
0
 62
7
 10
31.68400000
 20
13.33300000
  0
VERTEX
  8
0
 62
7
 10
31.73200000
 20
13.31000000
  0
VERTEX
  8
0
 62
7
 10
31.75675000
 20
13.32787500
  0
VERTEX
  8
0
 62
7
 10
31.78000000
 20
13.34800000
  0
VERTEX
  8
0
 62
7
 10
31.80096875
 20
13.36915625
  0
VERTEX
  8
0
 62
7
 10
31.82025000
 20
13.39200000
  0
VERTEX
  8
0
 62
7
 10
31.83765625
 20
13.41634375
  0
VERTEX
  8
0
 62
7
 10
31.85300000
 20
13.44200000
  0
VERTEX
  8
0
 62
7
 10
31.86539063
 20
13.46712500
  0
VERTEX
  8
0
 62
7
 10
31.87562500
 20
13.49300000
  0
VERTEX
  8
0
 62
7
 10
31.88379688
 20
13.51962500
  0
VERTEX
  8
0
 62
7
 10
31.89000000
 20
13.54700000
  0
VERTEX
  8
0
 62
7
 10
31.96256250
 20
13.41985938
  0
VERTEX
  8
0
 62
7
 10
32.03025000
 20
13.29037500
  0
VERTEX
  8
0
 62
7
 10
32.09306250
 20
13.15845313
  0
VERTEX
  8
0
 62
7
 10
32.15100000
 20
13.02400000
  0
VERTEX
  8
0
 62
7
 10
32.20362500
 20
12.88912500
  0
VERTEX
  8
0
 62
7
 10
32.25100000
 20
12.75200000
  0
VERTEX
  8
0
 62
7
 10
32.29550000
 20
12.60925000
  0
VERTEX
  8
0
 62
7
 10
32.33400000
 20
12.46500000
  0
VERTEX
  8
0
 62
7
 10
32.35975000
 20
12.34787500
  0
VERTEX
  8
0
 62
7
 10
32.38100000
 20
12.23000000
  0
VERTEX
  8
0
 62
7
 10
32.39162500
 20
12.15850000
  0
VERTEX
  8
0
 62
7
 10
32.40000000
 20
12.08700000
  0
VERTEX
  8
0
 62
7
 10
32.45687500
 20
12.02850000
  0
VERTEX
  8
0
 62
7
 10
32.51000000
 20
11.96700000
  0
VERTEX
  8
0
 62
7
 10
32.50343750
 20
12.07704688
  0
VERTEX
  8
0
 62
7
 10
32.49275000
 20
12.18662500
  0
VERTEX
  8
0
 62
7
 10
32.47793750
 20
12.29564063
  0
VERTEX
  8
0
 62
7
 10
32.45900000
 20
12.40400000
  0
VERTEX
  8
0
 62
7
 10
32.48450000
 20
12.44825000
  0
VERTEX
  8
0
 62
7
 10
32.51600000
 20
12.48800000
  0
VERTEX
  8
0
 62
7
 10
32.53550000
 20
12.50835938
  0
VERTEX
  8
0
 62
7
 10
32.55650000
 20
12.52712500
  0
VERTEX
  8
0
 62
7
 10
32.57900000
 20
12.54382813
  0
VERTEX
  8
0
 62
7
 10
32.60300000
 20
12.55800000
  0
VERTEX
  8
0
 62
7
 10
32.63703125
 20
12.57281250
  0
VERTEX
  8
0
 62
7
 10
32.67275000
 20
12.58275000
  0
VERTEX
  8
0
 62
7
 10
32.70959375
 20
12.58781250
  0
VERTEX
  8
0
 62
7
 10
32.74700000
 20
12.58800000
  0
VERTEX
  8
0
 62
7
 10
32.77452734
 20
12.58477734
  0
VERTEX
  8
0
 62
7
 10
32.80146875
 20
12.57890625
  0
VERTEX
  8
0
 62
7
 10
32.82761328
 20
12.57045703
  0
VERTEX
  8
0
 62
7
 10
32.85275000
 20
12.55950000
  0
VERTEX
  8
0
 62
7
 10
32.87666797
 20
12.54610547
  0
VERTEX
  8
0
 62
7
 10
32.89915625
 20
12.53034375
  0
VERTEX
  8
0
 62
7
 10
32.92000391
 20
12.51228516
  0
VERTEX
  8
0
 62
7
 10
32.93900000
 20
12.49200000
  0
VERTEX
  8
0
 62
7
 10
32.92200000
 20
12.47500000
  0
VERTEX
  8
0
 62
7
 10
32.88362500
 20
12.49875000
  0
VERTEX
  8
0
 62
7
 10
32.84300000
 20
12.51800000
  0
VERTEX
  8
0
 62
7
 10
32.81429688
 20
12.52882813
  0
VERTEX
  8
0
 62
7
 10
32.78512500
 20
12.53787500
  0
VERTEX
  8
0
 62
7
 10
32.75539063
 20
12.54373438
  0
VERTEX
  8
0
 62
7
 10
32.72500000
 20
12.54500000
  0
VERTEX
  8
0
 62
7
 10
32.69153125
 20
12.54107813
  0
VERTEX
  8
0
 62
7
 10
32.65900000
 20
12.53237500
  0
VERTEX
  8
0
 62
7
 10
32.62796875
 20
12.51898438
  0
VERTEX
  8
0
 62
7
 10
32.59900000
 20
12.50100000
  0
VERTEX
  8
0
 62
7
 10
32.63400000
 20
12.38300000
  0
VERTEX
  8
0
 62
7
 10
32.66400000
 20
12.25700000
  0
VERTEX
  8
0
 62
7
 10
32.67862500
 20
12.18500000
  0
VERTEX
  8
0
 62
7
 10
32.69100000
 20
12.11300000
  0
VERTEX
  8
0
 62
7
 10
32.69703125
 20
12.05959375
  0
VERTEX
  8
0
 62
7
 10
32.70100000
 20
12.00600000
  0
VERTEX
  8
0
 62
7
 10
32.70421875
 20
11.95240625
  0
VERTEX
  8
0
 62
7
 10
32.70800000
 20
11.89900000
  0
VERTEX
  8
0
 62
7
 10
32.71700000
 20
11.73800000
  0
VERTEX
  8
0
 62
7
 10
32.71950000
 20
11.69000000
  0
VERTEX
  8
0
 62
7
 10
32.72500000
 20
11.64200000
  0
VERTEX
  8
0
 62
7
 10
32.73335938
 20
11.60487500
  0
VERTEX
  8
0
 62
7
 10
32.74462500
 20
11.56850000
  0
VERTEX
  8
0
 62
7
 10
32.75832813
 20
11.53287500
  0
VERTEX
  8
0
 62
7
 10
32.77400000
 20
11.49800000
  0
VERTEX
  8
0
 62
7
 10
32.80114063
 20
11.44851563
  0
VERTEX
  8
0
 62
7
 10
32.83287500
 20
11.40212500
  0
VERTEX
  8
0
 62
7
 10
32.86892188
 20
11.35892188
  0
VERTEX
  8
0
 62
7
 10
32.90900000
 20
11.31900000
  0
VERTEX
  8
0
 62
7
 10
32.91862500
 20
11.27187500
  0
VERTEX
  8
0
 62
7
 10
32.92600000
 20
11.22400000
  0
VERTEX
  8
0
 62
7
 10
32.93275000
 20
11.16050000
  0
VERTEX
  8
0
 62
7
 10
32.93500000
 20
11.09700000
  0
VERTEX
  8
0
 62
7
 10
32.93500000
 20
11.00400000
  0
VERTEX
  8
0
 62
7
 10
32.95400000
 20
10.90000000
  0
VERTEX
  8
0
 62
7
 10
32.97664063
 20
10.76314063
  0
VERTEX
  8
0
 62
7
 10
32.99637500
 20
10.62562500
  0
VERTEX
  8
0
 62
7
 10
33.01292188
 20
10.48754688
  0
VERTEX
  8
0
 62
7
 10
33.02600000
 20
10.34900000
  0
VERTEX
  8
0
 62
7
 10
33.03800000
 20
10.18200000
  0
VERTEX
  8
0
 62
7
 10
33.06100000
 20
10.18200000
  0
VERTEX
  8
0
 62
7
 10
33.06100000
 20
11.28000000
  0
VERTEX
  8
0
 62
7
 10
33.09200000
 20
11.35400000
  0
VERTEX
  8
0
 62
7
 10
33.11462500
 20
11.42525000
  0
VERTEX
  8
0
 62
7
 10
33.13200000
 20
11.49800000
  0
VERTEX
  8
0
 62
7
 10
33.13978125
 20
11.54782813
  0
VERTEX
  8
0
 62
7
 10
33.14475000
 20
11.59812500
  0
VERTEX
  8
0
 62
7
 10
33.14859375
 20
11.64860938
  0
VERTEX
  8
0
 62
7
 10
33.15300000
 20
11.69900000
  0
VERTEX
  8
0
 62
7
 10
33.18800000
 20
12.13500000
  0
VERTEX
  8
0
 62
7
 10
33.19137500
 20
12.18973438
  0
VERTEX
  8
0
 62
7
 10
33.19400000
 20
12.24437500
  0
VERTEX
  8
0
 62
7
 10
33.19812500
 20
12.29882813
  0
VERTEX
  8
0
 62
7
 10
33.20600000
 20
12.35300000
  0
VERTEX
  8
0
 62
7
 10
33.21750000
 20
12.40550000
  0
VERTEX
  8
0
 62
7
 10
33.23200000
 20
12.45800000
  0
VERTEX
  8
0
 62
7
 10
33.20950000
 20
12.48350000
  0
VERTEX
  8
0
 62
7
 10
33.18400000
 20
12.50600000
  0
VERTEX
  8
0
 62
7
 10
33.17193750
 20
12.51610938
  0
VERTEX
  8
0
 62
7
 10
33.15950000
 20
12.52612500
  0
VERTEX
  8
0
 62
7
 10
33.14631250
 20
12.53482813
  0
VERTEX
  8
0
 62
7
 10
33.13200000
 20
12.54100000
  0
VERTEX
  8
0
 62
7
 10
33.11200000
 20
12.54487500
  0
VERTEX
  8
0
 62
7
 10
33.09200000
 20
12.54500000
  0
VERTEX
  8
0
 62
7
 10
33.10487500
 20
12.51287500
  0
VERTEX
  8
0
 62
7
 10
33.11400000
 20
12.48000000
  0
VERTEX
  8
0
 62
7
 10
33.11937500
 20
12.43650000
  0
VERTEX
  8
0
 62
7
 10
33.11800000
 20
12.39300000
  0
VERTEX
  8
0
 62
7
 10
33.10100000
 20
12.39300000
  0
VERTEX
  8
0
 62
7
 10
33.09262500
 20
12.43725000
  0
VERTEX
  8
0
 62
7
 10
33.07900000
 20
12.48000000
  0
VERTEX
  8
0
 62
7
 10
33.06679688
 20
12.50793750
  0
VERTEX
  8
0
 62
7
 10
33.05262500
 20
12.53475000
  0
VERTEX
  8
0
 62
7
 10
33.03639063
 20
12.56043750
  0
VERTEX
  8
0
 62
7
 10
33.01800000
 20
12.58500000
  0
VERTEX
  8
0
 62
7
 10
33.03842188
 20
12.59004688
  0
VERTEX
  8
0
 62
7
 10
33.05912500
 20
12.59312500
  0
VERTEX
  8
0
 62
7
 10
33.08001563
 20
12.59414063
  0
VERTEX
  8
0
 62
7
 10
33.10100000
 20
12.59300000
  0
VERTEX
  8
0
 62
7
 10
33.12535938
 20
12.58943750
  0
VERTEX
  8
0
 62
7
 10
33.14887500
 20
12.58325000
  0
VERTEX
  8
0
 62
7
 10
33.17145313
 20
12.57443750
  0
VERTEX
  8
0
 62
7
 10
33.19300000
 20
12.56300000
  0
VERTEX
  8
0
 62
7
 10
33.22287500
 20
12.54125000
  0
VERTEX
  8
0
 62
7
 10
33.24900000
 20
12.51500000
  0
VERTEX
  8
0
 62
7
 10
33.26314844
 20
12.49716211
  0
VERTEX
  8
0
 62
7
 10
33.27556250
 20
12.47823438
  0
VERTEX
  8
0
 62
7
 10
33.28619531
 20
12.45834570
  0
VERTEX
  8
0
 62
7
 10
33.29500000
 20
12.43762500
  0
VERTEX
  8
0
 62
7
 10
33.30192969
 20
12.41620117
  0
VERTEX
  8
0
 62
7
 10
33.30693750
 20
12.39420313
  0
VERTEX
  8
0
 62
7
 10
33.30997656
 20
12.37175977
  0
VERTEX
  8
0
 62
7
 10
33.31100000
 20
12.34900000
  0
VERTEX
  8
0
 62
7
 10
33.32728125
 20
12.35103125
  0
VERTEX
  8
0
 62
7
 10
33.34300000
 20
12.35550000
  0
VERTEX
  8
0
 62
7
 10
33.35796875
 20
12.36221875
  0
VERTEX
  8
0
 62
7
 10
33.37200000
 20
12.37100000
  0
VERTEX
  8
0
 62
7
 10
33.38631250
 20
12.38468750
  0
VERTEX
  8
0
 62
7
 10
33.39725000
 20
12.40100000
  0
VERTEX
  8
0
 62
7
 10
33.40631250
 20
12.41881250
  0
VERTEX
  8
0
 62
7
 10
33.41500000
 20
12.43700000
  0
VERTEX
  8
0
 62
7
 10
33.42589063
 20
12.46407813
  0
VERTEX
  8
0
 62
7
 10
33.43387500
 20
12.49237500
  0
VERTEX
  8
0
 62
7
 10
33.44017188
 20
12.52123438
  0
VERTEX
  8
0
 62
7
 10
33.44600000
 20
12.55000000
  0
VERTEX
  8
0
 62
7
 10
33.45562500
 20
12.60642188
  0
VERTEX
  8
0
 62
7
 10
33.46150000
 20
12.66312500
  0
VERTEX
  8
0
 62
7
 10
33.46512500
 20
12.72001563
  0
VERTEX
  8
0
 62
7
 10
33.46800000
 20
12.77700000
  0
VERTEX
  8
0
 62
7
 10
33.47062500
 20
12.89250000
  0
VERTEX
  8
0
 62
7
 10
33.46800000
 20
13.00800000
  0
VERTEX
  8
0
 62
7
 10
33.46435938
 20
13.07473438
  0
VERTEX
  8
0
 62
7
 10
33.45912500
 20
13.14137500
  0
VERTEX
  8
0
 62
7
 10
33.45182813
 20
13.20782813
  0
VERTEX
  8
0
 62
7
 10
33.44200000
 20
13.27400000
  0
VERTEX
  8
0
 62
7
 10
33.41887500
 20
13.38412500
  0
VERTEX
  8
0
 62
7
 10
33.38900000
 20
13.49200000
  0
VERTEX
  8
0
 62
7
 10
33.35962500
 20
13.57537500
  0
VERTEX
  8
0
 62
7
 10
33.32800000
 20
13.65800000
  0
VERTEX
  8
0
 62
7
 10
33.26300000
 20
13.82000000
  0
VERTEX
  8
0
 62
7
 10
33.23950000
 20
13.89562500
  0
VERTEX
  8
0
 62
7
 10
33.21900000
 20
13.97200000
  0
VERTEX
  8
0
 62
7
 10
33.18400000
 20
14.13400000
  0
VERTEX
  8
0
 62
7
 10
33.16562500
 20
14.22387500
  0
VERTEX
  8
0
 62
7
 10
33.14500000
 20
14.31300000
  0
VERTEX
  8
0
 62
7
 10
33.13237500
 20
14.36184375
  0
VERTEX
  8
0
 62
7
 10
33.11900000
 20
14.41050000
  0
VERTEX
  8
0
 62
7
 10
33.10337500
 20
14.45840625
  0
VERTEX
  8
0
 62
7
 10
33.08400000
 20
14.50500000
  0
VERTEX
  8
0
 62
7
 10
33.06428125
 20
14.54432813
  0
VERTEX
  8
0
 62
7
 10
33.04250000
 20
14.58262500
  0
VERTEX
  8
0
 62
7
 10
33.01846875
 20
14.61960938
  0
VERTEX
  8
0
 62
7
 10
32.99200000
 20
14.65500000
  0
VERTEX
  8
0
 62
7
 10
32.96751563
 20
14.68406250
  0
VERTEX
  8
0
 62
7
 10
32.94162500
 20
14.71200000
  0
VERTEX
  8
0
 62
7
 10
32.91367188
 20
14.73768750
  0
VERTEX
  8
0
 62
7
 10
32.88300000
 20
14.76000000
  0
VERTEX
  8
0
 62
7
 10
32.86103125
 20
14.77304688
  0
VERTEX
  8
0
 62
7
 10
32.83850000
 20
14.78487500
  0
VERTEX
  8
0
 62
7
 10
32.81521875
 20
14.79501563
  0
VERTEX
  8
0
 62
7
 10
32.79100000
 20
14.80300000
  0
VERTEX
  8
0
 62
7
 10
32.75843750
 20
14.81010938
  0
VERTEX
  8
0
 62
7
 10
32.72550000
 20
14.81337500
  0
VERTEX
  8
0
 62
7
 10
32.69256250
 20
14.81270313
  0
VERTEX
  8
0
 62
7
 10
32.66000000
 20
14.80800000
  0
VERTEX
  8
0
 62
7
 10
32.63075000
 20
14.80050000
  0
VERTEX
  8
0
 62
7
 10
32.60300000
 20
14.79000000
  0
VERTEX
  8
0
 62
7
 10
32.57990625
 20
14.77717188
  0
VERTEX
  8
0
 62
7
 10
32.55850000
 20
14.76162500
  0
VERTEX
  8
0
 62
7
 10
32.53859375
 20
14.74401563
  0
VERTEX
  8
0
 62
7
 10
32.52000000
 20
14.72500000
  0
VERTEX
  8
0
 62
7
 10
32.49240625
 20
14.69096875
  0
VERTEX
  8
0
 62
7
 10
32.46950000
 20
14.65375000
  0
VERTEX
  8
0
 62
7
 10
32.45109375
 20
14.61390625
  0
VERTEX
  8
0
 62
7
 10
32.43700000
 20
14.57200000
  0
VERTEX
  8
0
 62
7
 10
32.43025000
 20
14.54291211
  0
VERTEX
  8
0
 62
7
 10
32.42575000
 20
14.51348438
  0
VERTEX
  8
0
 62
7
 10
32.42350000
 20
14.48384570
  0
VERTEX
  8
0
 62
7
 10
32.42350000
 20
14.45412500
  0
VERTEX
  8
0
 62
7
 10
32.42575000
 20
14.42445117
  0
VERTEX
  8
0
 62
7
 10
32.43025000
 20
14.39495313
  0
VERTEX
  8
0
 62
7
 10
32.43700000
 20
14.36575977
  0
VERTEX
  8
0
 62
7
 10
32.44600000
 20
14.33700000
  0
VERTEX
  8
0
 62
7
 10
32.46604688
 20
14.29171875
  0
VERTEX
  8
0
 62
7
 10
32.49237500
 20
14.24925000
  0
VERTEX
  8
0
 62
7
 10
32.52376563
 20
14.21015625
  0
VERTEX
  8
0
 62
7
 10
32.55900000
 20
14.17500000
  0
VERTEX
  8
0
 62
7
 10
32.58812500
 20
14.22575000
  0
VERTEX
  8
0
 62
7
 10
32.61500000
 20
14.27800000
  0
VERTEX
  8
0
 62
7
 10
32.63250000
 20
14.31762500
  0
VERTEX
  8
0
 62
7
 10
32.64700000
 20
14.35800000
  0
VERTEX
  8
0
 62
7
 10
32.65809375
 20
14.39303125
  0
VERTEX
  8
0
 62
7
 10
32.66525000
 20
14.42675000
  0
VERTEX
  8
0
 62
7
 10
32.66753125
 20
14.46009375
  0
VERTEX
  8
0
 62
7
 10
32.66400000
 20
14.49400000
  0
VERTEX
  8
0
 62
7
 10
32.65728125
 20
14.52332813
  0
VERTEX
  8
0
 62
7
 10
32.64775000
 20
14.55162500
  0
VERTEX
  8
0
 62
7
 10
32.63334375
 20
14.57710938
  0
VERTEX
  8
0
 62
7
 10
32.61200000
 20
14.59800000
  0
VERTEX
  8
0
 62
7
 10
32.59487500
 20
14.60714063
  0
VERTEX
  8
0
 62
7
 10
32.57625000
 20
14.61112500
  0
VERTEX
  8
0
 62
7
 10
32.55800000
 20
14.60854688
  0
VERTEX
  8
0
 62
7
 10
32.54200000
 20
14.59800000
  0
VERTEX
  8
0
 62
7
 10
32.53182813
 20
14.58509375
  0
VERTEX
  8
0
 62
7
 10
32.52512500
 20
14.57125000
  0
VERTEX
  8
0
 62
7
 10
32.52160938
 20
14.55553125
  0
VERTEX
  8
0
 62
7
 10
32.52100000
 20
14.53700000
  0
VERTEX
  8
0
 62
7
 10
32.49800000
 20
14.53700000
  0
VERTEX
  8
0
 62
7
 10
32.49554688
 20
14.55454688
  0
VERTEX
  8
0
 62
7
 10
32.49562500
 20
14.57237500
  0
VERTEX
  8
0
 62
7
 10
32.49814063
 20
14.59001563
  0
VERTEX
  8
0
 62
7
 10
32.50300000
 20
14.60700000
  0
VERTEX
  8
0
 62
7
 10
32.51875000
 20
14.63812500
  0
VERTEX
  8
0
 62
7
 10
32.54200000
 20
14.66400000
  0
VERTEX
  8
0
 62
7
 10
32.56450000
 20
14.67962500
  0
VERTEX
  8
0
 62
7
 10
32.59000000
 20
14.69000000
  0
VERTEX
  8
0
 62
7
 10
32.62562500
 20
14.66737500
  0
VERTEX
  8
0
 62
7
 10
32.65600000
 20
14.63800000
  0
VERTEX
  8
0
 62
7
 10
32.67278125
 20
14.61504688
  0
VERTEX
  8
0
 62
7
 10
32.68600000
 20
14.59012500
  0
VERTEX
  8
0
 62
7
 10
32.69621875
 20
14.56389063
  0
VERTEX
  8
0
 62
7
 10
32.70400000
 20
14.53700000
  0
VERTEX
  8
0
 62
7
 10
32.71018750
 20
14.50142188
  0
VERTEX
  8
0
 62
7
 10
32.71150000
 20
14.46537500
  0
VERTEX
  8
0
 62
7
 10
32.70906250
 20
14.42914063
  0
VERTEX
  8
0
 62
7
 10
32.70400000
 20
14.39300000
  0
VERTEX
  8
0
 62
7
 10
32.68912500
 20
14.33575000
  0
VERTEX
  8
0
 62
7
 10
32.66900000
 20
14.28000000
  0
VERTEX
  8
0
 62
7
 10
32.62900000
 20
14.18800000
  0
VERTEX
  8
0
 62
7
 10
32.56000000
 20
14.05700000
  0
VERTEX
  8
0
 62
7
 10
32.48500000
 20
13.92200000
  0
VERTEX
  8
0
 62
7
 10
32.45770313
 20
13.86957813
  0
VERTEX
  8
0
 62
7
 10
32.43087500
 20
13.81687500
  0
VERTEX
  8
0
 62
7
 10
32.40610938
 20
13.76323438
  0
VERTEX
  8
0
 62
7
 10
32.38500000
 20
13.70800000
  0
VERTEX
  8
0
 62
7
 10
32.37039063
 20
13.65979688
  0
VERTEX
  8
0
 62
7
 10
32.35812500
 20
13.61112500
  0
VERTEX
  8
0
 62
7
 10
32.34829688
 20
13.56189063
  0
VERTEX
  8
0
 62
7
 10
32.34100000
 20
13.51200000
  0
VERTEX
  8
0
 62
7
 10
32.33512500
 20
13.44537500
  0
VERTEX
  8
0
 62
7
 10
32.33300000
 20
13.37800000
  0
VERTEX
  8
0
 62
7
 10
32.33250000
 20
13.31335938
  0
VERTEX
  8
0
 62
7
 10
32.33425000
 20
13.24862500
  0
VERTEX
  8
0
 62
7
 10
32.33862500
 20
13.18407813
  0
VERTEX
  8
0
 62
7
 10
32.34600000
 20
13.12000000
  0
VERTEX
  8
0
 62
7
 10
32.37600000
 20
12.96300000
  0
VERTEX
  8
0
 62
7
 10
32.38900000
 20
12.82400000
  0
VERTEX
  8
0
 62
7
 10
32.39800000
 20
12.65600000
  0
SEQEND
  0
POLYLINE
  8
0
 62
7
 66
1
 70
1
  0
VERTEX
  8
0
 62
7
 10
31.73200000
 20
9.33000000
  0
VERTEX
  8
0
 62
7
 10
31.73200000
 20
10.03600000
  0
VERTEX
  8
0
 62
7
 10
31.76196875
 20
10.06804688
  0
VERTEX
  8
0
 62
7
 10
31.78875000
 20
10.10262500
  0
VERTEX
  8
0
 62
7
 10
31.81215625
 20
10.13964063
  0
VERTEX
  8
0
 62
7
 10
31.83200000
 20
10.17900000
  0
VERTEX
  8
0
 62
7
 10
31.84423438
 20
10.21192188
  0
VERTEX
  8
0
 62
7
 10
31.85337500
 20
10.24587500
  0
VERTEX
  8
0
 62
7
 10
31.86082813
 20
10.28039063
  0
VERTEX
  8
0
 62
7
 10
31.86800000
 20
10.31500000
  0
VERTEX
  8
0
 62
7
 10
31.89000000
 20
10.44000000
  0
VERTEX
  8
0
 62
7
 10
31.91800000
 20
10.65500000
  0
VERTEX
  8
0
 62
7
 10
31.92400000
 20
10.71400000
  0
VERTEX
  8
0
 62
7
 10
31.93300000
 20
10.77300000
  0
VERTEX
  8
0
 62
7
 10
31.94475000
 20
10.82025000
  0
VERTEX
  8
0
 62
7
 10
31.96100000
 20
10.86600000
  0
VERTEX
  8
0
 62
7
 10
31.97912500
 20
10.90412500
  0
VERTEX
  8
0
 62
7
 10
32.00100000
 20
10.94000000
  0
VERTEX
  8
0
 62
7
 10
31.98100000
 20
10.97162500
  0
VERTEX
  8
0
 62
7
 10
31.95800000
 20
11.00100000
  0
VERTEX
  8
0
 62
7
 10
31.93250000
 20
11.02712500
  0
VERTEX
  8
0
 62
7
 10
31.90400000
 20
11.05100000
  0
VERTEX
  8
0
 62
7
 10
31.91500000
 20
11.01500000
  0
VERTEX
  8
0
 62
7
 10
31.91875000
 20
10.98300000
  0
VERTEX
  8
0
 62
7
 10
31.91800000
 20
10.95100000
  0
VERTEX
  8
0
 62
7
 10
31.90400000
 20
10.95100000
  0
VERTEX
  8
0
 62
7
 10
31.88125000
 20
11.01462500
  0
VERTEX
  8
0
 62
7
 10
31.85400000
 20
11.07600000
  0
VERTEX
  8
0
 62
7
 10
31.83362500
 20
11.11587500
  0
VERTEX
  8
0
 62
7
 10
31.81100000
 20
11.15500000
  0
VERTEX
  8
0
 62
7
 10
31.84715625
 20
11.13762500
  0
VERTEX
  8
0
 62
7
 10
31.88200000
 20
11.11725000
  0
VERTEX
  8
0
 62
7
 10
31.91534375
 20
11.09425000
  0
VERTEX
  8
0
 62
7
 10
31.94700000
 20
11.06900000
  0
VERTEX
  8
0
 62
7
 10
31.99700000
 20
11.01900000
  0
VERTEX
  8
0
 62
7
 10
32.05550000
 20
10.95450000
  0
VERTEX
  8
0
 62
7
 10
32.11100000
 20
10.88700000
  0
VERTEX
  8
0
 62
7
 10
32.11800000
 20
10.89900000
  0
VERTEX
  8
0
 62
7
 10
32.13900000
 20
10.96800000
  0
VERTEX
  8
0
 62
7
 10
32.16225000
 20
11.03450000
  0
VERTEX
  8
0
 62
7
 10
32.18700000
 20
11.09800000
  0
VERTEX
  8
0
 62
7
 10
32.23400000
 20
11.22400000
  0
VERTEX
  8
0
 62
7
 10
32.24200000
 20
11.25100000
  0
VERTEX
  8
0
 62
7
 10
32.25892188
 20
11.30357813
  0
VERTEX
  8
0
 62
7
 10
32.27462500
 20
11.35512500
  0
VERTEX
  8
0
 62
7
 10
32.28826563
 20
11.40610938
  0
VERTEX
  8
0
 62
7
 10
32.29900000
 20
11.45700000
  0
VERTEX
  8
0
 62
7
 10
32.30703125
 20
11.50817188
  0
VERTEX
  8
0
 62
7
 10
32.31300000
 20
11.55962500
  0
VERTEX
  8
0
 62
7
 10
32.31671875
 20
11.61126563
  0
VERTEX
  8
0
 62
7
 10
32.31800000
 20
11.66300000
  0
VERTEX
  8
0
 62
7
 10
32.31800000
 20
11.67600000
  0
VERTEX
  8
0
 62
7
 10
32.31200000
 20
11.74300000
  0
VERTEX
  8
0
 62
7
 10
32.30457813
 20
11.78689063
  0
VERTEX
  8
0
 62
7
 10
32.29462500
 20
11.83012500
  0
VERTEX
  8
0
 62
7
 10
32.28260938
 20
11.87279688
  0
VERTEX
  8
0
 62
7
 10
32.26900000
 20
11.91500000
  0
VERTEX
  8
0
 62
7
 10
32.24637500
 20
11.97489063
  0
VERTEX
  8
0
 62
7
 10
32.22000000
 20
12.03337500
  0
VERTEX
  8
0
 62
7
 10
32.19137500
 20
12.09092188
  0
VERTEX
  8
0
 62
7
 10
32.16200000
 20
12.14800000
  0
VERTEX
  8
0
 62
7
 10
32.07200000
 20
12.30800000
  0
VERTEX
  8
0
 62
7
 10
32.03462500
 20
12.37875000
  0
VERTEX
  8
0
 62
7
 10
32.00100000
 20
12.45100000
  0
VERTEX
  8
0
 62
7
 10
31.98496875
 20
12.49035938
  0
VERTEX
  8
0
 62
7
 10
31.97025000
 20
12.53037500
  0
VERTEX
  8
0
 62
7
 10
31.95740625
 20
12.57095313
  0
VERTEX
  8
0
 62
7
 10
31.94700000
 20
12.61200000
  0
VERTEX
  8
0
 62
7
 10
31.93650000
 20
12.68000000
  0
VERTEX
  8
0
 62
7
 10
31.92900000
 20
12.74800000
  0
VERTEX
  8
0
 62
7
 10
31.92445313
 20
12.79090625
  0
VERTEX
  8
0
 62
7
 10
31.92037500
 20
12.83400000
  0
VERTEX
  8
0
 62
7
 10
31.91535938
 20
12.87709375
  0
VERTEX
  8
0
 62
7
 10
31.90800000
 20
12.92000000
  0
VERTEX
  8
0
 62
7
 10
31.89637500
 20
12.96937500
  0
VERTEX
  8
0
 62
7
 10
31.88100000
 20
13.01800000
  0
VERTEX
  8
0
 62
7
 10
31.86117188
 20
13.06887500
  0
VERTEX
  8
0
 62
7
 10
31.83787500
 20
13.11825000
  0
VERTEX
  8
0
 62
7
 10
31.80914063
 20
13.16425000
  0
VERTEX
  8
0
 62
7
 10
31.77300000
 20
13.20500000
  0
VERTEX
  8
0
 62
7
 10
31.74792188
 20
13.22665625
  0
VERTEX
  8
0
 62
7
 10
31.72087500
 20
13.24625000
  0
VERTEX
  8
0
 62
7
 10
31.69214063
 20
13.26321875
  0
VERTEX
  8
0
 62
7
 10
31.66200000
 20
13.27700000
  0
VERTEX
  8
0
 62
7
 10
31.62698438
 20
13.28817188
  0
VERTEX
  8
0
 62
7
 10
31.59112500
 20
13.29512500
  0
VERTEX
  8
0
 62
7
 10
31.55470313
 20
13.29851563
  0
VERTEX
  8
0
 62
7
 10
31.51800000
 20
13.29900000
  0
VERTEX
  8
0
 62
7
 10
31.47862500
 20
13.29675000
  0
VERTEX
  8
0
 62
7
 10
31.44000000
 20
13.29000000
  0
VERTEX
  8
0
 62
7
 10
31.38100000
 20
13.26700000
  0
VERTEX
  8
0
 62
7
 10
31.32800000
 20
13.25400000
  0
VERTEX
  8
0
 62
7
 10
31.30237500
 20
13.23937500
  0
VERTEX
  8
0
 62
7
 10
31.27900000
 20
13.22100000
  0
VERTEX
  8
0
 62
7
 10
31.26182813
 20
13.20312500
  0
VERTEX
  8
0
 62
7
 10
31.24737500
 20
13.18300000
  0
VERTEX
  8
0
 62
7
 10
31.23498438
 20
13.16137500
  0
VERTEX
  8
0
 62
7
 10
31.22400000
 20
13.13900000
  0
VERTEX
  8
0
 62
7
 10
31.21096875
 20
13.10681250
  0
VERTEX
  8
0
 62
7
 10
31.20150000
 20
13.07350000
  0
VERTEX
  8
0
 62
7
 10
31.19503125
 20
13.03943750
  0
VERTEX
  8
0
 62
7
 10
31.19100000
 20
13.00500000
  0
VERTEX
  8
0
 62
7
 10
31.18928125
 20
12.96378125
  0
VERTEX
  8
0
 62
7
 10
31.19150000
 20
12.92275000
  0
VERTEX
  8
0
 62
7
 10
31.19746875
 20
12.88209375
  0
VERTEX
  8
0
 62
7
 10
31.20700000
 20
12.84200000
  0
VERTEX
  8
0
 62
7
 10
31.22275000
 20
12.79687500
  0
VERTEX
  8
0
 62
7
 10
31.24300000
 20
12.75400000
  0
VERTEX
  8
0
 62
7
 10
31.28887500
 20
12.80537500
  0
VERTEX
  8
0
 62
7
 10
31.32800000
 20
12.86200000
  0
VERTEX
  8
0
 62
7
 10
31.34532813
 20
12.89314063
  0
VERTEX
  8
0
 62
7
 10
31.36087500
 20
12.92512500
  0
VERTEX
  8
0
 62
7
 10
31.37398438
 20
12.95804688
  0
VERTEX
  8
0
 62
7
 10
31.38400000
 20
12.99200000
  0
VERTEX
  8
0
 62
7
 10
31.39050000
 20
13.02650000
  0
VERTEX
  8
0
 62
7
 10
31.39400000
 20
13.06100000
  0
VERTEX
  8
0
 62
7
 10
31.41300000
 20
13.07100000
  0
VERTEX
  8
0
 62
7
 10
31.41618750
 20
13.04159375
  0
VERTEX
  8
0
 62
7
 10
31.41675000
 20
13.01200000
  0
VERTEX
  8
0
 62
7
 10
31.41468750
 20
12.98240625
  0
VERTEX
  8
0
 62
7
 10
31.41000000
 20
12.95300000
  0
VERTEX
  8
0
 62
7
 10
31.39575000
 20
12.90875000
  0
VERTEX
  8
0
 62
7
 10
31.37700000
 20
12.86600000
  0
VERTEX
  8
0
 62
7
 10
31.35945313
 20
12.83473438
  0
VERTEX
  8
0
 62
7
 10
31.33937500
 20
12.80487500
  0
VERTEX
  8
0
 62
7
 10
31.31835938
 20
12.77557813
  0
VERTEX
  8
0
 62
7
 10
31.29800000
 20
12.74600000
  0
VERTEX
  8
0
 62
7
 10
31.26121875
 20
12.68907813
  0
VERTEX
  8
0
 62
7
 10
31.22500000
 20
12.63187500
  0
VERTEX
  8
0
 62
7
 10
31.19028125
 20
12.57373438
  0
VERTEX
  8
0
 62
7
 10
31.15800000
 20
12.51400000
  0
VERTEX
  8
0
 62
7
 10
31.12543750
 20
12.44743750
  0
VERTEX
  8
0
 62
7
 10
31.09550000
 20
12.37975000
  0
VERTEX
  8
0
 62
7
 10
31.06856250
 20
12.31093750
  0
VERTEX
  8
0
 62
7
 10
31.04500000
 20
12.24100000
  0
VERTEX
  8
0
 62
7
 10
31.01600000
 20
12.13678125
  0
VERTEX
  8
0
 62
7
 10
30.99375000
 20
12.03125000
  0
VERTEX
  8
0
 62
7
 10
30.97862500
 20
11.92459375
  0
VERTEX
  8
0
 62
7
 10
30.97100000
 20
11.81700000
  0
VERTEX
  8
0
 62
7
 10
30.97018750
 20
11.73692188
  0
VERTEX
  8
0
 62
7
 10
30.97350000
 20
11.65712500
  0
VERTEX
  8
0
 62
7
 10
30.98056250
 20
11.57751563
  0
VERTEX
  8
0
 62
7
 10
30.99100000
 20
11.49800000
  0
VERTEX
  8
0
 62
7
 10
31.00329688
 20
11.42712500
  0
VERTEX
  8
0
 62
7
 10
31.01812500
 20
11.35700000
  0
VERTEX
  8
0
 62
7
 10
31.03614063
 20
11.28762500
  0
VERTEX
  8
0
 62
7
 10
31.05800000
 20
11.21900000
  0
VERTEX
  8
0
 62
7
 10
31.09187500
 20
11.13187500
  0
VERTEX
  8
0
 62
7
 10
31.13100000
 20
11.04700000
  0
VERTEX
  8
0
 62
7
 10
31.14346875
 20
11.01860938
  0
VERTEX
  8
0
 62
7
 10
31.15575000
 20
10.99012500
  0
VERTEX
  8
0
 62
7
 10
31.17065625
 20
10.96332813
  0
VERTEX
  8
0
 62
7
 10
31.19100000
 20
10.94000000
  0
VERTEX
  8
0
 62
7
 10
31.20821875
 20
10.92687500
  0
VERTEX
  8
0
 62
7
 10
31.22675000
 20
10.91600000
  0
VERTEX
  8
0
 62
7
 10
31.24640625
 20
10.90737500
  0
VERTEX
  8
0
 62
7
 10
31.26700000
 20
10.90100000
  0
VERTEX
  8
0
 62
7
 10
31.26891016
 20
10.92595898
  0
VERTEX
  8
0
 62
7
 10
31.27309375
 20
10.95048438
  0
VERTEX
  8
0
 62
7
 10
31.27948047
 20
10.97442383
  0
VERTEX
  8
0
 62
7
 10
31.28800000
 20
10.99762500
  0
VERTEX
  8
0
 62
7
 10
31.29858203
 20
11.01993555
  0
VERTEX
  8
0
 62
7
 10
31.31115625
 20
11.04120313
  0
VERTEX
  8
0
 62
7
 10
31.32565234
 20
11.06127539
  0
VERTEX
  8
0
 62
7
 10
31.34200000
 20
11.08000000
  0
VERTEX
  8
0
 62
7
 10
31.37937500
 20
11.11225000
  0
VERTEX
  8
0
 62
7
 10
31.42200000
 20
11.13700000
  0
VERTEX
  8
0
 62
7
 10
31.44312500
 20
11.14612500
  0
VERTEX
  8
0
 62
7
 10
31.46500000
 20
11.15300000
  0
VERTEX
  8
0
 62
7
 10
31.48450000
 20
11.15654688
  0
VERTEX
  8
0
 62
7
 10
31.50400000
 20
11.15812500
  0
VERTEX
  8
0
 62
7
 10
31.52350000
 20
11.15764063
  0
VERTEX
  8
0
 62
7
 10
31.54300000
 20
11.15500000
  0
VERTEX
  8
0
 62
7
 10
31.58012500
 20
11.14350000
  0
VERTEX
  8
0
 62
7
 10
31.61500000
 20
11.12600000
  0
VERTEX
  8
0
 62
7
 10
31.65375000
 20
11.10062500
  0
VERTEX
  8
0
 62
7
 10
31.68800000
 20
11.07000000
  0
VERTEX
  8
0
 62
7
 10
31.67700000
 20
11.05600000
  0
VERTEX
  8
0
 62
7
 10
31.64937500
 20
11.07250000
  0
VERTEX
  8
0
 62
7
 10
31.62100000
 20
11.08600000
  0
VERTEX
  8
0
 62
7
 10
31.60281250
 20
11.09396875
  0
VERTEX
  8
0
 62
7
 10
31.58425000
 20
11.10100000
  0
VERTEX
  8
0
 62
7
 10
31.56531250
 20
11.10653125
  0
VERTEX
  8
0
 62
7
 10
31.54600000
 20
11.11000000
  0
VERTEX
  8
0
 62
7
 10
31.51312500
 20
11.11050000
  0
VERTEX
  8
0
 62
7
 10
31.48100000
 20
11.10500000
  0
VERTEX
  8
0
 62
7
 10
31.46335938
 20
11.09928125
  0
VERTEX
  8
0
 62
7
 10
31.44637500
 20
11.09150000
  0
VERTEX
  8
0
 62
7
 10
31.42995313
 20
11.08221875
  0
VERTEX
  8
0
 62
7
 10
31.41400000
 20
11.07200000
  0
VERTEX
  8
0
 62
7
 10
31.39075000
 20
11.05462500
  0
VERTEX
  8
0
 62
7
 10
31.36900000
 20
11.03500000
  0
VERTEX
  8
0
 62
7
 10
31.38100000
 20
10.98100000
  0
VERTEX
  8
0
 62
7
 10
31.39181250
 20
10.91467188
  0
VERTEX
  8
0
 62
7
 10
31.39850000
 20
10.84787500
  0
VERTEX
  8
0
 62
7
 10
31.40293750
 20
10.78089063
  0
VERTEX
  8
0
 62
7
 10
31.40700000
 20
10.71400000
  0
VERTEX
  8
0
 62
7
 10
31.41400000
 20
10.52100000
  0
VERTEX
  8
0
 62
7
 10
31.41543359
 20
10.49091797
  0
VERTEX
  8
0
 62
7
 10
31.41628125
 20
10.46071875
  0
VERTEX
  8
0
 62
7
 10
31.41698828
 20
10.43047266
  0
VERTEX
  8
0
 62
7
 10
31.41800000
 20
10.40025000
  0
VERTEX
  8
0
 62
7
 10
31.41976172
 20
10.37012109
  0
VERTEX
  8
0
 62
7
 10
31.42271875
 20
10.34015625
  0
VERTEX
  8
0
 62
7
 10
31.42731641
 20
10.31042578
  0
VERTEX
  8
0
 62
7
 10
31.43400000
 20
10.28100000
  0
VERTEX
  8
0
 62
7
 10
31.44478125
 20
10.24271875
  0
VERTEX
  8
0
 62
7
 10
31.45725000
 20
10.20500000
  0
VERTEX
  8
0
 62
7
 10
31.47309375
 20
10.16878125
  0
VERTEX
  8
0
 62
7
 10
31.49400000
 20
10.13500000
  0
VERTEX
  8
0
 62
7
 10
31.52175000
 20
10.10275000
  0
VERTEX
  8
0
 62
7
 10
31.55400000
 20
10.07500000
  0
VERTEX
  8
0
 62
7
 10
31.58900000
 20
10.05237500
  0
VERTEX
  8
0
 62
7
 10
31.62700000
 20
10.03500000
  0
VERTEX
  8
0
 62
7
 10
31.62700000
 20
9.46100000
  0
VERTEX
  8
0
 62
7
 10
31.64000000
 20
9.44400000
  0
VERTEX
  8
0
 62
7
 10
31.69600000
 20
9.37400000
  0
VERTEX
  8
0
 62
7
 10
31.73200000
 20
9.33000000
  0
SEQEND
  0
POLYLINE
  8
0
 62
7
 66
1
 70
1
  0
VERTEX
  8
0
 62
7
 10
33.61400000
 20
8.06000000
  0
VERTEX
  8
0
 62
7
 10
33.97800000
 20
8.06000000
  0
VERTEX
  8
0
 62
7
 10
33.98912500
 20
8.18587500
  0
VERTEX
  8
0
 62
7
 10
34.00700000
 20
8.31100000
  0
VERTEX
  8
0
 62
7
 10
34.02537500
 20
8.40825000
  0
VERTEX
  8
0
 62
7
 10
34.04900000
 20
8.50400000
  0
VERTEX
  8
0
 62
7
 10
34.07950000
 20
8.59862500
  0
VERTEX
  8
0
 62
7
 10
34.11600000
 20
8.69100000
  0
VERTEX
  8
0
 62
7
 10
34.09625000
 20
8.70762500
  0
VERTEX
  8
0
 62
7
 10
34.07500000
 20
8.72200000
  0
VERTEX
  8
0
 62
7
 10
34.04212500
 20
8.73975000
  0
VERTEX
  8
0
 62
7
 10
34.00700000
 20
8.75300000
  0
VERTEX
  8
0
 62
7
 10
34.01612500
 20
8.73575000
  0
VERTEX
  8
0
 62
7
 10
34.02300000
 20
8.71700000
  0
VERTEX
  8
0
 62
7
 10
34.03062500
 20
8.68587500
  0
VERTEX
  8
0
 62
7
 10
34.03300000
 20
8.65400000
  0
VERTEX
  8
0
 62
7
 10
34.02300000
 20
8.64900000
  0
VERTEX
  8
0
 62
7
 10
34.00062500
 20
8.69087500
  0
VERTEX
  8
0
 62
7
 10
33.97600000
 20
8.73200000
  0
VERTEX
  8
0
 62
7
 10
33.92900000
 20
8.80000000
  0
VERTEX
  8
0
 62
7
 10
33.96104688
 20
8.79678125
  0
VERTEX
  8
0
 62
7
 10
33.99262500
 20
8.79150000
  0
VERTEX
  8
0
 62
7
 10
34.02364063
 20
8.78396875
  0
VERTEX
  8
0
 62
7
 10
34.05400000
 20
8.77400000
  0
VERTEX
  8
0
 62
7
 10
34.09312500
 20
8.75643750
  0
VERTEX
  8
0
 62
7
 10
34.13000000
 20
8.73475000
  0
VERTEX
  8
0
 62
7
 10
34.16537500
 20
8.71043750
  0
VERTEX
  8
0
 62
7
 10
34.20000000
 20
8.68500000
  0
VERTEX
  8
0
 62
7
 10
34.27012500
 20
8.62850000
  0
VERTEX
  8
0
 62
7
 10
34.33500000
 20
8.56600000
  0
VERTEX
  8
0
 62
7
 10
34.36907227
 20
8.66667969
  0
VERTEX
  8
0
 62
7
 10
34.39626563
 20
8.76900000
  0
VERTEX
  8
0
 62
7
 10
34.41654492
 20
8.87263281
  0
VERTEX
  8
0
 62
7
 10
34.42987500
 20
8.97725000
  0
VERTEX
  8
0
 62
7
 10
34.43622070
 20
9.08252344
  0
VERTEX
  8
0
 62
7
 10
34.43554688
 20
9.18812500
  0
VERTEX
  8
0
 62
7
 10
34.42781836
 20
9.29372656
  0
VERTEX
  8
0
 62
7
 10
34.41300000
 20
9.39900000
  0
VERTEX
  8
0
 62
7
 10
34.39642188
 20
9.47868750
  0
VERTEX
  8
0
 62
7
 10
34.37562500
 20
9.55725000
  0
VERTEX
  8
0
 62
7
 10
34.35126563
 20
9.63468750
  0
VERTEX
  8
0
 62
7
 10
34.32400000
 20
9.71100000
  0
VERTEX
  8
0
 62
7
 10
34.29951563
 20
9.77196875
  0
VERTEX
  8
0
 62
7
 10
34.27287500
 20
9.83200000
  0
VERTEX
  8
0
 62
7
 10
34.24454688
 20
9.89128125
  0
VERTEX
  8
0
 62
7
 10
34.21500000
 20
9.95000000
  0
VERTEX
  8
0
 62
7
 10
34.17982813
 20
10.01267188
  0
VERTEX
  8
0
 62
7
 10
34.14212500
 20
10.07412500
  0
VERTEX
  8
0
 62
7
 10
34.10460938
 20
10.13576563
  0
VERTEX
  8
0
 62
7
 10
34.07000000
 20
10.19900000
  0
VERTEX
  8
0
 62
7
 10
34.02325000
 20
10.29937500
  0
VERTEX
  8
0
 62
7
 10
33.98100000
 20
10.40200000
  0
VERTEX
  8
0
 62
7
 10
33.95275000
 20
10.47425000
  0
VERTEX
  8
0
 62
7
 10
33.92900000
 20
10.54800000
  0
VERTEX
  8
0
 62
7
 10
33.90800000
 20
10.66700000
  0
VERTEX
  8
0
 62
7
 10
33.89478125
 20
10.71321875
  0
VERTEX
  8
0
 62
7
 10
33.87875000
 20
10.75850000
  0
VERTEX
  8
0
 62
7
 10
33.85934375
 20
10.80228125
  0
VERTEX
  8
0
 62
7
 10
33.83600000
 20
10.84400000
  0
VERTEX
  8
0
 62
7
 10
33.82024219
 20
10.86769336
  0
VERTEX
  8
0
 62
7
 10
33.80293750
 20
10.89048438
  0
VERTEX
  8
0
 62
7
 10
33.78403906
 20
10.91193945
  0
VERTEX
  8
0
 62
7
 10
33.76350000
 20
10.93162500
  0
VERTEX
  8
0
 62
7
 10
33.74127344
 20
10.94910742
  0
VERTEX
  8
0
 62
7
 10
33.71731250
 20
10.96395313
  0
VERTEX
  8
0
 62
7
 10
33.69157031
 20
10.97572852
  0
VERTEX
  8
0
 62
7
 10
33.66400000
 20
10.98400000
  0
VERTEX
  8
0
 62
7
 10
33.59700000
 20
10.98900000
  0
VERTEX
  8
0
 62
7
 10
33.52400000
 20
11.00500000
  0
VERTEX
  8
0
 62
7
 10
33.50152539
 20
11.00654883
  0
VERTEX
  8
0
 62
7
 10
33.47920313
 20
11.00595313
  0
VERTEX
  8
0
 62
7
 10
33.45718555
 20
11.00322461
  0
VERTEX
  8
0
 62
7
 10
33.43562500
 20
10.99837500
  0
VERTEX
  8
0
 62
7
 10
33.41467383
 20
10.99141602
  0
VERTEX
  8
0
 62
7
 10
33.39448438
 20
10.98235938
  0
VERTEX
  8
0
 62
7
 10
33.37520898
 20
10.97121680
  0
VERTEX
  8
0
 62
7
 10
33.35700000
 20
10.95800000
  0
VERTEX
  8
0
 62
7
 10
33.33314063
 20
10.93556250
  0
VERTEX
  8
0
 62
7
 10
33.31237500
 20
10.91050000
  0
VERTEX
  8
0
 62
7
 10
33.29442188
 20
10.88318750
  0
VERTEX
  8
0
 62
7
 10
33.27900000
 20
10.85400000
  0
VERTEX
  8
0
 62
7
 10
33.26557813
 20
10.82031250
  0
VERTEX
  8
0
 62
7
 10
33.25637500
 20
10.78550000
  0
VERTEX
  8
0
 62
7
 10
33.25073438
 20
10.74993750
  0
VERTEX
  8
0
 62
7
 10
33.24800000
 20
10.71400000
  0
VERTEX
  8
0
 62
7
 10
33.24798438
 20
10.66996875
  0
VERTEX
  8
0
 62
7
 10
33.25237500
 20
10.62650000
  0
VERTEX
  8
0
 62
7
 10
33.26107813
 20
10.58378125
  0
VERTEX
  8
0
 62
7
 10
33.27400000
 20
10.54200000
  0
VERTEX
  8
0
 62
7
 10
33.28900000
 20
10.50585938
  0
VERTEX
  8
0
 62
7
 10
33.30700000
 20
10.47112500
  0
VERTEX
  8
0
 62
7
 10
33.32800000
 20
10.43807813
  0
VERTEX
  8
0
 62
7
 10
33.35200000
 20
10.40700000
  0
VERTEX
  8
0
 62
7
 10
33.37901563
 20
10.45826563
  0
VERTEX
  8
0
 62
7
 10
33.39937500
 20
10.51262500
  0
VERTEX
  8
0
 62
7
 10
33.41429688
 20
10.56942188
  0
VERTEX
  8
0
 62
7
 10
33.42500000
 20
10.62800000
  0
VERTEX
  8
0
 62
7
 10
33.42728125
 20
10.65823438
  0
VERTEX
  8
0
 62
7
 10
33.42525000
 20
10.68762500
  0
VERTEX
  8
0
 62
7
 10
33.41909375
 20
10.71645313
  0
VERTEX
  8
0
 62
7
 10
33.40900000
 20
10.74500000
  0
VERTEX
  8
0
 62
7
 10
33.39187500
 20
10.77250000
  0
VERTEX
  8
0
 62
7
 10
33.36800000
 20
10.79700000
  0
VERTEX
  8
0
 62
7
 10
33.37800000
 20
10.82300000
  0
VERTEX
  8
0
 62
7
 10
33.39357813
 20
10.81460938
  0
VERTEX
  8
0
 62
7
 10
33.40812500
 20
10.80387500
  0
VERTEX
  8
0
 62
7
 10
33.42060938
 20
10.79220313
  0
VERTEX
  8
0
 62
7
 10
33.43000000
 20
10.78100000
  0
VERTEX
  8
0
 62
7
 10
33.44331055
 20
10.75334570
  0
VERTEX
  8
0
 62
7
 10
33.45192188
 20
10.71595313
  0
VERTEX
  8
0
 62
7
 10
33.45497852
 20
10.66967773
  0
VERTEX
  8
0
 62
7
 10
33.45162500
 20
10.61537500
  0
VERTEX
  8
0
 62
7
 10
33.44100586
 20
10.55390039
  0
VERTEX
  8
0
 62
7
 10
33.42226563
 20
10.48610938
  0
VERTEX
  8
0
 62
7
 10
33.39454883
 20
10.41285742
  0
VERTEX
  8
0
 62
7
 10
33.35700000
 20
10.33500000
  0
VERTEX
  8
0
 62
7
 10
33.32582813
 20
10.28217188
  0
VERTEX
  8
0
 62
7
 10
33.29662500
 20
10.23937500
  0
VERTEX
  8
0
 62
7
 10
33.26910938
 20
10.20014063
  0
VERTEX
  8
0
 62
7
 10
33.24300000
 20
10.15800000
  0
VERTEX
  8
0
 62
7
 10
33.19471875
 20
10.06578125
  0
VERTEX
  8
0
 62
7
 10
33.15225000
 20
9.97075000
  0
VERTEX
  8
0
 62
7
 10
33.11615625
 20
9.87309375
  0
VERTEX
  8
0
 62
7
 10
33.08700000
 20
9.77300000
  0
VERTEX
  8
0
 62
7
 10
33.06545313
 20
9.67421875
  0
VERTEX
  8
0
 62
7
 10
33.05037500
 20
9.57450000
  0
VERTEX
  8
0
 62
7
 10
33.04185938
 20
9.47403125
  0
VERTEX
  8
0
 62
7
 10
33.04000000
 20
9.37300000
  0
VERTEX
  8
0
 62
7
 10
33.04318750
 20
9.28756250
  0
VERTEX
  8
0
 62
7
 10
33.05050000
 20
9.20250000
  0
VERTEX
  8
0
 62
7
 10
33.06306250
 20
9.11818750
  0
VERTEX
  8
0
 62
7
 10
33.08200000
 20
9.03500000
  0
VERTEX
  8
0
 62
7
 10
33.09396289
 20
8.99566211
  0
VERTEX
  8
0
 62
7
 10
33.10795313
 20
8.95710938
  0
VERTEX
  8
0
 62
7
 10
33.12374805
 20
8.91928320
  0
VERTEX
  8
0
 62
7
 10
33.14112500
 20
8.88212500
  0
VERTEX
  8
0
 62
7
 10
33.15986133
 20
8.84557617
  0
VERTEX
  8
0
 62
7
 10
33.17973438
 20
8.80957813
  0
VERTEX
  8
0
 62
7
 10
33.20052148
 20
8.77407227
  0
VERTEX
  8
0
 62
7
 10
33.22200000
 20
8.73900000
  0
VERTEX
  8
0
 62
7
 10
33.24162500
 20
8.70787500
  0
VERTEX
  8
0
 62
7
 10
33.25900000
 20
8.67600000
  0
VERTEX
  8
0
 62
7
 10
33.27387500
 20
8.63525000
  0
VERTEX
  8
0
 62
7
 10
33.28500000
 20
8.59300000
  0
VERTEX
  8
0
 62
7
 10
33.28875000
 20
8.57095313
  0
VERTEX
  8
0
 62
7
 10
33.29100000
 20
8.54862500
  0
VERTEX
  8
0
 62
7
 10
33.29400000
 20
8.52648438
  0
VERTEX
  8
0
 62
7
 10
33.30000000
 20
8.50500000
  0
VERTEX
  8
0
 62
7
 10
33.31309375
 20
8.47765625
  0
VERTEX
  8
0
 62
7
 10
33.32975000
 20
8.45275000
  0
VERTEX
  8
0
 62
7
 10
33.34978125
 20
8.43046875
  0
VERTEX
  8
0
 62
7
 10
33.37300000
 20
8.41100000
  0
VERTEX
  8
0
 62
7
 10
33.38162500
 20
8.45090625
  0
VERTEX
  8
0
 62
7
 10
33.39400000
 20
8.48950000
  0
VERTEX
  8
0
 62
7
 10
33.41012500
 20
8.52659375
  0
VERTEX
  8
0
 62
7
 10
33.43000000
 20
8.56200000
  0
VERTEX
  8
0
 62
7
 10
33.45159375
 20
8.59415625
  0
VERTEX
  8
0
 62
7
 10
33.47600000
 20
8.62425000
  0
VERTEX
  8
0
 62
7
 10
33.50340625
 20
8.65171875
  0
VERTEX
  8
0
 62
7
 10
33.53400000
 20
8.67600000
  0
VERTEX
  8
0
 62
7
 10
33.56990625
 20
8.69757813
  0
VERTEX
  8
0
 62
7
 10
33.60825000
 20
8.71437500
  0
VERTEX
  8
0
 62
7
 10
33.64846875
 20
8.72648438
  0
VERTEX
  8
0
 62
7
 10
33.69000000
 20
8.73400000
  0
VERTEX
  8
0
 62
7
 10
33.72551563
 20
8.73762500
  0
VERTEX
  8
0
 62
7
 10
33.76112500
 20
8.73825000
  0
VERTEX
  8
0
 62
7
 10
33.79617188
 20
8.73400000
  0
VERTEX
  8
0
 62
7
 10
33.83000000
 20
8.72300000
  0
VERTEX
  8
0
 62
7
 10
33.85451563
 20
8.70934375
  0
VERTEX
  8
0
 62
7
 10
33.87687500
 20
8.69250000
  0
VERTEX
  8
0
 62
7
 10
33.89679688
 20
8.67265625
  0
VERTEX
  8
0
 62
7
 10
33.91400000
 20
8.65000000
  0
VERTEX
  8
0
 62
7
 10
33.90300000
 20
8.64000000
  0
VERTEX
  8
0
 62
7
 10
33.87517188
 20
8.66100000
  0
VERTEX
  8
0
 62
7
 10
33.84462500
 20
8.67750000
  0
VERTEX
  8
0
 62
7
 10
33.81201563
 20
8.68950000
  0
VERTEX
  8
0
 62
7
 10
33.77800000
 20
8.69700000
  0
VERTEX
  8
0
 62
7
 10
33.75475000
 20
8.69889063
  0
VERTEX
  8
0
 62
7
 10
33.73150000
 20
8.69862500
  0
VERTEX
  8
0
 62
7
 10
33.70825000
 20
8.69629688
  0
VERTEX
  8
0
 62
7
 10
33.68500000
 20
8.69200000
  0
VERTEX
  8
0
 62
7
 10
33.65362500
 20
8.68300000
  0
VERTEX
  8
0
 62
7
 10
33.62300000
 20
8.67100000
  0
VERTEX
  8
0
 62
7
 10
33.58537500
 20
8.64975000
  0
VERTEX
  8
0
 62
7
 10
33.55000000
 20
8.62400000
  0
VERTEX
  8
0
 62
7
 10
33.51200000
 20
8.59237500
  0
VERTEX
  8
0
 62
7
 10
33.47700000
 20
8.55700000
  0
VERTEX
  8
0
 62
7
 10
33.49895313
 20
8.50770313
  0
VERTEX
  8
0
 62
7
 10
33.51837500
 20
8.45737500
  0
VERTEX
  8
0
 62
7
 10
33.53535938
 20
8.40610938
  0
VERTEX
  8
0
 62
7
 10
33.55000000
 20
8.35400000
  0
VERTEX
  8
0
 62
7
 10
33.56412500
 20
8.28437500
  0
VERTEX
  8
0
 62
7
 10
33.57600000
 20
8.21400000
  0
VERTEX
  8
0
 62
7
 10
33.59100000
 20
8.13100000
  0
VERTEX
  8
0
 62
7
 10
33.60100000
 20
8.09512500
  0
VERTEX
  8
0
 62
7
 10
33.61400000
 20
8.06000000
  0
SEQEND
  0
POLYLINE
  8
0
 62
7
 66
1
 70
1
  0
VERTEX
  8
0
 62
7
 10
33.16300000
 20
4.00000000
  0
VERTEX
  8
0
 62
7
 10
33.16300000
 20
4.01300000
  0
VERTEX
  8
0
 62
7
 10
33.16125000
 20
4.05100000
  0
VERTEX
  8
0
 62
7
 10
33.15575000
 20
4.08675000
  0
VERTEX
  8
0
 62
7
 10
33.14612500
 20
4.11987500
  0
VERTEX
  8
0
 62
7
 10
33.13200000
 20
4.15000000
  0
VERTEX
  8
0
 62
7
 10
33.12400000
 20
4.16200000
  0
VERTEX
  8
0
 62
7
 10
33.11237500
 20
4.17812500
  0
VERTEX
  8
0
 62
7
 10
33.10000000
 20
4.20100000
  0
VERTEX
  8
0
 62
7
 10
33.09096875
 20
4.22550000
  0
VERTEX
  8
0
 62
7
 10
33.08475000
 20
4.25075000
  0
VERTEX
  8
0
 62
7
 10
33.08115625
 20
4.27637500
  0
VERTEX
  8
0
 62
7
 10
33.08000000
 20
4.30200000
  0
VERTEX
  8
0
 62
7
 10
33.08100000
 20
4.33400000
  0
VERTEX
  8
0
 62
7
 10
33.08479883
 20
4.35064844
  0
VERTEX
  8
0
 62
7
 10
33.09264063
 20
4.36443750
  0
VERTEX
  8
0
 62
7
 10
33.10369336
 20
4.37513281
  0
VERTEX
  8
0
 62
7
 10
33.11712500
 20
4.38250000
  0
VERTEX
  8
0
 62
7
 10
33.13210352
 20
4.38630469
  0
VERTEX
  8
0
 62
7
 10
33.14779688
 20
4.38631250
  0
VERTEX
  8
0
 62
7
 10
33.16337305
 20
4.38228906
  0
VERTEX
  8
0
 62
7
 10
33.17800000
 20
4.37400000
  0
VERTEX
  8
0
 62
7
 10
33.24487500
 20
4.31700000
  0
VERTEX
  8
0
 62
7
 10
33.30500000
 20
4.25400000
  0
VERTEX
  8
0
 62
7
 10
33.33714063
 20
4.21359375
  0
VERTEX
  8
0
 62
7
 10
33.36637500
 20
4.17225000
  0
VERTEX
  8
0
 62
7
 10
33.39317188
 20
4.13053125
  0
VERTEX
  8
0
 62
7
 10
33.41800000
 20
4.08900000
  0
VERTEX
  8
0
 62
7
 10
33.44312500
 20
4.04487500
  0
VERTEX
  8
0
 62
7
 10
33.46600000
 20
4.00000000
  0
VERTEX
  8
0
 62
7
 10
38.00000000
 20
4.00000000
  0
VERTEX
  8
0
 62
7
 10
38.00000000
 20
8.00000000
  0
VERTEX
  8
0
 62
7
 10
27.50000000
 20
8.00000000
  0
VERTEX
  8
0
 62
7
 10
27.50000000
 20
4.00000000
  0
VERTEX
  8
0
 62
7
 10
31.52500000
 20
4.00000000
  0
VERTEX
  8
0
 62
7
 10
31.54550000
 20
4.03737500
  0
VERTEX
  8
0
 62
7
 10
31.56900000
 20
4.07400000
  0
VERTEX
  8
0
 62
7
 10
31.59129297
 20
4.10398242
  0
VERTEX
  8
0
 62
7
 10
31.61534375
 20
4.13235938
  0
VERTEX
  8
0
 62
7
 10
31.64103516
 20
4.15902539
  0
VERTEX
  8
0
 62
7
 10
31.66825000
 20
4.18387500
  0
VERTEX
  8
0
 62
7
 10
31.69687109
 20
4.20680273
  0
VERTEX
  8
0
 62
7
 10
31.72678125
 20
4.22770313
  0
VERTEX
  8
0
 62
7
 10
31.75786328
 20
4.24647070
  0
VERTEX
  8
0
 62
7
 10
31.79000000
 20
4.26300000
  0
VERTEX
  8
0
 62
7
 10
31.80873828
 20
4.26863086
  0
VERTEX
  8
0
 62
7
 10
31.82684375
 20
4.26810938
  0
VERTEX
  8
0
 62
7
 10
31.84340234
 20
4.26231445
  0
VERTEX
  8
0
 62
7
 10
31.85750000
 20
4.25212500
  0
VERTEX
  8
0
 62
7
 10
31.86822266
 20
4.23841992
  0
VERTEX
  8
0
 62
7
 10
31.87465625
 20
4.22207813
  0
VERTEX
  8
0
 62
7
 10
31.87588672
 20
4.20397852
  0
VERTEX
  8
0
 62
7
 10
31.87100000
 20
4.18500000
  0
VERTEX
  8
0
 62
7
 10
31.85621875
 20
4.14757813
  0
VERTEX
  8
0
 62
7
 10
31.84350000
 20
4.10912500
  0
VERTEX
  8
0
 62
7
 10
31.83303125
 20
4.07010938
  0
VERTEX
  8
0
 62
7
 10
31.82500000
 20
4.03100000
  0
VERTEX
  8
0
 62
7
 10
31.82000000
 20
4.00000000
  0
VERTEX
  8
0
 62
7
 10
33.16300000
 20
4.00000000
  0
SEQEND
  0
POLYLINE
  8
0
 62
7
 66
1
 70
1
  0
VERTEX
  8
0
 62
7
 10
33.62000000
 20
9.12900000
  0
VERTEX
  8
0
 62
7
 10
33.62300000
 20
9.12600000
  0
VERTEX
  8
0
 62
7
 10
33.65400000
 20
9.10462500
  0
VERTEX
  8
0
 62
7
 10
33.69400000
 20
9.08400000
  0
VERTEX
  8
0
 62
7
 10
33.73000000
 20
9.07100000
  0
VERTEX
  8
0
 62
7
 10
33.78300000
 20
9.05100000
  0
VERTEX
  8
0
 62
7
 10
33.80800000
 20
9.03800000
  0
VERTEX
  8
0
 62
7
 10
33.82076563
 20
9.13750000
  0
VERTEX
  8
0
 62
7
 10
33.82912500
 20
9.23775000
  0
VERTEX
  8
0
 62
7
 10
33.83317188
 20
9.33837500
  0
VERTEX
  8
0
 62
7
 10
33.83300000
 20
9.43900000
  0
VERTEX
  8
0
 62
7
 10
33.83241992
 20
9.47466211
  0
VERTEX
  8
0
 62
7
 10
33.83192188
 20
9.51035938
  0
VERTEX
  8
0
 62
7
 10
33.83111914
 20
9.54603320
  0
VERTEX
  8
0
 62
7
 10
33.82962500
 20
9.58162500
  0
VERTEX
  8
0
 62
7
 10
33.82705273
 20
9.61707617
  0
VERTEX
  8
0
 62
7
 10
33.82301563
 20
9.65232813
  0
VERTEX
  8
0
 62
7
 10
33.81712695
 20
9.68732227
  0
VERTEX
  8
0
 62
7
 10
33.80900000
 20
9.72200000
  0
VERTEX
  8
0
 62
7
 10
33.80039063
 20
9.75520313
  0
VERTEX
  8
0
 62
7
 10
33.79112500
 20
9.78812500
  0
VERTEX
  8
0
 62
7
 10
33.77904688
 20
9.81973437
  0
VERTEX
  8
0
 62
7
 10
33.76200000
 20
9.84900000
  0
VERTEX
  8
0
 62
7
 10
33.75614648
 20
9.85751758
  0
VERTEX
  8
0
 62
7
 10
33.75042188
 20
9.86632813
  0
VERTEX
  8
0
 62
7
 10
33.74458008
 20
9.87506836
  0
VERTEX
  8
0
 62
7
 10
33.73837500
 20
9.88337500
  0
VERTEX
  8
0
 62
7
 10
33.73156055
 20
9.89088477
  0
VERTEX
  8
0
 62
7
 10
33.72389063
 20
9.89723438
  0
VERTEX
  8
0
 62
7
 10
33.71511914
 20
9.90206055
  0
VERTEX
  8
0
 62
7
 10
33.70500000
 20
9.90500000
  0
VERTEX
  8
0
 62
7
 10
33.69020313
 20
9.90604687
  0
VERTEX
  8
0
 62
7
 10
33.67587500
 20
9.90362500
  0
VERTEX
  8
0
 62
7
 10
33.66210938
 20
9.89839062
  0
VERTEX
  8
0
 62
7
 10
33.64900000
 20
9.89100000
  0
VERTEX
  8
0
 62
7
 10
33.63560938
 20
9.87865625
  0
VERTEX
  8
0
 62
7
 10
33.62587500
 20
9.86350000
  0
VERTEX
  8
0
 62
7
 10
33.61820313
 20
9.84684375
  0
VERTEX
  8
0
 62
7
 10
33.61100000
 20
9.83000000
  0
VERTEX
  8
0
 62
7
 10
33.60009375
 20
9.79826563
  0
VERTEX
  8
0
 62
7
 10
33.59425000
 20
9.76512500
  0
VERTEX
  8
0
 62
7
 10
33.59103125
 20
9.73142188
  0
VERTEX
  8
0
 62
7
 10
33.58800000
 20
9.69800000
  0
VERTEX
  8
0
 62
7
 10
33.58257813
 20
9.62059375
  0
VERTEX
  8
0
 62
7
 10
33.58287500
 20
9.54300000
  0
VERTEX
  8
0
 62
7
 10
33.58673438
 20
9.46540625
  0
VERTEX
  8
0
 62
7
 10
33.59200000
 20
9.38800000
  0
VERTEX
  8
0
 62
7
 10
33.60300000
 20
9.25812500
  0
VERTEX
  8
0
 62
7
 10
33.62000000
 20
9.12900000
  0
SEQEND
  0
POLYLINE
  8
0
 62
7
 66
1
 70
1
  0
VERTEX
  8
0
 62
7
 10
33.88900000
 20
8.88400000
  0
VERTEX
  8
0
 62
7
 10
33.86362500
 20
8.91925000
  0
VERTEX
  8
0
 62
7
 10
33.83300000
 20
8.95000000
  0
VERTEX
  8
0
 62
7
 10
33.79650000
 20
8.97612500
  0
VERTEX
  8
0
 62
7
 10
33.75700000
 20
8.99700000
  0
VERTEX
  8
0
 62
7
 10
33.66800000
 20
9.03000000
  0
VERTEX
  8
0
 62
7
 10
33.64557813
 20
9.04079688
  0
VERTEX
  8
0
 62
7
 10
33.62362500
 20
9.05262500
  0
VERTEX
  8
0
 62
7
 10
33.60260938
 20
9.06614062
  0
VERTEX
  8
0
 62
7
 10
33.58300000
 20
9.08200000
  0
VERTEX
  8
0
 62
7
 10
33.56242188
 20
9.10379688
  0
VERTEX
  8
0
 62
7
 10
33.54512500
 20
9.12812500
  0
VERTEX
  8
0
 62
7
 10
33.53026563
 20
9.15414063
  0
VERTEX
  8
0
 62
7
 10
33.51700000
 20
9.18100000
  0
VERTEX
  8
0
 62
7
 10
33.50045313
 20
9.22400000
  0
VERTEX
  8
0
 62
7
 10
33.48962500
 20
9.26850000
  0
VERTEX
  8
0
 62
7
 10
33.48198438
 20
9.31375000
  0
VERTEX
  8
0
 62
7
 10
33.47500000
 20
9.35900000
  0
VERTEX
  8
0
 62
7
 10
33.46592188
 20
9.42351563
  0
VERTEX
  8
0
 62
7
 10
33.46012500
 20
9.48812500
  0
VERTEX
  8
0
 62
7
 10
33.45826563
 20
9.55292187
  0
VERTEX
  8
0
 62
7
 10
33.46100000
 20
9.61800000
  0
VERTEX
  8
0
 62
7
 10
33.46334766
 20
9.64694727
  0
VERTEX
  8
0
 62
7
 10
33.46609375
 20
9.67595312
  0
VERTEX
  8
0
 62
7
 10
33.46954297
 20
9.70488867
  0
VERTEX
  8
0
 62
7
 10
33.47400000
 20
9.73362500
  0
VERTEX
  8
0
 62
7
 10
33.47976953
 20
9.76203320
  0
VERTEX
  8
0
 62
7
 10
33.48715625
 20
9.78998438
  0
VERTEX
  8
0
 62
7
 10
33.49646484
 20
9.81734961
  0
VERTEX
  8
0
 62
7
 10
33.50800000
 20
9.84400000
  0
VERTEX
  8
0
 62
7
 10
33.51681250
 20
9.86282813
  0
VERTEX
  8
0
 62
7
 10
33.52600000
 20
9.88137500
  0
VERTEX
  8
0
 62
7
 10
33.53668750
 20
9.89898438
  0
VERTEX
  8
0
 62
7
 10
33.55000000
 20
9.91500000
  0
VERTEX
  8
0
 62
7
 10
33.56650000
 20
9.92971875
  0
VERTEX
  8
0
 62
7
 10
33.58450000
 20
9.94200000
  0
VERTEX
  8
0
 62
7
 10
33.60400000
 20
9.95128125
  0
VERTEX
  8
0
 62
7
 10
33.62500000
 20
9.95700000
  0
VERTEX
  8
0
 62
7
 10
33.65250000
 20
9.95782813
  0
VERTEX
  8
0
 62
7
 10
33.67925000
 20
9.95237500
  0
VERTEX
  8
0
 62
7
 10
33.70487500
 20
9.94223438
  0
VERTEX
  8
0
 62
7
 10
33.72900000
 20
9.92900000
  0
VERTEX
  8
0
 62
7
 10
33.75781250
 20
9.90684375
  0
VERTEX
  8
0
 62
7
 10
33.78100000
 20
9.87925000
  0
VERTEX
  8
0
 62
7
 10
33.80043750
 20
9.84828125
  0
VERTEX
  8
0
 62
7
 10
33.81800000
 20
9.81600000
  0
VERTEX
  8
0
 62
7
 10
33.83562500
 20
9.77567188
  0
VERTEX
  8
0
 62
7
 10
33.84800000
 20
9.73337500
  0
VERTEX
  8
0
 62
7
 10
33.85737500
 20
9.69014063
  0
VERTEX
  8
0
 62
7
 10
33.86600000
 20
9.64700000
  0
VERTEX
  8
0
 62
7
 10
33.87859375
 20
9.57092188
  0
VERTEX
  8
0
 62
7
 10
33.88575000
 20
9.49437500
  0
VERTEX
  8
0
 62
7
 10
33.88878125
 20
9.41764063
  0
VERTEX
  8
0
 62
7
 10
33.88900000
 20
9.34100000
  0
VERTEX
  8
0
 62
7
 10
33.88737500
 20
9.27351563
  0
VERTEX
  8
0
 62
7
 10
33.88350000
 20
9.20612500
  0
VERTEX
  8
0
 62
7
 10
33.87662500
 20
9.13892187
  0
VERTEX
  8
0
 62
7
 10
33.86600000
 20
9.07200000
  0
VERTEX
  8
0
 62
7
 10
33.85100000
 20
9.00200000
  0
VERTEX
  8
0
 62
7
 10
33.86662500
 20
8.98125000
  0
VERTEX
  8
0
 62
7
 10
33.88000000
 20
8.95900000
  0
VERTEX
  8
0
 62
7
 10
33.89412500
 20
8.92675000
  0
VERTEX
  8
0
 62
7
 10
33.90300000
 20
8.89300000
  0
VERTEX
  8
0
 62
7
 10
33.88900000
 20
8.88400000
  0
SEQEND
  0
POLYLINE
  8
0
 62
7
 66
1
  0
VERTEX
  8
0
 62
7
 10
33.49200000
 20
11.96800000
  0
VERTEX
  8
0
 62
7
 10
33.52368750
 20
11.91625000
  0
VERTEX
  8
0
 62
7
 10
33.55275000
 20
11.86300000
  0
VERTEX
  8
0
 62
7
 10
33.57918750
 20
11.80825000
  0
VERTEX
  8
0
 62
7
 10
33.60300000
 20
11.75200000
  0
VERTEX
  8
0
 62
7
 10
33.62132813
 20
11.70209375
  0
VERTEX
  8
0
 62
7
 10
33.63731250
 20
11.65143750
  0
VERTEX
  8
0
 62
7
 10
33.65095313
 20
11.60012500
  0
VERTEX
  8
0
 62
7
 10
33.66225000
 20
11.54825000
  0
VERTEX
  8
0
 62
7
 10
33.67120313
 20
11.49590625
  0
VERTEX
  8
0
 62
7
 10
33.67781250
 20
11.44318750
  0
VERTEX
  8
0
 62
7
 10
33.68207813
 20
11.39018750
  0
VERTEX
  8
0
 62
7
 10
33.68400000
 20
11.33700000
  0
VERTEX
  8
0
 62
7
 10
33.71731250
 20
11.38853125
  0
VERTEX
  8
0
 62
7
 10
33.75400000
 20
11.43800000
  0
VERTEX
  8
0
 62
7
 10
33.79368750
 20
11.48521875
  0
VERTEX
  8
0
 62
7
 10
33.83600000
 20
11.53000000
  0
VERTEX
  8
0
 62
7
 10
33.87086523
 20
11.56285352
  0
VERTEX
  8
0
 62
7
 10
33.90717188
 20
11.59389063
  0
VERTEX
  8
0
 62
7
 10
33.94486133
 20
11.62307617
  0
VERTEX
  8
0
 62
7
 10
33.98387500
 20
11.65037500
  0
VERTEX
  8
0
 62
7
 10
34.02415430
 20
11.67575195
  0
VERTEX
  8
0
 62
7
 10
34.06564063
 20
11.69917188
  0
VERTEX
  8
0
 62
7
 10
34.10827539
 20
11.72059961
  0
VERTEX
  8
0
 62
7
 10
34.15200000
 20
11.74000000
  0
SEQEND
  0
POLYLINE
  8
0
 62
7
 66
1
  0
VERTEX
  8
0
 62
7
 10
33.69000000
 20
11.36100000
  0
VERTEX
  8
0
 62
7
 10
33.71725000
 20
11.54237500
  0
VERTEX
  8
0
 62
7
 10
33.74900000
 20
11.72300000
  0
VERTEX
  8
0
 62
7
 10
33.77135938
 20
11.83590625
  0
VERTEX
  8
0
 62
7
 10
33.79587500
 20
11.94825000
  0
VERTEX
  8
0
 62
7
 10
33.82170313
 20
12.06021875
  0
VERTEX
  8
0
 62
7
 10
33.84800000
 20
12.17200000
  0
VERTEX
  8
0
 62
7
 10
33.88703125
 20
12.32587500
  0
VERTEX
  8
0
 62
7
 10
33.92850000
 20
12.47900000
  0
VERTEX
  8
0
 62
7
 10
33.96921875
 20
12.63212500
  0
VERTEX
  8
0
 62
7
 10
34.00600000
 20
12.78600000
  0
VERTEX
  8
0
 62
7
 10
34.05625000
 20
13.03025000
  0
VERTEX
  8
0
 62
7
 10
34.09900000
 20
13.27600000
  0
SEQEND
  0
POLYLINE
  8
0
 62
7
 66
1
 70
1
  0
VERTEX
  8
0
 62
7
 10
32.39300000
 20
8.06000000
  0
VERTEX
  8
0
 62
7
 10
32.50800000
 20
8.06000000
  0
VERTEX
  8
0
 62
7
 10
32.50800000
 20
9.18700000
  0
VERTEX
  8
0
 62
7
 10
32.53245313
 20
9.15364063
  0
VERTEX
  8
0
 62
7
 10
32.55662500
 20
9.12262500
  0
VERTEX
  8
0
 62
7
 10
32.58323438
 20
9.09404688
  0
VERTEX
  8
0
 62
7
 10
32.61500000
 20
9.06800000
  0
VERTEX
  8
0
 62
7
 10
32.64509375
 20
9.04889063
  0
VERTEX
  8
0
 62
7
 10
32.67575000
 20
9.03287500
  0
VERTEX
  8
0
 62
7
 10
32.70753125
 20
9.01892188
  0
VERTEX
  8
0
 62
7
 10
32.74100000
 20
9.00600000
  0
VERTEX
  8
0
 62
7
 10
32.77856250
 20
8.99251562
  0
VERTEX
  8
0
 62
7
 10
32.81650000
 20
8.98062500
  0
VERTEX
  8
0
 62
7
 10
32.85518750
 20
8.97267188
  0
VERTEX
  8
0
 62
7
 10
32.89500000
 20
8.97100000
  0
VERTEX
  8
0
 62
7
 10
32.93859375
 20
8.97642188
  0
VERTEX
  8
0
 62
7
 10
32.98050000
 20
8.98812500
  0
VERTEX
  8
0
 62
7
 10
33.02015625
 20
9.00601563
  0
VERTEX
  8
0
 62
7
 10
33.05700000
 20
9.03000000
  0
VERTEX
  8
0
 62
7
 10
33.04085938
 20
9.06562500
  0
VERTEX
  8
0
 62
7
 10
33.02687500
 20
9.10200000
  0
VERTEX
  8
0
 62
7
 10
33.01495313
 20
9.13912500
  0
VERTEX
  8
0
 62
7
 10
33.00500000
 20
9.17700000
  0
VERTEX
  8
0
 62
7
 10
32.99550000
 20
9.22962500
  0
VERTEX
  8
0
 62
7
 10
32.98900000
 20
9.28300000
  0
VERTEX
  8
0
 62
7
 10
32.98509375
 20
9.32950000
  0
VERTEX
  8
0
 62
7
 10
32.98325000
 20
9.37600000
  0
VERTEX
  8
0
 62
7
 10
32.98253125
 20
9.42250000
  0
VERTEX
  8
0
 62
7
 10
32.98200000
 20
9.46900000
  0
VERTEX
  8
0
 62
7
 10
32.98200000
 20
9.71700000
  0
VERTEX
  8
0
 62
7
 10
32.98462500
 20
9.86500000
  0
VERTEX
  8
0
 62
7
 10
32.98500000
 20
10.01300000
  0
VERTEX
  8
0
 62
7
 10
32.97812500
 20
10.17887500
  0
VERTEX
  8
0
 62
7
 10
32.96600000
 20
10.34400000
  0
VERTEX
  8
0
 62
7
 10
32.95307813
 20
10.48106250
  0
VERTEX
  8
0
 62
7
 10
32.93687500
 20
10.61775000
  0
VERTEX
  8
0
 62
7
 10
32.91748438
 20
10.75406250
  0
VERTEX
  8
0
 62
7
 10
32.89500000
 20
10.89000000
  0
VERTEX
  8
0
 62
7
 10
32.88210938
 20
10.96346875
  0
VERTEX
  8
0
 62
7
 10
32.86837500
 20
11.03675000
  0
VERTEX
  8
0
 62
7
 10
32.85295313
 20
11.10965625
  0
VERTEX
  8
0
 62
7
 10
32.83500000
 20
11.18200000
  0
VERTEX
  8
0
 62
7
 10
32.79375000
 20
11.31562500
  0
VERTEX
  8
0
 62
7
 10
32.74500000
 20
11.44700000
  0
VERTEX
  8
0
 62
7
 10
32.71734375
 20
11.51290625
  0
VERTEX
  8
0
 62
7
 10
32.68800000
 20
11.57825000
  0
VERTEX
  8
0
 62
7
 10
32.65640625
 20
11.64246875
  0
VERTEX
  8
0
 62
7
 10
32.62200000
 20
11.70500000
  0
VERTEX
  8
0
 62
7
 10
32.55435938
 20
11.81048438
  0
VERTEX
  8
0
 62
7
 10
32.47912500
 20
11.91062500
  0
VERTEX
  8
0
 62
7
 10
32.39657813
 20
12.00495313
  0
VERTEX
  8
0
 62
7
 10
32.30700000
 20
12.09300000
  0
VERTEX
  8
0
 62
7
 10
32.33625000
 20
11.99162500
  0
VERTEX
  8
0
 62
7
 10
32.35800000
 20
11.88800000
  0
VERTEX
  8
0
 62
7
 10
32.36660938
 20
11.83217188
  0
VERTEX
  8
0
 62
7
 10
32.37287500
 20
11.77587500
  0
VERTEX
  8
0
 62
7
 10
32.37670313
 20
11.71939063
  0
VERTEX
  8
0
 62
7
 10
32.37800000
 20
11.66300000
  0
VERTEX
  8
0
 62
7
 10
32.37670313
 20
11.60842188
  0
VERTEX
  8
0
 62
7
 10
32.37287500
 20
11.55412500
  0
VERTEX
  8
0
 62
7
 10
32.36660938
 20
11.50001563
  0
VERTEX
  8
0
 62
7
 10
32.35800000
 20
11.44600000
  0
VERTEX
  8
0
 62
7
 10
32.34471875
 20
11.38501563
  0
VERTEX
  8
0
 62
7
 10
32.32825000
 20
11.32487500
  0
VERTEX
  8
0
 62
7
 10
32.30990625
 20
11.26529688
  0
VERTEX
  8
0
 62
7
 10
32.29100000
 20
11.20600000
  0
VERTEX
  8
0
 62
7
 10
32.26828125
 20
11.14153125
  0
VERTEX
  8
0
 62
7
 10
32.24350000
 20
11.07800000
  0
VERTEX
  8
0
 62
7
 10
32.21871875
 20
11.01446875
  0
VERTEX
  8
0
 62
7
 10
32.19600000
 20
10.95000000
  0
VERTEX
  8
0
 62
7
 10
32.15550000
 20
10.81625000
  0
VERTEX
  8
0
 62
7
 10
32.12100000
 20
10.68100000
  0
VERTEX
  8
0
 62
7
 10
32.09487500
 20
10.55737500
  0
VERTEX
  8
0
 62
7
 10
32.07400000
 20
10.43300000
  0
VERTEX
  8
0
 62
7
 10
32.06253125
 20
10.33757813
  0
VERTEX
  8
0
 62
7
 10
32.05500000
 20
10.24187500
  0
VERTEX
  8
0
 62
7
 10
32.04896875
 20
10.14598438
  0
VERTEX
  8
0
 62
7
 10
32.04200000
 20
10.05000000
  0
VERTEX
  8
0
 62
7
 10
32.03312500
 20
9.89400000
  0
VERTEX
  8
0
 62
7
 10
32.02200000
 20
9.73800000
  0
VERTEX
  8
0
 62
7
 10
32.01275000
 20
9.63712500
  0
VERTEX
  8
0
 62
7
 10
31.99900000
 20
9.53700000
  0
VERTEX
  8
0
 62
7
 10
31.98850000
 20
9.47976563
  0
VERTEX
  8
0
 62
7
 10
31.97650000
 20
9.42262500
  0
VERTEX
  8
0
 62
7
 10
31.96075000
 20
9.36642188
  0
VERTEX
  8
0
 62
7
 10
31.93900000
 20
9.31200000
  0
VERTEX
  8
0
 62
7
 10
31.91709375
 20
9.27078125
  0
VERTEX
  8
0
 62
7
 10
31.89200000
 20
9.23125000
  0
VERTEX
  8
0
 62
7
 10
31.86390625
 20
9.19359375
  0
VERTEX
  8
0
 62
7
 10
31.83300000
 20
9.15800000
  0
VERTEX
  8
0
 62
7
 10
31.83860938
 20
9.13798438
  0
VERTEX
  8
0
 62
7
 10
31.84637500
 20
9.11862500
  0
VERTEX
  8
0
 62
7
 10
31.85620313
 20
9.10020313
  0
VERTEX
  8
0
 62
7
 10
31.86800000
 20
9.08300000
  0
VERTEX
  8
0
 62
7
 10
31.88407813
 20
9.06464062
  0
VERTEX
  8
0
 62
7
 10
31.90212500
 20
9.04862500
  0
VERTEX
  8
0
 62
7
 10
31.92185938
 20
9.03504688
  0
VERTEX
  8
0
 62
7
 10
31.94300000
 20
9.02400000
  0
VERTEX
  8
0
 62
7
 10
31.97548438
 20
9.01354687
  0
VERTEX
  8
0
 62
7
 10
32.00937500
 20
9.00937500
  0
VERTEX
  8
0
 62
7
 10
32.04382813
 20
9.00951563
  0
VERTEX
  8
0
 62
7
 10
32.07800000
 20
9.01200000
  0
VERTEX
  8
0
 62
7
 10
32.12345313
 20
9.01939063
  0
VERTEX
  8
0
 62
7
 10
32.16712500
 20
9.03287500
  0
VERTEX
  8
0
 62
7
 10
32.20948438
 20
9.05067188
  0
VERTEX
  8
0
 62
7
 10
32.25100000
 20
9.07100000
  0
VERTEX
  8
0
 62
7
 10
32.28050000
 20
9.08876563
  0
VERTEX
  8
0
 62
7
 10
32.30850000
 20
9.10887500
  0
VERTEX
  8
0
 62
7
 10
32.33650000
 20
9.12879688
  0
VERTEX
  8
0
 62
7
 10
32.36600000
 20
9.14600000
  0
VERTEX
  8
0
 62
7
 10
32.39300000
 20
9.15800000
  0
VERTEX
  8
0
 62
7
 10
32.39300000
 20
8.06000000
  0
SEQEND
  0
POLYLINE
  8
0
 62
7
 66
1
  0
VERTEX
  8
0
 62
7
 10
32.18400000
 20
9.68700000
  0
VERTEX
  8
0
 62
7
 10
32.22748438
 20
9.65009375
  0
VERTEX
  8
0
 62
7
 10
32.26787500
 20
9.61000000
  0
VERTEX
  8
0
 62
7
 10
32.30507813
 20
9.56690625
  0
VERTEX
  8
0
 62
7
 10
32.33900000
 20
9.52100000
  0
VERTEX
  8
0
 62
7
 10
32.36918750
 20
9.47190625
  0
VERTEX
  8
0
 62
7
 10
32.39525000
 20
9.42075000
  0
VERTEX
  8
0
 62
7
 10
32.41718750
 20
9.36771875
  0
VERTEX
  8
0
 62
7
 10
32.43500000
 20
9.31300000
  0
VERTEX
  8
0
 62
7
 10
32.43854688
 20
9.34650000
  0
VERTEX
  8
0
 62
7
 10
32.44612500
 20
9.37925000
  0
VERTEX
  8
0
 62
7
 10
32.45764063
 20
9.41087500
  0
VERTEX
  8
0
 62
7
 10
32.47300000
 20
9.44100000
  0
VERTEX
  8
0
 62
7
 10
32.48785938
 20
9.46306250
  0
VERTEX
  8
0
 62
7
 10
32.50487500
 20
9.48325000
  0
VERTEX
  8
0
 62
7
 10
32.52320313
 20
9.50231250
  0
VERTEX
  8
0
 62
7
 10
32.54200000
 20
9.52100000
  0
VERTEX
  8
0
 62
7
 10
32.56878125
 20
9.54414063
  0
VERTEX
  8
0
 62
7
 10
32.59725000
 20
9.56512500
  0
VERTEX
  8
0
 62
7
 10
32.62609375
 20
9.58554688
  0
VERTEX
  8
0
 62
7
 10
32.65400000
 20
9.60700000
  0
VERTEX
  8
0
 62
7
 10
32.73337500
 20
9.67675000
  0
VERTEX
  8
0
 62
7
 10
32.80900000
 20
9.75100000
  0
SEQEND
  0
POLYLINE
  8
0
 62
7
 66
1
  0
VERTEX
  8
0
 62
7
 10
32.43500000
 20
9.44100000
  0
VERTEX
  8
0
 62
7
 10
32.43937500
 20
9.60650000
  0
VERTEX
  8
0
 62
7
 10
32.44600000
 20
9.77200000
  0
VERTEX
  8
0
 62
7
 10
32.46700000
 20
10.09300000
  0
VERTEX
  8
0
 62
7
 10
32.47912500
 20
10.27150000
  0
VERTEX
  8
0
 62
7
 10
32.48900000
 20
10.45000000
  0
VERTEX
  8
0
 62
7
 10
32.49082813
 20
10.58634375
  0
VERTEX
  8
0
 62
7
 10
32.48862500
 20
10.72250000
  0
VERTEX
  8
0
 62
7
 10
32.48660938
 20
10.85865625
  0
VERTEX
  8
0
 62
7
 10
32.48900000
 20
10.99500000
  0
VERTEX
  8
0
 62
7
 10
32.50162500
 20
11.20437500
  0
VERTEX
  8
0
 62
7
 10
32.52100000
 20
11.41300000
  0
SEQEND
  0
POLYLINE
  8
0
 62
7
 66
1
 70
1
  0
VERTEX
  8
0
 62
7
 10
31.55400000
 20
8.06000000
  0
VERTEX
  8
0
 62
7
 10
31.67000000
 20
8.06000000
  0
VERTEX
  8
0
 62
7
 10
31.65825000
 20
8.11475000
  0
VERTEX
  8
0
 62
7
 10
31.64200000
 20
8.16800000
  0
VERTEX
  8
0
 62
7
 10
31.62550000
 20
8.21125000
  0
VERTEX
  8
0
 62
7
 10
31.60600000
 20
8.25300000
  0
VERTEX
  8
0
 62
7
 10
31.71300000
 20
8.25700000
  0
VERTEX
  8
0
 62
7
 10
31.77232813
 20
8.25643750
  0
VERTEX
  8
0
 62
7
 10
31.83137500
 20
8.25100000
  0
VERTEX
  8
0
 62
7
 10
31.88948438
 20
8.23956250
  0
VERTEX
  8
0
 62
7
 10
31.94600000
 20
8.22100000
  0
VERTEX
  8
0
 62
7
 10
32.01800000
 20
8.18600000
  0
VERTEX
  8
0
 62
7
 10
32.04217188
 20
8.18023438
  0
VERTEX
  8
0
 62
7
 10
32.06662500
 20
8.17662500
  0
VERTEX
  8
0
 62
7
 10
32.09126563
 20
8.17545313
  0
VERTEX
  8
0
 62
7
 10
32.11600000
 20
8.17700000
  0
VERTEX
  8
0
 62
7
 10
32.09125000
 20
8.24325000
  0
VERTEX
  8
0
 62
7
 10
32.07100000
 20
8.31100000
  0
VERTEX
  8
0
 62
7
 10
32.05562500
 20
8.37312500
  0
VERTEX
  8
0
 62
7
 10
32.04400000
 20
8.43600000
  0
VERTEX
  8
0
 62
7
 10
32.03500000
 20
8.53400000
  0
VERTEX
  8
0
 62
7
 10
32.02621875
 20
8.59079688
  0
VERTEX
  8
0
 62
7
 10
32.01500000
 20
8.64712500
  0
VERTEX
  8
0
 62
7
 10
32.00153125
 20
8.70289063
  0
VERTEX
  8
0
 62
7
 10
31.98600000
 20
8.75800000
  0
VERTEX
  8
0
 62
7
 10
31.96281250
 20
8.83089063
  0
VERTEX
  8
0
 62
7
 10
31.93625000
 20
8.90237500
  0
VERTEX
  8
0
 62
7
 10
31.90556250
 20
8.97217188
  0
VERTEX
  8
0
 62
7
 10
31.87000000
 20
9.04000000
  0
VERTEX
  8
0
 62
7
 10
31.83350000
 20
9.09875000
  0
VERTEX
  8
0
 62
7
 10
31.79400000
 20
9.15600000
  0
VERTEX
  8
0
 62
7
 10
31.69500000
 20
9.28100000
  0
VERTEX
  8
0
 62
7
 10
31.59200000
 20
9.40700000
  0
VERTEX
  8
0
 62
7
 10
31.53212500
 20
9.48800000
  0
VERTEX
  8
0
 62
7
 10
31.47600000
 20
9.57200000
  0
VERTEX
  8
0
 62
7
 10
31.41500000
 20
9.67762500
  0
VERTEX
  8
0
 62
7
 10
31.36000000
 20
9.78700000
  0
VERTEX
  8
0
 62
7
 10
31.31937500
 20
9.87487500
  0
VERTEX
  8
0
 62
7
 10
31.28400000
 20
9.96500000
  0
VERTEX
  8
0
 62
7
 10
31.25925000
 20
10.04475000
  0
VERTEX
  8
0
 62
7
 10
31.23900000
 20
10.12600000
  0
VERTEX
  8
0
 62
7
 10
31.22575000
 20
10.19350000
  0
VERTEX
  8
0
 62
7
 10
31.21700000
 20
10.26100000
  0
VERTEX
  8
0
 62
7
 10
31.21404688
 20
10.30225000
  0
VERTEX
  8
0
 62
7
 10
31.21287500
 20
10.34350000
  0
VERTEX
  8
0
 62
7
 10
31.21376563
 20
10.38475000
  0
VERTEX
  8
0
 62
7
 10
31.21700000
 20
10.42600000
  0
VERTEX
  8
0
 62
7
 10
31.22375000
 20
10.47825000
  0
VERTEX
  8
0
 62
7
 10
31.23500000
 20
10.52900000
  0
VERTEX
  8
0
 62
7
 10
31.24679688
 20
10.56217188
  0
VERTEX
  8
0
 62
7
 10
31.26112500
 20
10.59412500
  0
VERTEX
  8
0
 62
7
 10
31.27789063
 20
10.62476563
  0
VERTEX
  8
0
 62
7
 10
31.29700000
 20
10.65400000
  0
VERTEX
  8
0
 62
7
 10
31.31682813
 20
10.68007813
  0
VERTEX
  8
0
 62
7
 10
31.33862500
 20
10.70437500
  0
VERTEX
  8
0
 62
7
 10
31.36210938
 20
10.72698438
  0
VERTEX
  8
0
 62
7
 10
31.38700000
 20
10.74800000
  0
VERTEX
  8
0
 62
7
 10
31.36021875
 20
10.74528125
  0
VERTEX
  8
0
 62
7
 10
31.33400000
 20
10.73900000
  0
VERTEX
  8
0
 62
7
 10
31.30853125
 20
10.72971875
  0
VERTEX
  8
0
 62
7
 10
31.28400000
 20
10.71800000
  0
VERTEX
  8
0
 62
7
 10
31.24662500
 20
10.69337500
  0
VERTEX
  8
0
 62
7
 10
31.21300000
 20
10.66500000
  0
VERTEX
  8
0
 62
7
 10
31.16287500
 20
10.61025000
  0
VERTEX
  8
0
 62
7
 10
31.11800000
 20
10.55100000
  0
VERTEX
  8
0
 62
7
 10
31.08848438
 20
10.50904688
  0
VERTEX
  8
0
 62
7
 10
31.06112500
 20
10.46587500
  0
VERTEX
  8
0
 62
7
 10
31.03545313
 20
10.42176563
  0
VERTEX
  8
0
 62
7
 10
31.01100000
 20
10.37700000
  0
VERTEX
  8
0
 62
7
 10
30.97391797
 20
10.29904883
  0
VERTEX
  8
0
 62
7
 10
30.94253125
 20
10.21914063
  0
VERTEX
  8
0
 62
7
 10
30.91625391
 20
10.13756836
  0
VERTEX
  8
0
 62
7
 10
30.89450000
 20
10.05462500
  0
VERTEX
  8
0
 62
7
 10
30.87668359
 20
9.97060352
  0
VERTEX
  8
0
 62
7
 10
30.86221875
 20
9.88579688
  0
VERTEX
  8
0
 62
7
 10
30.85051953
 20
9.80049805
  0
VERTEX
  8
0
 62
7
 10
30.84100000
 20
9.71500000
  0
VERTEX
  8
0
 62
7
 10
30.83410938
 20
9.62784375
  0
VERTEX
  8
0
 62
7
 10
30.83087500
 20
9.54050000
  0
VERTEX
  8
0
 62
7
 10
30.83045313
 20
9.45315625
  0
VERTEX
  8
0
 62
7
 10
30.83200000
 20
9.36600000
  0
VERTEX
  8
0
 62
7
 10
30.84500000
 20
9.14700000
  0
VERTEX
  8
0
 62
7
 10
30.85900000
 20
8.90500000
  0
VERTEX
  8
0
 62
7
 10
30.86537500
 20
8.75300000
  0
VERTEX
  8
0
 62
7
 10
30.86800000
 20
8.60100000
  0
VERTEX
  8
0
 62
7
 10
30.86834375
 20
8.54759375
  0
VERTEX
  8
0
 62
7
 10
30.86850000
 20
8.49400000
  0
VERTEX
  8
0
 62
7
 10
30.86715625
 20
8.44040625
  0
VERTEX
  8
0
 62
7
 10
30.86300000
 20
8.38700000
  0
VERTEX
  8
0
 62
7
 10
30.85815625
 20
8.34637500
  0
VERTEX
  8
0
 62
7
 10
30.85200000
 20
8.30575000
  0
VERTEX
  8
0
 62
7
 10
30.84359375
 20
8.26550000
  0
VERTEX
  8
0
 62
7
 10
30.83200000
 20
8.22600000
  0
VERTEX
  8
0
 62
7
 10
30.80900000
 20
8.16800000
  0
VERTEX
  8
0
 62
7
 10
30.82242188
 20
8.13551563
  0
VERTEX
  8
0
 62
7
 10
30.84137500
 20
8.10612500
  0
VERTEX
  8
0
 62
7
 10
30.86539063
 20
8.08067188
  0
VERTEX
  8
0
 62
7
 10
30.89400000
 20
8.06000000
  0
VERTEX
  8
0
 62
7
 10
30.91164844
 20
8.05135156
  0
VERTEX
  8
0
 62
7
 10
30.93000000
 20
8.04537500
  0
VERTEX
  8
0
 62
7
 10
30.94891406
 20
8.04164844
  0
VERTEX
  8
0
 62
7
 10
30.96825000
 20
8.03975000
  0
VERTEX
  8
0
 62
7
 10
30.98786719
 20
8.03925781
  0
VERTEX
  8
0
 62
7
 10
31.00762500
 20
8.03975000
  0
VERTEX
  8
0
 62
7
 10
31.02738281
 20
8.04080469
  0
VERTEX
  8
0
 62
7
 10
31.04700000
 20
8.04200000
  0
VERTEX
  8
0
 62
7
 10
31.08712500
 20
8.04635938
  0
VERTEX
  8
0
 62
7
 10
31.12650000
 20
8.05437500
  0
VERTEX
  8
0
 62
7
 10
31.16512500
 20
8.06520313
  0
VERTEX
  8
0
 62
7
 10
31.20300000
 20
8.07800000
  0
VERTEX
  8
0
 62
7
 10
31.24010938
 20
8.09262500
  0
VERTEX
  8
0
 62
7
 10
31.27637500
 20
8.10950000
  0
VERTEX
  8
0
 62
7
 10
31.31170313
 20
8.12862500
  0
VERTEX
  8
0
 62
7
 10
31.34600000
 20
8.15000000
  0
VERTEX
  8
0
 62
7
 10
31.39975000
 20
8.18987500
  0
VERTEX
  8
0
 62
7
 10
31.44900000
 20
8.23500000
  0
VERTEX
  8
0
 62
7
 10
31.47612500
 20
8.18025000
  0
VERTEX
  8
0
 62
7
 10
31.50700000
 20
8.12700000
  0
VERTEX
  8
0
 62
7
 10
31.55400000
 20
8.06000000
  0
SEQEND
  0
POLYLINE
  8
0
 62
7
 66
1
  0
VERTEX
  8
0
 62
7
 10
31.00500000
 20
8.60100000
  0
VERTEX
  8
0
 62
7
 10
31.08812500
 20
8.56812500
  0
VERTEX
  8
0
 62
7
 10
31.16900000
 20
8.53000000
  0
VERTEX
  8
0
 62
7
 10
31.25054688
 20
8.48479688
  0
VERTEX
  8
0
 62
7
 10
31.32862500
 20
8.43462500
  0
VERTEX
  8
0
 62
7
 10
31.40314063
 20
8.37939062
  0
VERTEX
  8
0
 62
7
 10
31.47400000
 20
8.31900000
  0
VERTEX
  8
0
 62
7
 10
31.48303125
 20
8.36079688
  0
VERTEX
  8
0
 62
7
 10
31.49375000
 20
8.40212500
  0
VERTEX
  8
0
 62
7
 10
31.50634375
 20
8.44289063
  0
VERTEX
  8
0
 62
7
 10
31.52100000
 20
8.48300000
  0
VERTEX
  8
0
 62
7
 10
31.55162500
 20
8.55125000
  0
VERTEX
  8
0
 62
7
 10
31.58600000
 20
8.61800000
  0
VERTEX
  8
0
 62
7
 10
31.65100000
 20
8.74100000
  0
VERTEX
  8
0
 62
7
 10
31.67164063
 20
8.78846875
  0
VERTEX
  8
0
 62
7
 10
31.69012500
 20
8.83650000
  0
VERTEX
  8
0
 62
7
 10
31.70654688
 20
8.88528125
  0
VERTEX
  8
0
 62
7
 10
31.72100000
 20
8.93500000
  0
SEQEND
  0
POLYLINE
  8
0
 62
7
 66
1
  0
VERTEX
  8
0
 62
7
 10
31.44500000
 20
8.41300000
  0
VERTEX
  8
0
 62
7
 10
31.41000000
 20
8.54200000
  0
VERTEX
  8
0
 62
7
 10
31.36900000
 20
8.69400000
  0
VERTEX
  8
0
 62
7
 10
31.34671875
 20
8.77362500
  0
VERTEX
  8
0
 62
7
 10
31.32425000
 20
8.85325000
  0
VERTEX
  8
0
 62
7
 10
31.30065625
 20
8.93250000
  0
VERTEX
  8
0
 62
7
 10
31.27500000
 20
9.01100000
  0
VERTEX
  8
0
 62
7
 10
31.24537500
 20
9.09062500
  0
VERTEX
  8
0
 62
7
 10
31.21350000
 20
9.16950000
  0
VERTEX
  8
0
 62
7
 10
31.18162500
 20
9.24837500
  0
VERTEX
  8
0
 62
7
 10
31.15200000
 20
9.32800000
  0
VERTEX
  8
0
 62
7
 10
31.13204688
 20
9.38323438
  0
VERTEX
  8
0
 62
7
 10
31.11237500
 20
9.43837500
  0
VERTEX
  8
0
 62
7
 10
31.09476563
 20
9.49407813
  0
VERTEX
  8
0
 62
7
 10
31.08100000
 20
9.55100000
  0
VERTEX
  8
0
 62
7
 10
31.06900000
 20
9.62800000
  0
VERTEX
  8
0
 62
7
 10
31.06300000
 20
9.70575000
  0
VERTEX
  8
0
 62
7
 10
31.06300000
 20
9.78387500
  0
VERTEX
  8
0
 62
7
 10
31.06900000
 20
9.86200000
  0
SEQEND
  0
POLYLINE
  8
0
 62
7
 66
1
 70
1
  0
VERTEX
  8
0
 62
7
 10
31.51000000
 20
11.45000000
  0
VERTEX
  8
0
 62
7
 10
31.48765820
 20
11.47604492
  0
VERTEX
  8
0
 62
7
 10
31.46851563
 20
11.50442188
  0
VERTEX
  8
0
 62
7
 10
31.45239648
 20
11.53474414
  0
VERTEX
  8
0
 62
7
 10
31.43912500
 20
11.56662500
  0
VERTEX
  8
0
 62
7
 10
31.42852539
 20
11.59967773
  0
VERTEX
  8
0
 62
7
 10
31.42042188
 20
11.63351563
  0
VERTEX
  8
0
 62
7
 10
31.41463867
 20
11.66775195
  0
VERTEX
  8
0
 62
7
 10
31.41100000
 20
11.70200000
  0
VERTEX
  8
0
 62
7
 10
31.40880200
 20
11.73577710
  0
VERTEX
  8
0
 62
7
 10
31.40747852
 20
11.77056055
  0
VERTEX
  8
0
 62
7
 10
31.40706030
 20
11.80609106
  0
VERTEX
  8
0
 62
7
 10
31.40757813
 20
11.84210938
  0
VERTEX
  8
0
 62
7
 10
31.40906274
 20
11.87835620
  0
VERTEX
  8
0
 62
7
 10
31.41154492
 20
11.91457227
  0
VERTEX
  8
0
 62
7
 10
31.41505542
 20
11.95049829
  0
VERTEX
  8
0
 62
7
 10
31.41962500
 20
11.98587500
  0
VERTEX
  8
0
 62
7
 10
31.42528442
 20
12.02044312
  0
VERTEX
  8
0
 62
7
 10
31.43206445
 20
12.05394336
  0
VERTEX
  8
0
 62
7
 10
31.43999585
 20
12.08611646
  0
VERTEX
  8
0
 62
7
 10
31.44910938
 20
12.11670313
  0
VERTEX
  8
0
 62
7
 10
31.45943579
 20
12.14544409
  0
VERTEX
  8
0
 62
7
 10
31.47100586
 20
12.17208008
  0
VERTEX
  8
0
 62
7
 10
31.48385034
 20
12.19635181
  0
VERTEX
  8
0
 62
7
 10
31.49800000
 20
12.21800000
  0
VERTEX
  8
0
 62
7
 10
31.50871875
 20
12.23307813
  0
VERTEX
  8
0
 62
7
 10
31.52375000
 20
12.25162500
  0
VERTEX
  8
0
 62
7
 10
31.54215625
 20
12.26960938
  0
VERTEX
  8
0
 62
7
 10
31.56300000
 20
12.28300000
  0
VERTEX
  8
0
 62
7
 10
31.58240625
 20
12.29034375
  0
VERTEX
  8
0
 62
7
 10
31.60275000
 20
12.29450000
  0
VERTEX
  8
0
 62
7
 10
31.62346875
 20
12.29565625
  0
VERTEX
  8
0
 62
7
 10
31.64400000
 20
12.29400000
  0
VERTEX
  8
0
 62
7
 10
31.66124023
 20
12.29035840
  0
VERTEX
  8
0
 62
7
 10
31.67701563
 20
12.28478906
  0
VERTEX
  8
0
 62
7
 10
31.69140820
 20
12.27745020
  0
VERTEX
  8
0
 62
7
 10
31.70450000
 20
12.26850000
  0
VERTEX
  8
0
 62
7
 10
31.71637305
 20
12.25809668
  0
VERTEX
  8
0
 62
7
 10
31.72710938
 20
12.24639844
  0
VERTEX
  8
0
 62
7
 10
31.73679102
 20
12.23356348
  0
VERTEX
  8
0
 62
7
 10
31.74550000
 20
12.21975000
  0
VERTEX
  8
0
 62
7
 10
31.75331836
 20
12.20511621
  0
VERTEX
  8
0
 62
7
 10
31.76032813
 20
12.18982031
  0
VERTEX
  8
0
 62
7
 10
31.76661133
 20
12.17402051
  0
VERTEX
  8
0
 62
7
 10
31.77225000
 20
12.15787500
  0
VERTEX
  8
0
 62
7
 10
31.77732617
 20
12.14154199
  0
VERTEX
  8
0
 62
7
 10
31.78192188
 20
12.12517969
  0
VERTEX
  8
0
 62
7
 10
31.78611914
 20
12.10894629
  0
VERTEX
  8
0
 62
7
 10
31.79000000
 20
12.09300000
  0
VERTEX
  8
0
 62
7
 10
31.80094336
 20
12.04102930
  0
VERTEX
  8
0
 62
7
 10
31.80910938
 20
11.98867188
  0
VERTEX
  8
0
 62
7
 10
31.81462695
 20
11.93600977
  0
VERTEX
  8
0
 62
7
 10
31.81762500
 20
11.88312500
  0
VERTEX
  8
0
 62
7
 10
31.81823242
 20
11.83009961
  0
VERTEX
  8
0
 62
7
 10
31.81657813
 20
11.77701563
  0
VERTEX
  8
0
 62
7
 10
31.81279102
 20
11.72395508
  0
VERTEX
  8
0
 62
7
 10
31.80700000
 20
11.67100000
  0
VERTEX
  8
0
 62
7
 10
31.79864063
 20
11.61885938
  0
VERTEX
  8
0
 62
7
 10
31.78737500
 20
11.56737500
  0
VERTEX
  8
0
 62
7
 10
31.77367188
 20
11.51645313
  0
VERTEX
  8
0
 62
7
 10
31.75800000
 20
11.46600000
  0
VERTEX
  8
0
 62
7
 10
31.74800000
 20
11.43837500
  0
VERTEX
  8
0
 62
7
 10
31.73800000
 20
11.41075000
  0
VERTEX
  8
0
 62
7
 10
31.73100000
 20
11.38275000
  0
VERTEX
  8
0
 62
7
 10
31.73000000
 20
11.35400000
  0
VERTEX
  8
0
 62
7
 10
31.73321875
 20
11.33168750
  0
VERTEX
  8
0
 62
7
 10
31.73850000
 20
11.30900000
  0
VERTEX
  8
0
 62
7
 10
31.74603125
 20
11.28706250
  0
VERTEX
  8
0
 62
7
 10
31.75600000
 20
11.26700000
  0
VERTEX
  8
0
 62
7
 10
31.74800000
 20
11.25500000
  0
VERTEX
  8
0
 62
7
 10
31.67298438
 20
11.30768750
  0
VERTEX
  8
0
 62
7
 10
31.61362500
 20
11.35325000
  0
VERTEX
  8
0
 62
7
 10
31.56195313
 20
11.39843750
  0
VERTEX
  8
0
 62
7
 10
31.51000000
 20
11.45000000
  0
SEQEND
  0
POLYLINE
  8
0
 62
7
 66
1
 70
1
  0
VERTEX
  8
0
 62
7
 10
31.54500000
 20
11.50100000
  0
VERTEX
  8
0
 62
7
 10
31.55300000
 20
11.49200000
  0
VERTEX
  8
0
 62
7
 10
31.61887500
 20
11.42775000
  0
VERTEX
  8
0
 62
7
 10
31.68700000
 20
11.37100000
  0
VERTEX
  8
0
 62
7
 10
31.69987500
 20
11.40487500
  0
VERTEX
  8
0
 62
7
 10
31.70900000
 20
11.43500000
  0
VERTEX
  8
0
 62
7
 10
31.72637500
 20
11.52812500
  0
VERTEX
  8
0
 62
7
 10
31.74000000
 20
11.62200000
  0
VERTEX
  8
0
 62
7
 10
31.74845313
 20
11.69957813
  0
VERTEX
  8
0
 62
7
 10
31.75437500
 20
11.77762500
  0
VERTEX
  8
0
 62
7
 10
31.75785938
 20
11.85585938
  0
VERTEX
  8
0
 62
7
 10
31.75900000
 20
11.93400000
  0
VERTEX
  8
0
 62
7
 10
31.75978125
 20
11.97389063
  0
VERTEX
  8
0
 62
7
 10
31.76075000
 20
12.01387500
  0
VERTEX
  8
0
 62
7
 10
31.75984375
 20
12.05367188
  0
VERTEX
  8
0
 62
7
 10
31.75500000
 20
12.09300000
  0
VERTEX
  8
0
 62
7
 10
31.75128125
 20
12.11395313
  0
VERTEX
  8
0
 62
7
 10
31.74700000
 20
12.13462500
  0
VERTEX
  8
0
 62
7
 10
31.74121875
 20
12.15473438
  0
VERTEX
  8
0
 62
7
 10
31.73300000
 20
12.17400000
  0
VERTEX
  8
0
 62
7
 10
31.72284375
 20
12.19451563
  0
VERTEX
  8
0
 62
7
 10
31.71100000
 20
12.21437500
  0
VERTEX
  8
0
 62
7
 10
31.69615625
 20
12.23179688
  0
VERTEX
  8
0
 62
7
 10
31.67700000
 20
12.24500000
  0
VERTEX
  8
0
 62
7
 10
31.66001563
 20
12.25171875
  0
VERTEX
  8
0
 62
7
 10
31.64237500
 20
12.25600000
  0
VERTEX
  8
0
 62
7
 10
31.62454688
 20
12.25653125
  0
VERTEX
  8
0
 62
7
 10
31.60700000
 20
12.25200000
  0
VERTEX
  8
0
 62
7
 10
31.59559375
 20
12.24523438
  0
VERTEX
  8
0
 62
7
 10
31.58625000
 20
12.23612500
  0
VERTEX
  8
0
 62
7
 10
31.57803125
 20
12.22570313
  0
VERTEX
  8
0
 62
7
 10
31.57000000
 20
12.21500000
  0
VERTEX
  8
0
 62
7
 10
31.55171875
 20
12.18375000
  0
VERTEX
  8
0
 62
7
 10
31.54000000
 20
12.14950000
  0
VERTEX
  8
0
 62
7
 10
31.53203125
 20
12.11375000
  0
VERTEX
  8
0
 62
7
 10
31.52500000
 20
12.07800000
  0
VERTEX
  8
0
 62
7
 10
31.51878125
 20
12.03734375
  0
VERTEX
  8
0
 62
7
 10
31.51575000
 20
11.99650000
  0
VERTEX
  8
0
 62
7
 10
31.51459375
 20
11.95565625
  0
VERTEX
  8
0
 62
7
 10
31.51400000
 20
11.91500000
  0
VERTEX
  8
0
 62
7
 10
31.51353125
 20
11.84076563
  0
VERTEX
  8
0
 62
7
 10
31.51625000
 20
11.76662500
  0
VERTEX
  8
0
 62
7
 10
31.52159375
 20
11.69267188
  0
VERTEX
  8
0
 62
7
 10
31.52900000
 20
11.61900000
  0
VERTEX
  8
0
 62
7
 10
31.54500000
 20
11.50100000
  0
SEQEND
  0
POLYLINE
  8
0
 62
7
 66
1
 70
1
  0
VERTEX
  8
0
 62
7
 10
32.93700000
 20
12.74600000
  0
VERTEX
  8
0
 62
7
 10
32.91037500
 20
12.78712500
  0
VERTEX
  8
0
 62
7
 10
32.88000000
 20
12.82600000
  0
VERTEX
  8
0
 62
7
 10
32.85512500
 20
12.85312500
  0
VERTEX
  8
0
 62
7
 10
32.82800000
 20
12.87800000
  0
VERTEX
  8
0
 62
7
 10
32.75900000
 20
12.92400000
  0
VERTEX
  8
0
 62
7
 10
32.72525000
 20
12.95362500
  0
VERTEX
  8
0
 62
7
 10
32.69600000
 20
12.98700000
  0
VERTEX
  8
0
 62
7
 10
32.68007813
 20
13.01368750
  0
VERTEX
  8
0
 62
7
 10
32.66762500
 20
13.04225000
  0
VERTEX
  8
0
 62
7
 10
32.65760938
 20
13.07193750
  0
VERTEX
  8
0
 62
7
 10
32.64900000
 20
13.10200000
  0
VERTEX
  8
0
 62
7
 10
32.63912305
 20
13.14305273
  0
VERTEX
  8
0
 62
7
 10
32.63185938
 20
13.18442188
  0
VERTEX
  8
0
 62
7
 10
32.62700977
 20
13.22604883
  0
VERTEX
  8
0
 62
7
 10
32.62437500
 20
13.26787500
  0
VERTEX
  8
0
 62
7
 10
32.62375586
 20
13.30984180
  0
VERTEX
  8
0
 62
7
 10
32.62495313
 20
13.35189063
  0
VERTEX
  8
0
 62
7
 10
32.62776758
 20
13.39396289
  0
VERTEX
  8
0
 62
7
 10
32.63200000
 20
13.43600000
  0
VERTEX
  8
0
 62
7
 10
32.63543555
 20
13.46569336
  0
VERTEX
  8
0
 62
7
 10
32.63923438
 20
13.49542188
  0
VERTEX
  8
0
 62
7
 10
32.64375977
 20
13.52503320
  0
VERTEX
  8
0
 62
7
 10
32.64937500
 20
13.55437500
  0
VERTEX
  8
0
 62
7
 10
32.65644336
 20
13.58329492
  0
VERTEX
  8
0
 62
7
 10
32.66532813
 20
13.61164063
  0
VERTEX
  8
0
 62
7
 10
32.67639258
 20
13.63925977
  0
VERTEX
  8
0
 62
7
 10
32.69000000
 20
13.66600000
  0
VERTEX
  8
0
 62
7
 10
32.70775000
 20
13.69650000
  0
VERTEX
  8
0
 62
7
 10
32.73000000
 20
13.72400000
  0
VERTEX
  8
0
 62
7
 10
32.74314063
 20
13.73493750
  0
VERTEX
  8
0
 62
7
 10
32.75712500
 20
13.74475000
  0
VERTEX
  8
0
 62
7
 10
32.77204688
 20
13.75268750
  0
VERTEX
  8
0
 62
7
 10
32.78800000
 20
13.75800000
  0
VERTEX
  8
0
 62
7
 10
32.81475781
 20
13.76065820
  0
VERTEX
  8
0
 62
7
 10
32.83950000
 20
13.75657813
  0
VERTEX
  8
0
 62
7
 10
32.86217969
 20
13.74680273
  0
VERTEX
  8
0
 62
7
 10
32.88275000
 20
13.73237500
  0
VERTEX
  8
0
 62
7
 10
32.90116406
 20
13.71433789
  0
VERTEX
  8
0
 62
7
 10
32.91737500
 20
13.69373438
  0
VERTEX
  8
0
 62
7
 10
32.93133594
 20
13.67160742
  0
VERTEX
  8
0
 62
7
 10
32.94300000
 20
13.64900000
  0
VERTEX
  8
0
 62
7
 10
32.97001953
 20
13.58041602
  0
VERTEX
  8
0
 62
7
 10
32.99003125
 20
13.51057813
  0
VERTEX
  8
0
 62
7
 10
33.00371484
 20
13.43973242
  0
VERTEX
  8
0
 62
7
 10
33.01175000
 20
13.36812500
  0
VERTEX
  8
0
 62
7
 10
33.01481641
 20
13.29600195
  0
VERTEX
  8
0
 62
7
 10
33.01359375
 20
13.22360938
  0
VERTEX
  8
0
 62
7
 10
33.00876172
 20
13.15119336
  0
VERTEX
  8
0
 62
7
 10
33.00100000
 20
13.07900000
  0
VERTEX
  8
0
 62
7
 10
32.99671875
 20
13.05076563
  0
VERTEX
  8
0
 62
7
 10
32.99075000
 20
13.02487500
  0
VERTEX
  8
0
 62
7
 10
32.98215625
 20
12.99954688
  0
VERTEX
  8
0
 62
7
 10
32.97000000
 20
12.97300000
  0
VERTEX
  8
0
 62
7
 10
32.95467188
 20
12.94779688
  0
VERTEX
  8
0
 62
7
 10
32.93587500
 20
12.92587500
  0
VERTEX
  8
0
 62
7
 10
32.91389063
 20
12.90676563
  0
VERTEX
  8
0
 62
7
 10
32.88900000
 20
12.89000000
  0
VERTEX
  8
0
 62
7
 10
32.90390625
 20
12.87162500
  0
VERTEX
  8
0
 62
7
 10
32.91900000
 20
12.84875000
  0
VERTEX
  8
0
 62
7
 10
32.93259375
 20
12.82475000
  0
VERTEX
  8
0
 62
7
 10
32.94300000
 20
12.80300000
  0
VERTEX
  8
0
 62
7
 10
32.95375000
 20
12.77225000
  0
VERTEX
  8
0
 62
7
 10
32.96000000
 20
12.74000000
  0
VERTEX
  8
0
 62
7
 10
32.93700000
 20
12.74600000
  0
SEQEND
  0
POLYLINE
  8
0
 62
7
 66
1
 70
1
  0
VERTEX
  8
0
 62
7
 10
32.78600000
 20
12.98000000
  0
VERTEX
  8
0
 62
7
 10
32.79700000
 20
12.97000000
  0
VERTEX
  8
0
 62
7
 10
32.82300000
 20
12.95400000
  0
VERTEX
  8
0
 62
7
 10
32.85000000
 20
12.93700000
  0
VERTEX
  8
0
 62
7
 10
32.85800000
 20
12.94100000
  0
VERTEX
  8
0
 62
7
 10
32.87732813
 20
12.95415625
  0
VERTEX
  8
0
 62
7
 10
32.89337500
 20
12.96825000
  0
VERTEX
  8
0
 62
7
 10
32.90623438
 20
12.98346875
  0
VERTEX
  8
0
 62
7
 10
32.91600000
 20
13.00000000
  0
VERTEX
  8
0
 62
7
 10
32.92737500
 20
13.02675000
  0
VERTEX
  8
0
 62
7
 10
32.93500000
 20
13.05200000
  0
VERTEX
  8
0
 62
7
 10
32.93800000
 20
13.13600000
  0
VERTEX
  8
0
 62
7
 10
32.94012500
 20
13.23375000
  0
VERTEX
  8
0
 62
7
 10
32.93700000
 20
13.33000000
  0
VERTEX
  8
0
 62
7
 10
32.93518750
 20
13.37664063
  0
VERTEX
  8
0
 62
7
 10
32.93300000
 20
13.42337500
  0
VERTEX
  8
0
 62
7
 10
32.92856250
 20
13.46992188
  0
VERTEX
  8
0
 62
7
 10
32.92000000
 20
13.51600000
  0
VERTEX
  8
0
 62
7
 10
32.91507813
 20
13.53801563
  0
VERTEX
  8
0
 62
7
 10
32.90987500
 20
13.56012500
  0
VERTEX
  8
0
 62
7
 10
32.90298438
 20
13.58167188
  0
VERTEX
  8
0
 62
7
 10
32.89300000
 20
13.60200000
  0
VERTEX
  8
0
 62
7
 10
32.88490625
 20
13.61507813
  0
VERTEX
  8
0
 62
7
 10
32.87625000
 20
13.62787500
  0
VERTEX
  8
0
 62
7
 10
32.86571875
 20
13.63898438
  0
VERTEX
  8
0
 62
7
 10
32.85200000
 20
13.64700000
  0
VERTEX
  8
0
 62
7
 10
32.84059375
 20
13.65007813
  0
VERTEX
  8
0
 62
7
 10
32.82900000
 20
13.65062500
  0
VERTEX
  8
0
 62
7
 10
32.81740625
 20
13.64910938
  0
VERTEX
  8
0
 62
7
 10
32.80600000
 20
13.64600000
  0
VERTEX
  8
0
 62
7
 10
32.79220313
 20
13.63842188
  0
VERTEX
  8
0
 62
7
 10
32.78037500
 20
13.62737500
  0
VERTEX
  8
0
 62
7
 10
32.76985938
 20
13.61464063
  0
VERTEX
  8
0
 62
7
 10
32.76000000
 20
13.60200000
  0
VERTEX
  8
0
 62
7
 10
32.74881250
 20
13.58259375
  0
VERTEX
  8
0
 62
7
 10
32.74025000
 20
13.56225000
  0
VERTEX
  8
0
 62
7
 10
32.73356250
 20
13.54153125
  0
VERTEX
  8
0
 62
7
 10
32.72800000
 20
13.52100000
  0
VERTEX
  8
0
 62
7
 10
32.72292188
 20
13.49384375
  0
VERTEX
  8
0
 62
7
 10
32.72037500
 20
13.46650000
  0
VERTEX
  8
0
 62
7
 10
32.71914063
 20
13.43915625
  0
VERTEX
  8
0
 62
7
 10
32.71800000
 20
13.41200000
  0
VERTEX
  8
0
 62
7
 10
32.71839063
 20
13.34317188
  0
VERTEX
  8
0
 62
7
 10
32.72337500
 20
13.27462500
  0
VERTEX
  8
0
 62
7
 10
32.73192188
 20
13.20626563
  0
VERTEX
  8
0
 62
7
 10
32.74300000
 20
13.13800000
  0
VERTEX
  8
0
 62
7
 10
32.75312500
 20
13.08212500
  0
VERTEX
  8
0
 62
7
 10
32.76700000
 20
13.02700000
  0
VERTEX
  8
0
 62
7
 10
32.78600000
 20
12.98000000
  0
SEQEND
  0
POLYLINE
  8
0
 62
7
 66
1
  0
VERTEX
  8
0
 62
7
 10
31.35700000
 20
13.91700000
  0
VERTEX
  8
0
 62
7
 10
31.42110938
 20
13.90951563
  0
VERTEX
  8
0
 62
7
 10
31.48437500
 20
13.89762500
  0
VERTEX
  8
0
 62
7
 10
31.54670313
 20
13.88142188
  0
VERTEX
  8
0
 62
7
 10
31.60800000
 20
13.86100000
  0
VERTEX
  8
0
 62
7
 10
31.67789063
 20
13.83179688
  0
VERTEX
  8
0
 62
7
 10
31.74487500
 20
13.79687500
  0
VERTEX
  8
0
 62
7
 10
31.80867188
 20
13.75651563
  0
VERTEX
  8
0
 62
7
 10
31.86900000
 20
13.71100000
  0
VERTEX
  8
0
 62
7
 10
31.86845313
 20
13.75657813
  0
VERTEX
  8
0
 62
7
 10
31.86987500
 20
13.80187500
  0
VERTEX
  8
0
 62
7
 10
31.87335938
 20
13.84698438
  0
VERTEX
  8
0
 62
7
 10
31.87900000
 20
13.89200000
  0
VERTEX
  8
0
 62
7
 10
31.88825000
 20
13.94979688
  0
VERTEX
  8
0
 62
7
 10
31.90050000
 20
14.00712500
  0
VERTEX
  8
0
 62
7
 10
31.91725000
 20
14.06314063
  0
VERTEX
  8
0
 62
7
 10
31.94000000
 20
14.11700000
  0
VERTEX
  8
0
 62
7
 10
31.96267188
 20
14.15803125
  0
VERTEX
  8
0
 62
7
 10
31.98862500
 20
14.19700000
  0
VERTEX
  8
0
 62
7
 10
32.01776563
 20
14.23371875
  0
VERTEX
  8
0
 62
7
 10
32.05000000
 20
14.26800000
  0
SEQEND
  0
POLYLINE
  8
0
 62
7
 66
1
  0
VERTEX
  8
0
 62
7
 10
31.83400000
 20
13.77600000
  0
VERTEX
  8
0
 62
7
 10
31.71900000
 20
14.01700000
  0
VERTEX
  8
0
 62
7
 10
31.56300000
 20
14.34300000
  0
VERTEX
  8
0
 62
7
 10
31.49082813
 20
14.48240625
  0
VERTEX
  8
0
 62
7
 10
31.41762500
 20
14.62125000
  0
VERTEX
  8
0
 62
7
 10
31.34685938
 20
14.76121875
  0
VERTEX
  8
0
 62
7
 10
31.28200000
 20
14.90400000
  0
VERTEX
  8
0
 62
7
 10
31.24990625
 20
14.98496875
  0
VERTEX
  8
0
 62
7
 10
31.22100000
 20
15.06725000
  0
VERTEX
  8
0
 62
7
 10
31.19509375
 20
15.15065625
  0
VERTEX
  8
0
 62
7
 10
31.17200000
 20
15.23500000
  0
SEQEND
  0
POLYLINE
  8
0
 62
7
 66
1
 70
1
  0
VERTEX
  8
0
 62
7
 10
32.75185549
 20
.61808913
  0
VERTEX
  8
0
 62
7
 10
34.70246821
 20
.61808913
  0
VERTEX
  8
0
 62
7
 10
34.70246821
 20
.81800000
  0
VERTEX
  8
0
 62
7
 10
32.75185549
 20
.81800000
  0
VERTEX
  8
0
 62
7
 10
30.80124277
 20
.81800000
  0
VERTEX
  8
0
 62
7
 10
30.80124277
 20
.61808913
  0
VERTEX
  8
0
 62
7
 10
32.75185549
 20
.61808913
  0
SEQEND
  0
POLYLINE
  8
0
 62
7
 66
1
 70
1
  0
VERTEX
  8
0
 62
7
 10
33.72300000
 20
.87800000
  0
VERTEX
  8
0
 62
7
 10
33.84100000
 20
.87800000
  0
VERTEX
  8
0
 62
7
 10
33.84100000
 20
3.94000000
  0
VERTEX
  8
0
 62
7
 10
33.72200000
 20
3.94000000
  0
VERTEX
  8
0
 62
7
 10
33.72300000
 20
.87800000
  0
SEQEND
  0
POLYLINE
  8
0
 62
7
 66
1
 70
1
  0
VERTEX
  8
0
 62
7
 10
33.28600000
 20
1.30200000
  0
VERTEX
  8
0
 62
7
 10
33.20600000
 20
1.33500000
  0
VERTEX
  8
0
 62
7
 10
33.17200000
 20
1.35300000
  0
VERTEX
  8
0
 62
7
 10
33.17300000
 20
.87800000
  0
VERTEX
  8
0
 62
7
 10
33.28600000
 20
.87800000
  0
VERTEX
  8
0
 62
7
 10
33.28600000
 20
1.30200000
  0
SEQEND
  0
POLYLINE
  8
0
 62
7
 66
1
 70
1
  0
VERTEX
  8
0
 62
7
 10
31.78500000
 20
1.03400000
  0
VERTEX
  8
0
 62
7
 10
31.72575000
 20
1.02212500
  0
VERTEX
  8
0
 62
7
 10
31.66500000
 20
1.01700000
  0
VERTEX
  8
0
 62
7
 10
31.66500000
 20
.87800000
  0
VERTEX
  8
0
 62
7
 10
31.78600000
 20
.87800000
  0
VERTEX
  8
0
 62
7
 10
31.78500000
 20
1.03400000
  0
SEQEND
  0
POLYLINE
  8
0
 62
7
 66
1
 70
1
  0
VERTEX
  8
0
 62
7
 10
31.99800000
 20
3.43100000
  0
VERTEX
  8
0
 62
7
 10
32.05900000
 20
3.33200000
  0
VERTEX
  8
0
 62
7
 10
32.11800000
 20
3.25300000
  0
VERTEX
  8
0
 62
7
 10
32.12500000
 20
3.24400000
  0
VERTEX
  8
0
 62
7
 10
32.12500000
 20
3.94000000
  0
VERTEX
  8
0
 62
7
 10
31.99800000
 20
3.94000000
  0
VERTEX
  8
0
 62
7
 10
31.99800000
 20
3.43100000
  0
SEQEND
  0
POLYLINE
  8
0
 62
7
 66
1
 70
1
  0
VERTEX
  8
0
 62
7
 10
32.79800000
 20
.87800000
  0
VERTEX
  8
0
 62
7
 10
32.90500000
 20
.87800000
  0
VERTEX
  8
0
 62
7
 10
32.90596875
 20
.94309375
  0
VERTEX
  8
0
 62
7
 10
32.90900000
 20
1.00800000
  0
VERTEX
  8
0
 62
7
 10
32.91428125
 20
1.07290625
  0
VERTEX
  8
0
 62
7
 10
32.92200000
 20
1.13800000
  0
VERTEX
  8
0
 62
7
 10
32.94125000
 20
1.24437500
  0
VERTEX
  8
0
 62
7
 10
32.96500000
 20
1.35000000
  0
VERTEX
  8
0
 62
7
 10
32.99350000
 20
1.45412500
  0
VERTEX
  8
0
 62
7
 10
33.02800000
 20
1.55600000
  0
VERTEX
  8
0
 62
7
 10
33.07184375
 20
1.50642188
  0
VERTEX
  8
0
 62
7
 10
33.12075000
 20
1.46162500
  0
VERTEX
  8
0
 62
7
 10
33.17453125
 20
1.42226563
  0
VERTEX
  8
0
 62
7
 10
33.23300000
 20
1.38900000
  0
VERTEX
  8
0
 62
7
 10
33.27196875
 20
1.37140625
  0
VERTEX
  8
0
 62
7
 10
33.31225000
 20
1.35625000
  0
VERTEX
  8
0
 62
7
 10
33.35365625
 20
1.34371875
  0
VERTEX
  8
0
 62
7
 10
33.39600000
 20
1.33400000
  0
VERTEX
  8
0
 62
7
 10
33.42809375
 20
1.32851563
  0
VERTEX
  8
0
 62
7
 10
33.46000000
 20
1.32537500
  0
VERTEX
  8
0
 62
7
 10
33.49190625
 20
1.32429688
  0
VERTEX
  8
0
 62
7
 10
33.52400000
 20
1.32500000
  0
VERTEX
  8
0
 62
7
 10
33.55381250
 20
1.32726563
  0
VERTEX
  8
0
 62
7
 10
33.58325000
 20
1.33037500
  0
VERTEX
  8
0
 62
7
 10
33.61231250
 20
1.33554688
  0
VERTEX
  8
0
 62
7
 10
33.64100000
 20
1.34400000
  0
VERTEX
  8
0
 62
7
 10
33.67562500
 20
1.36112500
  0
VERTEX
  8
0
 62
7
 10
33.70800000
 20
1.38200000
  0
VERTEX
  8
0
 62
7
 10
33.66665625
 20
1.43931250
  0
VERTEX
  8
0
 62
7
 10
33.63000000
 20
1.50000000
  0
VERTEX
  8
0
 62
7
 10
33.59859375
 20
1.56368750
  0
VERTEX
  8
0
 62
7
 10
33.57300000
 20
1.63000000
  0
VERTEX
  8
0
 62
7
 10
33.55498438
 20
1.68662500
  0
VERTEX
  8
0
 62
7
 10
33.54137500
 20
1.74400000
  0
VERTEX
  8
0
 62
7
 10
33.53207813
 20
1.80212500
  0
VERTEX
  8
0
 62
7
 10
33.52700000
 20
1.86100000
  0
VERTEX
  8
0
 62
7
 10
33.52643750
 20
1.89789063
  0
VERTEX
  8
0
 62
7
 10
33.52850000
 20
1.93487500
  0
VERTEX
  8
0
 62
7
 10
33.53206250
 20
1.97167188
  0
VERTEX
  8
0
 62
7
 10
33.53600000
 20
2.00800000
  0
VERTEX
  8
0
 62
7
 10
33.54443750
 20
2.06914063
  0
VERTEX
  8
0
 62
7
 10
33.55625000
 20
2.12962500
  0
VERTEX
  8
0
 62
7
 10
33.56918750
 20
2.18954688
  0
VERTEX
  8
0
 62
7
 10
33.58100000
 20
2.24900000
  0
VERTEX
  8
0
 62
7
 10
33.59590625
 20
2.33065625
  0
VERTEX
  8
0
 62
7
 10
33.61100000
 20
2.41250000
  0
VERTEX
  8
0
 62
7
 10
33.62459375
 20
2.49509375
  0
VERTEX
  8
0
 62
7
 10
33.63500000
 20
2.57900000
  0
VERTEX
  8
0
 62
7
 10
33.64600000
 20
2.69462500
  0
VERTEX
  8
0
 62
7
 10
33.65100000
 20
2.81100000
  0
VERTEX
  8
0
 62
7
 10
33.65087500
 20
2.93725000
  0
VERTEX
  8
0
 62
7
 10
33.64700000
 20
3.06200000
  0
VERTEX
  8
0
 62
7
 10
33.64579688
 20
3.11745313
  0
VERTEX
  8
0
 62
7
 10
33.64337500
 20
3.17262500
  0
VERTEX
  8
0
 62
7
 10
33.63926563
 20
3.22723438
  0
VERTEX
  8
0
 62
7
 10
33.63300000
 20
3.28100000
  0
VERTEX
  8
0
 62
7
 10
33.62135938
 20
3.36568750
  0
VERTEX
  8
0
 62
7
 10
33.60587500
 20
3.45000000
  0
VERTEX
  8
0
 62
7
 10
33.58645313
 20
3.53356250
  0
VERTEX
  8
0
 62
7
 10
33.56300000
 20
3.61600000
  0
VERTEX
  8
0
 62
7
 10
33.54420313
 20
3.67057813
  0
VERTEX
  8
0
 62
7
 10
33.52287500
 20
3.72487500
  0
VERTEX
  8
0
 62
7
 10
33.49985938
 20
3.77898438
  0
VERTEX
  8
0
 62
7
 10
33.47600000
 20
3.83300000
  0
VERTEX
  8
0
 62
7
 10
33.45151563
 20
3.89037500
  0
VERTEX
  8
0
 62
7
 10
33.42562500
 20
3.94700000
  0
VERTEX
  8
0
 62
7
 10
33.39767188
 20
4.00287500
  0
VERTEX
  8
0
 62
7
 10
33.36700000
 20
4.05800000
  0
VERTEX
  8
0
 62
7
 10
33.34210938
 20
4.09842188
  0
VERTEX
  8
0
 62
7
 10
33.31637500
 20
4.13837500
  0
VERTEX
  8
0
 62
7
 10
33.28895313
 20
4.17739063
  0
VERTEX
  8
0
 62
7
 10
33.25900000
 20
4.21500000
  0
VERTEX
  8
0
 62
7
 10
33.20375000
 20
4.27362500
  0
VERTEX
  8
0
 62
7
 10
33.14100000
 20
4.32700000
  0
VERTEX
  8
0
 62
7
 10
33.13953125
 20
4.30065625
  0
VERTEX
  8
0
 62
7
 10
33.14125000
 20
4.27450000
  0
VERTEX
  8
0
 62
7
 10
33.14634375
 20
4.24909375
  0
VERTEX
  8
0
 62
7
 10
33.15500000
 20
4.22500000
  0
VERTEX
  8
0
 62
7
 10
33.18400000
 20
4.18000000
  0
VERTEX
  8
0
 62
7
 10
33.19551758
 20
4.15771680
  0
VERTEX
  8
0
 62
7
 10
33.20470313
 20
4.13448438
  0
VERTEX
  8
0
 62
7
 10
33.21175586
 20
4.11047852
  0
VERTEX
  8
0
 62
7
 10
33.21687500
 20
4.08587500
  0
VERTEX
  8
0
 62
7
 10
33.22025977
 20
4.06084961
  0
VERTEX
  8
0
 62
7
 10
33.22210938
 20
4.03557813
  0
VERTEX
  8
0
 62
7
 10
33.22262305
 20
4.01023633
  0
VERTEX
  8
0
 62
7
 10
33.22200000
 20
3.98500000
  0
VERTEX
  8
0
 62
7
 10
33.21721875
 20
3.93462500
  0
VERTEX
  8
0
 62
7
 10
33.20925000
 20
3.88425000
  0
VERTEX
  8
0
 62
7
 10
33.19865625
 20
3.83425000
  0
VERTEX
  8
0
 62
7
 10
33.18600000
 20
3.78500000
  0
VERTEX
  8
0
 62
7
 10
33.16767188
 20
3.72762500
  0
VERTEX
  8
0
 62
7
 10
33.14512500
 20
3.67100000
  0
VERTEX
  8
0
 62
7
 10
33.11976563
 20
3.61512500
  0
VERTEX
  8
0
 62
7
 10
33.09300000
 20
3.56000000
  0
VERTEX
  8
0
 62
7
 10
33.02300000
 20
3.43300000
  0
VERTEX
  8
0
 62
7
 10
32.99798438
 20
3.37906250
  0
VERTEX
  8
0
 62
7
 10
32.97512500
 20
3.32400000
  0
VERTEX
  8
0
 62
7
 10
32.95395313
 20
3.26818750
  0
VERTEX
  8
0
 62
7
 10
32.93400000
 20
3.21200000
  0
VERTEX
  8
0
 62
7
 10
32.88500000
 20
3.05600000
  0
VERTEX
  8
0
 62
7
 10
32.87276563
 20
3.00710938
  0
VERTEX
  8
0
 62
7
 10
32.86062500
 20
2.95812500
  0
VERTEX
  8
0
 62
7
 10
32.84717188
 20
2.90932813
  0
VERTEX
  8
0
 62
7
 10
32.83100000
 20
2.86100000
  0
VERTEX
  8
0
 62
7
 10
32.81365625
 20
2.81212500
  0
VERTEX
  8
0
 62
7
 10
32.79425000
 20
2.76325000
  0
VERTEX
  8
0
 62
7
 10
32.77221875
 20
2.71475000
  0
VERTEX
  8
0
 62
7
 10
32.74700000
 20
2.66700000
  0
VERTEX
  8
0
 62
7
 10
32.70500000
 20
2.59887500
  0
VERTEX
  8
0
 62
7
 10
32.65700000
 20
2.53300000
  0
VERTEX
  8
0
 62
7
 10
32.59600000
 20
2.47400000
  0
VERTEX
  8
0
 62
7
 10
32.61100000
 20
2.44400000
  0
VERTEX
  8
0
 62
7
 10
32.61500000
 20
2.43500000
  0
VERTEX
  8
0
 62
7
 10
32.64321875
 20
2.37192188
  0
VERTEX
  8
0
 62
7
 10
32.67050000
 20
2.30837500
  0
VERTEX
  8
0
 62
7
 10
32.69628125
 20
2.24389063
  0
VERTEX
  8
0
 62
7
 10
32.72000000
 20
2.17800000
  0
VERTEX
  8
0
 62
7
 10
32.73887500
 20
2.10925000
  0
VERTEX
  8
0
 62
7
 10
32.75400000
 20
2.04200000
  0
VERTEX
  8
0
 62
7
 10
32.77800000
 20
1.94600000
  0
VERTEX
  8
0
 62
7
 10
32.79000000
 20
1.90000000
  0
VERTEX
  8
0
 62
7
 10
32.80837500
 20
1.83637500
  0
VERTEX
  8
0
 62
7
 10
32.82900000
 20
1.77800000
  0
VERTEX
  8
0
 62
7
 10
32.85312500
 20
1.72078125
  0
VERTEX
  8
0
 62
7
 10
32.88175000
 20
1.66600000
  0
VERTEX
  8
0
 62
7
 10
32.91450000
 20
1.61346875
  0
VERTEX
  8
0
 62
7
 10
32.95100000
 20
1.56300000
  0
VERTEX
  8
0
 62
7
 10
32.95950391
 20
1.54685742
  0
VERTEX
  8
0
 62
7
 10
32.96221875
 20
1.53042188
  0
VERTEX
  8
0
 62
7
 10
32.95982422
 20
1.51443164
  0
VERTEX
  8
0
 62
7
 10
32.95300000
 20
1.49962500
  0
VERTEX
  8
0
 62
7
 10
32.94242578
 20
1.48674023
  0
VERTEX
  8
0
 62
7
 10
32.92878125
 20
1.47651563
  0
VERTEX
  8
0
 62
7
 10
32.91274609
 20
1.46968945
  0
VERTEX
  8
0
 62
7
 10
32.89500000
 20
1.46700000
  0
VERTEX
  8
0
 62
7
 10
32.88100000
 20
1.46700000
  0
VERTEX
  8
0
 62
7
 10
32.86200000
 20
1.46400000
  0
VERTEX
  8
0
 62
7
 10
32.83575000
 20
1.37371875
  0
VERTEX
  8
0
 62
7
 10
32.81550000
 20
1.28175000
  0
VERTEX
  8
0
 62
7
 10
32.80125000
 20
1.18865625
  0
VERTEX
  8
0
 62
7
 10
32.79300000
 20
1.09500000
  0
VERTEX
  8
0
 62
7
 10
32.79062500
 20
1.01700000
  0
VERTEX
  8
0
 62
7
 10
32.79200000
 20
.93900000
  0
VERTEX
  8
0
 62
7
 10
32.79800000
 20
.87800000
  0
SEQEND
  0
POLYLINE
  8
0
 62
7
 66
1
 70
1
  0
VERTEX
  8
0
 62
7
 10
11.11200000
 20
14.63900000
  0
VERTEX
  8
0
 62
7
 10
11.62763672
 20
14.65038281
  0
VERTEX
  8
0
 62
7
 10
12.10771875
 20
14.66743750
  0
VERTEX
  8
0
 62
7
 10
12.55625391
 20
14.68927344
  0
VERTEX
  8
0
 62
7
 10
12.97725000
 20
14.71500000
  0
VERTEX
  8
0
 62
7
 10
13.37471484
 20
14.74372656
  0
VERTEX
  8
0
 62
7
 10
13.75265625
 20
14.77456250
  0
VERTEX
  8
0
 62
7
 10
14.11508203
 20
14.80661719
  0
VERTEX
  8
0
 62
7
 10
14.46600000
 20
14.83900000
  0
VERTEX
  8
0
 62
7
 10
14.58900000
 20
14.85100000
  0
VERTEX
  8
0
 62
7
 10
15.01100000
 20
14.88900000
  0
VERTEX
  8
0
 62
7
 10
15.36084375
 20
14.92142188
  0
VERTEX
  8
0
 62
7
 10
15.73975000
 20
14.95937500
  0
VERTEX
  8
0
 62
7
 10
16.14303125
 20
15.00164063
  0
VERTEX
  8
0
 62
7
 10
16.56600000
 20
15.04700000
  0
VERTEX
  8
0
 62
7
 10
16.57500000
 20
15.04800000
  0
VERTEX
  8
0
 62
7
 10
17.05148438
 20
15.09803125
  0
VERTEX
  8
0
 62
7
 10
17.53987500
 20
15.14825000
  0
VERTEX
  8
0
 62
7
 10
18.03482813
 20
15.19734375
  0
VERTEX
  8
0
 62
7
 10
18.53100000
 20
15.24400000
  0
VERTEX
  8
0
 62
7
 10
18.84050781
 20
15.27038867
  0
VERTEX
  8
0
 62
7
 10
19.15025000
 20
15.29329688
  0
VERTEX
  8
0
 62
7
 10
19.46017969
 20
15.31271289
  0
VERTEX
  8
0
 62
7
 10
19.77025000
 20
15.32862500
  0
VERTEX
  8
0
 62
7
 10
20.08041406
 20
15.34102148
  0
VERTEX
  8
0
 62
7
 10
20.39062500
 20
15.34989063
  0
VERTEX
  8
0
 62
7
 10
20.70083594
 20
15.35522070
  0
VERTEX
  8
0
 62
7
 10
21.01100000
 20
15.35700000
  0
VERTEX
  8
0
 62
7
 10
21.31849609
 20
15.35526367
  0
VERTEX
  8
0
 62
7
 10
21.62596875
 20
15.35004688
  0
VERTEX
  8
0
 62
7
 10
21.93339453
 20
15.34133789
  0
VERTEX
  8
0
 62
7
 10
22.24075000
 20
15.32912500
  0
VERTEX
  8
0
 62
7
 10
22.54801172
 20
15.31339648
  0
VERTEX
  8
0
 62
7
 10
22.85515625
 20
15.29414063
  0
VERTEX
  8
0
 62
7
 10
23.16216016
 20
15.27134570
  0
VERTEX
  8
0
 62
7
 10
23.46900000
 20
15.24500000
  0
VERTEX
  8
0
 62
7
 10
23.94989063
 20
15.19967188
  0
VERTEX
  8
0
 62
7
 10
24.42937500
 20
15.15162500
  0
VERTEX
  8
0
 62
7
 10
24.90267188
 20
15.10226563
  0
VERTEX
  8
0
 62
7
 10
25.36500000
 20
15.05300000
  0
VERTEX
  8
0
 62
7
 10
25.41000000
 20
15.04900000
  0
VERTEX
  8
0
 62
7
 10
25.84009375
 20
15.00304688
  0
VERTEX
  8
0
 62
7
 10
26.24975000
 20
14.96037500
  0
VERTEX
  8
0
 62
7
 10
26.63428125
 20
14.92201563
  0
VERTEX
  8
0
 62
7
 10
26.98900000
 20
14.88900000
  0
VERTEX
  8
0
 62
7
 10
27.53700000
 20
14.83900000
  0
VERTEX
  8
0
 62
7
 10
27.88750000
 20
14.80661719
  0
VERTEX
  8
0
 62
7
 10
28.24943750
 20
14.77456250
  0
VERTEX
  8
0
 62
7
 10
28.62684375
 20
14.74372656
  0
VERTEX
  8
0
 62
7
 10
29.02375000
 20
14.71500000
  0
VERTEX
  8
0
 62
7
 10
29.44418750
 20
14.68927344
  0
VERTEX
  8
0
 62
7
 10
29.89218750
 20
14.66743750
  0
VERTEX
  8
0
 62
7
 10
30.37178125
 20
14.65038281
  0
VERTEX
  8
0
 62
7
 10
30.88700000
 20
14.63900000
  0
VERTEX
  8
0
 62
7
 10
30.92175000
 20
14.52375000
  0
VERTEX
  8
0
 62
7
 10
30.96400000
 20
14.41000000
  0
VERTEX
  8
0
 62
7
 10
31.00500000
 20
14.32300000
  0
VERTEX
  8
0
 62
7
 10
31.03350000
 20
14.26062500
  0
VERTEX
  8
0
 62
7
 10
31.05600000
 20
14.20200000
  0
VERTEX
  8
0
 62
7
 10
31.07626563
 20
14.13685938
  0
VERTEX
  8
0
 62
7
 10
31.09287500
 20
14.07012500
  0
VERTEX
  8
0
 62
7
 10
31.10704688
 20
14.00132813
  0
VERTEX
  8
0
 62
7
 10
31.12000000
 20
13.93000000
  0
VERTEX
  8
0
 62
7
 10
31.12000000
 20
13.92300000
  0
VERTEX
  8
0
 62
7
 10
31.13250000
 20
13.84687500
  0
VERTEX
  8
0
 62
7
 10
31.14200000
 20
13.76700000
  0
VERTEX
  8
0
 62
7
 10
31.14760938
 20
13.70156250
  0
VERTEX
  8
0
 62
7
 10
31.15612500
 20
13.63350000
  0
VERTEX
  8
0
 62
7
 10
31.16857813
 20
13.56393750
  0
VERTEX
  8
0
 62
7
 10
31.18600000
 20
13.49400000
  0
VERTEX
  8
0
 62
7
 10
31.20235938
 20
13.44826563
  0
VERTEX
  8
0
 62
7
 10
31.22087500
 20
13.40412500
  0
VERTEX
  8
0
 62
7
 10
31.24070313
 20
13.36167188
  0
VERTEX
  8
0
 62
7
 10
31.26100000
 20
13.32100000
  0
VERTEX
  8
0
 62
7
 10
31.23837500
 20
13.30462500
  0
VERTEX
  8
0
 62
7
 10
31.22100000
 20
13.28900000
  0
VERTEX
  8
0
 62
7
 10
31.19265625
 20
13.26053125
  0
VERTEX
  8
0
 62
7
 10
31.17125000
 20
13.23075000
  0
VERTEX
  8
0
 62
7
 10
31.15546875
 20
13.20209375
  0
VERTEX
  8
0
 62
7
 10
31.14400000
 20
13.17700000
  0
VERTEX
  8
0
 62
7
 10
31.12687500
 20
13.13548438
  0
VERTEX
  8
0
 62
7
 10
31.11425000
 20
13.09387500
  0
VERTEX
  8
0
 62
7
 10
31.10575000
 20
13.05282813
  0
VERTEX
  8
0
 62
7
 10
31.10100000
 20
13.01300000
  0
VERTEX
  8
0
 62
7
 10
31.09900000
 20
12.96700000
  0
VERTEX
  8
0
 62
7
 10
31.10045313
 20
12.92893750
  0
VERTEX
  8
0
 62
7
 10
31.10462500
 20
12.89125000
  0
VERTEX
  8
0
 62
7
 10
31.11123438
 20
12.85393750
  0
VERTEX
  8
0
 62
7
 10
31.12000000
 20
12.81700000
  0
VERTEX
  8
0
 62
7
 10
31.13925000
 20
12.76262500
  0
VERTEX
  8
0
 62
7
 10
31.16300000
 20
12.71200000
  0
VERTEX
  8
0
 62
7
 10
31.16500000
 20
12.70700000
  0
VERTEX
  8
0
 62
7
 10
31.12025000
 20
12.63287500
  0
VERTEX
  8
0
 62
7
 10
31.07700000
 20
12.55500000
  0
VERTEX
  8
0
 62
7
 10
31.04310938
 20
12.48540625
  0
VERTEX
  8
0
 62
7
 10
31.01212500
 20
12.41450000
  0
VERTEX
  8
0
 62
7
 10
30.98432813
 20
12.34209375
  0
VERTEX
  8
0
 62
7
 10
30.96000000
 20
12.26800000
  0
VERTEX
  8
0
 62
7
 10
30.94393164
 20
12.21339453
  0
VERTEX
  8
0
 62
7
 10
30.92951563
 20
12.15834375
  0
VERTEX
  8
0
 62
7
 10
30.91681055
 20
12.10287109
  0
VERTEX
  8
0
 62
7
 10
30.90587500
 20
12.04700000
  0
VERTEX
  8
0
 62
7
 10
30.89676758
 20
11.99075391
  0
VERTEX
  8
0
 62
7
 10
30.88954688
 20
11.93415625
  0
VERTEX
  8
0
 62
7
 10
30.88427148
 20
11.87723047
  0
VERTEX
  8
0
 62
7
 10
30.88100000
 20
11.82000000
  0
VERTEX
  8
0
 62
7
 10
30.88100000
 20
11.76200000
  0
VERTEX
  8
0
 62
7
 10
30.88217188
 20
11.69184375
  0
VERTEX
  8
0
 62
7
 10
30.88587500
 20
11.62225000
  0
VERTEX
  8
0
 62
7
 10
30.89239063
 20
11.55303125
  0
VERTEX
  8
0
 62
7
 10
30.90200000
 20
11.48400000
  0
VERTEX
  8
0
 62
7
 10
30.90200000
 20
11.48100000
  0
VERTEX
  8
0
 62
7
 10
11.09800000
 20
11.48100000
  0
VERTEX
  8
0
 62
7
 10
11.09800000
 20
11.48400000
  0
VERTEX
  8
0
 62
7
 10
11.10692188
 20
11.55303125
  0
VERTEX
  8
0
 62
7
 10
11.11387500
 20
11.62225000
  0
VERTEX
  8
0
 62
7
 10
11.11839063
 20
11.69184375
  0
VERTEX
  8
0
 62
7
 10
11.12000000
 20
11.76200000
  0
VERTEX
  8
0
 62
7
 10
11.12000000
 20
11.82000000
  0
VERTEX
  8
0
 62
7
 10
11.11087500
 20
11.93415625
  0
VERTEX
  8
0
 62
7
 10
11.09425000
 20
12.04700000
  0
VERTEX
  8
0
 62
7
 10
11.07050000
 20
12.15834375
  0
VERTEX
  8
0
 62
7
 10
11.04000000
 20
12.26800000
  0
VERTEX
  8
0
 62
7
 10
11.01567188
 20
12.34209375
  0
VERTEX
  8
0
 62
7
 10
10.98787500
 20
12.41450000
  0
VERTEX
  8
0
 62
7
 10
10.95689063
 20
12.48540625
  0
VERTEX
  8
0
 62
7
 10
10.92300000
 20
12.55500000
  0
VERTEX
  8
0
 62
7
 10
10.87975000
 20
12.63287500
  0
VERTEX
  8
0
 62
7
 10
10.83500000
 20
12.70700000
  0
VERTEX
  8
0
 62
7
 10
10.83500000
 20
12.71200000
  0
VERTEX
  8
0
 62
7
 10
10.86050000
 20
12.76262500
  0
VERTEX
  8
0
 62
7
 10
10.88000000
 20
12.81700000
  0
VERTEX
  8
0
 62
7
 10
10.88876563
 20
12.85393750
  0
VERTEX
  8
0
 62
7
 10
10.89537500
 20
12.89125000
  0
VERTEX
  8
0
 62
7
 10
10.89954688
 20
12.92893750
  0
VERTEX
  8
0
 62
7
 10
10.90100000
 20
12.96700000
  0
VERTEX
  8
0
 62
7
 10
10.89900000
 20
13.01300000
  0
VERTEX
  8
0
 62
7
 10
10.89425000
 20
13.05282813
  0
VERTEX
  8
0
 62
7
 10
10.88575000
 20
13.09387500
  0
VERTEX
  8
0
 62
7
 10
10.87312500
 20
13.13548438
  0
VERTEX
  8
0
 62
7
 10
10.85600000
 20
13.17700000
  0
VERTEX
  8
0
 62
7
 10
10.84467188
 20
13.20209375
  0
VERTEX
  8
0
 62
7
 10
10.82837500
 20
13.23075000
  0
VERTEX
  8
0
 62
7
 10
10.80664063
 20
13.26053125
  0
VERTEX
  8
0
 62
7
 10
10.77900000
 20
13.28900000
  0
VERTEX
  8
0
 62
7
 10
10.76162500
 20
13.30462500
  0
VERTEX
  8
0
 62
7
 10
10.73900000
 20
13.32100000
  0
VERTEX
  8
0
 62
7
 10
10.75971875
 20
13.36167188
  0
VERTEX
  8
0
 62
7
 10
10.77950000
 20
13.40412500
  0
VERTEX
  8
0
 62
7
 10
10.79778125
 20
13.44826563
  0
VERTEX
  8
0
 62
7
 10
10.81400000
 20
13.49400000
  0
VERTEX
  8
0
 62
7
 10
10.83115625
 20
13.56393750
  0
VERTEX
  8
0
 62
7
 10
10.84325000
 20
13.63350000
  0
VERTEX
  8
0
 62
7
 10
10.85196875
 20
13.70156250
  0
VERTEX
  8
0
 62
7
 10
10.85900000
 20
13.76700000
  0
VERTEX
  8
0
 62
7
 10
10.86762500
 20
13.84687500
  0
VERTEX
  8
0
 62
7
 10
10.88000000
 20
13.92300000
  0
VERTEX
  8
0
 62
7
 10
10.88000000
 20
13.93000000
  0
VERTEX
  8
0
 62
7
 10
10.89292188
 20
14.00132813
  0
VERTEX
  8
0
 62
7
 10
10.90687500
 20
14.07012500
  0
VERTEX
  8
0
 62
7
 10
10.92289063
 20
14.13685938
  0
VERTEX
  8
0
 62
7
 10
10.94200000
 20
14.20200000
  0
VERTEX
  8
0
 62
7
 10
10.96625000
 20
14.26062500
  0
VERTEX
  8
0
 62
7
 10
10.99500000
 20
14.32300000
  0
VERTEX
  8
0
 62
7
 10
11.03400000
 20
14.41000000
  0
VERTEX
  8
0
 62
7
 10
11.05645313
 20
14.46645313
  0
VERTEX
  8
0
 62
7
 10
11.07712500
 20
14.52337500
  0
VERTEX
  8
0
 62
7
 10
11.09573438
 20
14.58085938
  0
VERTEX
  8
0
 62
7
 10
11.11200000
 20
14.63900000
  0
SEQEND
  0
POLYLINE
  8
0
 62
7
 66
1
 70
1
  0
VERTEX
  8
0
 62
7
 10
32.38800000
 20
.87800000
  0
VERTEX
  8
0
 62
7
 10
32.48400000
 20
.87800000
  0
VERTEX
  8
0
 62
7
 10
32.47500000
 20
.95387500
  0
VERTEX
  8
0
 62
7
 10
32.46000000
 20
1.02900000
  0
VERTEX
  8
0
 62
7
 10
32.44964063
 20
1.06900000
  0
VERTEX
  8
0
 62
7
 10
32.43712500
 20
1.10825000
  0
VERTEX
  8
0
 62
7
 10
32.42329688
 20
1.14712500
  0
VERTEX
  8
0
 62
7
 10
32.40900000
 20
1.18600000
  0
VERTEX
  8
0
 62
7
 10
32.37962500
 20
1.25237500
  0
VERTEX
  8
0
 62
7
 10
32.34800000
 20
1.31800000
  0
VERTEX
  8
0
 62
7
 10
32.32700000
 20
1.36400000
  0
VERTEX
  8
0
 62
7
 10
32.31500000
 20
1.39600000
  0
VERTEX
  8
0
 62
7
 10
32.31100000
 20
1.41462500
  0
VERTEX
  8
0
 62
7
 10
32.31000000
 20
1.43400000
  0
VERTEX
  8
0
 62
7
 10
32.35951563
 20
1.42610938
  0
VERTEX
  8
0
 62
7
 10
32.40912500
 20
1.42037500
  0
VERTEX
  8
0
 62
7
 10
32.45892188
 20
1.41670313
  0
VERTEX
  8
0
 62
7
 10
32.50900000
 20
1.41500000
  0
VERTEX
  8
0
 62
7
 10
32.53990625
 20
1.41554688
  0
VERTEX
  8
0
 62
7
 10
32.57100000
 20
1.41637500
  0
VERTEX
  8
0
 62
7
 10
32.60209375
 20
1.41851563
  0
VERTEX
  8
0
 62
7
 10
32.63300000
 20
1.42300000
  0
VERTEX
  8
0
 62
7
 10
32.65560938
 20
1.42615625
  0
VERTEX
  8
0
 62
7
 10
32.67812500
 20
1.43025000
  0
VERTEX
  8
0
 62
7
 10
32.70007813
 20
1.43621875
  0
VERTEX
  8
0
 62
7
 10
32.72100000
 20
1.44500000
  0
VERTEX
  8
0
 62
7
 10
32.75200000
 20
1.46700000
  0
VERTEX
  8
0
 62
7
 10
32.76515625
 20
1.47704688
  0
VERTEX
  8
0
 62
7
 10
32.77700000
 20
1.48812500
  0
VERTEX
  8
0
 62
7
 10
32.78884375
 20
1.49864063
  0
VERTEX
  8
0
 62
7
 10
32.80200000
 20
1.50700000
  0
VERTEX
  8
0
 62
7
 10
32.83400000
 20
1.52000000
  0
VERTEX
  8
0
 62
7
 10
32.86800000
 20
1.52550000
  0
VERTEX
  8
0
 62
7
 10
32.90200000
 20
1.52500000
  0
VERTEX
  8
0
 62
7
 10
32.86398438
 20
1.57921875
  0
VERTEX
  8
0
 62
7
 10
32.82962500
 20
1.63550000
  0
VERTEX
  8
0
 62
7
 10
32.79920313
 20
1.69403125
  0
VERTEX
  8
0
 62
7
 10
32.77300000
 20
1.75500000
  0
VERTEX
  8
0
 62
7
 10
32.75698438
 20
1.79779688
  0
VERTEX
  8
0
 62
7
 10
32.74387500
 20
1.84162500
  0
VERTEX
  8
0
 62
7
 10
32.73207813
 20
1.88564063
  0
VERTEX
  8
0
 62
7
 10
32.72000000
 20
1.92900000
  0
VERTEX
  8
0
 62
7
 10
32.66400000
 20
2.15800000
  0
VERTEX
  8
0
 62
7
 10
32.63995313
 20
2.22409375
  0
VERTEX
  8
0
 62
7
 10
32.61337500
 20
2.28925000
  0
VERTEX
  8
0
 62
7
 10
32.58510938
 20
2.35403125
  0
VERTEX
  8
0
 62
7
 10
32.55600000
 20
2.41900000
  0
VERTEX
  8
0
 62
7
 10
32.50500000
 20
2.52787500
  0
VERTEX
  8
0
 62
7
 10
32.45100000
 20
2.63600000
  0
VERTEX
  8
0
 62
7
 10
32.41410938
 20
2.69757813
  0
VERTEX
  8
0
 62
7
 10
32.37487500
 20
2.75812500
  0
VERTEX
  8
0
 62
7
 10
32.33470313
 20
2.81810938
  0
VERTEX
  8
0
 62
7
 10
32.29500000
 20
2.87800000
  0
VERTEX
  8
0
 62
7
 10
32.25337500
 20
2.94534375
  0
VERTEX
  8
0
 62
7
 10
32.21175000
 20
3.01325000
  0
VERTEX
  8
0
 62
7
 10
32.16900000
 20
3.08078125
  0
VERTEX
  8
0
 62
7
 10
32.12400000
 20
3.14700000
  0
VERTEX
  8
0
 62
7
 10
32.00900000
 20
3.29900000
  0
VERTEX
  8
0
 62
7
 10
31.95537500
 20
3.38475000
  0
VERTEX
  8
0
 62
7
 10
31.90400000
 20
3.47200000
  0
VERTEX
  8
0
 62
7
 10
31.88053125
 20
3.51192188
  0
VERTEX
  8
0
 62
7
 10
31.85725000
 20
3.55137500
  0
VERTEX
  8
0
 62
7
 10
31.83509375
 20
3.59139063
  0
VERTEX
  8
0
 62
7
 10
31.81500000
 20
3.63300000
  0
VERTEX
  8
0
 62
7
 10
31.79696875
 20
3.68154688
  0
VERTEX
  8
0
 62
7
 10
31.78100000
 20
3.73112500
  0
VERTEX
  8
0
 62
7
 10
31.76803125
 20
3.78164063
  0
VERTEX
  8
0
 62
7
 10
31.75900000
 20
3.83300000
  0
VERTEX
  8
0
 62
7
 10
31.75460938
 20
3.88448438
  0
VERTEX
  8
0
 62
7
 10
31.75462500
 20
3.93662500
  0
VERTEX
  8
0
 62
7
 10
31.75857813
 20
3.98895313
  0
VERTEX
  8
0
 62
7
 10
31.76600000
 20
4.04100000
  0
VERTEX
  8
0
 62
7
 10
31.77479688
 20
4.08370313
  0
VERTEX
  8
0
 62
7
 10
31.78612500
 20
4.12612500
  0
VERTEX
  8
0
 62
7
 10
31.79989063
 20
4.16798438
  0
VERTEX
  8
0
 62
7
 10
31.81600000
 20
4.20900000
  0
VERTEX
  8
0
 62
7
 10
31.75918750
 20
4.17739063
  0
VERTEX
  8
0
 62
7
 10
31.70650000
 20
4.13837500
  0
VERTEX
  8
0
 62
7
 10
31.65906250
 20
4.09242188
  0
VERTEX
  8
0
 62
7
 10
31.61800000
 20
4.04000000
  0
VERTEX
  8
0
 62
7
 10
31.59512500
 20
4.00525000
  0
VERTEX
  8
0
 62
7
 10
31.57600000
 20
3.96900000
  0
VERTEX
  8
0
 62
7
 10
31.55246875
 20
3.91700000
  0
VERTEX
  8
0
 62
7
 10
31.53325000
 20
3.86350000
  0
VERTEX
  8
0
 62
7
 10
31.51665625
 20
3.80925000
  0
VERTEX
  8
0
 62
7
 10
31.50100000
 20
3.75500000
  0
VERTEX
  8
0
 62
7
 10
31.48220313
 20
3.68067188
  0
VERTEX
  8
0
 62
7
 10
31.46612500
 20
3.60512500
  0
VERTEX
  8
0
 62
7
 10
31.45248438
 20
3.52901563
  0
VERTEX
  8
0
 62
7
 10
31.44100000
 20
3.45300000
  0
VERTEX
  8
0
 62
7
 10
31.43075000
 20
3.37123438
  0
VERTEX
  8
0
 62
7
 10
31.42275000
 20
3.28937500
  0
VERTEX
  8
0
 62
7
 10
31.41737500
 20
3.20732813
  0
VERTEX
  8
0
 62
7
 10
31.41500000
 20
3.12500000
  0
VERTEX
  8
0
 62
7
 10
31.41489063
 20
3.05090625
  0
VERTEX
  8
0
 62
7
 10
31.41712500
 20
2.97700000
  0
VERTEX
  8
0
 62
7
 10
31.42104688
 20
2.90309375
  0
VERTEX
  8
0
 62
7
 10
31.42600000
 20
2.82900000
  0
VERTEX
  8
0
 62
7
 10
31.44175000
 20
2.67525000
  0
VERTEX
  8
0
 62
7
 10
31.46200000
 20
2.52300000
  0
VERTEX
  8
0
 62
7
 10
31.50800000
 20
2.26100000
  0
VERTEX
  8
0
 62
7
 10
31.54850000
 20
2.06412500
  0
VERTEX
  8
0
 62
7
 10
31.58600000
 20
1.86800000
  0
VERTEX
  8
0
 62
7
 10
31.61725000
 20
1.69837500
  0
VERTEX
  8
0
 62
7
 10
31.64400000
 20
1.52800000
  0
VERTEX
  8
0
 62
7
 10
31.65107813
 20
1.48075000
  0
VERTEX
  8
0
 62
7
 10
31.65787500
 20
1.43350000
  0
VERTEX
  8
0
 62
7
 10
31.66298438
 20
1.38625000
  0
VERTEX
  8
0
 62
7
 10
31.66500000
 20
1.33900000
  0
VERTEX
  8
0
 62
7
 10
31.66200000
 20
1.26562500
  0
VERTEX
  8
0
 62
7
 10
31.65300000
 20
1.19300000
  0
VERTEX
  8
0
 62
7
 10
31.63837500
 20
1.13475000
  0
VERTEX
  8
0
 62
7
 10
31.62000000
 20
1.07800000
  0
VERTEX
  8
0
 62
7
 10
31.66956250
 20
1.07745313
  0
VERTEX
  8
0
 62
7
 10
31.71875000
 20
1.08187500
  0
VERTEX
  8
0
 62
7
 10
31.76681250
 20
1.09135938
  0
VERTEX
  8
0
 62
7
 10
31.81300000
 20
1.10600000
  0
VERTEX
  8
0
 62
7
 10
31.85125000
 20
1.12187500
  0
VERTEX
  8
0
 62
7
 10
31.88800000
 20
1.14075000
  0
VERTEX
  8
0
 62
7
 10
31.92325000
 20
1.16225000
  0
VERTEX
  8
0
 62
7
 10
31.95700000
 20
1.18600000
  0
VERTEX
  8
0
 62
7
 10
31.98979688
 20
1.21385938
  0
VERTEX
  8
0
 62
7
 10
32.02062500
 20
1.24462500
  0
VERTEX
  8
0
 62
7
 10
32.04939063
 20
1.27782813
  0
VERTEX
  8
0
 62
7
 10
32.07600000
 20
1.31300000
  0
VERTEX
  8
0
 62
7
 10
32.11637500
 20
1.37250000
  0
VERTEX
  8
0
 62
7
 10
32.15000000
 20
1.43500000
  0
VERTEX
  8
0
 62
7
 10
32.20600000
 20
1.36060938
  0
VERTEX
  8
0
 62
7
 10
32.25525000
 20
1.28162500
  0
VERTEX
  8
0
 62
7
 10
32.29737500
 20
1.19832813
  0
VERTEX
  8
0
 62
7
 10
32.33200000
 20
1.11100000
  0
VERTEX
  8
0
 62
7
 10
32.34720313
 20
1.07115625
  0
VERTEX
  8
0
 62
7
 10
32.35987500
 20
1.03000000
  0
VERTEX
  8
0
 62
7
 10
32.37010938
 20
.98809375
  0
VERTEX
  8
0
 62
7
 10
32.37800000
 20
.94600000
  0
VERTEX
  8
0
 62
7
 10
32.38800000
 20
.87800000
  0
SEQEND
  0
POLYLINE
  8
0
 62
7
 66
1
  0
VERTEX
  8
0
 62
7
 10
31.72500000
 20
1.82200000
  0
VERTEX
  8
0
 62
7
 10
31.76207250
 20
1.82294669
  0
VERTEX
  8
0
 62
7
 10
31.79895568
 20
1.82124265
  0
VERTEX
  8
0
 62
7
 10
31.83546026
 20
1.81688786
  0
VERTEX
  8
0
 62
7
 10
31.87139692
 20
1.80988233
  0
VERTEX
  8
0
 62
7
 10
31.93194340
 20
1.79014377
  0
VERTEX
  8
0
 62
7
 10
31.99002890
 20
1.76406237
  0
VERTEX
  8
0
 62
7
 10
32.04432828
 20
1.73135411
  0
VERTEX
  8
0
 62
7
 10
32.09351638
 20
1.69173500
  0
VERTEX
  8
0
 62
7
 10
32.13278167
 20
1.64974915
  0
VERTEX
  8
0
 62
7
 10
32.16684104
 20
1.60426054
  0
VERTEX
  8
0
 62
7
 10
32.19503191
 20
1.55555316
  0
VERTEX
  8
0
 62
7
 10
32.21669171
 20
1.50391104
  0
VERTEX
  8
0
 62
7
 10
32.21596604
 20
1.53781844
  0
VERTEX
  8
0
 62
7
 10
32.21694412
 20
1.57144183
  0
VERTEX
  8
0
 62
7
 10
32.21981527
 20
1.60487589
  0
VERTEX
  8
0
 62
7
 10
32.22476879
 20
1.63821527
  0
VERTEX
  8
0
 62
7
 10
32.23587476
 20
1.68908426
  0
VERTEX
  8
0
 62
7
 10
32.25000963
 20
1.73919589
  0
VERTEX
  8
0
 62
7
 10
32.26711031
 20
1.78488962
  0
VERTEX
  8
0
 62
7
 10
32.28761850
 20
1.82831129
  0
VERTEX
  8
0
 62
7
 10
32.31077697
 20
1.86983957
  0
VERTEX
  8
0
 62
7
 10
32.33582852
 20
1.90985314
  0
VERTEX
  8
0
 62
7
 10
32.36837343
 20
1.95701425
  0
VERTEX
  8
0
 62
7
 10
32.40385260
 20
2.00161928
  0
VERTEX
  8
0
 62
7
 10
32.44217136
 20
2.04376291
  0
VERTEX
  8
0
 62
7
 10
32.48323507
 20
2.08353981
  0
SEQEND
  0
POLYLINE
  8
0
 62
7
 66
1
  0
VERTEX
  8
0
 62
7
 10
32.19200000
 20
1.60500000
  0
VERTEX
  8
0
 62
7
 10
32.18214029
 20
1.68141393
  0
VERTEX
  8
0
 62
7
 10
32.16915703
 20
1.75735451
  0
VERTEX
  8
0
 62
7
 10
32.15295556
 20
1.83234840
  0
VERTEX
  8
0
 62
7
 10
32.13344123
 20
1.90592225
  0
VERTEX
  8
0
 62
7
 10
32.11477878
 20
1.96734687
  0
VERTEX
  8
0
 62
7
 10
32.09393931
 20
2.02773012
  0
VERTEX
  8
0
 62
7
 10
32.07139607
 20
2.08754536
  0
VERTEX
  8
0
 62
7
 10
32.04762235
 20
2.14726594
  0
VERTEX
  8
0
 62
7
 10
31.99272351
 20
2.27525887
  0
VERTEX
  8
0
 62
7
 10
31.93555299
 20
2.40173710
  0
VERTEX
  8
0
 62
7
 10
31.80934875
 20
2.67337497
  0
VERTEX
  8
0
 62
7
 10
31.78369774
 20
2.73128105
  0
VERTEX
  8
0
 62
7
 10
31.75785742
 20
2.78899778
  0
VERTEX
  8
0
 62
7
 10
31.73353155
 20
2.84747187
  0
VERTEX
  8
0
 62
7
 10
31.71242389
 20
2.90765001
  0
VERTEX
  8
0
 62
7
 10
31.68705684
 20
3.00544343
  0
VERTEX
  8
0
 62
7
 10
31.66850482
 20
3.10456222
  0
VERTEX
  8
0
 62
7
 10
31.65676782
 20
3.20443837
  0
VERTEX
  8
0
 62
7
 10
31.65184586
 20
3.30450385
  0
SEQEND
  0
POLYLINE
  8
0
 62
7
 66
1
  0
VERTEX
  8
0
 62
7
 10
32.79100000
 20
2.12600000
  0
VERTEX
  8
0
 62
7
 10
32.81898579
 20
2.09207682
  0
VERTEX
  8
0
 62
7
 10
32.84526782
 20
2.05682827
  0
VERTEX
  8
0
 62
7
 10
32.86965679
 20
2.02006502
  0
VERTEX
  8
0
 62
7
 10
32.89196339
 20
1.98159771
  0
VERTEX
  8
0
 62
7
 10
32.91065148
 20
1.94149342
  0
VERTEX
  8
0
 62
7
 10
32.92655913
 20
1.90008742
  0
VERTEX
  8
0
 62
7
 10
32.93965085
 20
1.85759272
  0
VERTEX
  8
0
 62
7
 10
32.94989114
 20
1.81422233
  0
VERTEX
  8
0
 62
7
 10
32.95724451
 20
1.77018926
  0
VERTEX
  8
0
 62
7
 10
32.96167546
 20
1.72570651
  0
VERTEX
  8
0
 62
7
 10
32.96314850
 20
1.68098708
  0
VERTEX
  8
0
 62
7
 10
32.96162813
 20
1.63624399
  0
VERTEX
  8
0
 62
7
 10
33.02220617
 20
1.71753339
  0
VERTEX
  8
0
 62
7
 10
33.08581310
 20
1.79579337
  0
VERTEX
  8
0
 62
7
 10
33.15787572
 20
1.87471604
  0
VERTEX
  8
0
 62
7
 10
33.23448170
 20
1.94928391
  0
VERTEX
  8
0
 62
7
 10
33.31525241
 20
2.01930766
  0
VERTEX
  8
0
 62
7
 10
33.39980925
 20
2.08459795
  0
SEQEND
  0
POLYLINE
  8
0
 62
7
 66
1
  0
VERTEX
  8
0
 62
7
 10
32.98700000
 20
1.72100000
  0
VERTEX
  8
0
 62
7
 10
33.05464547
 20
1.94820640
  0
VERTEX
  8
0
 62
7
 10
33.09124470
 20
2.10889181
  0
VERTEX
  8
0
 62
7
 10
33.12330058
 20
2.27033458
  0
VERTEX
  8
0
 62
7
 10
33.16217148
 20
2.48996743
  0
VERTEX
  8
0
 62
7
 10
33.19801349
 20
2.70960028
  0
VERTEX
  8
0
 62
7
 10
33.25556262
 20
3.04485594
  0
VERTEX
  8
0
 62
7
 10
33.29683141
 20
3.24833189
  0
VERTEX
  8
0
 62
7
 10
33.34037187
 20
3.45180784
  0
SEQEND
  0
POLYLINE
  8
0
 62
7
 66
1
 70
1
  0
VERTEX
  8
0
 62
7
 10
32.39400000
 20
2.83800000
  0
VERTEX
  8
0
 62
7
 10
32.40100000
 20
2.82800000
  0
VERTEX
  8
0
 62
7
 10
32.45325000
 20
2.74837500
  0
VERTEX
  8
0
 62
7
 10
32.50400000
 20
2.66500000
  0
VERTEX
  8
0
 62
7
 10
32.51000000
 20
2.65400000
  0
VERTEX
  8
0
 62
7
 10
32.51000000
 20
3.94000000
  0
VERTEX
  8
0
 62
7
 10
32.39400000
 20
3.94000000
  0
VERTEX
  8
0
 62
7
 10
32.39400000
 20
2.83800000
  0
SEQEND
  0
POLYLINE
  8
0
 62
7
 66
1
 70
1
  0
VERTEX
  8
0
 62
7
 10
32.51000000
 20
1.35500000
  0
VERTEX
  8
0
 62
7
 10
32.45125000
 20
1.35650000
  0
VERTEX
  8
0
 62
7
 10
32.39400000
 20
1.36100000
  0
VERTEX
  8
0
 62
7
 10
32.39900000
 20
1.35000000
  0
VERTEX
  8
0
 62
7
 10
32.40200000
 20
1.34400000
  0
VERTEX
  8
0
 62
7
 10
32.41200000
 20
1.32500000
  0
VERTEX
  8
0
 62
7
 10
32.43925000
 20
1.26787500
  0
VERTEX
  8
0
 62
7
 10
32.46500000
 20
1.20700000
  0
VERTEX
  8
0
 62
7
 10
32.48900000
 20
1.14287500
  0
VERTEX
  8
0
 62
7
 10
32.51000000
 20
1.07500000
  0
VERTEX
  8
0
 62
7
 10
32.51000000
 20
1.35500000
  0
SEQEND
  0
POLYLINE
  8
0
 62
7
 66
1
 70
1
  0
VERTEX
  8
0
 62
7
 10
32.96700000
 20
3.45600000
  0
VERTEX
  8
0
 62
7
 10
32.96900000
 20
3.46000000
  0
VERTEX
  8
0
 62
7
 10
33.00500000
 20
3.52500000
  0
VERTEX
  8
0
 62
7
 10
33.03900000
 20
3.58600000
  0
VERTEX
  8
0
 62
7
 10
33.09300000
 20
3.70200000
  0
VERTEX
  8
0
 62
7
 10
33.09300000
 20
3.94000000
  0
VERTEX
  8
0
 62
7
 10
32.96700000
 20
3.94000000
  0
VERTEX
  8
0
 62
7
 10
32.96700000
 20
3.45600000
  0
SEQEND
  0
POLYLINE
  8
0
 62
7
 66
1
 70
1
  0
VERTEX
  8
0
 62
7
 10
30.40200000
 20
11.14100000
  0
VERTEX
  8
0
 62
7
 10
31.02300000
 20
11.14100000
  0
VERTEX
  8
0
 62
7
 10
31.00100000
 20
11.19900000
  0
VERTEX
  8
0
 62
7
 10
30.97162500
 20
11.29500000
  0
VERTEX
  8
0
 62
7
 10
30.94900000
 20
11.39100000
  0
VERTEX
  8
0
 62
7
 10
30.40200000
 20
11.39100000
  0
VERTEX
  8
0
 62
7
 10
11.05100000
 20
11.39100000
  0
VERTEX
  8
0
 62
7
 10
11.02837500
 20
11.29500000
  0
VERTEX
  8
0
 62
7
 10
10.99900000
 20
11.19900000
  0
VERTEX
  8
0
 62
7
 10
10.97700000
 20
11.14100000
  0
VERTEX
  8
0
 62
7
 10
30.40200000
 20
11.14100000
  0
SEQEND
  0
POLYLINE
  8
0
 62
7
 66
1
 70
1
  0
VERTEX
  8
0
 62
7
 10
30.83137067
 20
15.07000000
  0
VERTEX
  8
0
 62
7
 10
30.33433501
 20
15.08162500
  0
VERTEX
  8
0
 62
7
 10
29.87074315
 20
15.09868750
  0
VERTEX
  8
0
 62
7
 10
29.43673425
 20
15.12034375
  0
VERTEX
  8
0
 62
7
 10
29.02844750
 20
15.14575000
  0
VERTEX
  8
0
 62
7
 10
28.64202206
 20
15.17406250
  0
VERTEX
  8
0
 62
7
 10
28.27359710
 20
15.20443750
  0
VERTEX
  8
0
 62
7
 10
27.91931180
 20
15.23603125
  0
VERTEX
  8
0
 62
7
 10
27.57530533
 20
15.26800000
  0
VERTEX
  8
0
 62
7
 10
27.02763600
 20
15.31800000
  0
VERTEX
  8
0
 62
7
 10
26.67578252
 20
15.35042188
  0
VERTEX
  8
0
 62
7
 10
26.29384467
 20
15.38837500
  0
VERTEX
  8
0
 62
7
 10
25.88623481
 20
15.43064063
  0
VERTEX
  8
0
 62
7
 10
25.45736533
 20
15.47600000
  0
VERTEX
  8
0
 62
7
 10
24.98377042
 20
15.52620313
  0
VERTEX
  8
0
 62
7
 10
24.49733950
 20
15.57687500
  0
VERTEX
  8
0
 62
7
 10
24.00368833
 20
15.62660938
  0
VERTEX
  8
0
 62
7
 10
23.50843267
 20
15.67400000
  0
VERTEX
  8
0
 62
7
 10
23.19635742
 20
15.70067578
  0
VERTEX
  8
0
 62
7
 10
22.88428217
 20
15.72371875
  0
VERTEX
  8
0
 62
7
 10
22.57220692
 20
15.74315234
  0
VERTEX
  8
0
 62
7
 10
22.26013167
 20
15.75900000
  0
VERTEX
  8
0
 62
7
 10
21.94805642
 20
15.77128516
  0
VERTEX
  8
0
 62
7
 10
21.63598117
 20
15.78003125
  0
VERTEX
  8
0
 62
7
 10
21.32390592
 20
15.78526172
  0
VERTEX
  8
0
 62
7
 10
21.01183067
 20
15.78700000
  0
VERTEX
  8
0
 62
7
 10
20.69593637
 20
15.78521875
  0
VERTEX
  8
0
 62
7
 10
20.38039306
 20
15.77987500
  0
VERTEX
  8
0
 62
7
 10
20.06515060
 20
15.77096875
  0
VERTEX
  8
0
 62
7
 10
19.75015883
 20
15.75850000
  0
VERTEX
  8
0
 62
7
 10
19.43536763
 20
15.74246875
  0
VERTEX
  8
0
 62
7
 10
19.12072685
 20
15.72287500
  0
VERTEX
  8
0
 62
7
 10
18.80618636
 20
15.69971875
  0
VERTEX
  8
0
 62
7
 10
18.49169600
 20
15.67300000
  0
VERTEX
  8
0
 62
7
 10
17.99293049
 20
15.62560938
  0
VERTEX
  8
0
 62
7
 10
17.49556892
 20
15.57587500
  0
VERTEX
  8
0
 62
7
 10
17.00582872
 20
15.52520313
  0
VERTEX
  8
0
 62
7
 10
16.52992733
 20
15.47500000
  0
VERTEX
  8
0
 62
7
 10
16.10426685
 20
15.42979688
  0
VERTEX
  8
0
 62
7
 10
15.69986600
 20
15.38787500
  0
VERTEX
  8
0
 62
7
 10
15.32113715
 20
15.35026563
  0
VERTEX
  8
0
 62
7
 10
14.97249267
 20
15.31800000
  0
VERTEX
  8
0
 62
7
 10
14.42696267
 20
15.26800000
  0
VERTEX
  8
0
 62
7
 10
14.08233779
 20
15.23603125
  0
VERTEX
  8
0
 62
7
 10
13.72773494
 20
15.20443750
  0
VERTEX
  8
0
 62
7
 10
13.35919299
 20
15.17406250
  0
VERTEX
  8
0
 62
7
 10
12.97275083
 20
15.14575000
  0
VERTEX
  8
0
 62
7
 10
12.56444737
 20
15.12034375
  0
VERTEX
  8
0
 62
7
 10
12.13032148
 20
15.09868750
  0
VERTEX
  8
0
 62
7
 10
11.66641206
 20
15.08162500
  0
VERTEX
  8
0
 62
7
 10
11.16875800
 20
15.07000000
  0
VERTEX
  8
0
 62
7
 10
11.16631782
 20
15.15937500
  0
VERTEX
  8
0
 62
7
 10
11.15886358
 20
15.24875000
  0
VERTEX
  8
0
 62
7
 10
11.14619472
 20
15.33775000
  0
VERTEX
  8
0
 62
7
 10
11.12811067
 20
15.42600000
  0
VERTEX
  8
0
 62
7
 10
11.11032746
 20
15.48956250
  0
VERTEX
  8
0
 62
7
 10
11.08692850
 20
15.54975000
  0
VERTEX
  8
0
 62
7
 10
11.05951829
 20
15.60656250
  0
VERTEX
  8
0
 62
7
 10
11.02970133
 20
15.66000000
  0
VERTEX
  8
0
 62
7
 10
10.98159976
 20
15.73587500
  0
VERTEX
  8
0
 62
7
 10
10.92728075
 20
15.80725000
  0
VERTEX
  8
0
 62
7
 10
10.86694486
 20
15.87375000
  0
VERTEX
  8
0
 62
7
 10
10.80079267
 20
15.93500000
  0
VERTEX
  8
0
 62
7
 10
10.78331761
 20
15.95185254
  0
VERTEX
  8
0
 62
7
 10
10.76628756
 20
15.96566406
  0
VERTEX
  8
0
 62
7
 10
10.74984666
 20
15.97644043
  0
VERTEX
  8
0
 62
7
 10
10.73413906
 20
15.98418750
  0
VERTEX
  8
0
 62
7
 10
10.71930893
 20
15.98891113
  0
VERTEX
  8
0
 62
7
 10
10.70550041
 20
15.99061719
  0
VERTEX
  8
0
 62
7
 10
10.69285766
 20
15.98931152
  0
VERTEX
  8
0
 62
7
 10
10.68152483
 20
15.98500000
  0
VERTEX
  8
0
 62
7
 10
10.67164609
 20
15.97768848
  0
VERTEX
  8
0
 62
7
 10
10.66336557
 20
15.96738281
  0
VERTEX
  8
0
 62
7
 10
10.65682744
 20
15.95408887
  0
VERTEX
  8
0
 62
7
 10
10.65217585
 20
15.93781250
  0
VERTEX
  8
0
 62
7
 10
10.64955496
 20
15.91855957
  0
VERTEX
  8
0
 62
7
 10
10.64910892
 20
15.89633594
  0
VERTEX
  8
0
 62
7
 10
10.65098188
 20
15.87114746
  0
VERTEX
  8
0
 62
7
 10
10.65531800
 20
15.84300000
  0
VERTEX
  8
0
 62
7
 10
10.66975850
 20
15.77125000
  0
VERTEX
  8
0
 62
7
 10
10.67457200
 20
15.69800000
  0
VERTEX
  8
0
 62
7
 10
10.67457200
 20
15.67100000
  0
VERTEX
  8
0
 62
7
 10
10.66628208
 20
15.59537500
  0
VERTEX
  8
0
 62
7
 10
10.64676067
 20
15.52200000
  0
VERTEX
  8
0
 62
7
 10
10.62162350
 20
15.45412500
  0
VERTEX
  8
0
 62
7
 10
10.58685933
 20
15.38700000
  0
VERTEX
  8
0
 62
7
 10
10.54995583
 20
15.32837500
  0
VERTEX
  8
0
 62
7
 10
10.50984333
 20
15.27200000
  0
VERTEX
  8
0
 62
7
 10
10.45074425
 20
15.20362500
  0
VERTEX
  8
0
 62
7
 10
10.38362267
 20
15.13600000
  0
VERTEX
  8
0
 62
7
 10
10.29804933
 20
15.06300000
  0
VERTEX
  8
0
 62
7
 10
10.22317267
 20
15.00200000
  0
VERTEX
  8
0
 62
7
 10
10.18894333
 20
14.97200000
  0
VERTEX
  8
0
 62
7
 10
10.11219475
 20
14.90400000
  0
VERTEX
  8
0
 62
7
 10
10.03705067
 20
14.82700000
  0
VERTEX
  8
0
 62
7
 10
9.99282664
 20
14.77217188
  0
VERTEX
  8
0
 62
7
 10
9.95281442
 20
14.71537500
  0
VERTEX
  8
0
 62
7
 10
9.91641232
 20
14.65839063
  0
VERTEX
  8
0
 62
7
 10
9.88301867
 20
14.60300000
  0
VERTEX
  8
0
 62
7
 10
9.85520733
 20
14.55900000
  0
VERTEX
  8
0
 62
7
 10
9.80386333
 20
14.46900000
  0
VERTEX
  8
0
 62
7
 10
9.75038000
 20
14.38100000
  0
VERTEX
  8
0
 62
7
 10
9.72684733
 20
14.34000000
  0
VERTEX
  8
0
 62
7
 10
9.68940900
 20
14.28025000
  0
VERTEX
  8
0
 62
7
 10
9.65197067
 20
14.22800000
  0
VERTEX
  8
0
 62
7
 10
9.59073225
 20
14.15825000
  0
VERTEX
  8
0
 62
7
 10
9.52147133
 20
14.09600000
  0
VERTEX
  8
0
 62
7
 10
9.51933200
 20
14.10000000
  0
VERTEX
  8
0
 62
7
 10
9.51077467
 20
14.11600000
  0
VERTEX
  8
0
 62
7
 10
9.54948323
 20
14.15681250
  0
VERTEX
  8
0
 62
7
 10
9.58458167
 20
14.20250000
  0
VERTEX
  8
0
 62
7
 10
9.61486660
 20
14.25268750
  0
VERTEX
  8
0
 62
7
 10
9.63913467
 20
14.30700000
  0
VERTEX
  8
0
 62
7
 10
9.65945833
 20
14.38687500
  0
VERTEX
  8
0
 62
7
 10
9.66694600
 20
14.46900000
  0
VERTEX
  8
0
 62
7
 10
9.66239992
 20
14.53287500
  0
VERTEX
  8
0
 62
7
 10
9.64983133
 20
14.59600000
  0
VERTEX
  8
0
 62
7
 10
9.63254953
 20
14.64706250
  0
VERTEX
  8
0
 62
7
 10
9.60945142
 20
14.69625000
  0
VERTEX
  8
0
 62
7
 10
9.58033643
 20
14.74281250
  0
VERTEX
  8
0
 62
7
 10
9.54500400
 20
14.78600000
  0
VERTEX
  8
0
 62
7
 10
9.52374438
 20
14.80857813
  0
VERTEX
  8
0
 62
7
 10
9.49847350
 20
14.83162500
  0
VERTEX
  8
0
 62
7
 10
9.46919137
 20
14.85335938
  0
VERTEX
  8
0
 62
7
 10
9.43589800
 20
14.87200000
  0
VERTEX
  8
0
 62
7
 10
9.39578550
 20
14.88662500
  0
VERTEX
  8
0
 62
7
 10
9.35888200
 20
14.89600000
  0
VERTEX
  8
0
 62
7
 10
9.32171108
 20
14.90187500
  0
VERTEX
  8
0
 62
7
 10
9.28614467
 20
14.90400000
  0
VERTEX
  8
0
 62
7
 10
9.23506808
 20
14.90037500
  0
VERTEX
  8
0
 62
7
 10
9.18559600
 20
14.89000000
  0
VERTEX
  8
0
 62
7
 10
9.12275308
 20
14.86600000
  0
VERTEX
  8
0
 62
7
 10
9.06793267
 20
14.83600000
  0
VERTEX
  8
0
 62
7
 10
9.02858899
 20
14.80734375
  0
VERTEX
  8
0
 62
7
 10
8.99385825
 20
14.77550000
  0
VERTEX
  8
0
 62
7
 10
8.96353989
 20
14.74290625
  0
VERTEX
  8
0
 62
7
 10
8.93743333
 20
14.71200000
  0
VERTEX
  8
0
 62
7
 10
8.88047358
 20
14.62950000
  0
VERTEX
  8
0
 62
7
 10
8.83474533
 20
14.54400000
  0
VERTEX
  8
0
 62
7
 10
8.80024858
 20
14.45187500
  0
VERTEX
  8
0
 62
7
 10
8.77698333
 20
14.36500000
  0
VERTEX
  8
0
 62
7
 10
8.76842600
 20
14.33600000
  0
VERTEX
  8
0
 62
7
 10
8.74061467
 20
14.21400000
  0
VERTEX
  8
0
 62
7
 10
8.72777867
 20
14.15300000
  0
VERTEX
  8
0
 62
7
 10
8.71494267
 20
14.09400000
  0
VERTEX
  8
0
 62
7
 10
8.69354933
 20
13.99400000
  0
VERTEX
  8
0
 62
7
 10
8.65290200
 20
13.84900000
  0
VERTEX
  8
0
 62
7
 10
8.61653333
 20
13.75800000
  0
VERTEX
  8
0
 62
7
 10
8.58872200
 20
13.69000000
  0
VERTEX
  8
0
 62
7
 10
8.57802533
 20
13.66300000
  0
VERTEX
  8
0
 62
7
 10
8.52454200
 20
13.51900000
  0
VERTEX
  8
0
 62
7
 10
8.49352167
 20
13.40512500
  0
VERTEX
  8
0
 62
7
 10
8.46891933
 20
13.28900000
  0
VERTEX
  8
0
 62
7
 10
8.45100242
 20
13.14975000
  0
VERTEX
  8
0
 62
7
 10
8.44110800
 20
13.01200000
  0
VERTEX
  8
0
 62
7
 10
8.43896867
 20
12.94900000
  0
VERTEX
  8
0
 62
7
 10
8.38548533
 20
13.05600000
  0
VERTEX
  8
0
 62
7
 10
8.33200200
 20
13.16500000
  0
VERTEX
  8
0
 62
7
 10
8.29135467
 20
13.24600000
  0
VERTEX
  8
0
 62
7
 10
8.21006000
 20
13.41800000
  0
VERTEX
  8
0
 62
7
 10
8.19294533
 20
13.46100000
  0
VERTEX
  8
0
 62
7
 10
8.16459917
 20
13.52575000
  0
VERTEX
  8
0
 62
7
 10
8.14588000
 20
13.58600000
  0
VERTEX
  8
0
 62
7
 10
8.12849792
 20
13.67712500
  0
VERTEX
  8
0
 62
7
 10
8.12234733
 20
13.76900000
  0
VERTEX
  8
0
 62
7
 10
8.12599089
 20
13.84254688
  0
VERTEX
  8
0
 62
7
 10
8.13705525
 20
13.91562500
  0
VERTEX
  8
0
 62
7
 10
8.15574099
 20
13.98739063
  0
VERTEX
  8
0
 62
7
 10
8.18224867
 20
14.05700000
  0
VERTEX
  8
0
 62
7
 10
8.19220210
 20
14.08393018
  0
VERTEX
  8
0
 62
7
 10
8.19960150
 20
14.10908203
  0
VERTEX
  8
0
 62
7
 10
8.20445000
 20
14.13224756
  0
VERTEX
  8
0
 62
7
 10
8.20675072
 20
14.15321875
  0
VERTEX
  8
0
 62
7
 10
8.20650681
 20
14.17178760
  0
VERTEX
  8
0
 62
7
 10
8.20372139
 20
14.18774609
  0
VERTEX
  8
0
 62
7
 10
8.19839760
 20
14.20088623
  0
VERTEX
  8
0
 62
7
 10
8.19053858
 20
14.21100000
  0
VERTEX
  8
0
 62
7
 10
8.18014746
 20
14.21787939
  0
VERTEX
  8
0
 62
7
 10
8.16722737
 20
14.22131641
  0
VERTEX
  8
0
 62
7
 10
8.15178145
 20
14.22110303
  0
VERTEX
  8
0
 62
7
 10
8.13381282
 20
14.21703125
  0
VERTEX
  8
0
 62
7
 10
8.11332463
 20
14.20889307
  0
VERTEX
  8
0
 62
7
 10
8.09032001
 20
14.19648047
  0
VERTEX
  8
0
 62
7
 10
8.06480209
 20
14.17958545
  0
VERTEX
  8
0
 62
7
 10
8.03677400
 20
14.15800000
  0
VERTEX
  8
0
 62
7
 10
7.94718942
 20
14.06537500
  0
VERTEX
  8
0
 62
7
 10
7.86562733
 20
13.96600000
  0
VERTEX
  8
0
 62
7
 10
7.80706308
 20
13.88562500
  0
VERTEX
  8
0
 62
7
 10
7.75331233
 20
13.80225000
  0
VERTEX
  8
0
 62
7
 10
7.70437508
 20
13.71625000
  0
VERTEX
  8
0
 62
7
 10
7.66025133
 20
13.62800000
  0
VERTEX
  8
0
 62
7
 10
7.61352027
 20
13.51357813
  0
VERTEX
  8
0
 62
7
 10
7.57521283
 20
13.39737500
  0
VERTEX
  8
0
 62
7
 10
7.54412565
 20
13.28023438
  0
VERTEX
  8
0
 62
7
 10
7.51905533
 20
13.16300000
  0
VERTEX
  8
0
 62
7
 10
7.50274292
 20
13.06614063
  0
VERTEX
  8
0
 62
7
 10
7.49124400
 20
12.96937500
  0
VERTEX
  8
0
 62
7
 10
7.48295408
 20
12.87317188
  0
VERTEX
  8
0
 62
7
 10
7.47626867
 20
12.77800000
  0
VERTEX
  8
0
 62
7
 10
7.47199000
 20
12.59900000
  0
VERTEX
  8
0
 62
7
 10
7.47626867
 20
12.42800000
  0
VERTEX
  8
0
 62
7
 10
7.49171198
 20
12.27600000
  0
VERTEX
  8
0
 62
7
 10
7.51638117
 20
12.12625000
  0
VERTEX
  8
0
 62
7
 10
7.54666610
 20
11.97912500
  0
VERTEX
  8
0
 62
7
 10
7.57895667
 20
11.83500000
  0
VERTEX
  8
0
 62
7
 10
7.62816133
 20
11.64600000
  0
VERTEX
  8
0
 62
7
 10
7.66239067
 20
11.52300000
  0
VERTEX
  8
0
 62
7
 10
7.67736600
 20
11.46400000
  0
VERTEX
  8
0
 62
7
 10
7.73084933
 20
11.24500000
  0
VERTEX
  8
0
 62
7
 10
7.74368533
 20
11.19600000
  0
VERTEX
  8
0
 62
7
 10
7.76507867
 20
11.09600000
  0
VERTEX
  8
0
 62
7
 10
7.77149667
 20
11.00000000
  0
VERTEX
  8
0
 62
7
 10
7.76695058
 20
10.91925000
  0
VERTEX
  8
0
 62
7
 10
7.75438200
 20
10.84000000
  0
VERTEX
  8
0
 62
7
 10
7.73298867
 20
10.74200000
  0
VERTEX
  8
0
 62
7
 10
7.83139800
 20
10.73200000
  0
VERTEX
  8
0
 62
7
 10
7.88274200
 20
10.72900000
  0
VERTEX
  8
0
 62
7
 10
7.91356177
 20
10.73012500
  0
VERTEX
  8
0
 62
7
 10
7.94478267
 20
10.73350000
  0
VERTEX
  8
0
 62
7
 10
7.97600356
 20
10.73912500
  0
VERTEX
  8
0
 62
7
 10
8.00682333
 20
10.74700000
  0
VERTEX
  8
0
 62
7
 10
8.02393800
 20
10.75200000
  0
VERTEX
  8
0
 62
7
 10
8.00468400
 20
10.68900000
  0
VERTEX
  8
0
 62
7
 10
7.99184800
 20
10.62000000
  0
VERTEX
  8
0
 62
7
 10
7.98329067
 20
10.57100000
  0
VERTEX
  8
0
 62
7
 10
7.96617600
 20
10.51537500
  0
VERTEX
  8
0
 62
7
 10
7.94264333
 20
10.45600000
  0
VERTEX
  8
0
 62
7
 10
7.93408600
 20
10.43500000
  0
VERTEX
  8
0
 62
7
 10
7.89397350
 20
10.33512500
  0
VERTEX
  8
0
 62
7
 10
7.85065200
 20
10.23900000
  0
VERTEX
  8
0
 62
7
 10
7.78005400
 20
10.11700000
  0
VERTEX
  8
0
 62
7
 10
7.70517733
 20
9.99100000
  0
VERTEX
  8
0
 62
7
 10
7.64527600
 20
9.86962500
  0
VERTEX
  8
0
 62
7
 10
7.59179267
 20
9.74300000
  0
VERTEX
  8
0
 62
7
 10
7.53750708
 20
9.58275000
  0
VERTEX
  8
0
 62
7
 10
7.49766200
 20
9.41500000
  0
VERTEX
  8
0
 62
7
 10
7.47840800
 20
9.27037500
  0
VERTEX
  8
0
 62
7
 10
7.47199000
 20
9.12500000
  0
VERTEX
  8
0
 62
7
 10
7.47880913
 20
8.97457813
  0
VERTEX
  8
0
 62
7
 10
7.49926650
 20
8.82537500
  0
VERTEX
  8
0
 62
7
 10
7.53336213
 20
8.67823438
  0
VERTEX
  8
0
 62
7
 10
7.58109600
 20
8.53400000
  0
VERTEX
  8
0
 62
7
 10
7.59797250
 20
8.49743945
  0
VERTEX
  8
0
 62
7
 10
7.61622786
 20
8.47364063
  0
VERTEX
  8
0
 62
7
 10
7.63543590
 20
8.46092773
  0
VERTEX
  8
0
 62
7
 10
7.65517042
 20
8.45762500
  0
VERTEX
  8
0
 62
7
 10
7.67500521
 20
8.46205664
  0
VERTEX
  8
0
 62
7
 10
7.69451409
 20
8.47254688
  0
VERTEX
  8
0
 62
7
 10
7.71327087
 20
8.48741992
  0
VERTEX
  8
0
 62
7
 10
7.73084933
 20
8.50500000
  0
VERTEX
  8
0
 62
7
 10
7.77737983
 20
8.55000000
  0
VERTEX
  8
0
 62
7
 10
7.82711933
 20
8.59200000
  0
VERTEX
  8
0
 62
7
 10
7.86348800
 20
8.47900000
  0
VERTEX
  8
0
 62
7
 10
7.88621842
 20
8.38937500
  0
VERTEX
  8
0
 62
7
 10
7.90413533
 20
8.29600000
  0
VERTEX
  8
0
 62
7
 10
7.91937808
 20
8.19337500
  0
VERTEX
  8
0
 62
7
 10
7.92980733
 20
8.09000000
  0
VERTEX
  8
0
 62
7
 10
3.91000000
 20
8.09000000
  0
VERTEX
  8
0
 62
7
 10
3.91000000
 20
3.91000000
  0
VERTEX
  8
0
 62
7
 10
8.06886400
 20
3.91000000
  0
VERTEX
  8
0
 62
7
 10
8.06886400
 20
.90800000
  0
VERTEX
  8
0
 62
7
 10
7.20885200
 20
.90800000
  0
VERTEX
  8
0
 62
7
 10
7.20885200
 20
.52800000
  0
VERTEX
  8
0
 62
7
 10
7.48910467
 20
.52800000
  0
VERTEX
  8
0
 62
7
 10
7.92766800
 20
.01000000
  0
VERTEX
  8
0
 62
7
 10
10.57616267
 20
.01000000
  0
VERTEX
  8
0
 62
7
 10
11.01044733
 20
.52800000
  0
VERTEX
  8
0
 62
7
 10
11.28856067
 20
.52800000
  0
VERTEX
  8
0
 62
7
 10
11.28856067
 20
.90800000
  0
VERTEX
  8
0
 62
7
 10
10.42427000
 20
.90800000
  0
VERTEX
  8
0
 62
7
 10
10.42427000
 20
.99000000
  0
VERTEX
  8
0
 62
7
 10
10.50342533
 20
.99500000
  0
VERTEX
  8
0
 62
7
 10
10.46491733
 20
1.10800000
  0
VERTEX
  8
0
 62
7
 10
10.43496667
 20
1.20900000
  0
VERTEX
  8
0
 62
7
 10
10.42721158
 20
1.27250000
  0
VERTEX
  8
0
 62
7
 10
10.42427000
 20
1.33900000
  0
VERTEX
  8
0
 62
7
 10
10.43710600
 20
1.46900000
  0
VERTEX
  8
0
 62
7
 10
10.44566333
 20
1.51600000
  0
VERTEX
  8
0
 62
7
 10
10.46571958
 20
1.64825000
  0
VERTEX
  8
0
 62
7
 10
10.49058933
 20
1.78200000
  0
VERTEX
  8
0
 62
7
 10
10.50342533
 20
1.85200000
  0
VERTEX
  8
0
 62
7
 10
10.54621200
 20
2.07200000
  0
VERTEX
  8
0
 62
7
 10
10.58044133
 20
2.24400000
  0
VERTEX
  8
0
 62
7
 10
10.62750667
 20
2.51000000
  0
VERTEX
  8
0
 62
7
 10
10.64809775
 20
2.66450000
  0
VERTEX
  8
0
 62
7
 10
10.66387533
 20
2.82200000
  0
VERTEX
  8
0
 62
7
 10
10.67163042
 20
2.95475000
  0
VERTEX
  8
0
 62
7
 10
10.67457200
 20
3.08900000
  0
VERTEX
  8
0
 62
7
 10
10.67457200
 20
3.12600000
  0
VERTEX
  8
0
 62
7
 10
10.66654950
 20
3.29662500
  0
VERTEX
  8
0
 62
7
 10
10.64890000
 20
3.46500000
  0
VERTEX
  8
0
 62
7
 10
10.62269317
 20
3.62200000
  0
VERTEX
  8
0
 62
7
 10
10.58685933
 20
3.77900000
  0
VERTEX
  8
0
 62
7
 10
10.58258067
 20
3.79200000
  0
VERTEX
  8
0
 62
7
 10
10.54621200
 20
3.91000000
  0
VERTEX
  8
0
 62
7
 10
14.58955200
 20
3.91000000
  0
VERTEX
  8
0
 62
7
 10
14.58955200
 20
8.09000000
  0
VERTEX
  8
0
 62
7
 10
11.25647067
 20
8.09000000
  0
VERTEX
  8
0
 62
7
 10
11.27786400
 20
8.14100000
  0
VERTEX
  8
0
 62
7
 10
11.28642133
 20
8.17500000
  0
VERTEX
  8
0
 62
7
 10
11.27144600
 20
8.20700000
  0
VERTEX
  8
0
 62
7
 10
11.25219200
 20
8.25600000
  0
VERTEX
  8
0
 62
7
 10
11.23694925
 20
8.32125000
  0
VERTEX
  8
0
 62
7
 10
11.22652000
 20
8.39700000
  0
VERTEX
  8
0
 62
7
 10
11.22010200
 20
8.51000000
  0
VERTEX
  8
0
 62
7
 10
11.22224133
 20
8.55500000
  0
VERTEX
  8
0
 62
7
 10
11.22224133
 20
8.60100000
  0
VERTEX
  8
0
 62
7
 10
11.23079867
 20
8.90100000
  0
VERTEX
  8
0
 62
7
 10
11.23935600
 20
9.06700000
  0
VERTEX
  8
0
 62
7
 10
11.24577400
 20
9.14200000
  0
VERTEX
  8
0
 62
7
 10
11.25005267
 20
9.21600000
  0
VERTEX
  8
0
 62
7
 10
11.25861000
 20
9.36400000
  0
VERTEX
  8
0
 62
7
 10
11.26074933
 20
9.48000000
  0
VERTEX
  8
0
 62
7
 10
11.25780775
 20
9.60162500
  0
VERTEX
  8
0
 62
7
 10
11.25005267
 20
9.72400000
  0
VERTEX
  8
0
 62
7
 10
11.23960670
 20
9.81112109
  0
VERTEX
  8
0
 62
7
 10
11.22705483
 20
9.89896875
  0
VERTEX
  8
0
 62
7
 10
11.21169509
 20
9.98714453
  0
VERTEX
  8
0
 62
7
 10
11.19282550
 20
10.07525000
  0
VERTEX
  8
0
 62
7
 10
11.16974410
 20
10.16288672
  0
VERTEX
  8
0
 62
7
 10
11.14174892
 20
10.24965625
  0
VERTEX
  8
0
 62
7
 10
11.10813798
 20
10.33516016
  0
VERTEX
  8
0
 62
7
 10
11.06820933
 20
10.41900000
  0
VERTEX
  8
0
 62
7
 10
11.01633050
 20
10.51275000
  0
VERTEX
  8
0
 62
7
 10
10.95482467
 20
10.60500000
  0
VERTEX
  8
0
 62
7
 10
10.94840667
 20
10.61300000
  0
VERTEX
  8
0
 62
7
 10
10.90374808
 20
10.67125000
  0
VERTEX
  8
0
 62
7
 10
10.84785800
 20
10.73100000
  0
VERTEX
  8
0
 62
7
 10
10.80774550
 20
10.76475000
  0
VERTEX
  8
0
 62
7
 10
10.75800600
 20
10.79700000
  0
VERTEX
  8
0
 62
7
 10
10.73447333
 20
10.80900000
  0
VERTEX
  8
0
 62
7
 10
10.75586667
 20
10.81400000
  0
VERTEX
  8
0
 62
7
 10
10.78498166
 20
10.82320313
  0
VERTEX
  8
0
 62
7
 10
10.81389608
 20
10.83587500
  0
VERTEX
  8
0
 62
7
 10
10.84160714
 20
10.85210938
  0
VERTEX
  8
0
 62
7
 10
10.86711200
 20
10.87200000
  0
VERTEX
  8
0
 62
7
 10
10.89468934
 20
10.90084375
  0
VERTEX
  8
0
 62
7
 10
10.91444475
 20
10.93100000
  0
VERTEX
  8
0
 62
7
 10
10.92818328
 20
10.95890625
  0
VERTEX
  8
0
 62
7
 10
10.93771000
 20
10.98100000
  0
VERTEX
  8
0
 62
7
 10
10.95054600
 20
11.00700000
  0
VERTEX
  8
0
 62
7
 10
10.97193933
 20
11.05100000
  0
VERTEX
  8
0
 62
7
 10
31.02818933
 20
11.05100000
  0
VERTEX
  8
0
 62
7
 10
31.04958267
 20
11.00700000
  0
VERTEX
  8
0
 62
7
 10
31.06241867
 20
10.98100000
  0
VERTEX
  8
0
 62
7
 10
31.07104285
 20
10.95890625
  0
VERTEX
  8
0
 62
7
 10
31.08488167
 20
10.93100000
  0
VERTEX
  8
0
 62
7
 10
31.10513848
 20
10.90084375
  0
VERTEX
  8
0
 62
7
 10
31.13301667
 20
10.87200000
  0
VERTEX
  8
0
 62
7
 10
31.15852153
 20
10.85210938
  0
VERTEX
  8
0
 62
7
 10
31.18623258
 20
10.83587500
  0
VERTEX
  8
0
 62
7
 10
31.21514701
 20
10.82320313
  0
VERTEX
  8
0
 62
7
 10
31.24426200
 20
10.81400000
  0
VERTEX
  8
0
 62
7
 10
31.26565533
 20
10.80900000
  0
VERTEX
  8
0
 62
7
 10
31.24212267
 20
10.79700000
  0
VERTEX
  8
0
 62
7
 10
31.19238317
 20
10.76475000
  0
VERTEX
  8
0
 62
7
 10
31.15227067
 20
10.73100000
  0
VERTEX
  8
0
 62
7
 10
31.09638058
 20
10.67125000
  0
VERTEX
  8
0
 62
7
 10
31.05172200
 20
10.61300000
  0
VERTEX
  8
0
 62
7
 10
31.04530400
 20
10.60500000
  0
VERTEX
  8
0
 62
7
 10
30.98379817
 20
10.51275000
  0
VERTEX
  8
0
 62
7
 10
30.93191933
 20
10.41900000
  0
VERTEX
  8
0
 62
7
 10
30.89199068
 20
10.33516016
  0
VERTEX
  8
0
 62
7
 10
30.85837975
 20
10.24965625
  0
VERTEX
  8
0
 62
7
 10
30.83038457
 20
10.16288672
  0
VERTEX
  8
0
 62
7
 10
30.80730317
 20
10.07525000
  0
VERTEX
  8
0
 62
7
 10
30.78843358
 20
9.98714453
  0
VERTEX
  8
0
 62
7
 10
30.77307383
 20
9.89896875
  0
VERTEX
  8
0
 62
7
 10
30.76052196
 20
9.81112109
  0
VERTEX
  8
0
 62
7
 10
30.75007600
 20
9.72400000
  0
VERTEX
  8
0
 62
7
 10
30.74232092
 20
9.60162500
  0
VERTEX
  8
0
 62
7
 10
30.73937933
 20
9.48000000
  0
VERTEX
  8
0
 62
7
 10
30.74151867
 20
9.36400000
  0
VERTEX
  8
0
 62
7
 10
30.75007600
 20
9.21600000
  0
VERTEX
  8
0
 62
7
 10
30.75435467
 20
9.14200000
  0
VERTEX
  8
0
 62
7
 10
30.76077267
 20
9.06700000
  0
VERTEX
  8
0
 62
7
 10
30.76933000
 20
8.90100000
  0
VERTEX
  8
0
 62
7
 10
30.77788733
 20
8.60100000
  0
VERTEX
  8
0
 62
7
 10
30.77788733
 20
8.55500000
  0
VERTEX
  8
0
 62
7
 10
30.78002667
 20
8.51000000
  0
VERTEX
  8
0
 62
7
 10
30.77360867
 20
8.39700000
  0
VERTEX
  8
0
 62
7
 10
30.76317942
 20
8.32125000
  0
VERTEX
  8
0
 62
7
 10
30.74793667
 20
8.25600000
  0
VERTEX
  8
0
 62
7
 10
30.72868267
 20
8.20700000
  0
VERTEX
  8
0
 62
7
 10
30.71370733
 20
8.17500000
  0
VERTEX
  8
0
 62
7
 10
30.72226467
 20
8.14100000
  0
VERTEX
  8
0
 62
7
 10
30.74365800
 20
8.09000000
  0
VERTEX
  8
0
 62
7
 10
27.41057667
 20
8.09000000
  0
VERTEX
  8
0
 62
7
 10
27.41057667
 20
3.91000000
  0
VERTEX
  8
0
 62
7
 10
31.45391667
 20
3.91000000
  0
VERTEX
  8
0
 62
7
 10
31.41754800
 20
3.79200000
  0
VERTEX
  8
0
 62
7
 10
31.41326933
 20
3.77900000
  0
VERTEX
  8
0
 62
7
 10
31.37743550
 20
3.62200000
  0
VERTEX
  8
0
 62
7
 10
31.35122867
 20
3.46500000
  0
VERTEX
  8
0
 62
7
 10
31.33357917
 20
3.29662500
  0
VERTEX
  8
0
 62
7
 10
31.32555667
 20
3.12600000
  0
VERTEX
  8
0
 62
7
 10
31.32555667
 20
3.08900000
  0
VERTEX
  8
0
 62
7
 10
31.32849825
 20
2.95475000
  0
VERTEX
  8
0
 62
7
 10
31.33625333
 20
2.82200000
  0
VERTEX
  8
0
 62
7
 10
31.35203092
 20
2.66450000
  0
VERTEX
  8
0
 62
7
 10
31.37262200
 20
2.51000000
  0
VERTEX
  8
0
 62
7
 10
31.41968733
 20
2.24400000
  0
VERTEX
  8
0
 62
7
 10
31.45391667
 20
2.07200000
  0
VERTEX
  8
0
 62
7
 10
31.49670333
 20
1.85200000
  0
VERTEX
  8
0
 62
7
 10
31.50953933
 20
1.78200000
  0
VERTEX
  8
0
 62
7
 10
31.53440908
 20
1.64825000
  0
VERTEX
  8
0
 62
7
 10
31.55446533
 20
1.51600000
  0
VERTEX
  8
0
 62
7
 10
31.56302267
 20
1.46900000
  0
VERTEX
  8
0
 62
7
 10
31.57585867
 20
1.33900000
  0
VERTEX
  8
0
 62
7
 10
31.57264967
 20
1.27250000
  0
VERTEX
  8
0
 62
7
 10
31.56302267
 20
1.20900000
  0
VERTEX
  8
0
 62
7
 10
31.55232600
 20
1.16037500
  0
VERTEX
  8
0
 62
7
 10
31.53521133
 20
1.10800000
  0
VERTEX
  8
0
 62
7
 10
31.49670333
 20
.99500000
  0
VERTEX
  8
0
 62
7
 10
31.57585867
 20
.99000000
  0
VERTEX
  8
0
 62
7
 10
31.57585867
 20
.90800000
  0
VERTEX
  8
0
 62
7
 10
30.71156800
 20
.90800000
  0
VERTEX
  8
0
 62
7
 10
30.71156800
 20
.52800000
  0
VERTEX
  8
0
 62
7
 10
30.98968133
 20
.52800000
  0
VERTEX
  8
0
 62
7
 10
31.42396600
 20
.01000000
  0
VERTEX
  8
0
 62
7
 10
34.07246067
 20
.01000000
  0
VERTEX
  8
0
 62
7
 10
34.51102400
 20
.52800000
  0
VERTEX
  8
0
 62
7
 10
34.79127667
 20
.52800000
  0
VERTEX
  8
0
 62
7
 10
34.79127667
 20
.90800000
  0
VERTEX
  8
0
 62
7
 10
33.93126467
 20
.90800000
  0
VERTEX
  8
0
 62
7
 10
33.93126467
 20
3.91000000
  0
VERTEX
  8
0
 62
7
 10
38.09012867
 20
3.91000000
  0
VERTEX
  8
0
 62
7
 10
38.09012867
 20
8.09000000
  0
VERTEX
  8
0
 62
7
 10
34.07032133
 20
8.09000000
  0
VERTEX
  8
0
 62
7
 10
34.08075058
 20
8.19337500
  0
VERTEX
  8
0
 62
7
 10
34.09599333
 20
8.29600000
  0
VERTEX
  8
0
 62
7
 10
34.11391025
 20
8.38937500
  0
VERTEX
  8
0
 62
7
 10
34.13664067
 20
8.47900000
  0
VERTEX
  8
0
 62
7
 10
34.15241825
 20
8.53587500
  0
VERTEX
  8
0
 62
7
 10
34.17300933
 20
8.59200000
  0
VERTEX
  8
0
 62
7
 10
34.22274883
 20
8.55000000
  0
VERTEX
  8
0
 62
7
 10
34.26927933
 20
8.50500000
  0
VERTEX
  8
0
 62
7
 10
34.28685780
 20
8.48741992
  0
VERTEX
  8
0
 62
7
 10
34.30561457
 20
8.47254688
  0
VERTEX
  8
0
 62
7
 10
34.32512345
 20
8.46205664
  0
VERTEX
  8
0
 62
7
 10
34.34495825
 20
8.45762500
  0
VERTEX
  8
0
 62
7
 10
34.36469276
 20
8.46092773
  0
VERTEX
  8
0
 62
7
 10
34.38390080
 20
8.47364063
  0
VERTEX
  8
0
 62
7
 10
34.40215617
 20
8.49743945
  0
VERTEX
  8
0
 62
7
 10
34.41903267
 20
8.53400000
  0
VERTEX
  8
0
 62
7
 10
34.46643227
 20
8.67823438
  0
VERTEX
  8
0
 62
7
 10
34.49979250
 20
8.82537500
  0
VERTEX
  8
0
 62
7
 10
34.51951448
 20
8.97457813
  0
VERTEX
  8
0
 62
7
 10
34.52599933
 20
9.12500000
  0
VERTEX
  8
0
 62
7
 10
34.52065100
 20
9.27037500
  0
VERTEX
  8
0
 62
7
 10
34.50246667
 20
9.41500000
  0
VERTEX
  8
0
 62
7
 10
34.46262158
 20
9.58275000
  0
VERTEX
  8
0
 62
7
 10
34.40833600
 20
9.74300000
  0
VERTEX
  8
0
 62
7
 10
34.35485267
 20
9.86962500
  0
VERTEX
  8
0
 62
7
 10
34.29495133
 20
9.99100000
  0
VERTEX
  8
0
 62
7
 10
34.22007467
 20
10.11700000
  0
VERTEX
  8
0
 62
7
 10
34.14947667
 20
10.23900000
  0
VERTEX
  8
0
 62
7
 10
34.10615517
 20
10.33512500
  0
VERTEX
  8
0
 62
7
 10
34.06604267
 20
10.43500000
  0
VERTEX
  8
0
 62
7
 10
34.05748533
 20
10.45600000
  0
VERTEX
  8
0
 62
7
 10
34.03395267
 20
10.51537500
  0
VERTEX
  8
0
 62
7
 10
34.01683800
 20
10.57100000
  0
VERTEX
  8
0
 62
7
 10
34.00828067
 20
10.62000000
  0
VERTEX
  8
0
 62
7
 10
33.99544467
 20
10.68900000
  0
VERTEX
  8
0
 62
7
 10
33.97619067
 20
10.75200000
  0
VERTEX
  8
0
 62
7
 10
33.99330533
 20
10.74700000
  0
VERTEX
  8
0
 62
7
 10
34.02412510
 20
10.73912500
  0
VERTEX
  8
0
 62
7
 10
34.05534600
 20
10.73350000
  0
VERTEX
  8
0
 62
7
 10
34.08656690
 20
10.73012500
  0
VERTEX
  8
0
 62
7
 10
34.11738667
 20
10.72900000
  0
VERTEX
  8
0
 62
7
 10
34.16873067
 20
10.73200000
  0
VERTEX
  8
0
 62
7
 10
34.26714000
 20
10.74200000
  0
VERTEX
  8
0
 62
7
 10
34.24574667
 20
10.84000000
  0
VERTEX
  8
0
 62
7
 10
34.23317808
 20
10.91925000
  0
VERTEX
  8
0
 62
7
 10
34.22863200
 20
11.00000000
  0
VERTEX
  8
0
 62
7
 10
34.23505000
 20
11.09600000
  0
VERTEX
  8
0
 62
7
 10
34.25644333
 20
11.19600000
  0
VERTEX
  8
0
 62
7
 10
34.26927933
 20
11.24500000
  0
VERTEX
  8
0
 62
7
 10
34.32276267
 20
11.46400000
  0
VERTEX
  8
0
 62
7
 10
34.33773800
 20
11.52300000
  0
VERTEX
  8
0
 62
7
 10
34.37196733
 20
11.64600000
  0
VERTEX
  8
0
 62
7
 10
34.42117200
 20
11.83500000
  0
VERTEX
  8
0
 62
7
 10
34.45346256
 20
11.97912500
  0
VERTEX
  8
0
 62
7
 10
34.48374750
 20
12.12625000
  0
VERTEX
  8
0
 62
7
 10
34.50841669
 20
12.27600000
  0
VERTEX
  8
0
 62
7
 10
34.52386000
 20
12.42800000
  0
VERTEX
  8
0
 62
7
 10
34.52813867
 20
12.59900000
  0
VERTEX
  8
0
 62
7
 10
34.52386000
 20
12.77800000
  0
VERTEX
  8
0
 62
7
 10
34.51714116
 20
12.87317188
  0
VERTEX
  8
0
 62
7
 10
34.50861725
 20
12.96937500
  0
VERTEX
  8
0
 62
7
 10
34.49648322
 20
13.06614063
  0
VERTEX
  8
0
 62
7
 10
34.47893400
 20
13.16300000
  0
VERTEX
  8
0
 62
7
 10
34.45419796
 20
13.28023438
  0
VERTEX
  8
0
 62
7
 10
34.42384617
 20
13.39737500
  0
VERTEX
  8
0
 62
7
 10
34.38627413
 20
13.51357813
  0
VERTEX
  8
0
 62
7
 10
34.33987733
 20
13.62800000
  0
VERTEX
  8
0
 62
7
 10
34.29575358
 20
13.71625000
  0
VERTEX
  8
0
 62
7
 10
34.24681633
 20
13.80225000
  0
VERTEX
  8
0
 62
7
 10
34.19306558
 20
13.88562500
  0
VERTEX
  8
0
 62
7
 10
34.13450133
 20
13.96600000
  0
VERTEX
  8
0
 62
7
 10
34.05293925
 20
14.06537500
  0
VERTEX
  8
0
 62
7
 10
33.96335467
 20
14.15800000
  0
VERTEX
  8
0
 62
7
 10
33.93532658
 20
14.17958545
  0
VERTEX
  8
0
 62
7
 10
33.90980866
 20
14.19648047
  0
VERTEX
  8
0
 62
7
 10
33.88680403
 20
14.20889307
  0
VERTEX
  8
0
 62
7
 10
33.86631584
 20
14.21703125
  0
VERTEX
  8
0
 62
7
 10
33.84834722
 20
14.22110303
  0
VERTEX
  8
0
 62
7
 10
33.83290130
 20
14.22131641
  0
VERTEX
  8
0
 62
7
 10
33.81998121
 20
14.21787939
  0
VERTEX
  8
0
 62
7
 10
33.80959008
 20
14.21100000
  0
VERTEX
  8
0
 62
7
 10
33.80173106
 20
14.20088623
  0
VERTEX
  8
0
 62
7
 10
33.79640728
 20
14.18774609
  0
VERTEX
  8
0
 62
7
 10
33.79362186
 20
14.17178760
  0
VERTEX
  8
0
 62
7
 10
33.79337795
 20
14.15321875
  0
VERTEX
  8
0
 62
7
 10
33.79567867
 20
14.13224756
  0
VERTEX
  8
0
 62
7
 10
33.80052717
 20
14.10908203
  0
VERTEX
  8
0
 62
7
 10
33.80792656
 20
14.08393018
  0
VERTEX
  8
0
 62
7
 10
33.81788000
 20
14.05700000
  0
VERTEX
  8
0
 62
7
 10
33.84438768
 20
13.98739063
  0
VERTEX
  8
0
 62
7
 10
33.86307342
 20
13.91562500
  0
VERTEX
  8
0
 62
7
 10
33.87413778
 20
13.84254688
  0
VERTEX
  8
0
 62
7
 10
33.87778133
 20
13.76900000
  0
VERTEX
  8
0
 62
7
 10
33.87163075
 20
13.67712500
  0
VERTEX
  8
0
 62
7
 10
33.85424867
 20
13.58600000
  0
VERTEX
  8
0
 62
7
 10
33.83552950
 20
13.52575000
  0
VERTEX
  8
0
 62
7
 10
33.80718333
 20
13.46100000
  0
VERTEX
  8
0
 62
7
 10
33.79006867
 20
13.41800000
  0
VERTEX
  8
0
 62
7
 10
33.70877400
 20
13.24600000
  0
VERTEX
  8
0
 62
7
 10
33.66812667
 20
13.16500000
  0
VERTEX
  8
0
 62
7
 10
33.61464333
 20
13.05600000
  0
VERTEX
  8
0
 62
7
 10
33.55902067
 20
12.94900000
  0
VERTEX
  8
0
 62
7
 10
33.55902067
 20
13.01200000
  0
VERTEX
  8
0
 62
7
 10
33.54912625
 20
13.14975000
  0
VERTEX
  8
0
 62
7
 10
33.53120933
 20
13.28900000
  0
VERTEX
  8
0
 62
7
 10
33.50580475
 20
13.40512500
  0
VERTEX
  8
0
 62
7
 10
33.47558667
 20
13.51900000
  0
VERTEX
  8
0
 62
7
 10
33.42210333
 20
13.66300000
  0
VERTEX
  8
0
 62
7
 10
33.41140667
 20
13.69000000
  0
VERTEX
  8
0
 62
7
 10
33.38359533
 20
13.75800000
  0
VERTEX
  8
0
 62
7
 10
33.34722667
 20
13.84900000
  0
VERTEX
  8
0
 62
7
 10
33.30657933
 20
13.99400000
  0
VERTEX
  8
0
 62
7
 10
33.28304667
 20
14.09400000
  0
VERTEX
  8
0
 62
7
 10
33.27235000
 20
14.15300000
  0
VERTEX
  8
0
 62
7
 10
33.25951400
 20
14.21400000
  0
VERTEX
  8
0
 62
7
 10
33.23170267
 20
14.33600000
  0
VERTEX
  8
0
 62
7
 10
33.22314533
 20
14.36500000
  0
VERTEX
  8
0
 62
7
 10
33.19988008
 20
14.45187500
  0
VERTEX
  8
0
 62
7
 10
33.16538333
 20
14.54400000
  0
VERTEX
  8
0
 62
7
 10
33.11965508
 20
14.62950000
  0
VERTEX
  8
0
 62
7
 10
33.06269533
 20
14.71200000
  0
VERTEX
  8
0
 62
7
 10
33.03655535
 20
14.74290625
  0
VERTEX
  8
0
 62
7
 10
33.00600300
 20
14.77550000
  0
VERTEX
  8
0
 62
7
 10
32.97063715
 20
14.80734375
  0
VERTEX
  8
0
 62
7
 10
32.93005667
 20
14.83600000
  0
VERTEX
  8
0
 62
7
 10
32.87710817
 20
14.86600000
  0
VERTEX
  8
0
 62
7
 10
32.81453267
 20
14.89000000
  0
VERTEX
  8
0
 62
7
 10
32.76506058
 20
14.90037500
  0
VERTEX
  8
0
 62
7
 10
32.71398400
 20
14.90400000
  0
VERTEX
  8
0
 62
7
 10
32.67841758
 20
14.90187500
  0
VERTEX
  8
0
 62
7
 10
32.64124667
 20
14.89600000
  0
VERTEX
  8
0
 62
7
 10
32.60434317
 20
14.88662500
  0
VERTEX
  8
0
 62
7
 10
32.56423067
 20
14.87200000
  0
VERTEX
  8
0
 62
7
 10
32.53090386
 20
14.85335938
  0
VERTEX
  8
0
 62
7
 10
32.50138775
 20
14.83162500
  0
VERTEX
  8
0
 62
7
 10
32.47548176
 20
14.80857813
  0
VERTEX
  8
0
 62
7
 10
32.45298533
 20
14.78600000
  0
VERTEX
  8
0
 62
7
 10
32.41888971
 20
14.74281250
  0
VERTEX
  8
0
 62
7
 10
32.39040983
 20
14.69625000
  0
VERTEX
  8
0
 62
7
 10
32.36754571
 20
14.64706250
  0
VERTEX
  8
0
 62
7
 10
32.35029733
 20
14.59600000
  0
VERTEX
  8
0
 62
7
 10
32.33772875
 20
14.53287500
  0
VERTEX
  8
0
 62
7
 10
32.33318267
 20
14.46900000
  0
VERTEX
  8
0
 62
7
 10
32.34067033
 20
14.38687500
  0
VERTEX
  8
0
 62
7
 10
32.36099400
 20
14.30700000
  0
VERTEX
  8
0
 62
7
 10
32.38526206
 20
14.25268750
  0
VERTEX
  8
0
 62
7
 10
32.41554700
 20
14.20250000
  0
VERTEX
  8
0
 62
7
 10
32.45064544
 20
14.15681250
  0
VERTEX
  8
0
 62
7
 10
32.48935400
 20
14.11600000
  0
VERTEX
  8
0
 62
7
 10
32.48079667
 20
14.10000000
  0
VERTEX
  8
0
 62
7
 10
32.47865733
 20
14.09600000
  0
VERTEX
  8
0
 62
7
 10
32.40939642
 20
14.15825000
  0
VERTEX
  8
0
 62
7
 10
32.34815800
 20
14.22800000
  0
VERTEX
  8
0
 62
7
 10
32.31071967
 20
14.28025000
  0
VERTEX
  8
0
 62
7
 10
32.27328133
 20
14.34000000
  0
VERTEX
  8
0
 62
7
 10
32.24974867
 20
14.38100000
  0
VERTEX
  8
0
 62
7
 10
32.19626533
 20
14.46900000
  0
VERTEX
  8
0
 62
7
 10
32.14492133
 20
14.55900000
  0
VERTEX
  8
0
 62
7
 10
32.11711000
 20
14.60300000
  0
VERTEX
  8
0
 62
7
 10
32.08371634
 20
14.65839063
  0
VERTEX
  8
0
 62
7
 10
32.04731425
 20
14.71537500
  0
VERTEX
  8
0
 62
7
 10
32.00730203
 20
14.77217188
  0
VERTEX
  8
0
 62
7
 10
31.96307800
 20
14.82700000
  0
VERTEX
  8
0
 62
7
 10
31.88793392
 20
14.90400000
  0
VERTEX
  8
0
 62
7
 10
31.81118533
 20
14.97200000
  0
VERTEX
  8
0
 62
7
 10
31.77695600
 20
15.00200000
  0
VERTEX
  8
0
 62
7
 10
31.70207933
 20
15.06300000
  0
VERTEX
  8
0
 62
7
 10
31.61650600
 20
15.13600000
  0
VERTEX
  8
0
 62
7
 10
31.54938442
 20
15.20362500
  0
VERTEX
  8
0
 62
7
 10
31.49028533
 20
15.27200000
  0
VERTEX
  8
0
 62
7
 10
31.45017283
 20
15.32837500
  0
VERTEX
  8
0
 62
7
 10
31.41326933
 20
15.38700000
  0
VERTEX
  8
0
 62
7
 10
31.37850517
 20
15.45412500
  0
VERTEX
  8
0
 62
7
 10
31.35336800
 20
15.52200000
  0
VERTEX
  8
0
 62
7
 10
31.33384658
 20
15.59537500
  0
VERTEX
  8
0
 62
7
 10
31.32555667
 20
15.67100000
  0
VERTEX
  8
0
 62
7
 10
31.32555667
 20
15.69800000
  0
VERTEX
  8
0
 62
7
 10
31.33037017
 20
15.77125000
  0
VERTEX
  8
0
 62
7
 10
31.34481067
 20
15.84300000
  0
VERTEX
  8
0
 62
7
 10
31.34914679
 20
15.87114746
  0
VERTEX
  8
0
 62
7
 10
31.35101975
 20
15.89633594
  0
VERTEX
  8
0
 62
7
 10
31.35057370
 20
15.91855957
  0
VERTEX
  8
0
 62
7
 10
31.34795281
 20
15.93781250
  0
VERTEX
  8
0
 62
7
 10
31.34330122
 20
15.95408887
  0
VERTEX
  8
0
 62
7
 10
31.33676310
 20
15.96738281
  0
VERTEX
  8
0
 62
7
 10
31.32848258
 20
15.97768848
  0
VERTEX
  8
0
 62
7
 10
31.31860383
 20
15.98500000
  0
VERTEX
  8
0
 62
7
 10
31.30727101
 20
15.98931152
  0
VERTEX
  8
0
 62
7
 10
31.29462826
 20
15.99061719
  0
VERTEX
  8
0
 62
7
 10
31.28081974
 20
15.98891113
  0
VERTEX
  8
0
 62
7
 10
31.26598960
 20
15.98418750
  0
VERTEX
  8
0
 62
7
 10
31.25028201
 20
15.97644043
  0
VERTEX
  8
0
 62
7
 10
31.23384111
 20
15.96566406
  0
VERTEX
  8
0
 62
7
 10
31.21681105
 20
15.95185254
  0
VERTEX
  8
0
 62
7
 10
31.19933600
 20
15.93500000
  0
VERTEX
  8
0
 62
7
 10
31.13318380
 20
15.87375000
  0
VERTEX
  8
0
 62
7
 10
31.07284792
 20
15.80725000
  0
VERTEX
  8
0
 62
7
 10
31.01852891
 20
15.73587500
  0
VERTEX
  8
0
 62
7
 10
30.97042733
 20
15.66000000
  0
VERTEX
  8
0
 62
7
 10
30.94061038
 20
15.60656250
  0
VERTEX
  8
0
 62
7
 10
30.91320017
 20
15.54975000
  0
VERTEX
  8
0
 62
7
 10
30.88980121
 20
15.48956250
  0
VERTEX
  8
0
 62
7
 10
30.87201800
 20
15.42600000
  0
VERTEX
  8
0
 62
7
 10
30.85393395
 20
15.33775000
  0
VERTEX
  8
0
 62
7
 10
30.84126508
 20
15.24875000
  0
VERTEX
  8
0
 62
7
 10
30.83381084
 20
15.15937500
  0
VERTEX
  8
0
 62
7
 10
30.83137067
 20
15.07000000
  0
SEQEND
  0
POLYLINE
  8
0
 62
7
 66
1
 70
1
  0
VERTEX
  8
0
 62
7
 10
9.25000000
 20
.04000000
  0
VERTEX
  8
0
 62
7
 10
8.02500000
 20
.04000000
  0
VERTEX
  8
0
 62
7
 10
7.58200000
 20
.55800000
  0
VERTEX
  8
0
 62
7
 10
9.25200000
 20
.55800000
  0
VERTEX
  8
0
 62
7
 10
10.91800000
 20
.55800000
  0
VERTEX
  8
0
 62
7
 10
10.47500000
 20
.04000000
  0
VERTEX
  8
0
 62
7
 10
9.25000000
 20
.04000000
  0
SEQEND
  0
POLYLINE
  8
0
 62
7
 66
1
 70
1
  0
VERTEX
  8
0
 62
7
 10
8.43800000
 20
11.05900000
  0
VERTEX
  8
0
 62
7
 10
8.42200000
 20
11.05500000
  0
VERTEX
  8
0
 62
7
 10
8.39400000
 20
11.04800000
  0
VERTEX
  8
0
 62
7
 10
8.37200000
 20
11.04700000
  0
VERTEX
  8
0
 62
7
 10
8.35050000
 20
11.04650000
  0
VERTEX
  8
0
 62
7
 10
8.32300000
 20
11.04300000
  0
VERTEX
  8
0
 62
7
 10
8.30800000
 20
11.03900000
  0
VERTEX
  8
0
 62
7
 10
8.29800000
 20
11.07800000
  0
VERTEX
  8
0
 62
7
 10
8.28275000
 20
11.11975000
  0
VERTEX
  8
0
 62
7
 10
8.26300000
 20
11.16000000
  0
VERTEX
  8
0
 62
7
 10
8.23100000
 20
11.08800000
  0
VERTEX
  8
0
 62
7
 10
8.19300000
 20
11.01900000
  0
VERTEX
  8
0
 62
7
 10
8.17512500
 20
10.98807813
  0
VERTEX
  8
0
 62
7
 10
8.15650000
 20
10.95762500
  0
VERTEX
  8
0
 62
7
 10
8.13562500
 20
10.92885938
  0
VERTEX
  8
0
 62
7
 10
8.11100000
 20
10.90300000
  0
VERTEX
  8
0
 62
7
 10
8.08184375
 20
10.88010938
  0
VERTEX
  8
0
 62
7
 10
8.05025000
 20
10.86087500
  0
VERTEX
  8
0
 62
7
 10
8.01678125
 20
10.84520313
  0
VERTEX
  8
0
 62
7
 10
7.98200000
 20
10.83300000
  0
VERTEX
  8
0
 62
7
 10
7.94775000
 20
10.82493750
  0
VERTEX
  8
0
 62
7
 10
7.91275000
 20
10.82025000
  0
VERTEX
  8
0
 62
7
 10
7.87737500
 20
10.81893750
  0
VERTEX
  8
0
 62
7
 10
7.84200000
 20
10.82100000
  0
VERTEX
  8
0
 62
7
 10
7.85400000
 20
10.89198438
  0
VERTEX
  8
0
 62
7
 10
7.86000000
 20
10.96362500
  0
VERTEX
  8
0
 62
7
 10
7.86000000
 20
11.03545313
  0
VERTEX
  8
0
 62
7
 10
7.85400000
 20
11.10700000
  0
VERTEX
  8
0
 62
7
 10
7.84726563
 20
11.14701563
  0
VERTEX
  8
0
 62
7
 10
7.83837500
 20
11.18637500
  0
VERTEX
  8
0
 62
7
 10
7.82854688
 20
11.22554688
  0
VERTEX
  8
0
 62
7
 10
7.81900000
 20
11.26500000
  0
VERTEX
  8
0
 62
7
 10
7.74900000
 20
11.54500000
  0
VERTEX
  8
0
 62
7
 10
7.70687500
 20
11.69962500
  0
VERTEX
  8
0
 62
7
 10
7.66700000
 20
11.85500000
  0
VERTEX
  8
0
 62
7
 10
7.65056250
 20
11.92667773
  0
VERTEX
  8
0
 62
7
 10
7.63450000
 20
11.99848438
  0
VERTEX
  8
0
 62
7
 10
7.61918750
 20
12.07045508
  0
VERTEX
  8
0
 62
7
 10
7.60500000
 20
12.14262500
  0
VERTEX
  8
0
 62
7
 10
7.59231250
 20
12.21502930
  0
VERTEX
  8
0
 62
7
 10
7.58150000
 20
12.28770313
  0
VERTEX
  8
0
 62
7
 10
7.57293750
 20
12.36068164
  0
VERTEX
  8
0
 62
7
 10
7.56700000
 20
12.43400000
  0
VERTEX
  8
0
 62
7
 10
7.56320313
 20
12.51875000
  0
VERTEX
  8
0
 62
7
 10
7.56212500
 20
12.60350000
  0
VERTEX
  8
0
 62
7
 10
7.56348438
 20
12.68825000
  0
VERTEX
  8
0
 62
7
 10
7.56700000
 20
12.77300000
  0
VERTEX
  8
0
 62
7
 10
7.57298438
 20
12.86671875
  0
VERTEX
  8
0
 62
7
 10
7.58112500
 20
12.96025000
  0
VERTEX
  8
0
 62
7
 10
7.59245313
 20
13.05340625
  0
VERTEX
  8
0
 62
7
 10
7.60800000
 20
13.14600000
  0
VERTEX
  8
0
 62
7
 10
7.61974805
 20
13.20293555
  0
VERTEX
  8
0
 62
7
 10
7.63260938
 20
13.25967188
  0
VERTEX
  8
0
 62
7
 10
7.64675977
 20
13.31610352
  0
VERTEX
  8
0
 62
7
 10
7.66237500
 20
13.37212500
  0
VERTEX
  8
0
 62
7
 10
7.67963086
 20
13.42763086
  0
VERTEX
  8
0
 62
7
 10
7.69870313
 20
13.48251563
  0
VERTEX
  8
0
 62
7
 10
7.71976758
 20
13.53667383
  0
VERTEX
  8
0
 62
7
 10
7.74300000
 20
13.59000000
  0
VERTEX
  8
0
 62
7
 10
7.78440625
 20
13.67432813
  0
VERTEX
  8
0
 62
7
 10
7.83050000
 20
13.75612500
  0
VERTEX
  8
0
 62
7
 10
7.88109375
 20
13.83510938
  0
VERTEX
  8
0
 62
7
 10
7.93600000
 20
13.91100000
  0
VERTEX
  8
0
 62
7
 10
8.01412500
 20
14.00500000
  0
VERTEX
  8
0
 62
7
 10
8.09900000
 20
14.09300000
  0
VERTEX
  8
0
 62
7
 10
8.07472070
 20
14.02954102
  0
VERTEX
  8
0
 62
7
 10
8.05589063
 20
13.96464063
  0
VERTEX
  8
0
 62
7
 10
8.04252148
 20
13.89863867
  0
VERTEX
  8
0
 62
7
 10
8.03462500
 20
13.83187500
  0
VERTEX
  8
0
 62
7
 10
8.03221289
 20
13.76468945
  0
VERTEX
  8
0
 62
7
 10
8.03529688
 20
13.69742188
  0
VERTEX
  8
0
 62
7
 10
8.04388867
 20
13.63041211
  0
VERTEX
  8
0
 62
7
 10
8.05800000
 20
13.56400000
  0
VERTEX
  8
0
 62
7
 10
8.07217188
 20
13.51757813
  0
VERTEX
  8
0
 62
7
 10
8.08962500
 20
13.47237500
  0
VERTEX
  8
0
 62
7
 10
8.10876563
 20
13.42773438
  0
VERTEX
  8
0
 62
7
 10
8.12800000
 20
13.38300000
  0
VERTEX
  8
0
 62
7
 10
8.18800000
 20
13.25375000
  0
VERTEX
  8
0
 62
7
 10
8.25100000
 20
13.12600000
  0
VERTEX
  8
0
 62
7
 10
8.29143750
 20
13.04453125
  0
VERTEX
  8
0
 62
7
 10
8.33225000
 20
12.96325000
  0
VERTEX
  8
0
 62
7
 10
8.37193750
 20
12.88159375
  0
VERTEX
  8
0
 62
7
 10
8.40900000
 20
12.79900000
  0
VERTEX
  8
0
 62
7
 10
8.45480664
 20
12.68543945
  0
VERTEX
  8
0
 62
7
 10
8.49701563
 20
12.57057813
  0
VERTEX
  8
0
 62
7
 10
8.53568555
 20
12.45452148
  0
VERTEX
  8
0
 62
7
 10
8.57087500
 20
12.33737500
  0
VERTEX
  8
0
 62
7
 10
8.60264258
 20
12.21924414
  0
VERTEX
  8
0
 62
7
 10
8.63104687
 20
12.10023438
  0
VERTEX
  8
0
 62
7
 10
8.65614648
 20
11.98045117
  0
VERTEX
  8
0
 62
7
 10
8.67800000
 20
11.86000000
  0
VERTEX
  8
0
 62
7
 10
8.69020313
 20
11.78410938
  0
VERTEX
  8
0
 62
7
 10
8.70212500
 20
11.70812500
  0
VERTEX
  8
0
 62
7
 10
8.71498438
 20
11.63232813
  0
VERTEX
  8
0
 62
7
 10
8.73000000
 20
11.55700000
  0
VERTEX
  8
0
 62
7
 10
8.73823437
 20
11.51414063
  0
VERTEX
  8
0
 62
7
 10
8.74637500
 20
11.47137500
  0
VERTEX
  8
0
 62
7
 10
8.75657813
 20
11.42917188
  0
VERTEX
  8
0
 62
7
 10
8.77100000
 20
11.38800000
  0
VERTEX
  8
0
 62
7
 10
8.78560938
 20
11.35692188
  0
VERTEX
  8
0
 62
7
 10
8.80237500
 20
11.32687500
  0
VERTEX
  8
0
 62
7
 10
8.82120313
 20
11.29814063
  0
VERTEX
  8
0
 62
7
 10
8.84200000
 20
11.27100000
  0
VERTEX
  8
0
 62
7
 10
8.86987500
 20
11.24087500
  0
VERTEX
  8
0
 62
7
 10
8.90000000
 20
11.21300000
  0
VERTEX
  8
0
 62
7
 10
8.87869336
 20
11.19519141
  0
VERTEX
  8
0
 62
7
 10
8.85610938
 20
11.17928125
  0
VERTEX
  8
0
 62
7
 10
8.83237695
 20
11.16529297
  0
VERTEX
  8
0
 62
7
 10
8.80762500
 20
11.15325000
  0
VERTEX
  8
0
 62
7
 10
8.78198242
 20
11.14317578
  0
VERTEX
  8
0
 62
7
 10
8.75557813
 20
11.13509375
  0
VERTEX
  8
0
 62
7
 10
8.72854102
 20
11.12902734
  0
VERTEX
  8
0
 62
7
 10
8.70100000
 20
11.12500000
  0
VERTEX
  8
0
 62
7
 10
8.65828125
 20
11.12396875
  0
VERTEX
  8
0
 62
7
 10
8.61575000
 20
11.12875000
  0
VERTEX
  8
0
 62
7
 10
8.57359375
 20
11.13765625
  0
VERTEX
  8
0
 62
7
 10
8.53200000
 20
11.14900000
  0
VERTEX
  8
0
 62
7
 10
8.46900000
 20
11.17162500
  0
VERTEX
  8
0
 62
7
 10
8.40900000
 20
11.20100000
  0
VERTEX
  8
0
 62
7
 10
8.42162500
 20
11.14850000
  0
VERTEX
  8
0
 62
7
 10
8.43200000
 20
11.09600000
  0
VERTEX
  8
0
 62
7
 10
8.43800000
 20
11.05900000
  0
SEQEND
  0
POLYLINE
  8
0
 62
7
 66
1
 70
1
  0
VERTEX
  8
0
 62
7
 10
8.92300000
 20
8.87700000
  0
VERTEX
  8
0
 62
7
 10
8.95400000
 20
8.95200000
  0
VERTEX
  8
0
 62
7
 10
9.00237500
 20
8.93112500
  0
VERTEX
  8
0
 62
7
 10
9.05300000
 20
8.91700000
  0
VERTEX
  8
0
 62
7
 10
9.05300000
 20
8.06000000
  0
VERTEX
  8
0
 62
7
 10
8.92300000
 20
8.06000000
  0
VERTEX
  8
0
 62
7
 10
8.92300000
 20
8.87700000
  0
SEQEND
  0
POLYLINE
  8
0
 62
7
 66
1
 70
1
  0
VERTEX
  8
0
 62
7
 10
9.60200000
 20
12.65600000
  0
VERTEX
  8
0
 62
7
 10
9.61100000
 20
12.82400000
  0
VERTEX
  8
0
 62
7
 10
9.62400000
 20
12.96300000
  0
VERTEX
  8
0
 62
7
 10
9.65400000
 20
13.12000000
  0
VERTEX
  8
0
 62
7
 10
9.66137500
 20
13.18407813
  0
VERTEX
  8
0
 62
7
 10
9.66575000
 20
13.24862500
  0
VERTEX
  8
0
 62
7
 10
9.66750000
 20
13.31335938
  0
VERTEX
  8
0
 62
7
 10
9.66700000
 20
13.37800000
  0
VERTEX
  8
0
 62
7
 10
9.66487500
 20
13.44537500
  0
VERTEX
  8
0
 62
7
 10
9.65900000
 20
13.51200000
  0
VERTEX
  8
0
 62
7
 10
9.65170312
 20
13.56189063
  0
VERTEX
  8
0
 62
7
 10
9.64187500
 20
13.61112500
  0
VERTEX
  8
0
 62
7
 10
9.62960937
 20
13.65979688
  0
VERTEX
  8
0
 62
7
 10
9.61500000
 20
13.70800000
  0
VERTEX
  8
0
 62
7
 10
9.59389063
 20
13.76323438
  0
VERTEX
  8
0
 62
7
 10
9.56912500
 20
13.81687500
  0
VERTEX
  8
0
 62
7
 10
9.54229688
 20
13.86957813
  0
VERTEX
  8
0
 62
7
 10
9.51500000
 20
13.92200000
  0
VERTEX
  8
0
 62
7
 10
9.44000000
 20
14.05700000
  0
VERTEX
  8
0
 62
7
 10
9.37100000
 20
14.18800000
  0
VERTEX
  8
0
 62
7
 10
9.33100000
 20
14.28000000
  0
VERTEX
  8
0
 62
7
 10
9.31087500
 20
14.33575000
  0
VERTEX
  8
0
 62
7
 10
9.29600000
 20
14.39300000
  0
VERTEX
  8
0
 62
7
 10
9.29093750
 20
14.42914063
  0
VERTEX
  8
0
 62
7
 10
9.28850000
 20
14.46537500
  0
VERTEX
  8
0
 62
7
 10
9.28981250
 20
14.50142188
  0
VERTEX
  8
0
 62
7
 10
9.29600000
 20
14.53700000
  0
VERTEX
  8
0
 62
7
 10
9.30378125
 20
14.56389063
  0
VERTEX
  8
0
 62
7
 10
9.31400000
 20
14.59012500
  0
VERTEX
  8
0
 62
7
 10
9.32721875
 20
14.61504688
  0
VERTEX
  8
0
 62
7
 10
9.34400000
 20
14.63800000
  0
VERTEX
  8
0
 62
7
 10
9.37437500
 20
14.66737500
  0
VERTEX
  8
0
 62
7
 10
9.41000000
 20
14.69000000
  0
VERTEX
  8
0
 62
7
 10
9.43550000
 20
14.67962500
  0
VERTEX
  8
0
 62
7
 10
9.45800000
 20
14.66400000
  0
VERTEX
  8
0
 62
7
 10
9.48125000
 20
14.63812500
  0
VERTEX
  8
0
 62
7
 10
9.49700000
 20
14.60700000
  0
VERTEX
  8
0
 62
7
 10
9.50185938
 20
14.59001563
  0
VERTEX
  8
0
 62
7
 10
9.50437500
 20
14.57237500
  0
VERTEX
  8
0
 62
7
 10
9.50445313
 20
14.55454688
  0
VERTEX
  8
0
 62
7
 10
9.50200000
 20
14.53700000
  0
VERTEX
  8
0
 62
7
 10
9.47900000
 20
14.53700000
  0
VERTEX
  8
0
 62
7
 10
9.47839062
 20
14.55553125
  0
VERTEX
  8
0
 62
7
 10
9.47487500
 20
14.57125000
  0
VERTEX
  8
0
 62
7
 10
9.46817187
 20
14.58509375
  0
VERTEX
  8
0
 62
7
 10
9.45800000
 20
14.59800000
  0
VERTEX
  8
0
 62
7
 10
9.44200000
 20
14.60854688
  0
VERTEX
  8
0
 62
7
 10
9.42375000
 20
14.61112500
  0
VERTEX
  8
0
 62
7
 10
9.40512500
 20
14.60714063
  0
VERTEX
  8
0
 62
7
 10
9.38800000
 20
14.59800000
  0
VERTEX
  8
0
 62
7
 10
9.36665625
 20
14.57710938
  0
VERTEX
  8
0
 62
7
 10
9.35225000
 20
14.55162500
  0
VERTEX
  8
0
 62
7
 10
9.34271875
 20
14.52332813
  0
VERTEX
  8
0
 62
7
 10
9.33600000
 20
14.49400000
  0
VERTEX
  8
0
 62
7
 10
9.33246875
 20
14.46009375
  0
VERTEX
  8
0
 62
7
 10
9.33475000
 20
14.42675000
  0
VERTEX
  8
0
 62
7
 10
9.34190625
 20
14.39303125
  0
VERTEX
  8
0
 62
7
 10
9.35300000
 20
14.35800000
  0
VERTEX
  8
0
 62
7
 10
9.36750000
 20
14.31762500
  0
VERTEX
  8
0
 62
7
 10
9.38500000
 20
14.27800000
  0
VERTEX
  8
0
 62
7
 10
9.41187500
 20
14.22575000
  0
VERTEX
  8
0
 62
7
 10
9.44100000
 20
14.17500000
  0
VERTEX
  8
0
 62
7
 10
9.47623438
 20
14.21015625
  0
VERTEX
  8
0
 62
7
 10
9.50762500
 20
14.24925000
  0
VERTEX
  8
0
 62
7
 10
9.53395313
 20
14.29171875
  0
VERTEX
  8
0
 62
7
 10
9.55400000
 20
14.33700000
  0
VERTEX
  8
0
 62
7
 10
9.56300000
 20
14.36575977
  0
VERTEX
  8
0
 62
7
 10
9.56975000
 20
14.39495313
  0
VERTEX
  8
0
 62
7
 10
9.57425000
 20
14.42445117
  0
VERTEX
  8
0
 62
7
 10
9.57650000
 20
14.45412500
  0
VERTEX
  8
0
 62
7
 10
9.57650000
 20
14.48384570
  0
VERTEX
  8
0
 62
7
 10
9.57425000
 20
14.51348438
  0
VERTEX
  8
0
 62
7
 10
9.56975000
 20
14.54291211
  0
VERTEX
  8
0
 62
7
 10
9.56300000
 20
14.57200000
  0
VERTEX
  8
0
 62
7
 10
9.54890625
 20
14.61390625
  0
VERTEX
  8
0
 62
7
 10
9.53050000
 20
14.65375000
  0
VERTEX
  8
0
 62
7
 10
9.50759375
 20
14.69096875
  0
VERTEX
  8
0
 62
7
 10
9.48000000
 20
14.72500000
  0
VERTEX
  8
0
 62
7
 10
9.46140625
 20
14.74401563
  0
VERTEX
  8
0
 62
7
 10
9.44150000
 20
14.76162500
  0
VERTEX
  8
0
 62
7
 10
9.42009375
 20
14.77717188
  0
VERTEX
  8
0
 62
7
 10
9.39700000
 20
14.79000000
  0
VERTEX
  8
0
 62
7
 10
9.36925000
 20
14.80050000
  0
VERTEX
  8
0
 62
7
 10
9.34000000
 20
14.80800000
  0
VERTEX
  8
0
 62
7
 10
9.30743750
 20
14.81270313
  0
VERTEX
  8
0
 62
7
 10
9.27450000
 20
14.81337500
  0
VERTEX
  8
0
 62
7
 10
9.24156250
 20
14.81010938
  0
VERTEX
  8
0
 62
7
 10
9.20900000
 20
14.80300000
  0
VERTEX
  8
0
 62
7
 10
9.18478125
 20
14.79501563
  0
VERTEX
  8
0
 62
7
 10
9.16150000
 20
14.78487500
  0
VERTEX
  8
0
 62
7
 10
9.13896875
 20
14.77304688
  0
VERTEX
  8
0
 62
7
 10
9.11700000
 20
14.76000000
  0
VERTEX
  8
0
 62
7
 10
9.08632813
 20
14.73768750
  0
VERTEX
  8
0
 62
7
 10
9.05837500
 20
14.71200000
  0
VERTEX
  8
0
 62
7
 10
9.03248437
 20
14.68406250
  0
VERTEX
  8
0
 62
7
 10
9.00800000
 20
14.65500000
  0
VERTEX
  8
0
 62
7
 10
8.98153125
 20
14.61960938
  0
VERTEX
  8
0
 62
7
 10
8.95750000
 20
14.58262500
  0
VERTEX
  8
0
 62
7
 10
8.93571875
 20
14.54432813
  0
VERTEX
  8
0
 62
7
 10
8.91600000
 20
14.50500000
  0
VERTEX
  8
0
 62
7
 10
8.89662500
 20
14.45840625
  0
VERTEX
  8
0
 62
7
 10
8.88100000
 20
14.41050000
  0
VERTEX
  8
0
 62
7
 10
8.86762500
 20
14.36184375
  0
VERTEX
  8
0
 62
7
 10
8.85500000
 20
14.31300000
  0
VERTEX
  8
0
 62
7
 10
8.83437500
 20
14.22387500
  0
VERTEX
  8
0
 62
7
 10
8.81600000
 20
14.13400000
  0
VERTEX
  8
0
 62
7
 10
8.78100000
 20
13.97200000
  0
VERTEX
  8
0
 62
7
 10
8.76050000
 20
13.89562500
  0
VERTEX
  8
0
 62
7
 10
8.73700000
 20
13.82000000
  0
VERTEX
  8
0
 62
7
 10
8.67200000
 20
13.65800000
  0
VERTEX
  8
0
 62
7
 10
8.64037500
 20
13.57537500
  0
VERTEX
  8
0
 62
7
 10
8.61100000
 20
13.49200000
  0
VERTEX
  8
0
 62
7
 10
8.58112500
 20
13.38412500
  0
VERTEX
  8
0
 62
7
 10
8.55800000
 20
13.27400000
  0
VERTEX
  8
0
 62
7
 10
8.54817188
 20
13.20782813
  0
VERTEX
  8
0
 62
7
 10
8.54087500
 20
13.14137500
  0
VERTEX
  8
0
 62
7
 10
8.53564062
 20
13.07473438
  0
VERTEX
  8
0
 62
7
 10
8.53200000
 20
13.00800000
  0
VERTEX
  8
0
 62
7
 10
8.52937500
 20
12.89250000
  0
VERTEX
  8
0
 62
7
 10
8.53200000
 20
12.77700000
  0
VERTEX
  8
0
 62
7
 10
8.53487500
 20
12.72001563
  0
VERTEX
  8
0
 62
7
 10
8.53850000
 20
12.66312500
  0
VERTEX
  8
0
 62
7
 10
8.54437500
 20
12.60642188
  0
VERTEX
  8
0
 62
7
 10
8.55400000
 20
12.55000000
  0
VERTEX
  8
0
 62
7
 10
8.55982812
 20
12.52123438
  0
VERTEX
  8
0
 62
7
 10
8.56612500
 20
12.49237500
  0
VERTEX
  8
0
 62
7
 10
8.57410938
 20
12.46407813
  0
VERTEX
  8
0
 62
7
 10
8.58500000
 20
12.43700000
  0
VERTEX
  8
0
 62
7
 10
8.59368750
 20
12.41881250
  0
VERTEX
  8
0
 62
7
 10
8.60275000
 20
12.40100000
  0
VERTEX
  8
0
 62
7
 10
8.61368750
 20
12.38468750
  0
VERTEX
  8
0
 62
7
 10
8.62800000
 20
12.37100000
  0
VERTEX
  8
0
 62
7
 10
8.64203125
 20
12.36221875
  0
VERTEX
  8
0
 62
7
 10
8.65700000
 20
12.35550000
  0
VERTEX
  8
0
 62
7
 10
8.67271875
 20
12.35103125
  0
VERTEX
  8
0
 62
7
 10
8.68900000
 20
12.34900000
  0
VERTEX
  8
0
 62
7
 10
8.69002344
 20
12.37175977
  0
VERTEX
  8
0
 62
7
 10
8.69306250
 20
12.39420313
  0
VERTEX
  8
0
 62
7
 10
8.69807031
 20
12.41620117
  0
VERTEX
  8
0
 62
7
 10
8.70500000
 20
12.43762500
  0
VERTEX
  8
0
 62
7
 10
8.71380469
 20
12.45834570
  0
VERTEX
  8
0
 62
7
 10
8.72443750
 20
12.47823438
  0
VERTEX
  8
0
 62
7
 10
8.73685156
 20
12.49716211
  0
VERTEX
  8
0
 62
7
 10
8.75100000
 20
12.51500000
  0
VERTEX
  8
0
 62
7
 10
8.77712500
 20
12.54125000
  0
VERTEX
  8
0
 62
7
 10
8.80700000
 20
12.56300000
  0
VERTEX
  8
0
 62
7
 10
8.82854688
 20
12.57443750
  0
VERTEX
  8
0
 62
7
 10
8.85112500
 20
12.58325000
  0
VERTEX
  8
0
 62
7
 10
8.87464063
 20
12.58943750
  0
VERTEX
  8
0
 62
7
 10
8.89900000
 20
12.59300000
  0
VERTEX
  8
0
 62
7
 10
8.91998438
 20
12.59414063
  0
VERTEX
  8
0
 62
7
 10
8.94087500
 20
12.59312500
  0
VERTEX
  8
0
 62
7
 10
8.96157813
 20
12.59004688
  0
VERTEX
  8
0
 62
7
 10
8.98200000
 20
12.58500000
  0
VERTEX
  8
0
 62
7
 10
8.96360938
 20
12.56043750
  0
VERTEX
  8
0
 62
7
 10
8.94737500
 20
12.53475000
  0
VERTEX
  8
0
 62
7
 10
8.93320313
 20
12.50793750
  0
VERTEX
  8
0
 62
7
 10
8.92100000
 20
12.48000000
  0
VERTEX
  8
0
 62
7
 10
8.90737500
 20
12.43725000
  0
VERTEX
  8
0
 62
7
 10
8.89900000
 20
12.39300000
  0
VERTEX
  8
0
 62
7
 10
8.88200000
 20
12.39300000
  0
VERTEX
  8
0
 62
7
 10
8.88062500
 20
12.43650000
  0
VERTEX
  8
0
 62
7
 10
8.88600000
 20
12.48000000
  0
VERTEX
  8
0
 62
7
 10
8.89512500
 20
12.51287500
  0
VERTEX
  8
0
 62
7
 10
8.90800000
 20
12.54500000
  0
VERTEX
  8
0
 62
7
 10
8.88800000
 20
12.54487500
  0
VERTEX
  8
0
 62
7
 10
8.86800000
 20
12.54100000
  0
VERTEX
  8
0
 62
7
 10
8.85368750
 20
12.53482813
  0
VERTEX
  8
0
 62
7
 10
8.84050000
 20
12.52612500
  0
VERTEX
  8
0
 62
7
 10
8.82806250
 20
12.51610938
  0
VERTEX
  8
0
 62
7
 10
8.81600000
 20
12.50600000
  0
VERTEX
  8
0
 62
7
 10
8.79050000
 20
12.48350000
  0
VERTEX
  8
0
 62
7
 10
8.76800000
 20
12.45800000
  0
VERTEX
  8
0
 62
7
 10
8.78250000
 20
12.40550000
  0
VERTEX
  8
0
 62
7
 10
8.79400000
 20
12.35300000
  0
VERTEX
  8
0
 62
7
 10
8.80187500
 20
12.29882813
  0
VERTEX
  8
0
 62
7
 10
8.80600000
 20
12.24437500
  0
VERTEX
  8
0
 62
7
 10
8.80862500
 20
12.18973438
  0
VERTEX
  8
0
 62
7
 10
8.81200000
 20
12.13500000
  0
VERTEX
  8
0
 62
7
 10
8.84700000
 20
11.69900000
  0
VERTEX
  8
0
 62
7
 10
8.85140625
 20
11.64860938
  0
VERTEX
  8
0
 62
7
 10
8.85525000
 20
11.59812500
  0
VERTEX
  8
0
 62
7
 10
8.86021875
 20
11.54782813
  0
VERTEX
  8
0
 62
7
 10
8.86800000
 20
11.49800000
  0
VERTEX
  8
0
 62
7
 10
8.88537500
 20
11.42525000
  0
VERTEX
  8
0
 62
7
 10
8.90800000
 20
11.35400000
  0
VERTEX
  8
0
 62
7
 10
8.93900000
 20
11.28000000
  0
VERTEX
  8
0
 62
7
 10
8.93900000
 20
10.18200000
  0
VERTEX
  8
0
 62
7
 10
8.96200000
 20
10.18200000
  0
VERTEX
  8
0
 62
7
 10
8.97400000
 20
10.34900000
  0
VERTEX
  8
0
 62
7
 10
8.98707813
 20
10.48754688
  0
VERTEX
  8
0
 62
7
 10
9.00362500
 20
10.62562500
  0
VERTEX
  8
0
 62
7
 10
9.02335938
 20
10.76314063
  0
VERTEX
  8
0
 62
7
 10
9.04600000
 20
10.90000000
  0
VERTEX
  8
0
 62
7
 10
9.06500000
 20
11.00400000
  0
VERTEX
  8
0
 62
7
 10
9.06500000
 20
11.09700000
  0
VERTEX
  8
0
 62
7
 10
9.06725000
 20
11.16050000
  0
VERTEX
  8
0
 62
7
 10
9.07400000
 20
11.22400000
  0
VERTEX
  8
0
 62
7
 10
9.08137500
 20
11.27187500
  0
VERTEX
  8
0
 62
7
 10
9.09100000
 20
11.31900000
  0
VERTEX
  8
0
 62
7
 10
9.13107813
 20
11.35892188
  0
VERTEX
  8
0
 62
7
 10
9.16712500
 20
11.40212500
  0
VERTEX
  8
0
 62
7
 10
9.19885938
 20
11.44851563
  0
VERTEX
  8
0
 62
7
 10
9.22600000
 20
11.49800000
  0
VERTEX
  8
0
 62
7
 10
9.24167188
 20
11.53287500
  0
VERTEX
  8
0
 62
7
 10
9.25537500
 20
11.56850000
  0
VERTEX
  8
0
 62
7
 10
9.26664063
 20
11.60487500
  0
VERTEX
  8
0
 62
7
 10
9.27500000
 20
11.64200000
  0
VERTEX
  8
0
 62
7
 10
9.28050000
 20
11.69000000
  0
VERTEX
  8
0
 62
7
 10
9.28300000
 20
11.73800000
  0
VERTEX
  8
0
 62
7
 10
9.29200000
 20
11.89900000
  0
VERTEX
  8
0
 62
7
 10
9.29578125
 20
11.95240625
  0
VERTEX
  8
0
 62
7
 10
9.29900000
 20
12.00600000
  0
VERTEX
  8
0
 62
7
 10
9.30296875
 20
12.05959375
  0
VERTEX
  8
0
 62
7
 10
9.30900000
 20
12.11300000
  0
VERTEX
  8
0
 62
7
 10
9.32137500
 20
12.18500000
  0
VERTEX
  8
0
 62
7
 10
9.33600000
 20
12.25700000
  0
VERTEX
  8
0
 62
7
 10
9.36600000
 20
12.38300000
  0
VERTEX
  8
0
 62
7
 10
9.40100000
 20
12.50100000
  0
VERTEX
  8
0
 62
7
 10
9.37203125
 20
12.51898438
  0
VERTEX
  8
0
 62
7
 10
9.34100000
 20
12.53237500
  0
VERTEX
  8
0
 62
7
 10
9.30846875
 20
12.54107813
  0
VERTEX
  8
0
 62
7
 10
9.27500000
 20
12.54500000
  0
VERTEX
  8
0
 62
7
 10
9.24460938
 20
12.54373438
  0
VERTEX
  8
0
 62
7
 10
9.21487500
 20
12.53787500
  0
VERTEX
  8
0
 62
7
 10
9.18570313
 20
12.52882813
  0
VERTEX
  8
0
 62
7
 10
9.15700000
 20
12.51800000
  0
VERTEX
  8
0
 62
7
 10
9.11637500
 20
12.49875000
  0
VERTEX
  8
0
 62
7
 10
9.07800000
 20
12.47500000
  0
VERTEX
  8
0
 62
7
 10
9.06100000
 20
12.49200000
  0
VERTEX
  8
0
 62
7
 10
9.07999609
 20
12.51228516
  0
VERTEX
  8
0
 62
7
 10
9.10084375
 20
12.53034375
  0
VERTEX
  8
0
 62
7
 10
9.12333203
 20
12.54610547
  0
VERTEX
  8
0
 62
7
 10
9.14725000
 20
12.55950000
  0
VERTEX
  8
0
 62
7
 10
9.17238672
 20
12.57045703
  0
VERTEX
  8
0
 62
7
 10
9.19853125
 20
12.57890625
  0
VERTEX
  8
0
 62
7
 10
9.22547266
 20
12.58477734
  0
VERTEX
  8
0
 62
7
 10
9.25300000
 20
12.58800000
  0
VERTEX
  8
0
 62
7
 10
9.29040625
 20
12.58781250
  0
VERTEX
  8
0
 62
7
 10
9.32725000
 20
12.58275000
  0
VERTEX
  8
0
 62
7
 10
9.36296875
 20
12.57281250
  0
VERTEX
  8
0
 62
7
 10
9.39700000
 20
12.55800000
  0
VERTEX
  8
0
 62
7
 10
9.42100000
 20
12.54382813
  0
VERTEX
  8
0
 62
7
 10
9.44350000
 20
12.52712500
  0
VERTEX
  8
0
 62
7
 10
9.46450000
 20
12.50835938
  0
VERTEX
  8
0
 62
7
 10
9.48400000
 20
12.48800000
  0
VERTEX
  8
0
 62
7
 10
9.51550000
 20
12.44825000
  0
VERTEX
  8
0
 62
7
 10
9.54100000
 20
12.40400000
  0
VERTEX
  8
0
 62
7
 10
9.52206250
 20
12.29564063
  0
VERTEX
  8
0
 62
7
 10
9.50725000
 20
12.18662500
  0
VERTEX
  8
0
 62
7
 10
9.49656250
 20
12.07704688
  0
VERTEX
  8
0
 62
7
 10
9.49000000
 20
11.96700000
  0
VERTEX
  8
0
 62
7
 10
9.54312500
 20
12.02850000
  0
VERTEX
  8
0
 62
7
 10
9.60000000
 20
12.08700000
  0
VERTEX
  8
0
 62
7
 10
9.60837500
 20
12.15850000
  0
VERTEX
  8
0
 62
7
 10
9.61900000
 20
12.23000000
  0
VERTEX
  8
0
 62
7
 10
9.64025000
 20
12.34787500
  0
VERTEX
  8
0
 62
7
 10
9.66600000
 20
12.46500000
  0
VERTEX
  8
0
 62
7
 10
9.70450000
 20
12.60925000
  0
VERTEX
  8
0
 62
7
 10
9.74900000
 20
12.75200000
  0
VERTEX
  8
0
 62
7
 10
9.79637500
 20
12.88912500
  0
VERTEX
  8
0
 62
7
 10
9.84900000
 20
13.02400000
  0
VERTEX
  8
0
 62
7
 10
9.90693750
 20
13.15845313
  0
VERTEX
  8
0
 62
7
 10
9.96975000
 20
13.29037500
  0
VERTEX
  8
0
 62
7
 10
10.03743750
 20
13.41985938
  0
VERTEX
  8
0
 62
7
 10
10.11000000
 20
13.54700000
  0
VERTEX
  8
0
 62
7
 10
10.11620313
 20
13.51962500
  0
VERTEX
  8
0
 62
7
 10
10.12437500
 20
13.49300000
  0
VERTEX
  8
0
 62
7
 10
10.13460938
 20
13.46712500
  0
VERTEX
  8
0
 62
7
 10
10.14700000
 20
13.44200000
  0
VERTEX
  8
0
 62
7
 10
10.16234375
 20
13.41634375
  0
VERTEX
  8
0
 62
7
 10
10.17975000
 20
13.39200000
  0
VERTEX
  8
0
 62
7
 10
10.19903125
 20
13.36915625
  0
VERTEX
  8
0
 62
7
 10
10.22000000
 20
13.34800000
  0
VERTEX
  8
0
 62
7
 10
10.24325000
 20
13.32787500
  0
VERTEX
  8
0
 62
7
 10
10.26800000
 20
13.31000000
  0
VERTEX
  8
0
 62
7
 10
10.31600000
 20
13.33300000
  0
VERTEX
  8
0
 62
7
 10
10.35437500
 20
13.34550000
  0
VERTEX
  8
0
 62
7
 10
10.39275000
 20
13.35350000
  0
VERTEX
  8
0
 62
7
 10
10.43075000
 20
13.35775000
  0
VERTEX
  8
0
 62
7
 10
10.46800000
 20
13.35900000
  0
VERTEX
  8
0
 62
7
 10
10.48400000
 20
13.35900000
  0
VERTEX
  8
0
 62
7
 10
10.50468750
 20
13.35812500
  0
VERTEX
  8
0
 62
7
 10
10.52725000
 20
13.35650000
  0
VERTEX
  8
0
 62
7
 10
10.55093750
 20
13.35337500
  0
VERTEX
  8
0
 62
7
 10
10.57500000
 20
13.34800000
  0
VERTEX
  8
0
 62
7
 10
10.61500000
 20
13.33300000
  0
VERTEX
  8
0
 62
7
 10
10.63600000
 20
13.32500000
  0
VERTEX
  8
0
 62
7
 10
10.63700000
 20
13.32500000
  0
VERTEX
  8
0
 62
7
 10
10.65900000
 20
13.36400000
  0
VERTEX
  8
0
 62
7
 10
10.67862500
 20
13.40189063
  0
VERTEX
  8
0
 62
7
 10
10.69675000
 20
13.44062500
  0
VERTEX
  8
0
 62
7
 10
10.71300000
 20
13.48029688
  0
VERTEX
  8
0
 62
7
 10
10.72700000
 20
13.52100000
  0
VERTEX
  8
0
 62
7
 10
10.74074023
 20
13.57201953
  0
VERTEX
  8
0
 62
7
 10
10.75104688
 20
13.62371875
  0
VERTEX
  8
0
 62
7
 10
10.75879883
 20
13.67593359
  0
VERTEX
  8
0
 62
7
 10
10.76487500
 20
13.72850000
  0
VERTEX
  8
0
 62
7
 10
10.77015430
 20
13.78125391
  0
VERTEX
  8
0
 62
7
 10
10.77551563
 20
13.83403125
  0
VERTEX
  8
0
 62
7
 10
10.78183789
 20
13.88666797
  0
VERTEX
  8
0
 62
7
 10
10.79000000
 20
13.93900000
  0
VERTEX
  8
0
 62
7
 10
10.80357813
 20
14.01260938
  0
VERTEX
  8
0
 62
7
 10
10.81837500
 20
14.08612500
  0
VERTEX
  8
0
 62
7
 10
10.83598438
 20
14.15907813
  0
VERTEX
  8
0
 62
7
 10
10.85800000
 20
14.23100000
  0
VERTEX
  8
0
 62
7
 10
10.87901563
 20
14.28553125
  0
VERTEX
  8
0
 62
7
 10
10.90312500
 20
14.33875000
  0
VERTEX
  8
0
 62
7
 10
10.92817188
 20
14.39159375
  0
VERTEX
  8
0
 62
7
 10
10.95200000
 20
14.44500000
  0
VERTEX
  8
0
 62
7
 10
10.97474146
 20
14.50235254
  0
VERTEX
  8
0
 62
7
 10
10.99532227
 20
14.56036719
  0
VERTEX
  8
0
 62
7
 10
11.01371460
 20
14.61897949
  0
VERTEX
  8
0
 62
7
 10
11.02989063
 20
14.67812500
  0
VERTEX
  8
0
 62
7
 10
11.04382251
 20
14.73773926
  0
VERTEX
  8
0
 62
7
 10
11.05548242
 20
14.79775781
  0
VERTEX
  8
0
 62
7
 10
11.06484253
 20
14.85811621
  0
VERTEX
  8
0
 62
7
 10
11.07187500
 20
14.91875000
  0
VERTEX
  8
0
 62
7
 10
11.07655200
 20
14.97959473
  0
VERTEX
  8
0
 62
7
 10
11.07884570
 20
15.04058594
  0
VERTEX
  8
0
 62
7
 10
11.07872827
 20
15.10165918
  0
VERTEX
  8
0
 62
7
 10
11.07617188
 20
15.16275000
  0
VERTEX
  8
0
 62
7
 10
11.07114868
 20
15.22379395
  0
VERTEX
  8
0
 62
7
 10
11.06363086
 20
15.28472656
  0
VERTEX
  8
0
 62
7
 10
11.05359058
 20
15.34548340
  0
VERTEX
  8
0
 62
7
 10
11.04100000
 20
15.40600000
  0
VERTEX
  8
0
 62
7
 10
11.02526563
 20
15.46059375
  0
VERTEX
  8
0
 62
7
 10
11.00437500
 20
15.51350000
  0
VERTEX
  8
0
 62
7
 10
10.97954688
 20
15.56490625
  0
VERTEX
  8
0
 62
7
 10
10.95200000
 20
15.61500000
  0
VERTEX
  8
0
 62
7
 10
10.90795313
 20
15.68431250
  0
VERTEX
  8
0
 62
7
 10
10.85837500
 20
15.74950000
  0
VERTEX
  8
0
 62
7
 10
10.80335938
 20
15.81018750
  0
VERTEX
  8
0
 62
7
 10
10.74300000
 20
15.86600000
  0
VERTEX
  8
0
 62
7
 10
10.75387500
 20
15.81690625
  0
VERTEX
  8
0
 62
7
 10
10.76100000
 20
15.76725000
  0
VERTEX
  8
0
 62
7
 10
10.76437500
 20
15.71721875
  0
VERTEX
  8
0
 62
7
 10
10.76400000
 20
15.66700000
  0
VERTEX
  8
0
 62
7
 10
10.76042188
 20
15.62295313
  0
VERTEX
  8
0
 62
7
 10
10.75412500
 20
15.57937500
  0
VERTEX
  8
0
 62
7
 10
10.74501563
 20
15.53635938
  0
VERTEX
  8
0
 62
7
 10
10.73300000
 20
15.49400000
  0
VERTEX
  8
0
 62
7
 10
10.71900000
 20
15.45479688
  0
VERTEX
  8
0
 62
7
 10
10.70275000
 20
15.41662500
  0
VERTEX
  8
0
 62
7
 10
10.68462500
 20
15.37939063
  0
VERTEX
  8
0
 62
7
 10
10.66500000
 20
15.34300000
  0
VERTEX
  8
0
 62
7
 10
10.62525000
 20
15.27850000
  0
VERTEX
  8
0
 62
7
 10
10.58100000
 20
15.21700000
  0
VERTEX
  8
0
 62
7
 10
10.51562500
 20
15.14137500
  0
VERTEX
  8
0
 62
7
 10
10.44500000
 20
15.07100000
  0
VERTEX
  8
0
 62
7
 10
10.28300000
 20
14.93500000
  0
VERTEX
  8
0
 62
7
 10
10.23704688
 20
14.89470313
  0
VERTEX
  8
0
 62
7
 10
10.19137500
 20
14.85412500
  0
VERTEX
  8
0
 62
7
 10
10.14701563
 20
14.81223438
  0
VERTEX
  8
0
 62
7
 10
10.10500000
 20
14.76800000
  0
VERTEX
  8
0
 62
7
 10
10.05687500
 20
14.70746875
  0
VERTEX
  8
0
 62
7
 10
10.01325000
 20
14.64375000
  0
VERTEX
  8
0
 62
7
 10
9.97225000
 20
14.57815625
  0
VERTEX
  8
0
 62
7
 10
9.93200000
 20
14.51200000
  0
VERTEX
  8
0
 62
7
 10
9.82800000
 20
14.33400000
  0
VERTEX
  8
0
 62
7
 10
9.80287500
 20
14.29251563
  0
VERTEX
  8
0
 62
7
 10
9.77775000
 20
14.25112500
  0
VERTEX
  8
0
 62
7
 10
9.75150000
 20
14.21067188
  0
VERTEX
  8
0
 62
7
 10
9.72300000
 20
14.17200000
  0
VERTEX
  8
0
 62
7
 10
9.68234375
 20
14.12400000
  0
VERTEX
  8
0
 62
7
 10
9.63850000
 20
14.07900000
  0
VERTEX
  8
0
 62
7
 10
9.59165625
 20
14.03700000
  0
VERTEX
  8
0
 62
7
 10
9.54200000
 20
13.99800000
  0
VERTEX
  8
0
 62
7
 10
9.56800000
 20
13.95000000
  0
VERTEX
  8
0
 62
7
 10
9.58600000
 20
13.91600000
  0
VERTEX
  8
0
 62
7
 10
9.60885938
 20
13.87156250
  0
VERTEX
  8
0
 62
7
 10
9.63162500
 20
13.82525000
  0
VERTEX
  8
0
 62
7
 10
9.65307813
 20
13.77706250
  0
VERTEX
  8
0
 62
7
 10
9.67200000
 20
13.72700000
  0
VERTEX
  8
0
 62
7
 10
9.68700000
 20
13.67800000
  0
VERTEX
  8
0
 62
7
 10
9.72300000
 20
13.65200000
  0
VERTEX
  8
0
 62
7
 10
9.74890625
 20
13.63570313
  0
VERTEX
  8
0
 62
7
 10
9.77575000
 20
13.62062500
  0
VERTEX
  8
0
 62
7
 10
9.80371875
 20
13.60798438
  0
VERTEX
  8
0
 62
7
 10
9.83300000
 20
13.59900000
  0
VERTEX
  8
0
 62
7
 10
9.85786523
 20
13.59449805
  0
VERTEX
  8
0
 62
7
 10
9.88285938
 20
13.59223438
  0
VERTEX
  8
0
 62
7
 10
9.90783008
 20
13.59219727
  0
VERTEX
  8
0
 62
7
 10
9.93262500
 20
13.59437500
  0
VERTEX
  8
0
 62
7
 10
9.95709180
 20
13.59875586
  0
VERTEX
  8
0
 62
7
 10
9.98107813
 20
13.60532813
  0
VERTEX
  8
0
 62
7
 10
10.00443164
 20
13.61408008
  0
VERTEX
  8
0
 62
7
 10
10.02700000
 20
13.62500000
  0
VERTEX
  8
0
 62
7
 10
9.96175000
 20
13.50875000
  0
VERTEX
  8
0
 62
7
 10
9.90100000
 20
13.39100000
  0
VERTEX
  8
0
 62
7
 10
9.83625000
 20
13.25325000
  0
VERTEX
  8
0
 62
7
 10
9.77600000
 20
13.11400000
  0
VERTEX
  8
0
 62
7
 10
9.72828125
 20
13.00081250
  0
VERTEX
  8
0
 62
7
 10
9.68225000
 20
12.88725000
  0
VERTEX
  8
0
 62
7
 10
9.63959375
 20
12.77256250
  0
VERTEX
  8
0
 62
7
 10
9.60200000
 20
12.65600000
  0
SEQEND
  0
POLYLINE
  8
0
 62
7
 66
1
 70
1
  0
VERTEX
  8
0
 62
7
 10
10.26800000
 20
9.33000000
  0
VERTEX
  8
0
 62
7
 10
10.26800000
 20
10.03600000
  0
VERTEX
  8
0
 62
7
 10
10.23803125
 20
10.06804688
  0
VERTEX
  8
0
 62
7
 10
10.21125000
 20
10.10262500
  0
VERTEX
  8
0
 62
7
 10
10.18784375
 20
10.13964063
  0
VERTEX
  8
0
 62
7
 10
10.16800000
 20
10.17900000
  0
VERTEX
  8
0
 62
7
 10
10.15576563
 20
10.21192188
  0
VERTEX
  8
0
 62
7
 10
10.14662500
 20
10.24587500
  0
VERTEX
  8
0
 62
7
 10
10.13917188
 20
10.28039063
  0
VERTEX
  8
0
 62
7
 10
10.13200000
 20
10.31500000
  0
VERTEX
  8
0
 62
7
 10
10.11000000
 20
10.44000000
  0
VERTEX
  8
0
 62
7
 10
10.08200000
 20
10.65500000
  0
VERTEX
  8
0
 62
7
 10
10.07600000
 20
10.71400000
  0
VERTEX
  8
0
 62
7
 10
10.06700000
 20
10.77300000
  0
VERTEX
  8
0
 62
7
 10
10.05525000
 20
10.82025000
  0
VERTEX
  8
0
 62
7
 10
10.03900000
 20
10.86600000
  0
VERTEX
  8
0
 62
7
 10
10.02087500
 20
10.90412500
  0
VERTEX
  8
0
 62
7
 10
9.99900000
 20
10.94000000
  0
VERTEX
  8
0
 62
7
 10
10.01900000
 20
10.97162500
  0
VERTEX
  8
0
 62
7
 10
10.04200000
 20
11.00100000
  0
VERTEX
  8
0
 62
7
 10
10.06750000
 20
11.02712500
  0
VERTEX
  8
0
 62
7
 10
10.09600000
 20
11.05100000
  0
VERTEX
  8
0
 62
7
 10
10.08500000
 20
11.01500000
  0
VERTEX
  8
0
 62
7
 10
10.08125000
 20
10.98300000
  0
VERTEX
  8
0
 62
7
 10
10.08200000
 20
10.95100000
  0
VERTEX
  8
0
 62
7
 10
10.09600000
 20
10.95100000
  0
VERTEX
  8
0
 62
7
 10
10.11875000
 20
11.01462500
  0
VERTEX
  8
0
 62
7
 10
10.14600000
 20
11.07600000
  0
VERTEX
  8
0
 62
7
 10
10.16637500
 20
11.11587500
  0
VERTEX
  8
0
 62
7
 10
10.18900000
 20
11.15500000
  0
VERTEX
  8
0
 62
7
 10
10.15284375
 20
11.13762500
  0
VERTEX
  8
0
 62
7
 10
10.11800000
 20
11.11725000
  0
VERTEX
  8
0
 62
7
 10
10.08465625
 20
11.09425000
  0
VERTEX
  8
0
 62
7
 10
10.05300000
 20
11.06900000
  0
VERTEX
  8
0
 62
7
 10
10.00300000
 20
11.01900000
  0
VERTEX
  8
0
 62
7
 10
9.94450000
 20
10.95450000
  0
VERTEX
  8
0
 62
7
 10
9.88900000
 20
10.88700000
  0
VERTEX
  8
0
 62
7
 10
9.88200000
 20
10.89900000
  0
VERTEX
  8
0
 62
7
 10
9.86100000
 20
10.96800000
  0
VERTEX
  8
0
 62
7
 10
9.83775000
 20
11.03450000
  0
VERTEX
  8
0
 62
7
 10
9.81300000
 20
11.09800000
  0
VERTEX
  8
0
 62
7
 10
9.76600000
 20
11.22400000
  0
VERTEX
  8
0
 62
7
 10
9.75800000
 20
11.25100000
  0
VERTEX
  8
0
 62
7
 10
9.74107813
 20
11.30357813
  0
VERTEX
  8
0
 62
7
 10
9.72537500
 20
11.35512500
  0
VERTEX
  8
0
 62
7
 10
9.71173438
 20
11.40610938
  0
VERTEX
  8
0
 62
7
 10
9.70100000
 20
11.45700000
  0
VERTEX
  8
0
 62
7
 10
9.69296875
 20
11.50817188
  0
VERTEX
  8
0
 62
7
 10
9.68700000
 20
11.55962500
  0
VERTEX
  8
0
 62
7
 10
9.68328125
 20
11.61126563
  0
VERTEX
  8
0
 62
7
 10
9.68200000
 20
11.66300000
  0
VERTEX
  8
0
 62
7
 10
9.68200000
 20
11.67600000
  0
VERTEX
  8
0
 62
7
 10
9.68800000
 20
11.74300000
  0
VERTEX
  8
0
 62
7
 10
9.69542187
 20
11.78689063
  0
VERTEX
  8
0
 62
7
 10
9.70537500
 20
11.83012500
  0
VERTEX
  8
0
 62
7
 10
9.71739063
 20
11.87279688
  0
VERTEX
  8
0
 62
7
 10
9.73100000
 20
11.91500000
  0
VERTEX
  8
0
 62
7
 10
9.75362500
 20
11.97489063
  0
VERTEX
  8
0
 62
7
 10
9.78000000
 20
12.03337500
  0
VERTEX
  8
0
 62
7
 10
9.80862500
 20
12.09092188
  0
VERTEX
  8
0
 62
7
 10
9.83800000
 20
12.14800000
  0
VERTEX
  8
0
 62
7
 10
9.92800000
 20
12.30800000
  0
VERTEX
  8
0
 62
7
 10
9.96537500
 20
12.37875000
  0
VERTEX
  8
0
 62
7
 10
9.99900000
 20
12.45100000
  0
VERTEX
  8
0
 62
7
 10
10.01503125
 20
12.49035938
  0
VERTEX
  8
0
 62
7
 10
10.02975000
 20
12.53037500
  0
VERTEX
  8
0
 62
7
 10
10.04259375
 20
12.57095313
  0
VERTEX
  8
0
 62
7
 10
10.05300000
 20
12.61200000
  0
VERTEX
  8
0
 62
7
 10
10.06350000
 20
12.68000000
  0
VERTEX
  8
0
 62
7
 10
10.07100000
 20
12.74800000
  0
VERTEX
  8
0
 62
7
 10
10.07554688
 20
12.79090625
  0
VERTEX
  8
0
 62
7
 10
10.07962500
 20
12.83400000
  0
VERTEX
  8
0
 62
7
 10
10.08464063
 20
12.87709375
  0
VERTEX
  8
0
 62
7
 10
10.09200000
 20
12.92000000
  0
VERTEX
  8
0
 62
7
 10
10.10362500
 20
12.96937500
  0
VERTEX
  8
0
 62
7
 10
10.11900000
 20
13.01800000
  0
VERTEX
  8
0
 62
7
 10
10.13882813
 20
13.06887500
  0
VERTEX
  8
0
 62
7
 10
10.16212500
 20
13.11825000
  0
VERTEX
  8
0
 62
7
 10
10.19085938
 20
13.16425000
  0
VERTEX
  8
0
 62
7
 10
10.22700000
 20
13.20500000
  0
VERTEX
  8
0
 62
7
 10
10.25207813
 20
13.22665625
  0
VERTEX
  8
0
 62
7
 10
10.27912500
 20
13.24625000
  0
VERTEX
  8
0
 62
7
 10
10.30785938
 20
13.26321875
  0
VERTEX
  8
0
 62
7
 10
10.33800000
 20
13.27700000
  0
VERTEX
  8
0
 62
7
 10
10.37301563
 20
13.28817188
  0
VERTEX
  8
0
 62
7
 10
10.40887500
 20
13.29512500
  0
VERTEX
  8
0
 62
7
 10
10.44529688
 20
13.29851563
  0
VERTEX
  8
0
 62
7
 10
10.48200000
 20
13.29900000
  0
VERTEX
  8
0
 62
7
 10
10.52137500
 20
13.29675000
  0
VERTEX
  8
0
 62
7
 10
10.56000000
 20
13.29000000
  0
VERTEX
  8
0
 62
7
 10
10.61900000
 20
13.26700000
  0
VERTEX
  8
0
 62
7
 10
10.67200000
 20
13.25400000
  0
VERTEX
  8
0
 62
7
 10
10.69762500
 20
13.23937500
  0
VERTEX
  8
0
 62
7
 10
10.72100000
 20
13.22100000
  0
VERTEX
  8
0
 62
7
 10
10.73817188
 20
13.20312500
  0
VERTEX
  8
0
 62
7
 10
10.75262500
 20
13.18300000
  0
VERTEX
  8
0
 62
7
 10
10.76501563
 20
13.16137500
  0
VERTEX
  8
0
 62
7
 10
10.77600000
 20
13.13900000
  0
VERTEX
  8
0
 62
7
 10
10.78903125
 20
13.10681250
  0
VERTEX
  8
0
 62
7
 10
10.79850000
 20
13.07350000
  0
VERTEX
  8
0
 62
7
 10
10.80496875
 20
13.03943750
  0
VERTEX
  8
0
 62
7
 10
10.80900000
 20
13.00500000
  0
VERTEX
  8
0
 62
7
 10
10.81071875
 20
12.96378125
  0
VERTEX
  8
0
 62
7
 10
10.80850000
 20
12.92275000
  0
VERTEX
  8
0
 62
7
 10
10.80253125
 20
12.88209375
  0
VERTEX
  8
0
 62
7
 10
10.79300000
 20
12.84200000
  0
VERTEX
  8
0
 62
7
 10
10.77725000
 20
12.79687500
  0
VERTEX
  8
0
 62
7
 10
10.75700000
 20
12.75400000
  0
VERTEX
  8
0
 62
7
 10
10.71112500
 20
12.80537500
  0
VERTEX
  8
0
 62
7
 10
10.67200000
 20
12.86200000
  0
VERTEX
  8
0
 62
7
 10
10.65467188
 20
12.89314063
  0
VERTEX
  8
0
 62
7
 10
10.63912500
 20
12.92512500
  0
VERTEX
  8
0
 62
7
 10
10.62601563
 20
12.95804688
  0
VERTEX
  8
0
 62
7
 10
10.61600000
 20
12.99200000
  0
VERTEX
  8
0
 62
7
 10
10.60950000
 20
13.02650000
  0
VERTEX
  8
0
 62
7
 10
10.60600000
 20
13.06100000
  0
VERTEX
  8
0
 62
7
 10
10.58700000
 20
13.07100000
  0
VERTEX
  8
0
 62
7
 10
10.58381250
 20
13.04159375
  0
VERTEX
  8
0
 62
7
 10
10.58325000
 20
13.01200000
  0
VERTEX
  8
0
 62
7
 10
10.58531250
 20
12.98240625
  0
VERTEX
  8
0
 62
7
 10
10.59000000
 20
12.95300000
  0
VERTEX
  8
0
 62
7
 10
10.60425000
 20
12.90875000
  0
VERTEX
  8
0
 62
7
 10
10.62300000
 20
12.86600000
  0
VERTEX
  8
0
 62
7
 10
10.64054688
 20
12.83473438
  0
VERTEX
  8
0
 62
7
 10
10.66062500
 20
12.80487500
  0
VERTEX
  8
0
 62
7
 10
10.68164063
 20
12.77557813
  0
VERTEX
  8
0
 62
7
 10
10.70200000
 20
12.74600000
  0
VERTEX
  8
0
 62
7
 10
10.73878125
 20
12.68907813
  0
VERTEX
  8
0
 62
7
 10
10.77500000
 20
12.63187500
  0
VERTEX
  8
0
 62
7
 10
10.80971875
 20
12.57373438
  0
VERTEX
  8
0
 62
7
 10
10.84200000
 20
12.51400000
  0
VERTEX
  8
0
 62
7
 10
10.87456250
 20
12.44743750
  0
VERTEX
  8
0
 62
7
 10
10.90450000
 20
12.37975000
  0
VERTEX
  8
0
 62
7
 10
10.93143750
 20
12.31093750
  0
VERTEX
  8
0
 62
7
 10
10.95500000
 20
12.24100000
  0
VERTEX
  8
0
 62
7
 10
10.98400000
 20
12.13678125
  0
VERTEX
  8
0
 62
7
 10
11.00625000
 20
12.03125000
  0
VERTEX
  8
0
 62
7
 10
11.02137500
 20
11.92459375
  0
VERTEX
  8
0
 62
7
 10
11.02900000
 20
11.81700000
  0
VERTEX
  8
0
 62
7
 10
11.02981250
 20
11.73692188
  0
VERTEX
  8
0
 62
7
 10
11.02650000
 20
11.65712500
  0
VERTEX
  8
0
 62
7
 10
11.01943750
 20
11.57751563
  0
VERTEX
  8
0
 62
7
 10
11.00900000
 20
11.49800000
  0
VERTEX
  8
0
 62
7
 10
10.99670313
 20
11.42712500
  0
VERTEX
  8
0
 62
7
 10
10.98187500
 20
11.35700000
  0
VERTEX
  8
0
 62
7
 10
10.96385938
 20
11.28762500
  0
VERTEX
  8
0
 62
7
 10
10.94200000
 20
11.21900000
  0
VERTEX
  8
0
 62
7
 10
10.90812500
 20
11.13187500
  0
VERTEX
  8
0
 62
7
 10
10.86900000
 20
11.04700000
  0
VERTEX
  8
0
 62
7
 10
10.85653125
 20
11.01860938
  0
VERTEX
  8
0
 62
7
 10
10.84425000
 20
10.99012500
  0
VERTEX
  8
0
 62
7
 10
10.82934375
 20
10.96332813
  0
VERTEX
  8
0
 62
7
 10
10.80900000
 20
10.94000000
  0
VERTEX
  8
0
 62
7
 10
10.79178125
 20
10.92687500
  0
VERTEX
  8
0
 62
7
 10
10.77325000
 20
10.91600000
  0
VERTEX
  8
0
 62
7
 10
10.75359375
 20
10.90737500
  0
VERTEX
  8
0
 62
7
 10
10.73300000
 20
10.90100000
  0
VERTEX
  8
0
 62
7
 10
10.73108984
 20
10.92595898
  0
VERTEX
  8
0
 62
7
 10
10.72690625
 20
10.95048438
  0
VERTEX
  8
0
 62
7
 10
10.72051953
 20
10.97442383
  0
VERTEX
  8
0
 62
7
 10
10.71200000
 20
10.99762500
  0
VERTEX
  8
0
 62
7
 10
10.70141797
 20
11.01993555
  0
VERTEX
  8
0
 62
7
 10
10.68884375
 20
11.04120313
  0
VERTEX
  8
0
 62
7
 10
10.67434766
 20
11.06127539
  0
VERTEX
  8
0
 62
7
 10
10.65800000
 20
11.08000000
  0
VERTEX
  8
0
 62
7
 10
10.62062500
 20
11.11225000
  0
VERTEX
  8
0
 62
7
 10
10.57800000
 20
11.13700000
  0
VERTEX
  8
0
 62
7
 10
10.55687500
 20
11.14612500
  0
VERTEX
  8
0
 62
7
 10
10.53500000
 20
11.15300000
  0
VERTEX
  8
0
 62
7
 10
10.51550000
 20
11.15654688
  0
VERTEX
  8
0
 62
7
 10
10.49600000
 20
11.15812500
  0
VERTEX
  8
0
 62
7
 10
10.47650000
 20
11.15764063
  0
VERTEX
  8
0
 62
7
 10
10.45700000
 20
11.15500000
  0
VERTEX
  8
0
 62
7
 10
10.41987500
 20
11.14350000
  0
VERTEX
  8
0
 62
7
 10
10.38500000
 20
11.12600000
  0
VERTEX
  8
0
 62
7
 10
10.34625000
 20
11.10062500
  0
VERTEX
  8
0
 62
7
 10
10.31200000
 20
11.07000000
  0
VERTEX
  8
0
 62
7
 10
10.32300000
 20
11.05600000
  0
VERTEX
  8
0
 62
7
 10
10.35062500
 20
11.07250000
  0
VERTEX
  8
0
 62
7
 10
10.37900000
 20
11.08600000
  0
VERTEX
  8
0
 62
7
 10
10.39718750
 20
11.09396875
  0
VERTEX
  8
0
 62
7
 10
10.41575000
 20
11.10100000
  0
VERTEX
  8
0
 62
7
 10
10.43468750
 20
11.10653125
  0
VERTEX
  8
0
 62
7
 10
10.45400000
 20
11.11000000
  0
VERTEX
  8
0
 62
7
 10
10.48687500
 20
11.11050000
  0
VERTEX
  8
0
 62
7
 10
10.51900000
 20
11.10500000
  0
VERTEX
  8
0
 62
7
 10
10.53664063
 20
11.09928125
  0
VERTEX
  8
0
 62
7
 10
10.55362500
 20
11.09150000
  0
VERTEX
  8
0
 62
7
 10
10.57004688
 20
11.08221875
  0
VERTEX
  8
0
 62
7
 10
10.58600000
 20
11.07200000
  0
VERTEX
  8
0
 62
7
 10
10.60925000
 20
11.05462500
  0
VERTEX
  8
0
 62
7
 10
10.63100000
 20
11.03500000
  0
VERTEX
  8
0
 62
7
 10
10.61900000
 20
10.98100000
  0
VERTEX
  8
0
 62
7
 10
10.60818750
 20
10.91467188
  0
VERTEX
  8
0
 62
7
 10
10.60150000
 20
10.84787500
  0
VERTEX
  8
0
 62
7
 10
10.59706250
 20
10.78089063
  0
VERTEX
  8
0
 62
7
 10
10.59300000
 20
10.71400000
  0
VERTEX
  8
0
 62
7
 10
10.58600000
 20
10.52100000
  0
VERTEX
  8
0
 62
7
 10
10.58456641
 20
10.49091797
  0
VERTEX
  8
0
 62
7
 10
10.58371875
 20
10.46071875
  0
VERTEX
  8
0
 62
7
 10
10.58301172
 20
10.43047266
  0
VERTEX
  8
0
 62
7
 10
10.58200000
 20
10.40025000
  0
VERTEX
  8
0
 62
7
 10
10.58023828
 20
10.37012109
  0
VERTEX
  8
0
 62
7
 10
10.57728125
 20
10.34015625
  0
VERTEX
  8
0
 62
7
 10
10.57268359
 20
10.31042578
  0
VERTEX
  8
0
 62
7
 10
10.56600000
 20
10.28100000
  0
VERTEX
  8
0
 62
7
 10
10.55521875
 20
10.24271875
  0
VERTEX
  8
0
 62
7
 10
10.54275000
 20
10.20500000
  0
VERTEX
  8
0
 62
7
 10
10.52690625
 20
10.16878125
  0
VERTEX
  8
0
 62
7
 10
10.50600000
 20
10.13500000
  0
VERTEX
  8
0
 62
7
 10
10.47825000
 20
10.10275000
  0
VERTEX
  8
0
 62
7
 10
10.44600000
 20
10.07500000
  0
VERTEX
  8
0
 62
7
 10
10.41100000
 20
10.05237500
  0
VERTEX
  8
0
 62
7
 10
10.37300000
 20
10.03500000
  0
VERTEX
  8
0
 62
7
 10
10.37300000
 20
9.46100000
  0
VERTEX
  8
0
 62
7
 10
10.36000000
 20
9.44400000
  0
VERTEX
  8
0
 62
7
 10
10.30400000
 20
9.37400000
  0
VERTEX
  8
0
 62
7
 10
10.26800000
 20
9.33000000
  0
SEQEND
  0
POLYLINE
  8
0
 62
7
 66
1
 70
1
  0
VERTEX
  8
0
 62
7
 10
8.38600000
 20
8.06000000
  0
VERTEX
  8
0
 62
7
 10
8.02200000
 20
8.06000000
  0
VERTEX
  8
0
 62
7
 10
8.01087500
 20
8.18587500
  0
VERTEX
  8
0
 62
7
 10
7.99300000
 20
8.31100000
  0
VERTEX
  8
0
 62
7
 10
7.97462500
 20
8.40825000
  0
VERTEX
  8
0
 62
7
 10
7.95100000
 20
8.50400000
  0
VERTEX
  8
0
 62
7
 10
7.92050000
 20
8.59862500
  0
VERTEX
  8
0
 62
7
 10
7.88400000
 20
8.69100000
  0
VERTEX
  8
0
 62
7
 10
7.90375000
 20
8.70762500
  0
VERTEX
  8
0
 62
7
 10
7.92500000
 20
8.72200000
  0
VERTEX
  8
0
 62
7
 10
7.95787500
 20
8.73975000
  0
VERTEX
  8
0
 62
7
 10
7.99300000
 20
8.75300000
  0
VERTEX
  8
0
 62
7
 10
7.98387500
 20
8.73575000
  0
VERTEX
  8
0
 62
7
 10
7.97700000
 20
8.71700000
  0
VERTEX
  8
0
 62
7
 10
7.96937500
 20
8.68587500
  0
VERTEX
  8
0
 62
7
 10
7.96700000
 20
8.65400000
  0
VERTEX
  8
0
 62
7
 10
7.97700000
 20
8.64900000
  0
VERTEX
  8
0
 62
7
 10
7.99937500
 20
8.69087500
  0
VERTEX
  8
0
 62
7
 10
8.02400000
 20
8.73200000
  0
VERTEX
  8
0
 62
7
 10
8.07100000
 20
8.80000000
  0
VERTEX
  8
0
 62
7
 10
8.03895313
 20
8.79678125
  0
VERTEX
  8
0
 62
7
 10
8.00737500
 20
8.79150000
  0
VERTEX
  8
0
 62
7
 10
7.97635938
 20
8.78396875
  0
VERTEX
  8
0
 62
7
 10
7.94600000
 20
8.77400000
  0
VERTEX
  8
0
 62
7
 10
7.90687500
 20
8.75643750
  0
VERTEX
  8
0
 62
7
 10
7.87000000
 20
8.73475000
  0
VERTEX
  8
0
 62
7
 10
7.83462500
 20
8.71043750
  0
VERTEX
  8
0
 62
7
 10
7.80000000
 20
8.68500000
  0
VERTEX
  8
0
 62
7
 10
7.72987500
 20
8.62850000
  0
VERTEX
  8
0
 62
7
 10
7.66500000
 20
8.56600000
  0
VERTEX
  8
0
 62
7
 10
7.63092773
 20
8.66667969
  0
VERTEX
  8
0
 62
7
 10
7.60373438
 20
8.76900000
  0
VERTEX
  8
0
 62
7
 10
7.58345508
 20
8.87263281
  0
VERTEX
  8
0
 62
7
 10
7.57012500
 20
8.97725000
  0
VERTEX
  8
0
 62
7
 10
7.56377930
 20
9.08252344
  0
VERTEX
  8
0
 62
7
 10
7.56445313
 20
9.18812500
  0
VERTEX
  8
0
 62
7
 10
7.57218164
 20
9.29372656
  0
VERTEX
  8
0
 62
7
 10
7.58700000
 20
9.39900000
  0
VERTEX
  8
0
 62
7
 10
7.60357813
 20
9.47868750
  0
VERTEX
  8
0
 62
7
 10
7.62437500
 20
9.55725000
  0
VERTEX
  8
0
 62
7
 10
7.64873438
 20
9.63468750
  0
VERTEX
  8
0
 62
7
 10
7.67600000
 20
9.71100000
  0
VERTEX
  8
0
 62
7
 10
7.70048438
 20
9.77196875
  0
VERTEX
  8
0
 62
7
 10
7.72712500
 20
9.83200000
  0
VERTEX
  8
0
 62
7
 10
7.75545313
 20
9.89128125
  0
VERTEX
  8
0
 62
7
 10
7.78500000
 20
9.95000000
  0
VERTEX
  8
0
 62
7
 10
7.82017188
 20
10.01267188
  0
VERTEX
  8
0
 62
7
 10
7.85787500
 20
10.07412500
  0
VERTEX
  8
0
 62
7
 10
7.89539063
 20
10.13576563
  0
VERTEX
  8
0
 62
7
 10
7.93000000
 20
10.19900000
  0
VERTEX
  8
0
 62
7
 10
7.97675000
 20
10.29937500
  0
VERTEX
  8
0
 62
7
 10
8.01900000
 20
10.40200000
  0
VERTEX
  8
0
 62
7
 10
8.04725000
 20
10.47425000
  0
VERTEX
  8
0
 62
7
 10
8.07100000
 20
10.54800000
  0
VERTEX
  8
0
 62
7
 10
8.09200000
 20
10.66700000
  0
VERTEX
  8
0
 62
7
 10
8.10521875
 20
10.71321875
  0
VERTEX
  8
0
 62
7
 10
8.12125000
 20
10.75850000
  0
VERTEX
  8
0
 62
7
 10
8.14065625
 20
10.80228125
  0
VERTEX
  8
0
 62
7
 10
8.16400000
 20
10.84400000
  0
VERTEX
  8
0
 62
7
 10
8.17975781
 20
10.86769336
  0
VERTEX
  8
0
 62
7
 10
8.19706250
 20
10.89048438
  0
VERTEX
  8
0
 62
7
 10
8.21596094
 20
10.91193945
  0
VERTEX
  8
0
 62
7
 10
8.23650000
 20
10.93162500
  0
VERTEX
  8
0
 62
7
 10
8.25872656
 20
10.94910742
  0
VERTEX
  8
0
 62
7
 10
8.28268750
 20
10.96395313
  0
VERTEX
  8
0
 62
7
 10
8.30842969
 20
10.97572852
  0
VERTEX
  8
0
 62
7
 10
8.33600000
 20
10.98400000
  0
VERTEX
  8
0
 62
7
 10
8.40300000
 20
10.98900000
  0
VERTEX
  8
0
 62
7
 10
8.47600000
 20
11.00500000
  0
VERTEX
  8
0
 62
7
 10
8.49847461
 20
11.00654883
  0
VERTEX
  8
0
 62
7
 10
8.52079688
 20
11.00595313
  0
VERTEX
  8
0
 62
7
 10
8.54281445
 20
11.00322461
  0
VERTEX
  8
0
 62
7
 10
8.56437500
 20
10.99837500
  0
VERTEX
  8
0
 62
7
 10
8.58532617
 20
10.99141602
  0
VERTEX
  8
0
 62
7
 10
8.60551563
 20
10.98235938
  0
VERTEX
  8
0
 62
7
 10
8.62479102
 20
10.97121680
  0
VERTEX
  8
0
 62
7
 10
8.64300000
 20
10.95800000
  0
VERTEX
  8
0
 62
7
 10
8.66685938
 20
10.93556250
  0
VERTEX
  8
0
 62
7
 10
8.68762500
 20
10.91050000
  0
VERTEX
  8
0
 62
7
 10
8.70557813
 20
10.88318750
  0
VERTEX
  8
0
 62
7
 10
8.72100000
 20
10.85400000
  0
VERTEX
  8
0
 62
7
 10
8.73442188
 20
10.82031250
  0
VERTEX
  8
0
 62
7
 10
8.74362500
 20
10.78550000
  0
VERTEX
  8
0
 62
7
 10
8.74926563
 20
10.74993750
  0
VERTEX
  8
0
 62
7
 10
8.75200000
 20
10.71400000
  0
VERTEX
  8
0
 62
7
 10
8.75201563
 20
10.66996875
  0
VERTEX
  8
0
 62
7
 10
8.74762500
 20
10.62650000
  0
VERTEX
  8
0
 62
7
 10
8.73892188
 20
10.58378125
  0
VERTEX
  8
0
 62
7
 10
8.72600000
 20
10.54200000
  0
VERTEX
  8
0
 62
7
 10
8.71100000
 20
10.50585938
  0
VERTEX
  8
0
 62
7
 10
8.69300000
 20
10.47112500
  0
VERTEX
  8
0
 62
7
 10
8.67200000
 20
10.43807813
  0
VERTEX
  8
0
 62
7
 10
8.64800000
 20
10.40700000
  0
VERTEX
  8
0
 62
7
 10
8.62098438
 20
10.45826563
  0
VERTEX
  8
0
 62
7
 10
8.60062500
 20
10.51262500
  0
VERTEX
  8
0
 62
7
 10
8.58570313
 20
10.56942188
  0
VERTEX
  8
0
 62
7
 10
8.57500000
 20
10.62800000
  0
VERTEX
  8
0
 62
7
 10
8.57271875
 20
10.65823438
  0
VERTEX
  8
0
 62
7
 10
8.57475000
 20
10.68762500
  0
VERTEX
  8
0
 62
7
 10
8.58090625
 20
10.71645313
  0
VERTEX
  8
0
 62
7
 10
8.59100000
 20
10.74500000
  0
VERTEX
  8
0
 62
7
 10
8.60812500
 20
10.77250000
  0
VERTEX
  8
0
 62
7
 10
8.63200000
 20
10.79700000
  0
VERTEX
  8
0
 62
7
 10
8.62200000
 20
10.82300000
  0
VERTEX
  8
0
 62
7
 10
8.60642188
 20
10.81460938
  0
VERTEX
  8
0
 62
7
 10
8.59187500
 20
10.80387500
  0
VERTEX
  8
0
 62
7
 10
8.57939063
 20
10.79220313
  0
VERTEX
  8
0
 62
7
 10
8.57000000
 20
10.78100000
  0
VERTEX
  8
0
 62
7
 10
8.55668945
 20
10.75334570
  0
VERTEX
  8
0
 62
7
 10
8.54807813
 20
10.71595313
  0
VERTEX
  8
0
 62
7
 10
8.54502148
 20
10.66967773
  0
VERTEX
  8
0
 62
7
 10
8.54837500
 20
10.61537500
  0
VERTEX
  8
0
 62
7
 10
8.55899414
 20
10.55390039
  0
VERTEX
  8
0
 62
7
 10
8.57773438
 20
10.48610938
  0
VERTEX
  8
0
 62
7
 10
8.60545117
 20
10.41285742
  0
VERTEX
  8
0
 62
7
 10
8.64300000
 20
10.33500000
  0
VERTEX
  8
0
 62
7
 10
8.67417188
 20
10.28217188
  0
VERTEX
  8
0
 62
7
 10
8.70337500
 20
10.23937500
  0
VERTEX
  8
0
 62
7
 10
8.73089063
 20
10.20014063
  0
VERTEX
  8
0
 62
7
 10
8.75700000
 20
10.15800000
  0
VERTEX
  8
0
 62
7
 10
8.80528125
 20
10.06578125
  0
VERTEX
  8
0
 62
7
 10
8.84775000
 20
9.97075000
  0
VERTEX
  8
0
 62
7
 10
8.88384375
 20
9.87309375
  0
VERTEX
  8
0
 62
7
 10
8.91300000
 20
9.77300000
  0
VERTEX
  8
0
 62
7
 10
8.93454688
 20
9.67421875
  0
VERTEX
  8
0
 62
7
 10
8.94962500
 20
9.57450000
  0
VERTEX
  8
0
 62
7
 10
8.95814063
 20
9.47403125
  0
VERTEX
  8
0
 62
7
 10
8.96000000
 20
9.37300000
  0
VERTEX
  8
0
 62
7
 10
8.95681250
 20
9.28756250
  0
VERTEX
  8
0
 62
7
 10
8.94950000
 20
9.20250000
  0
VERTEX
  8
0
 62
7
 10
8.93693750
 20
9.11818750
  0
VERTEX
  8
0
 62
7
 10
8.91800000
 20
9.03500000
  0
VERTEX
  8
0
 62
7
 10
8.90603711
 20
8.99566211
  0
VERTEX
  8
0
 62
7
 10
8.89204688
 20
8.95710938
  0
VERTEX
  8
0
 62
7
 10
8.87625195
 20
8.91928320
  0
VERTEX
  8
0
 62
7
 10
8.85887500
 20
8.88212500
  0
VERTEX
  8
0
 62
7
 10
8.84013867
 20
8.84557617
  0
VERTEX
  8
0
 62
7
 10
8.82026562
 20
8.80957813
  0
VERTEX
  8
0
 62
7
 10
8.79947852
 20
8.77407227
  0
VERTEX
  8
0
 62
7
 10
8.77800000
 20
8.73900000
  0
VERTEX
  8
0
 62
7
 10
8.75837500
 20
8.70787500
  0
VERTEX
  8
0
 62
7
 10
8.74100000
 20
8.67600000
  0
VERTEX
  8
0
 62
7
 10
8.72612500
 20
8.63525000
  0
VERTEX
  8
0
 62
7
 10
8.71500000
 20
8.59300000
  0
VERTEX
  8
0
 62
7
 10
8.71125000
 20
8.57095313
  0
VERTEX
  8
0
 62
7
 10
8.70900000
 20
8.54862500
  0
VERTEX
  8
0
 62
7
 10
8.70600000
 20
8.52648438
  0
VERTEX
  8
0
 62
7
 10
8.70000000
 20
8.50500000
  0
VERTEX
  8
0
 62
7
 10
8.68690625
 20
8.47765625
  0
VERTEX
  8
0
 62
7
 10
8.67025000
 20
8.45275000
  0
VERTEX
  8
0
 62
7
 10
8.65021875
 20
8.43046875
  0
VERTEX
  8
0
 62
7
 10
8.62700000
 20
8.41100000
  0
VERTEX
  8
0
 62
7
 10
8.61837500
 20
8.45090625
  0
VERTEX
  8
0
 62
7
 10
8.60600000
 20
8.48950000
  0
VERTEX
  8
0
 62
7
 10
8.58987500
 20
8.52659375
  0
VERTEX
  8
0
 62
7
 10
8.57000000
 20
8.56200000
  0
VERTEX
  8
0
 62
7
 10
8.54840625
 20
8.59415625
  0
VERTEX
  8
0
 62
7
 10
8.52400000
 20
8.62425000
  0
VERTEX
  8
0
 62
7
 10
8.49659375
 20
8.65171875
  0
VERTEX
  8
0
 62
7
 10
8.46600000
 20
8.67600000
  0
VERTEX
  8
0
 62
7
 10
8.43009375
 20
8.69757813
  0
VERTEX
  8
0
 62
7
 10
8.39175000
 20
8.71437500
  0
VERTEX
  8
0
 62
7
 10
8.35153125
 20
8.72648438
  0
VERTEX
  8
0
 62
7
 10
8.31000000
 20
8.73400000
  0
VERTEX
  8
0
 62
7
 10
8.27448438
 20
8.73762500
  0
VERTEX
  8
0
 62
7
 10
8.23887500
 20
8.73825000
  0
VERTEX
  8
0
 62
7
 10
8.20382812
 20
8.73400000
  0
VERTEX
  8
0
 62
7
 10
8.17000000
 20
8.72300000
  0
VERTEX
  8
0
 62
7
 10
8.14548438
 20
8.70934375
  0
VERTEX
  8
0
 62
7
 10
8.12312500
 20
8.69250000
  0
VERTEX
  8
0
 62
7
 10
8.10320313
 20
8.67265625
  0
VERTEX
  8
0
 62
7
 10
8.08600000
 20
8.65000000
  0
VERTEX
  8
0
 62
7
 10
8.09700000
 20
8.64000000
  0
VERTEX
  8
0
 62
7
 10
8.12482813
 20
8.66100000
  0
VERTEX
  8
0
 62
7
 10
8.15537500
 20
8.67750000
  0
VERTEX
  8
0
 62
7
 10
8.18798437
 20
8.68950000
  0
VERTEX
  8
0
 62
7
 10
8.22200000
 20
8.69700000
  0
VERTEX
  8
0
 62
7
 10
8.24525000
 20
8.69889063
  0
VERTEX
  8
0
 62
7
 10
8.26850000
 20
8.69862500
  0
VERTEX
  8
0
 62
7
 10
8.29175000
 20
8.69629688
  0
VERTEX
  8
0
 62
7
 10
8.31500000
 20
8.69200000
  0
VERTEX
  8
0
 62
7
 10
8.34637500
 20
8.68300000
  0
VERTEX
  8
0
 62
7
 10
8.37700000
 20
8.67100000
  0
VERTEX
  8
0
 62
7
 10
8.41462500
 20
8.64975000
  0
VERTEX
  8
0
 62
7
 10
8.45000000
 20
8.62400000
  0
VERTEX
  8
0
 62
7
 10
8.48800000
 20
8.59237500
  0
VERTEX
  8
0
 62
7
 10
8.52300000
 20
8.55700000
  0
VERTEX
  8
0
 62
7
 10
8.50104688
 20
8.50770313
  0
VERTEX
  8
0
 62
7
 10
8.48162500
 20
8.45737500
  0
VERTEX
  8
0
 62
7
 10
8.46464062
 20
8.40610938
  0
VERTEX
  8
0
 62
7
 10
8.45000000
 20
8.35400000
  0
VERTEX
  8
0
 62
7
 10
8.43587500
 20
8.28437500
  0
VERTEX
  8
0
 62
7
 10
8.42400000
 20
8.21400000
  0
VERTEX
  8
0
 62
7
 10
8.40900000
 20
8.13100000
  0
VERTEX
  8
0
 62
7
 10
8.39900000
 20
8.09512500
  0
VERTEX
  8
0
 62
7
 10
8.38600000
 20
8.06000000
  0
SEQEND
  0
POLYLINE
  8
0
 62
7
 66
1
 70
1
  0
VERTEX
  8
0
 62
7
 10
8.83700000
 20
4.00000000
  0
VERTEX
  8
0
 62
7
 10
8.83700000
 20
4.01300000
  0
VERTEX
  8
0
 62
7
 10
8.83875000
 20
4.05100000
  0
VERTEX
  8
0
 62
7
 10
8.84425000
 20
4.08675000
  0
VERTEX
  8
0
 62
7
 10
8.85387500
 20
4.11987500
  0
VERTEX
  8
0
 62
7
 10
8.86800000
 20
4.15000000
  0
VERTEX
  8
0
 62
7
 10
8.87600000
 20
4.16200000
  0
VERTEX
  8
0
 62
7
 10
8.88762500
 20
4.17812500
  0
VERTEX
  8
0
 62
7
 10
8.90000000
 20
4.20100000
  0
VERTEX
  8
0
 62
7
 10
8.90903125
 20
4.22550000
  0
VERTEX
  8
0
 62
7
 10
8.91525000
 20
4.25075000
  0
VERTEX
  8
0
 62
7
 10
8.91884375
 20
4.27637500
  0
VERTEX
  8
0
 62
7
 10
8.92000000
 20
4.30200000
  0
VERTEX
  8
0
 62
7
 10
8.91900000
 20
4.33400000
  0
VERTEX
  8
0
 62
7
 10
8.91520117
 20
4.35064844
  0
VERTEX
  8
0
 62
7
 10
8.90735938
 20
4.36443750
  0
VERTEX
  8
0
 62
7
 10
8.89630664
 20
4.37513281
  0
VERTEX
  8
0
 62
7
 10
8.88287500
 20
4.38250000
  0
VERTEX
  8
0
 62
7
 10
8.86789648
 20
4.38630469
  0
VERTEX
  8
0
 62
7
 10
8.85220313
 20
4.38631250
  0
VERTEX
  8
0
 62
7
 10
8.83662695
 20
4.38228906
  0
VERTEX
  8
0
 62
7
 10
8.82200000
 20
4.37400000
  0
VERTEX
  8
0
 62
7
 10
8.75512500
 20
4.31700000
  0
VERTEX
  8
0
 62
7
 10
8.69500000
 20
4.25400000
  0
VERTEX
  8
0
 62
7
 10
8.66285938
 20
4.21359375
  0
VERTEX
  8
0
 62
7
 10
8.63362500
 20
4.17225000
  0
VERTEX
  8
0
 62
7
 10
8.60682813
 20
4.13053125
  0
VERTEX
  8
0
 62
7
 10
8.58200000
 20
4.08900000
  0
VERTEX
  8
0
 62
7
 10
8.55687500
 20
4.04487500
  0
VERTEX
  8
0
 62
7
 10
8.53400000
 20
4.00000000
  0
VERTEX
  8
0
 62
7
 10
4.00000000
 20
4.00000000
  0
VERTEX
  8
0
 62
7
 10
4.00000000
 20
8.00000000
  0
VERTEX
  8
0
 62
7
 10
14.50000000
 20
8.00000000
  0
VERTEX
  8
0
 62
7
 10
14.50000000
 20
4.00000000
  0
VERTEX
  8
0
 62
7
 10
10.47500000
 20
4.00000000
  0
VERTEX
  8
0
 62
7
 10
10.45450000
 20
4.03737500
  0
VERTEX
  8
0
 62
7
 10
10.43100000
 20
4.07400000
  0
VERTEX
  8
0
 62
7
 10
10.40870703
 20
4.10398242
  0
VERTEX
  8
0
 62
7
 10
10.38465625
 20
4.13235938
  0
VERTEX
  8
0
 62
7
 10
10.35896484
 20
4.15902539
  0
VERTEX
  8
0
 62
7
 10
10.33175000
 20
4.18387500
  0
VERTEX
  8
0
 62
7
 10
10.30312891
 20
4.20680273
  0
VERTEX
  8
0
 62
7
 10
10.27321875
 20
4.22770313
  0
VERTEX
  8
0
 62
7
 10
10.24213672
 20
4.24647070
  0
VERTEX
  8
0
 62
7
 10
10.21000000
 20
4.26300000
  0
VERTEX
  8
0
 62
7
 10
10.19126172
 20
4.26863086
  0
VERTEX
  8
0
 62
7
 10
10.17315625
 20
4.26810938
  0
VERTEX
  8
0
 62
7
 10
10.15659766
 20
4.26231445
  0
VERTEX
  8
0
 62
7
 10
10.14250000
 20
4.25212500
  0
VERTEX
  8
0
 62
7
 10
10.13177734
 20
4.23841992
  0
VERTEX
  8
0
 62
7
 10
10.12534375
 20
4.22207813
  0
VERTEX
  8
0
 62
7
 10
10.12411328
 20
4.20397852
  0
VERTEX
  8
0
 62
7
 10
10.12900000
 20
4.18500000
  0
VERTEX
  8
0
 62
7
 10
10.14378125
 20
4.14757813
  0
VERTEX
  8
0
 62
7
 10
10.15650000
 20
4.10912500
  0
VERTEX
  8
0
 62
7
 10
10.16696875
 20
4.07010938
  0
VERTEX
  8
0
 62
7
 10
10.17500000
 20
4.03100000
  0
VERTEX
  8
0
 62
7
 10
10.18000000
 20
4.00000000
  0
VERTEX
  8
0
 62
7
 10
8.83700000
 20
4.00000000
  0
SEQEND
  0
POLYLINE
  8
0
 62
7
 66
1
 70
1
  0
VERTEX
  8
0
 62
7
 10
8.38000000
 20
9.12900000
  0
VERTEX
  8
0
 62
7
 10
8.37700000
 20
9.12600000
  0
VERTEX
  8
0
 62
7
 10
8.34600000
 20
9.10462500
  0
VERTEX
  8
0
 62
7
 10
8.30600000
 20
9.08400000
  0
VERTEX
  8
0
 62
7
 10
8.27000000
 20
9.07100000
  0
VERTEX
  8
0
 62
7
 10
8.21700000
 20
9.05100000
  0
VERTEX
  8
0
 62
7
 10
8.19200000
 20
9.03800000
  0
VERTEX
  8
0
 62
7
 10
8.17923438
 20
9.13750000
  0
VERTEX
  8
0
 62
7
 10
8.17087500
 20
9.23775000
  0
VERTEX
  8
0
 62
7
 10
8.16682813
 20
9.33837500
  0
VERTEX
  8
0
 62
7
 10
8.16700000
 20
9.43900000
  0
VERTEX
  8
0
 62
7
 10
8.16758008
 20
9.47466211
  0
VERTEX
  8
0
 62
7
 10
8.16807812
 20
9.51035938
  0
VERTEX
  8
0
 62
7
 10
8.16888086
 20
9.54603320
  0
VERTEX
  8
0
 62
7
 10
8.17037500
 20
9.58162500
  0
VERTEX
  8
0
 62
7
 10
8.17294727
 20
9.61707617
  0
VERTEX
  8
0
 62
7
 10
8.17698438
 20
9.65232813
  0
VERTEX
  8
0
 62
7
 10
8.18287305
 20
9.68732227
  0
VERTEX
  8
0
 62
7
 10
8.19100000
 20
9.72200000
  0
VERTEX
  8
0
 62
7
 10
8.19960938
 20
9.75520313
  0
VERTEX
  8
0
 62
7
 10
8.20887500
 20
9.78812500
  0
VERTEX
  8
0
 62
7
 10
8.22095312
 20
9.81973437
  0
VERTEX
  8
0
 62
7
 10
8.23800000
 20
9.84900000
  0
VERTEX
  8
0
 62
7
 10
8.24385352
 20
9.85751758
  0
VERTEX
  8
0
 62
7
 10
8.24957812
 20
9.86632813
  0
VERTEX
  8
0
 62
7
 10
8.25541992
 20
9.87506836
  0
VERTEX
  8
0
 62
7
 10
8.26162500
 20
9.88337500
  0
VERTEX
  8
0
 62
7
 10
8.26843945
 20
9.89088477
  0
VERTEX
  8
0
 62
7
 10
8.27610938
 20
9.89723438
  0
VERTEX
  8
0
 62
7
 10
8.28488086
 20
9.90206055
  0
VERTEX
  8
0
 62
7
 10
8.29500000
 20
9.90500000
  0
VERTEX
  8
0
 62
7
 10
8.30979688
 20
9.90604687
  0
VERTEX
  8
0
 62
7
 10
8.32412500
 20
9.90362500
  0
VERTEX
  8
0
 62
7
 10
8.33789063
 20
9.89839062
  0
VERTEX
  8
0
 62
7
 10
8.35100000
 20
9.89100000
  0
VERTEX
  8
0
 62
7
 10
8.36439063
 20
9.87865625
  0
VERTEX
  8
0
 62
7
 10
8.37412500
 20
9.86350000
  0
VERTEX
  8
0
 62
7
 10
8.38179687
 20
9.84684375
  0
VERTEX
  8
0
 62
7
 10
8.38900000
 20
9.83000000
  0
VERTEX
  8
0
 62
7
 10
8.39990625
 20
9.79826563
  0
VERTEX
  8
0
 62
7
 10
8.40575000
 20
9.76512500
  0
VERTEX
  8
0
 62
7
 10
8.40896875
 20
9.73142188
  0
VERTEX
  8
0
 62
7
 10
8.41200000
 20
9.69800000
  0
VERTEX
  8
0
 62
7
 10
8.41742188
 20
9.62059375
  0
VERTEX
  8
0
 62
7
 10
8.41712500
 20
9.54300000
  0
VERTEX
  8
0
 62
7
 10
8.41326562
 20
9.46540625
  0
VERTEX
  8
0
 62
7
 10
8.40800000
 20
9.38800000
  0
VERTEX
  8
0
 62
7
 10
8.39700000
 20
9.25812500
  0
VERTEX
  8
0
 62
7
 10
8.38000000
 20
9.12900000
  0
SEQEND
  0
POLYLINE
  8
0
 62
7
 66
1
 70
1
  0
VERTEX
  8
0
 62
7
 10
8.11100000
 20
8.88400000
  0
VERTEX
  8
0
 62
7
 10
8.13637500
 20
8.91925000
  0
VERTEX
  8
0
 62
7
 10
8.16700000
 20
8.95000000
  0
VERTEX
  8
0
 62
7
 10
8.20350000
 20
8.97612500
  0
VERTEX
  8
0
 62
7
 10
8.24300000
 20
8.99700000
  0
VERTEX
  8
0
 62
7
 10
8.33200000
 20
9.03000000
  0
VERTEX
  8
0
 62
7
 10
8.35442188
 20
9.04079688
  0
VERTEX
  8
0
 62
7
 10
8.37637500
 20
9.05262500
  0
VERTEX
  8
0
 62
7
 10
8.39739063
 20
9.06614062
  0
VERTEX
  8
0
 62
7
 10
8.41700000
 20
9.08200000
  0
VERTEX
  8
0
 62
7
 10
8.43757813
 20
9.10379688
  0
VERTEX
  8
0
 62
7
 10
8.45487500
 20
9.12812500
  0
VERTEX
  8
0
 62
7
 10
8.46973438
 20
9.15414063
  0
VERTEX
  8
0
 62
7
 10
8.48300000
 20
9.18100000
  0
VERTEX
  8
0
 62
7
 10
8.49954688
 20
9.22400000
  0
VERTEX
  8
0
 62
7
 10
8.51037500
 20
9.26850000
  0
VERTEX
  8
0
 62
7
 10
8.51801563
 20
9.31375000
  0
VERTEX
  8
0
 62
7
 10
8.52500000
 20
9.35900000
  0
VERTEX
  8
0
 62
7
 10
8.53407813
 20
9.42351563
  0
VERTEX
  8
0
 62
7
 10
8.53987500
 20
9.48812500
  0
VERTEX
  8
0
 62
7
 10
8.54173438
 20
9.55292187
  0
VERTEX
  8
0
 62
7
 10
8.53900000
 20
9.61800000
  0
VERTEX
  8
0
 62
7
 10
8.53665234
 20
9.64694727
  0
VERTEX
  8
0
 62
7
 10
8.53390625
 20
9.67595312
  0
VERTEX
  8
0
 62
7
 10
8.53045703
 20
9.70488867
  0
VERTEX
  8
0
 62
7
 10
8.52600000
 20
9.73362500
  0
VERTEX
  8
0
 62
7
 10
8.52023047
 20
9.76203320
  0
VERTEX
  8
0
 62
7
 10
8.51284375
 20
9.78998438
  0
VERTEX
  8
0
 62
7
 10
8.50353516
 20
9.81734961
  0
VERTEX
  8
0
 62
7
 10
8.49200000
 20
9.84400000
  0
VERTEX
  8
0
 62
7
 10
8.48318750
 20
9.86282813
  0
VERTEX
  8
0
 62
7
 10
8.47400000
 20
9.88137500
  0
VERTEX
  8
0
 62
7
 10
8.46331250
 20
9.89898438
  0
VERTEX
  8
0
 62
7
 10
8.45000000
 20
9.91500000
  0
VERTEX
  8
0
 62
7
 10
8.43350000
 20
9.92971875
  0
VERTEX
  8
0
 62
7
 10
8.41550000
 20
9.94200000
  0
VERTEX
  8
0
 62
7
 10
8.39600000
 20
9.95128125
  0
VERTEX
  8
0
 62
7
 10
8.37500000
 20
9.95700000
  0
VERTEX
  8
0
 62
7
 10
8.34750000
 20
9.95782813
  0
VERTEX
  8
0
 62
7
 10
8.32075000
 20
9.95237500
  0
VERTEX
  8
0
 62
7
 10
8.29512500
 20
9.94223438
  0
VERTEX
  8
0
 62
7
 10
8.27100000
 20
9.92900000
  0
VERTEX
  8
0
 62
7
 10
8.24218750
 20
9.90684375
  0
VERTEX
  8
0
 62
7
 10
8.21900000
 20
9.87925000
  0
VERTEX
  8
0
 62
7
 10
8.19956250
 20
9.84828125
  0
VERTEX
  8
0
 62
7
 10
8.18200000
 20
9.81600000
  0
VERTEX
  8
0
 62
7
 10
8.16437500
 20
9.77567188
  0
VERTEX
  8
0
 62
7
 10
8.15200000
 20
9.73337500
  0
VERTEX
  8
0
 62
7
 10
8.14262500
 20
9.69014063
  0
VERTEX
  8
0
 62
7
 10
8.13400000
 20
9.64700000
  0
VERTEX
  8
0
 62
7
 10
8.12140625
 20
9.57092188
  0
VERTEX
  8
0
 62
7
 10
8.11425000
 20
9.49437500
  0
VERTEX
  8
0
 62
7
 10
8.11121875
 20
9.41764063
  0
VERTEX
  8
0
 62
7
 10
8.11100000
 20
9.34100000
  0
VERTEX
  8
0
 62
7
 10
8.11262500
 20
9.27351563
  0
VERTEX
  8
0
 62
7
 10
8.11650000
 20
9.20612500
  0
VERTEX
  8
0
 62
7
 10
8.12337500
 20
9.13892187
  0
VERTEX
  8
0
 62
7
 10
8.13400000
 20
9.07200000
  0
VERTEX
  8
0
 62
7
 10
8.14900000
 20
9.00200000
  0
VERTEX
  8
0
 62
7
 10
8.13337500
 20
8.98125000
  0
VERTEX
  8
0
 62
7
 10
8.12000000
 20
8.95900000
  0
VERTEX
  8
0
 62
7
 10
8.10587500
 20
8.92675000
  0
VERTEX
  8
0
 62
7
 10
8.09700000
 20
8.89300000
  0
VERTEX
  8
0
 62
7
 10
8.11100000
 20
8.88400000
  0
SEQEND
  0
POLYLINE
  8
0
 62
7
 66
1
  0
VERTEX
  8
0
 62
7
 10
8.50800000
 20
11.96800000
  0
VERTEX
  8
0
 62
7
 10
8.47631250
 20
11.91625000
  0
VERTEX
  8
0
 62
7
 10
8.44725000
 20
11.86300000
  0
VERTEX
  8
0
 62
7
 10
8.42081250
 20
11.80825000
  0
VERTEX
  8
0
 62
7
 10
8.39700000
 20
11.75200000
  0
VERTEX
  8
0
 62
7
 10
8.37867188
 20
11.70209375
  0
VERTEX
  8
0
 62
7
 10
8.36268750
 20
11.65143750
  0
VERTEX
  8
0
 62
7
 10
8.34904688
 20
11.60012500
  0
VERTEX
  8
0
 62
7
 10
8.33775000
 20
11.54825000
  0
VERTEX
  8
0
 62
7
 10
8.32879688
 20
11.49590625
  0
VERTEX
  8
0
 62
7
 10
8.32218750
 20
11.44318750
  0
VERTEX
  8
0
 62
7
 10
8.31792188
 20
11.39018750
  0
VERTEX
  8
0
 62
7
 10
8.31600000
 20
11.33700000
  0
VERTEX
  8
0
 62
7
 10
8.28268750
 20
11.38853125
  0
VERTEX
  8
0
 62
7
 10
8.24600000
 20
11.43800000
  0
VERTEX
  8
0
 62
7
 10
8.20631250
 20
11.48521875
  0
VERTEX
  8
0
 62
7
 10
8.16400000
 20
11.53000000
  0
VERTEX
  8
0
 62
7
 10
8.12913477
 20
11.56285352
  0
VERTEX
  8
0
 62
7
 10
8.09282813
 20
11.59389063
  0
VERTEX
  8
0
 62
7
 10
8.05513867
 20
11.62307617
  0
VERTEX
  8
0
 62
7
 10
8.01612500
 20
11.65037500
  0
VERTEX
  8
0
 62
7
 10
7.97584570
 20
11.67575195
  0
VERTEX
  8
0
 62
7
 10
7.93435938
 20
11.69917188
  0
VERTEX
  8
0
 62
7
 10
7.89172461
 20
11.72059961
  0
VERTEX
  8
0
 62
7
 10
7.84800000
 20
11.74000000
  0
SEQEND
  0
POLYLINE
  8
0
 62
7
 66
1
  0
VERTEX
  8
0
 62
7
 10
8.31000000
 20
11.36100000
  0
VERTEX
  8
0
 62
7
 10
8.28275000
 20
11.54237500
  0
VERTEX
  8
0
 62
7
 10
8.25100000
 20
11.72300000
  0
VERTEX
  8
0
 62
7
 10
8.22864063
 20
11.83590625
  0
VERTEX
  8
0
 62
7
 10
8.20412500
 20
11.94825000
  0
VERTEX
  8
0
 62
7
 10
8.17829687
 20
12.06021875
  0
VERTEX
  8
0
 62
7
 10
8.15200000
 20
12.17200000
  0
VERTEX
  8
0
 62
7
 10
8.11296875
 20
12.32587500
  0
VERTEX
  8
0
 62
7
 10
8.07150000
 20
12.47900000
  0
VERTEX
  8
0
 62
7
 10
8.03078125
 20
12.63212500
  0
VERTEX
  8
0
 62
7
 10
7.99400000
 20
12.78600000
  0
VERTEX
  8
0
 62
7
 10
7.94375000
 20
13.03025000
  0
VERTEX
  8
0
 62
7
 10
7.90100000
 20
13.27600000
  0
SEQEND
  0
POLYLINE
  8
0
 62
7
 66
1
 70
1
  0
VERTEX
  8
0
 62
7
 10
9.60700000
 20
8.06000000
  0
VERTEX
  8
0
 62
7
 10
9.49200000
 20
8.06000000
  0
VERTEX
  8
0
 62
7
 10
9.49200000
 20
9.18700000
  0
VERTEX
  8
0
 62
7
 10
9.46754688
 20
9.15364063
  0
VERTEX
  8
0
 62
7
 10
9.44337500
 20
9.12262500
  0
VERTEX
  8
0
 62
7
 10
9.41676563
 20
9.09404688
  0
VERTEX
  8
0
 62
7
 10
9.38500000
 20
9.06800000
  0
VERTEX
  8
0
 62
7
 10
9.35490625
 20
9.04889063
  0
VERTEX
  8
0
 62
7
 10
9.32425000
 20
9.03287500
  0
VERTEX
  8
0
 62
7
 10
9.29246875
 20
9.01892188
  0
VERTEX
  8
0
 62
7
 10
9.25900000
 20
9.00600000
  0
VERTEX
  8
0
 62
7
 10
9.22143750
 20
8.99251562
  0
VERTEX
  8
0
 62
7
 10
9.18350000
 20
8.98062500
  0
VERTEX
  8
0
 62
7
 10
9.14481250
 20
8.97267188
  0
VERTEX
  8
0
 62
7
 10
9.10500000
 20
8.97100000
  0
VERTEX
  8
0
 62
7
 10
9.06140625
 20
8.97642188
  0
VERTEX
  8
0
 62
7
 10
9.01950000
 20
8.98812500
  0
VERTEX
  8
0
 62
7
 10
8.97984375
 20
9.00601563
  0
VERTEX
  8
0
 62
7
 10
8.94300000
 20
9.03000000
  0
VERTEX
  8
0
 62
7
 10
8.95914063
 20
9.06562500
  0
VERTEX
  8
0
 62
7
 10
8.97312500
 20
9.10200000
  0
VERTEX
  8
0
 62
7
 10
8.98504688
 20
9.13912500
  0
VERTEX
  8
0
 62
7
 10
8.99500000
 20
9.17700000
  0
VERTEX
  8
0
 62
7
 10
9.00450000
 20
9.22962500
  0
VERTEX
  8
0
 62
7
 10
9.01100000
 20
9.28300000
  0
VERTEX
  8
0
 62
7
 10
9.01490625
 20
9.32950000
  0
VERTEX
  8
0
 62
7
 10
9.01675000
 20
9.37600000
  0
VERTEX
  8
0
 62
7
 10
9.01746875
 20
9.42250000
  0
VERTEX
  8
0
 62
7
 10
9.01800000
 20
9.46900000
  0
VERTEX
  8
0
 62
7
 10
9.01800000
 20
9.71700000
  0
VERTEX
  8
0
 62
7
 10
9.01537500
 20
9.86500000
  0
VERTEX
  8
0
 62
7
 10
9.01500000
 20
10.01300000
  0
VERTEX
  8
0
 62
7
 10
9.02187500
 20
10.17887500
  0
VERTEX
  8
0
 62
7
 10
9.03400000
 20
10.34400000
  0
VERTEX
  8
0
 62
7
 10
9.04692188
 20
10.48106250
  0
VERTEX
  8
0
 62
7
 10
9.06312500
 20
10.61775000
  0
VERTEX
  8
0
 62
7
 10
9.08251562
 20
10.75406250
  0
VERTEX
  8
0
 62
7
 10
9.10500000
 20
10.89000000
  0
VERTEX
  8
0
 62
7
 10
9.11789062
 20
10.96346875
  0
VERTEX
  8
0
 62
7
 10
9.13162500
 20
11.03675000
  0
VERTEX
  8
0
 62
7
 10
9.14704687
 20
11.10965625
  0
VERTEX
  8
0
 62
7
 10
9.16500000
 20
11.18200000
  0
VERTEX
  8
0
 62
7
 10
9.20625000
 20
11.31562500
  0
VERTEX
  8
0
 62
7
 10
9.25500000
 20
11.44700000
  0
VERTEX
  8
0
 62
7
 10
9.28265625
 20
11.51290625
  0
VERTEX
  8
0
 62
7
 10
9.31200000
 20
11.57825000
  0
VERTEX
  8
0
 62
7
 10
9.34359375
 20
11.64246875
  0
VERTEX
  8
0
 62
7
 10
9.37800000
 20
11.70500000
  0
VERTEX
  8
0
 62
7
 10
9.44564062
 20
11.81048438
  0
VERTEX
  8
0
 62
7
 10
9.52087500
 20
11.91062500
  0
VERTEX
  8
0
 62
7
 10
9.60342188
 20
12.00495313
  0
VERTEX
  8
0
 62
7
 10
9.69300000
 20
12.09300000
  0
VERTEX
  8
0
 62
7
 10
9.66375000
 20
11.99162500
  0
VERTEX
  8
0
 62
7
 10
9.64200000
 20
11.88800000
  0
VERTEX
  8
0
 62
7
 10
9.63339063
 20
11.83217188
  0
VERTEX
  8
0
 62
7
 10
9.62712500
 20
11.77587500
  0
VERTEX
  8
0
 62
7
 10
9.62329687
 20
11.71939063
  0
VERTEX
  8
0
 62
7
 10
9.62200000
 20
11.66300000
  0
VERTEX
  8
0
 62
7
 10
9.62329687
 20
11.60842188
  0
VERTEX
  8
0
 62
7
 10
9.62712500
 20
11.55412500
  0
VERTEX
  8
0
 62
7
 10
9.63339063
 20
11.50001563
  0
VERTEX
  8
0
 62
7
 10
9.64200000
 20
11.44600000
  0
VERTEX
  8
0
 62
7
 10
9.65528125
 20
11.38501563
  0
VERTEX
  8
0
 62
7
 10
9.67175000
 20
11.32487500
  0
VERTEX
  8
0
 62
7
 10
9.69009375
 20
11.26529688
  0
VERTEX
  8
0
 62
7
 10
9.70900000
 20
11.20600000
  0
VERTEX
  8
0
 62
7
 10
9.73171875
 20
11.14153125
  0
VERTEX
  8
0
 62
7
 10
9.75650000
 20
11.07800000
  0
VERTEX
  8
0
 62
7
 10
9.78128125
 20
11.01446875
  0
VERTEX
  8
0
 62
7
 10
9.80400000
 20
10.95000000
  0
VERTEX
  8
0
 62
7
 10
9.84450000
 20
10.81625000
  0
VERTEX
  8
0
 62
7
 10
9.87900000
 20
10.68100000
  0
VERTEX
  8
0
 62
7
 10
9.90512500
 20
10.55737500
  0
VERTEX
  8
0
 62
7
 10
9.92600000
 20
10.43300000
  0
VERTEX
  8
0
 62
7
 10
9.93746875
 20
10.33757813
  0
VERTEX
  8
0
 62
7
 10
9.94500000
 20
10.24187500
  0
VERTEX
  8
0
 62
7
 10
9.95103125
 20
10.14598438
  0
VERTEX
  8
0
 62
7
 10
9.95800000
 20
10.05000000
  0
VERTEX
  8
0
 62
7
 10
9.96687500
 20
9.89400000
  0
VERTEX
  8
0
 62
7
 10
9.97800000
 20
9.73800000
  0
VERTEX
  8
0
 62
7
 10
9.98725000
 20
9.63712500
  0
VERTEX
  8
0
 62
7
 10
10.00100000
 20
9.53700000
  0
VERTEX
  8
0
 62
7
 10
10.01150000
 20
9.47976563
  0
VERTEX
  8
0
 62
7
 10
10.02350000
 20
9.42262500
  0
VERTEX
  8
0
 62
7
 10
10.03925000
 20
9.36642188
  0
VERTEX
  8
0
 62
7
 10
10.06100000
 20
9.31200000
  0
VERTEX
  8
0
 62
7
 10
10.08290625
 20
9.27078125
  0
VERTEX
  8
0
 62
7
 10
10.10800000
 20
9.23125000
  0
VERTEX
  8
0
 62
7
 10
10.13609375
 20
9.19359375
  0
VERTEX
  8
0
 62
7
 10
10.16700000
 20
9.15800000
  0
VERTEX
  8
0
 62
7
 10
10.16139063
 20
9.13798438
  0
VERTEX
  8
0
 62
7
 10
10.15362500
 20
9.11862500
  0
VERTEX
  8
0
 62
7
 10
10.14379688
 20
9.10020313
  0
VERTEX
  8
0
 62
7
 10
10.13200000
 20
9.08300000
  0
VERTEX
  8
0
 62
7
 10
10.11592188
 20
9.06464062
  0
VERTEX
  8
0
 62
7
 10
10.09787500
 20
9.04862500
  0
VERTEX
  8
0
 62
7
 10
10.07814063
 20
9.03504688
  0
VERTEX
  8
0
 62
7
 10
10.05700000
 20
9.02400000
  0
VERTEX
  8
0
 62
7
 10
10.02451563
 20
9.01354687
  0
VERTEX
  8
0
 62
7
 10
9.99062500
 20
9.00937500
  0
VERTEX
  8
0
 62
7
 10
9.95617188
 20
9.00951563
  0
VERTEX
  8
0
 62
7
 10
9.92200000
 20
9.01200000
  0
VERTEX
  8
0
 62
7
 10
9.87654688
 20
9.01939063
  0
VERTEX
  8
0
 62
7
 10
9.83287500
 20
9.03287500
  0
VERTEX
  8
0
 62
7
 10
9.79051562
 20
9.05067188
  0
VERTEX
  8
0
 62
7
 10
9.74900000
 20
9.07100000
  0
VERTEX
  8
0
 62
7
 10
9.71950000
 20
9.08876563
  0
VERTEX
  8
0
 62
7
 10
9.69150000
 20
9.10887500
  0
VERTEX
  8
0
 62
7
 10
9.66350000
 20
9.12879688
  0
VERTEX
  8
0
 62
7
 10
9.63400000
 20
9.14600000
  0
VERTEX
  8
0
 62
7
 10
9.60700000
 20
9.15800000
  0
VERTEX
  8
0
 62
7
 10
9.60700000
 20
8.06000000
  0
SEQEND
  0
POLYLINE
  8
0
 62
7
 66
1
  0
VERTEX
  8
0
 62
7
 10
9.81600000
 20
9.68700000
  0
VERTEX
  8
0
 62
7
 10
9.77251563
 20
9.65009375
  0
VERTEX
  8
0
 62
7
 10
9.73212500
 20
9.61000000
  0
VERTEX
  8
0
 62
7
 10
9.69492188
 20
9.56690625
  0
VERTEX
  8
0
 62
7
 10
9.66100000
 20
9.52100000
  0
VERTEX
  8
0
 62
7
 10
9.63081250
 20
9.47190625
  0
VERTEX
  8
0
 62
7
 10
9.60475000
 20
9.42075000
  0
VERTEX
  8
0
 62
7
 10
9.58281250
 20
9.36771875
  0
VERTEX
  8
0
 62
7
 10
9.56500000
 20
9.31300000
  0
VERTEX
  8
0
 62
7
 10
9.56145313
 20
9.34650000
  0
VERTEX
  8
0
 62
7
 10
9.55387500
 20
9.37925000
  0
VERTEX
  8
0
 62
7
 10
9.54235938
 20
9.41087500
  0
VERTEX
  8
0
 62
7
 10
9.52700000
 20
9.44100000
  0
VERTEX
  8
0
 62
7
 10
9.51214063
 20
9.46306250
  0
VERTEX
  8
0
 62
7
 10
9.49512500
 20
9.48325000
  0
VERTEX
  8
0
 62
7
 10
9.47679688
 20
9.50231250
  0
VERTEX
  8
0
 62
7
 10
9.45800000
 20
9.52100000
  0
VERTEX
  8
0
 62
7
 10
9.43121875
 20
9.54414063
  0
VERTEX
  8
0
 62
7
 10
9.40275000
 20
9.56512500
  0
VERTEX
  8
0
 62
7
 10
9.37390625
 20
9.58554688
  0
VERTEX
  8
0
 62
7
 10
9.34600000
 20
9.60700000
  0
VERTEX
  8
0
 62
7
 10
9.26662500
 20
9.67675000
  0
VERTEX
  8
0
 62
7
 10
9.19100000
 20
9.75100000
  0
SEQEND
  0
POLYLINE
  8
0
 62
7
 66
1
  0
VERTEX
  8
0
 62
7
 10
9.56500000
 20
9.44100000
  0
VERTEX
  8
0
 62
7
 10
9.56062500
 20
9.60650000
  0
VERTEX
  8
0
 62
7
 10
9.55400000
 20
9.77200000
  0
VERTEX
  8
0
 62
7
 10
9.53300000
 20
10.09300000
  0
VERTEX
  8
0
 62
7
 10
9.52087500
 20
10.27150000
  0
VERTEX
  8
0
 62
7
 10
9.51100000
 20
10.45000000
  0
VERTEX
  8
0
 62
7
 10
9.50917188
 20
10.58634375
  0
VERTEX
  8
0
 62
7
 10
9.51137500
 20
10.72250000
  0
VERTEX
  8
0
 62
7
 10
9.51339063
 20
10.85865625
  0
VERTEX
  8
0
 62
7
 10
9.51100000
 20
10.99500000
  0
VERTEX
  8
0
 62
7
 10
9.49837500
 20
11.20437500
  0
VERTEX
  8
0
 62
7
 10
9.47900000
 20
11.41300000
  0
SEQEND
  0
POLYLINE
  8
0
 62
7
 66
1
 70
1
  0
VERTEX
  8
0
 62
7
 10
10.44600000
 20
8.06000000
  0
VERTEX
  8
0
 62
7
 10
10.33000000
 20
8.06000000
  0
VERTEX
  8
0
 62
7
 10
10.34175000
 20
8.11475000
  0
VERTEX
  8
0
 62
7
 10
10.35800000
 20
8.16800000
  0
VERTEX
  8
0
 62
7
 10
10.37450000
 20
8.21125000
  0
VERTEX
  8
0
 62
7
 10
10.39400000
 20
8.25300000
  0
VERTEX
  8
0
 62
7
 10
10.28700000
 20
8.25700000
  0
VERTEX
  8
0
 62
7
 10
10.22767188
 20
8.25643750
  0
VERTEX
  8
0
 62
7
 10
10.16862500
 20
8.25100000
  0
VERTEX
  8
0
 62
7
 10
10.11051563
 20
8.23956250
  0
VERTEX
  8
0
 62
7
 10
10.05400000
 20
8.22100000
  0
VERTEX
  8
0
 62
7
 10
9.98200000
 20
8.18600000
  0
VERTEX
  8
0
 62
7
 10
9.95782813
 20
8.18023438
  0
VERTEX
  8
0
 62
7
 10
9.93337500
 20
8.17662500
  0
VERTEX
  8
0
 62
7
 10
9.90873438
 20
8.17545313
  0
VERTEX
  8
0
 62
7
 10
9.88400000
 20
8.17700000
  0
VERTEX
  8
0
 62
7
 10
9.90875000
 20
8.24325000
  0
VERTEX
  8
0
 62
7
 10
9.92900000
 20
8.31100000
  0
VERTEX
  8
0
 62
7
 10
9.94437500
 20
8.37312500
  0
VERTEX
  8
0
 62
7
 10
9.95600000
 20
8.43600000
  0
VERTEX
  8
0
 62
7
 10
9.96500000
 20
8.53400000
  0
VERTEX
  8
0
 62
7
 10
9.97378125
 20
8.59079688
  0
VERTEX
  8
0
 62
7
 10
9.98500000
 20
8.64712500
  0
VERTEX
  8
0
 62
7
 10
9.99846875
 20
8.70289063
  0
VERTEX
  8
0
 62
7
 10
10.01400000
 20
8.75800000
  0
VERTEX
  8
0
 62
7
 10
10.03718750
 20
8.83089063
  0
VERTEX
  8
0
 62
7
 10
10.06375000
 20
8.90237500
  0
VERTEX
  8
0
 62
7
 10
10.09443750
 20
8.97217188
  0
VERTEX
  8
0
 62
7
 10
10.13000000
 20
9.04000000
  0
VERTEX
  8
0
 62
7
 10
10.16650000
 20
9.09875000
  0
VERTEX
  8
0
 62
7
 10
10.20600000
 20
9.15600000
  0
VERTEX
  8
0
 62
7
 10
10.30500000
 20
9.28100000
  0
VERTEX
  8
0
 62
7
 10
10.40800000
 20
9.40700000
  0
VERTEX
  8
0
 62
7
 10
10.46787500
 20
9.48800000
  0
VERTEX
  8
0
 62
7
 10
10.52400000
 20
9.57200000
  0
VERTEX
  8
0
 62
7
 10
10.58500000
 20
9.67762500
  0
VERTEX
  8
0
 62
7
 10
10.64000000
 20
9.78700000
  0
VERTEX
  8
0
 62
7
 10
10.68062500
 20
9.87487500
  0
VERTEX
  8
0
 62
7
 10
10.71600000
 20
9.96500000
  0
VERTEX
  8
0
 62
7
 10
10.74075000
 20
10.04475000
  0
VERTEX
  8
0
 62
7
 10
10.76100000
 20
10.12600000
  0
VERTEX
  8
0
 62
7
 10
10.77425000
 20
10.19350000
  0
VERTEX
  8
0
 62
7
 10
10.78300000
 20
10.26100000
  0
VERTEX
  8
0
 62
7
 10
10.78595313
 20
10.30225000
  0
VERTEX
  8
0
 62
7
 10
10.78712500
 20
10.34350000
  0
VERTEX
  8
0
 62
7
 10
10.78623438
 20
10.38475000
  0
VERTEX
  8
0
 62
7
 10
10.78300000
 20
10.42600000
  0
VERTEX
  8
0
 62
7
 10
10.77625000
 20
10.47825000
  0
VERTEX
  8
0
 62
7
 10
10.76500000
 20
10.52900000
  0
VERTEX
  8
0
 62
7
 10
10.75320313
 20
10.56217188
  0
VERTEX
  8
0
 62
7
 10
10.73887500
 20
10.59412500
  0
VERTEX
  8
0
 62
7
 10
10.72210938
 20
10.62476563
  0
VERTEX
  8
0
 62
7
 10
10.70300000
 20
10.65400000
  0
VERTEX
  8
0
 62
7
 10
10.68317188
 20
10.68007813
  0
VERTEX
  8
0
 62
7
 10
10.66137500
 20
10.70437500
  0
VERTEX
  8
0
 62
7
 10
10.63789063
 20
10.72698438
  0
VERTEX
  8
0
 62
7
 10
10.61300000
 20
10.74800000
  0
VERTEX
  8
0
 62
7
 10
10.63978125
 20
10.74528125
  0
VERTEX
  8
0
 62
7
 10
10.66600000
 20
10.73900000
  0
VERTEX
  8
0
 62
7
 10
10.69146875
 20
10.72971875
  0
VERTEX
  8
0
 62
7
 10
10.71600000
 20
10.71800000
  0
VERTEX
  8
0
 62
7
 10
10.75337500
 20
10.69337500
  0
VERTEX
  8
0
 62
7
 10
10.78700000
 20
10.66500000
  0
VERTEX
  8
0
 62
7
 10
10.83712500
 20
10.61025000
  0
VERTEX
  8
0
 62
7
 10
10.88200000
 20
10.55100000
  0
VERTEX
  8
0
 62
7
 10
10.91151563
 20
10.50904688
  0
VERTEX
  8
0
 62
7
 10
10.93887500
 20
10.46587500
  0
VERTEX
  8
0
 62
7
 10
10.96454688
 20
10.42176563
  0
VERTEX
  8
0
 62
7
 10
10.98900000
 20
10.37700000
  0
VERTEX
  8
0
 62
7
 10
11.02608203
 20
10.29904883
  0
VERTEX
  8
0
 62
7
 10
11.05746875
 20
10.21914063
  0
VERTEX
  8
0
 62
7
 10
11.08374609
 20
10.13756836
  0
VERTEX
  8
0
 62
7
 10
11.10550000
 20
10.05462500
  0
VERTEX
  8
0
 62
7
 10
11.12331641
 20
9.97060352
  0
VERTEX
  8
0
 62
7
 10
11.13778125
 20
9.88579688
  0
VERTEX
  8
0
 62
7
 10
11.14948047
 20
9.80049805
  0
VERTEX
  8
0
 62
7
 10
11.15900000
 20
9.71500000
  0
VERTEX
  8
0
 62
7
 10
11.16589063
 20
9.62784375
  0
VERTEX
  8
0
 62
7
 10
11.16912500
 20
9.54050000
  0
VERTEX
  8
0
 62
7
 10
11.16954688
 20
9.45315625
  0
VERTEX
  8
0
 62
7
 10
11.16800000
 20
9.36600000
  0
VERTEX
  8
0
 62
7
 10
11.15500000
 20
9.14700000
  0
VERTEX
  8
0
 62
7
 10
11.14100000
 20
8.90500000
  0
VERTEX
  8
0
 62
7
 10
11.13462500
 20
8.75300000
  0
VERTEX
  8
0
 62
7
 10
11.13200000
 20
8.60100000
  0
VERTEX
  8
0
 62
7
 10
11.13165625
 20
8.54759375
  0
VERTEX
  8
0
 62
7
 10
11.13150000
 20
8.49400000
  0
VERTEX
  8
0
 62
7
 10
11.13284375
 20
8.44040625
  0
VERTEX
  8
0
 62
7
 10
11.13700000
 20
8.38700000
  0
VERTEX
  8
0
 62
7
 10
11.14184375
 20
8.34637500
  0
VERTEX
  8
0
 62
7
 10
11.14800000
 20
8.30575000
  0
VERTEX
  8
0
 62
7
 10
11.15640625
 20
8.26550000
  0
VERTEX
  8
0
 62
7
 10
11.16800000
 20
8.22600000
  0
VERTEX
  8
0
 62
7
 10
11.19100000
 20
8.16800000
  0
VERTEX
  8
0
 62
7
 10
11.17757813
 20
8.13551563
  0
VERTEX
  8
0
 62
7
 10
11.15862500
 20
8.10612500
  0
VERTEX
  8
0
 62
7
 10
11.13460938
 20
8.08067188
  0
VERTEX
  8
0
 62
7
 10
11.10600000
 20
8.06000000
  0
VERTEX
  8
0
 62
7
 10
11.08835156
 20
8.05135156
  0
VERTEX
  8
0
 62
7
 10
11.07000000
 20
8.04537500
  0
VERTEX
  8
0
 62
7
 10
11.05108594
 20
8.04164844
  0
VERTEX
  8
0
 62
7
 10
11.03175000
 20
8.03975000
  0
VERTEX
  8
0
 62
7
 10
11.01213281
 20
8.03925781
  0
VERTEX
  8
0
 62
7
 10
10.99237500
 20
8.03975000
  0
VERTEX
  8
0
 62
7
 10
10.97261719
 20
8.04080469
  0
VERTEX
  8
0
 62
7
 10
10.95300000
 20
8.04200000
  0
VERTEX
  8
0
 62
7
 10
10.91287500
 20
8.04635938
  0
VERTEX
  8
0
 62
7
 10
10.87350000
 20
8.05437500
  0
VERTEX
  8
0
 62
7
 10
10.83487500
 20
8.06520313
  0
VERTEX
  8
0
 62
7
 10
10.79700000
 20
8.07800000
  0
VERTEX
  8
0
 62
7
 10
10.75989063
 20
8.09262500
  0
VERTEX
  8
0
 62
7
 10
10.72362500
 20
8.10950000
  0
VERTEX
  8
0
 62
7
 10
10.68829688
 20
8.12862500
  0
VERTEX
  8
0
 62
7
 10
10.65400000
 20
8.15000000
  0
VERTEX
  8
0
 62
7
 10
10.60025000
 20
8.18987500
  0
VERTEX
  8
0
 62
7
 10
10.55100000
 20
8.23500000
  0
VERTEX
  8
0
 62
7
 10
10.52387500
 20
8.18025000
  0
VERTEX
  8
0
 62
7
 10
10.49300000
 20
8.12700000
  0
VERTEX
  8
0
 62
7
 10
10.44600000
 20
8.06000000
  0
SEQEND
  0
POLYLINE
  8
0
 62
7
 66
1
  0
VERTEX
  8
0
 62
7
 10
10.99500000
 20
8.60100000
  0
VERTEX
  8
0
 62
7
 10
10.91187500
 20
8.56812500
  0
VERTEX
  8
0
 62
7
 10
10.83100000
 20
8.53000000
  0
VERTEX
  8
0
 62
7
 10
10.74945313
 20
8.48479688
  0
VERTEX
  8
0
 62
7
 10
10.67137500
 20
8.43462500
  0
VERTEX
  8
0
 62
7
 10
10.59685938
 20
8.37939062
  0
VERTEX
  8
0
 62
7
 10
10.52600000
 20
8.31900000
  0
VERTEX
  8
0
 62
7
 10
10.51696875
 20
8.36079688
  0
VERTEX
  8
0
 62
7
 10
10.50625000
 20
8.40212500
  0
VERTEX
  8
0
 62
7
 10
10.49365625
 20
8.44289063
  0
VERTEX
  8
0
 62
7
 10
10.47900000
 20
8.48300000
  0
VERTEX
  8
0
 62
7
 10
10.44837500
 20
8.55125000
  0
VERTEX
  8
0
 62
7
 10
10.41400000
 20
8.61800000
  0
VERTEX
  8
0
 62
7
 10
10.34900000
 20
8.74100000
  0
VERTEX
  8
0
 62
7
 10
10.32835938
 20
8.78846875
  0
VERTEX
  8
0
 62
7
 10
10.30987500
 20
8.83650000
  0
VERTEX
  8
0
 62
7
 10
10.29345313
 20
8.88528125
  0
VERTEX
  8
0
 62
7
 10
10.27900000
 20
8.93500000
  0
SEQEND
  0
POLYLINE
  8
0
 62
7
 66
1
  0
VERTEX
  8
0
 62
7
 10
10.55500000
 20
8.41300000
  0
VERTEX
  8
0
 62
7
 10
10.59000000
 20
8.54200000
  0
VERTEX
  8
0
 62
7
 10
10.63100000
 20
8.69400000
  0
VERTEX
  8
0
 62
7
 10
10.65328125
 20
8.77362500
  0
VERTEX
  8
0
 62
7
 10
10.67575000
 20
8.85325000
  0
VERTEX
  8
0
 62
7
 10
10.69934375
 20
8.93250000
  0
VERTEX
  8
0
 62
7
 10
10.72500000
 20
9.01100000
  0
VERTEX
  8
0
 62
7
 10
10.75462500
 20
9.09062500
  0
VERTEX
  8
0
 62
7
 10
10.78650000
 20
9.16950000
  0
VERTEX
  8
0
 62
7
 10
10.81837500
 20
9.24837500
  0
VERTEX
  8
0
 62
7
 10
10.84800000
 20
9.32800000
  0
VERTEX
  8
0
 62
7
 10
10.86795313
 20
9.38323438
  0
VERTEX
  8
0
 62
7
 10
10.88762500
 20
9.43837500
  0
VERTEX
  8
0
 62
7
 10
10.90523438
 20
9.49407813
  0
VERTEX
  8
0
 62
7
 10
10.91900000
 20
9.55100000
  0
VERTEX
  8
0
 62
7
 10
10.93100000
 20
9.62800000
  0
VERTEX
  8
0
 62
7
 10
10.93700000
 20
9.70575000
  0
VERTEX
  8
0
 62
7
 10
10.93700000
 20
9.78387500
  0
VERTEX
  8
0
 62
7
 10
10.93100000
 20
9.86200000
  0
SEQEND
  0
POLYLINE
  8
0
 62
7
 66
1
 70
1
  0
VERTEX
  8
0
 62
7
 10
10.49000000
 20
11.45000000
  0
VERTEX
  8
0
 62
7
 10
10.51234180
 20
11.47604492
  0
VERTEX
  8
0
 62
7
 10
10.53148438
 20
11.50442188
  0
VERTEX
  8
0
 62
7
 10
10.54760352
 20
11.53474414
  0
VERTEX
  8
0
 62
7
 10
10.56087500
 20
11.56662500
  0
VERTEX
  8
0
 62
7
 10
10.57147461
 20
11.59967773
  0
VERTEX
  8
0
 62
7
 10
10.57957813
 20
11.63351563
  0
VERTEX
  8
0
 62
7
 10
10.58536133
 20
11.66775195
  0
VERTEX
  8
0
 62
7
 10
10.58900000
 20
11.70200000
  0
VERTEX
  8
0
 62
7
 10
10.59119800
 20
11.73577710
  0
VERTEX
  8
0
 62
7
 10
10.59252148
 20
11.77056055
  0
VERTEX
  8
0
 62
7
 10
10.59293970
 20
11.80609106
  0
VERTEX
  8
0
 62
7
 10
10.59242188
 20
11.84210938
  0
VERTEX
  8
0
 62
7
 10
10.59093726
 20
11.87835620
  0
VERTEX
  8
0
 62
7
 10
10.58845508
 20
11.91457227
  0
VERTEX
  8
0
 62
7
 10
10.58494458
 20
11.95049829
  0
VERTEX
  8
0
 62
7
 10
10.58037500
 20
11.98587500
  0
VERTEX
  8
0
 62
7
 10
10.57471558
 20
12.02044312
  0
VERTEX
  8
0
 62
7
 10
10.56793555
 20
12.05394336
  0
VERTEX
  8
0
 62
7
 10
10.56000415
 20
12.08611646
  0
VERTEX
  8
0
 62
7
 10
10.55089063
 20
12.11670313
  0
VERTEX
  8
0
 62
7
 10
10.54056421
 20
12.14544409
  0
VERTEX
  8
0
 62
7
 10
10.52899414
 20
12.17208008
  0
VERTEX
  8
0
 62
7
 10
10.51614966
 20
12.19635181
  0
VERTEX
  8
0
 62
7
 10
10.50200000
 20
12.21800000
  0
VERTEX
  8
0
 62
7
 10
10.49128125
 20
12.23307813
  0
VERTEX
  8
0
 62
7
 10
10.47625000
 20
12.25162500
  0
VERTEX
  8
0
 62
7
 10
10.45784375
 20
12.26960938
  0
VERTEX
  8
0
 62
7
 10
10.43700000
 20
12.28300000
  0
VERTEX
  8
0
 62
7
 10
10.41759375
 20
12.29034375
  0
VERTEX
  8
0
 62
7
 10
10.39725000
 20
12.29450000
  0
VERTEX
  8
0
 62
7
 10
10.37653125
 20
12.29565625
  0
VERTEX
  8
0
 62
7
 10
10.35600000
 20
12.29400000
  0
VERTEX
  8
0
 62
7
 10
10.33875977
 20
12.29035840
  0
VERTEX
  8
0
 62
7
 10
10.32298438
 20
12.28478906
  0
VERTEX
  8
0
 62
7
 10
10.30859180
 20
12.27745020
  0
VERTEX
  8
0
 62
7
 10
10.29550000
 20
12.26850000
  0
VERTEX
  8
0
 62
7
 10
10.28362695
 20
12.25809668
  0
VERTEX
  8
0
 62
7
 10
10.27289063
 20
12.24639844
  0
VERTEX
  8
0
 62
7
 10
10.26320898
 20
12.23356348
  0
VERTEX
  8
0
 62
7
 10
10.25450000
 20
12.21975000
  0
VERTEX
  8
0
 62
7
 10
10.24668164
 20
12.20511621
  0
VERTEX
  8
0
 62
7
 10
10.23967188
 20
12.18982031
  0
VERTEX
  8
0
 62
7
 10
10.23338867
 20
12.17402051
  0
VERTEX
  8
0
 62
7
 10
10.22775000
 20
12.15787500
  0
VERTEX
  8
0
 62
7
 10
10.22267383
 20
12.14154199
  0
VERTEX
  8
0
 62
7
 10
10.21807813
 20
12.12517969
  0
VERTEX
  8
0
 62
7
 10
10.21388086
 20
12.10894629
  0
VERTEX
  8
0
 62
7
 10
10.21000000
 20
12.09300000
  0
VERTEX
  8
0
 62
7
 10
10.19905664
 20
12.04102930
  0
VERTEX
  8
0
 62
7
 10
10.19089063
 20
11.98867188
  0
VERTEX
  8
0
 62
7
 10
10.18537305
 20
11.93600977
  0
VERTEX
  8
0
 62
7
 10
10.18237500
 20
11.88312500
  0
VERTEX
  8
0
 62
7
 10
10.18176758
 20
11.83009961
  0
VERTEX
  8
0
 62
7
 10
10.18342188
 20
11.77701563
  0
VERTEX
  8
0
 62
7
 10
10.18720898
 20
11.72395508
  0
VERTEX
  8
0
 62
7
 10
10.19300000
 20
11.67100000
  0
VERTEX
  8
0
 62
7
 10
10.20135938
 20
11.61885938
  0
VERTEX
  8
0
 62
7
 10
10.21262500
 20
11.56737500
  0
VERTEX
  8
0
 62
7
 10
10.22632813
 20
11.51645313
  0
VERTEX
  8
0
 62
7
 10
10.24200000
 20
11.46600000
  0
VERTEX
  8
0
 62
7
 10
10.25200000
 20
11.43837500
  0
VERTEX
  8
0
 62
7
 10
10.26200000
 20
11.41075000
  0
VERTEX
  8
0
 62
7
 10
10.26900000
 20
11.38275000
  0
VERTEX
  8
0
 62
7
 10
10.27000000
 20
11.35400000
  0
VERTEX
  8
0
 62
7
 10
10.26678125
 20
11.33168750
  0
VERTEX
  8
0
 62
7
 10
10.26150000
 20
11.30900000
  0
VERTEX
  8
0
 62
7
 10
10.25396875
 20
11.28706250
  0
VERTEX
  8
0
 62
7
 10
10.24400000
 20
11.26700000
  0
VERTEX
  8
0
 62
7
 10
10.25200000
 20
11.25500000
  0
VERTEX
  8
0
 62
7
 10
10.32701563
 20
11.30768750
  0
VERTEX
  8
0
 62
7
 10
10.38637500
 20
11.35325000
  0
VERTEX
  8
0
 62
7
 10
10.43804688
 20
11.39843750
  0
VERTEX
  8
0
 62
7
 10
10.49000000
 20
11.45000000
  0
SEQEND
  0
POLYLINE
  8
0
 62
7
 66
1
 70
1
  0
VERTEX
  8
0
 62
7
 10
10.45500000
 20
11.50100000
  0
VERTEX
  8
0
 62
7
 10
10.44700000
 20
11.49200000
  0
VERTEX
  8
0
 62
7
 10
10.38112500
 20
11.42775000
  0
VERTEX
  8
0
 62
7
 10
10.31300000
 20
11.37100000
  0
VERTEX
  8
0
 62
7
 10
10.30012500
 20
11.40487500
  0
VERTEX
  8
0
 62
7
 10
10.29100000
 20
11.43500000
  0
VERTEX
  8
0
 62
7
 10
10.27362500
 20
11.52812500
  0
VERTEX
  8
0
 62
7
 10
10.26000000
 20
11.62200000
  0
VERTEX
  8
0
 62
7
 10
10.25154688
 20
11.69957813
  0
VERTEX
  8
0
 62
7
 10
10.24562500
 20
11.77762500
  0
VERTEX
  8
0
 62
7
 10
10.24214063
 20
11.85585938
  0
VERTEX
  8
0
 62
7
 10
10.24100000
 20
11.93400000
  0
VERTEX
  8
0
 62
7
 10
10.24021875
 20
11.97389063
  0
VERTEX
  8
0
 62
7
 10
10.23925000
 20
12.01387500
  0
VERTEX
  8
0
 62
7
 10
10.24015625
 20
12.05367188
  0
VERTEX
  8
0
 62
7
 10
10.24500000
 20
12.09300000
  0
VERTEX
  8
0
 62
7
 10
10.24871875
 20
12.11395313
  0
VERTEX
  8
0
 62
7
 10
10.25300000
 20
12.13462500
  0
VERTEX
  8
0
 62
7
 10
10.25878125
 20
12.15473438
  0
VERTEX
  8
0
 62
7
 10
10.26700000
 20
12.17400000
  0
VERTEX
  8
0
 62
7
 10
10.27715625
 20
12.19451563
  0
VERTEX
  8
0
 62
7
 10
10.28900000
 20
12.21437500
  0
VERTEX
  8
0
 62
7
 10
10.30384375
 20
12.23179688
  0
VERTEX
  8
0
 62
7
 10
10.32300000
 20
12.24500000
  0
VERTEX
  8
0
 62
7
 10
10.33998438
 20
12.25171875
  0
VERTEX
  8
0
 62
7
 10
10.35762500
 20
12.25600000
  0
VERTEX
  8
0
 62
7
 10
10.37545313
 20
12.25653125
  0
VERTEX
  8
0
 62
7
 10
10.39300000
 20
12.25200000
  0
VERTEX
  8
0
 62
7
 10
10.40440625
 20
12.24523438
  0
VERTEX
  8
0
 62
7
 10
10.41375000
 20
12.23612500
  0
VERTEX
  8
0
 62
7
 10
10.42196875
 20
12.22570313
  0
VERTEX
  8
0
 62
7
 10
10.43000000
 20
12.21500000
  0
VERTEX
  8
0
 62
7
 10
10.44828125
 20
12.18375000
  0
VERTEX
  8
0
 62
7
 10
10.46000000
 20
12.14950000
  0
VERTEX
  8
0
 62
7
 10
10.46796875
 20
12.11375000
  0
VERTEX
  8
0
 62
7
 10
10.47500000
 20
12.07800000
  0
VERTEX
  8
0
 62
7
 10
10.48121875
 20
12.03734375
  0
VERTEX
  8
0
 62
7
 10
10.48425000
 20
11.99650000
  0
VERTEX
  8
0
 62
7
 10
10.48540625
 20
11.95565625
  0
VERTEX
  8
0
 62
7
 10
10.48600000
 20
11.91500000
  0
VERTEX
  8
0
 62
7
 10
10.48646875
 20
11.84076563
  0
VERTEX
  8
0
 62
7
 10
10.48375000
 20
11.76662500
  0
VERTEX
  8
0
 62
7
 10
10.47840625
 20
11.69267188
  0
VERTEX
  8
0
 62
7
 10
10.47100000
 20
11.61900000
  0
VERTEX
  8
0
 62
7
 10
10.45500000
 20
11.50100000
  0
SEQEND
  0
POLYLINE
  8
0
 62
7
 66
1
 70
1
  0
VERTEX
  8
0
 62
7
 10
9.06300000
 20
12.74600000
  0
VERTEX
  8
0
 62
7
 10
9.08962500
 20
12.78712500
  0
VERTEX
  8
0
 62
7
 10
9.12000000
 20
12.82600000
  0
VERTEX
  8
0
 62
7
 10
9.14487500
 20
12.85312500
  0
VERTEX
  8
0
 62
7
 10
9.17200000
 20
12.87800000
  0
VERTEX
  8
0
 62
7
 10
9.24100000
 20
12.92400000
  0
VERTEX
  8
0
 62
7
 10
9.27475000
 20
12.95362500
  0
VERTEX
  8
0
 62
7
 10
9.30400000
 20
12.98700000
  0
VERTEX
  8
0
 62
7
 10
9.31992188
 20
13.01368750
  0
VERTEX
  8
0
 62
7
 10
9.33237500
 20
13.04225000
  0
VERTEX
  8
0
 62
7
 10
9.34239063
 20
13.07193750
  0
VERTEX
  8
0
 62
7
 10
9.35100000
 20
13.10200000
  0
VERTEX
  8
0
 62
7
 10
9.36087695
 20
13.14305273
  0
VERTEX
  8
0
 62
7
 10
9.36814063
 20
13.18442188
  0
VERTEX
  8
0
 62
7
 10
9.37299023
 20
13.22604883
  0
VERTEX
  8
0
 62
7
 10
9.37562500
 20
13.26787500
  0
VERTEX
  8
0
 62
7
 10
9.37624414
 20
13.30984180
  0
VERTEX
  8
0
 62
7
 10
9.37504688
 20
13.35189063
  0
VERTEX
  8
0
 62
7
 10
9.37223242
 20
13.39396289
  0
VERTEX
  8
0
 62
7
 10
9.36800000
 20
13.43600000
  0
VERTEX
  8
0
 62
7
 10
9.36456445
 20
13.46569336
  0
VERTEX
  8
0
 62
7
 10
9.36076563
 20
13.49542188
  0
VERTEX
  8
0
 62
7
 10
9.35624023
 20
13.52503320
  0
VERTEX
  8
0
 62
7
 10
9.35062500
 20
13.55437500
  0
VERTEX
  8
0
 62
7
 10
9.34355664
 20
13.58329492
  0
VERTEX
  8
0
 62
7
 10
9.33467188
 20
13.61164063
  0
VERTEX
  8
0
 62
7
 10
9.32360742
 20
13.63925977
  0
VERTEX
  8
0
 62
7
 10
9.31000000
 20
13.66600000
  0
VERTEX
  8
0
 62
7
 10
9.29225000
 20
13.69650000
  0
VERTEX
  8
0
 62
7
 10
9.27000000
 20
13.72400000
  0
VERTEX
  8
0
 62
7
 10
9.25685937
 20
13.73493750
  0
VERTEX
  8
0
 62
7
 10
9.24287500
 20
13.74475000
  0
VERTEX
  8
0
 62
7
 10
9.22795313
 20
13.75268750
  0
VERTEX
  8
0
 62
7
 10
9.21200000
 20
13.75800000
  0
VERTEX
  8
0
 62
7
 10
9.18524219
 20
13.76065820
  0
VERTEX
  8
0
 62
7
 10
9.16050000
 20
13.75657813
  0
VERTEX
  8
0
 62
7
 10
9.13782031
 20
13.74680273
  0
VERTEX
  8
0
 62
7
 10
9.11725000
 20
13.73237500
  0
VERTEX
  8
0
 62
7
 10
9.09883594
 20
13.71433789
  0
VERTEX
  8
0
 62
7
 10
9.08262500
 20
13.69373438
  0
VERTEX
  8
0
 62
7
 10
9.06866406
 20
13.67160742
  0
VERTEX
  8
0
 62
7
 10
9.05700000
 20
13.64900000
  0
VERTEX
  8
0
 62
7
 10
9.02998047
 20
13.58041602
  0
VERTEX
  8
0
 62
7
 10
9.00996875
 20
13.51057813
  0
VERTEX
  8
0
 62
7
 10
8.99628516
 20
13.43973242
  0
VERTEX
  8
0
 62
7
 10
8.98825000
 20
13.36812500
  0
VERTEX
  8
0
 62
7
 10
8.98518359
 20
13.29600195
  0
VERTEX
  8
0
 62
7
 10
8.98640625
 20
13.22360938
  0
VERTEX
  8
0
 62
7
 10
8.99123828
 20
13.15119336
  0
VERTEX
  8
0
 62
7
 10
8.99900000
 20
13.07900000
  0
VERTEX
  8
0
 62
7
 10
9.00328125
 20
13.05076563
  0
VERTEX
  8
0
 62
7
 10
9.00925000
 20
13.02487500
  0
VERTEX
  8
0
 62
7
 10
9.01784375
 20
12.99954688
  0
VERTEX
  8
0
 62
7
 10
9.03000000
 20
12.97300000
  0
VERTEX
  8
0
 62
7
 10
9.04532812
 20
12.94779688
  0
VERTEX
  8
0
 62
7
 10
9.06412500
 20
12.92587500
  0
VERTEX
  8
0
 62
7
 10
9.08610937
 20
12.90676563
  0
VERTEX
  8
0
 62
7
 10
9.11100000
 20
12.89000000
  0
VERTEX
  8
0
 62
7
 10
9.09609375
 20
12.87162500
  0
VERTEX
  8
0
 62
7
 10
9.08100000
 20
12.84875000
  0
VERTEX
  8
0
 62
7
 10
9.06740625
 20
12.82475000
  0
VERTEX
  8
0
 62
7
 10
9.05700000
 20
12.80300000
  0
VERTEX
  8
0
 62
7
 10
9.04625000
 20
12.77225000
  0
VERTEX
  8
0
 62
7
 10
9.04000000
 20
12.74000000
  0
VERTEX
  8
0
 62
7
 10
9.06300000
 20
12.74600000
  0
SEQEND
  0
POLYLINE
  8
0
 62
7
 66
1
 70
1
  0
VERTEX
  8
0
 62
7
 10
9.21400000
 20
12.98000000
  0
VERTEX
  8
0
 62
7
 10
9.20300000
 20
12.97000000
  0
VERTEX
  8
0
 62
7
 10
9.17700000
 20
12.95400000
  0
VERTEX
  8
0
 62
7
 10
9.15000000
 20
12.93700000
  0
VERTEX
  8
0
 62
7
 10
9.14200000
 20
12.94100000
  0
VERTEX
  8
0
 62
7
 10
9.12267188
 20
12.95415625
  0
VERTEX
  8
0
 62
7
 10
9.10662500
 20
12.96825000
  0
VERTEX
  8
0
 62
7
 10
9.09376563
 20
12.98346875
  0
VERTEX
  8
0
 62
7
 10
9.08400000
 20
13.00000000
  0
VERTEX
  8
0
 62
7
 10
9.07262500
 20
13.02675000
  0
VERTEX
  8
0
 62
7
 10
9.06500000
 20
13.05200000
  0
VERTEX
  8
0
 62
7
 10
9.06200000
 20
13.13600000
  0
VERTEX
  8
0
 62
7
 10
9.05987500
 20
13.23375000
  0
VERTEX
  8
0
 62
7
 10
9.06300000
 20
13.33000000
  0
VERTEX
  8
0
 62
7
 10
9.06481250
 20
13.37664063
  0
VERTEX
  8
0
 62
7
 10
9.06700000
 20
13.42337500
  0
VERTEX
  8
0
 62
7
 10
9.07143750
 20
13.46992188
  0
VERTEX
  8
0
 62
7
 10
9.08000000
 20
13.51600000
  0
VERTEX
  8
0
 62
7
 10
9.08492187
 20
13.53801563
  0
VERTEX
  8
0
 62
7
 10
9.09012500
 20
13.56012500
  0
VERTEX
  8
0
 62
7
 10
9.09701562
 20
13.58167188
  0
VERTEX
  8
0
 62
7
 10
9.10700000
 20
13.60200000
  0
VERTEX
  8
0
 62
7
 10
9.11509375
 20
13.61507813
  0
VERTEX
  8
0
 62
7
 10
9.12375000
 20
13.62787500
  0
VERTEX
  8
0
 62
7
 10
9.13428125
 20
13.63898438
  0
VERTEX
  8
0
 62
7
 10
9.14800000
 20
13.64700000
  0
VERTEX
  8
0
 62
7
 10
9.15940625
 20
13.65007813
  0
VERTEX
  8
0
 62
7
 10
9.17100000
 20
13.65062500
  0
VERTEX
  8
0
 62
7
 10
9.18259375
 20
13.64910938
  0
VERTEX
  8
0
 62
7
 10
9.19400000
 20
13.64600000
  0
VERTEX
  8
0
 62
7
 10
9.20779688
 20
13.63842188
  0
VERTEX
  8
0
 62
7
 10
9.21962500
 20
13.62737500
  0
VERTEX
  8
0
 62
7
 10
9.23014063
 20
13.61464063
  0
VERTEX
  8
0
 62
7
 10
9.24000000
 20
13.60200000
  0
VERTEX
  8
0
 62
7
 10
9.25118750
 20
13.58259375
  0
VERTEX
  8
0
 62
7
 10
9.25975000
 20
13.56225000
  0
VERTEX
  8
0
 62
7
 10
9.26643750
 20
13.54153125
  0
VERTEX
  8
0
 62
7
 10
9.27200000
 20
13.52100000
  0
VERTEX
  8
0
 62
7
 10
9.27707812
 20
13.49384375
  0
VERTEX
  8
0
 62
7
 10
9.27962500
 20
13.46650000
  0
VERTEX
  8
0
 62
7
 10
9.28085938
 20
13.43915625
  0
VERTEX
  8
0
 62
7
 10
9.28200000
 20
13.41200000
  0
VERTEX
  8
0
 62
7
 10
9.28160938
 20
13.34317188
  0
VERTEX
  8
0
 62
7
 10
9.27662500
 20
13.27462500
  0
VERTEX
  8
0
 62
7
 10
9.26807813
 20
13.20626563
  0
VERTEX
  8
0
 62
7
 10
9.25700000
 20
13.13800000
  0
VERTEX
  8
0
 62
7
 10
9.24687500
 20
13.08212500
  0
VERTEX
  8
0
 62
7
 10
9.23300000
 20
13.02700000
  0
VERTEX
  8
0
 62
7
 10
9.21400000
 20
12.98000000
  0
SEQEND
  0
POLYLINE
  8
0
 62
7
 66
1
  0
VERTEX
  8
0
 62
7
 10
10.64300000
 20
13.91700000
  0
VERTEX
  8
0
 62
7
 10
10.57889063
 20
13.90951563
  0
VERTEX
  8
0
 62
7
 10
10.51562500
 20
13.89762500
  0
VERTEX
  8
0
 62
7
 10
10.45329688
 20
13.88142188
  0
VERTEX
  8
0
 62
7
 10
10.39200000
 20
13.86100000
  0
VERTEX
  8
0
 62
7
 10
10.32210938
 20
13.83179688
  0
VERTEX
  8
0
 62
7
 10
10.25512500
 20
13.79687500
  0
VERTEX
  8
0
 62
7
 10
10.19132813
 20
13.75651563
  0
VERTEX
  8
0
 62
7
 10
10.13100000
 20
13.71100000
  0
VERTEX
  8
0
 62
7
 10
10.13154688
 20
13.75657813
  0
VERTEX
  8
0
 62
7
 10
10.13012500
 20
13.80187500
  0
VERTEX
  8
0
 62
7
 10
10.12664063
 20
13.84698438
  0
VERTEX
  8
0
 62
7
 10
10.12100000
 20
13.89200000
  0
VERTEX
  8
0
 62
7
 10
10.11175000
 20
13.94979688
  0
VERTEX
  8
0
 62
7
 10
10.09950000
 20
14.00712500
  0
VERTEX
  8
0
 62
7
 10
10.08275000
 20
14.06314063
  0
VERTEX
  8
0
 62
7
 10
10.06000000
 20
14.11700000
  0
VERTEX
  8
0
 62
7
 10
10.03732813
 20
14.15803125
  0
VERTEX
  8
0
 62
7
 10
10.01137500
 20
14.19700000
  0
VERTEX
  8
0
 62
7
 10
9.98223438
 20
14.23371875
  0
VERTEX
  8
0
 62
7
 10
9.95000000
 20
14.26800000
  0
SEQEND
  0
POLYLINE
  8
0
 62
7
 66
1
  0
VERTEX
  8
0
 62
7
 10
10.16600000
 20
13.77600000
  0
VERTEX
  8
0
 62
7
 10
10.28100000
 20
14.01700000
  0
VERTEX
  8
0
 62
7
 10
10.43700000
 20
14.34300000
  0
VERTEX
  8
0
 62
7
 10
10.50917188
 20
14.48240625
  0
VERTEX
  8
0
 62
7
 10
10.58237500
 20
14.62125000
  0
VERTEX
  8
0
 62
7
 10
10.65314063
 20
14.76121875
  0
VERTEX
  8
0
 62
7
 10
10.71800000
 20
14.90400000
  0
VERTEX
  8
0
 62
7
 10
10.75009375
 20
14.98496875
  0
VERTEX
  8
0
 62
7
 10
10.77900000
 20
15.06725000
  0
VERTEX
  8
0
 62
7
 10
10.80490625
 20
15.15065625
  0
VERTEX
  8
0
 62
7
 10
10.82800000
 20
15.23500000
  0
SEQEND
  0
POLYLINE
  8
0
 62
7
 66
1
 70
1
  0
VERTEX
  8
0
 62
7
 10
9.24814451
 20
.61808913
  0
VERTEX
  8
0
 62
7
 10
7.29753179
 20
.61808913
  0
VERTEX
  8
0
 62
7
 10
7.29753179
 20
.81800000
  0
VERTEX
  8
0
 62
7
 10
9.24814451
 20
.81800000
  0
VERTEX
  8
0
 62
7
 10
11.19875723
 20
.81800000
  0
VERTEX
  8
0
 62
7
 10
11.19875723
 20
.61808913
  0
VERTEX
  8
0
 62
7
 10
9.24814451
 20
.61808913
  0
SEQEND
  0
POLYLINE
  8
0
 62
7
 66
1
 70
1
  0
VERTEX
  8
0
 62
7
 10
8.27700000
 20
.87800000
  0
VERTEX
  8
0
 62
7
 10
8.15900000
 20
.87800000
  0
VERTEX
  8
0
 62
7
 10
8.15900000
 20
3.94000000
  0
VERTEX
  8
0
 62
7
 10
8.27800000
 20
3.94000000
  0
VERTEX
  8
0
 62
7
 10
8.27700000
 20
.87800000
  0
SEQEND
  0
POLYLINE
  8
0
 62
7
 66
1
 70
1
  0
VERTEX
  8
0
 62
7
 10
8.71400000
 20
1.30200000
  0
VERTEX
  8
0
 62
7
 10
8.79400000
 20
1.33500000
  0
VERTEX
  8
0
 62
7
 10
8.82800000
 20
1.35300000
  0
VERTEX
  8
0
 62
7
 10
8.82700000
 20
.87800000
  0
VERTEX
  8
0
 62
7
 10
8.71400000
 20
.87800000
  0
VERTEX
  8
0
 62
7
 10
8.71400000
 20
1.30200000
  0
SEQEND
  0
POLYLINE
  8
0
 62
7
 66
1
 70
1
  0
VERTEX
  8
0
 62
7
 10
10.21500000
 20
1.03400000
  0
VERTEX
  8
0
 62
7
 10
10.27425000
 20
1.02212500
  0
VERTEX
  8
0
 62
7
 10
10.33500000
 20
1.01700000
  0
VERTEX
  8
0
 62
7
 10
10.33500000
 20
.87800000
  0
VERTEX
  8
0
 62
7
 10
10.21400000
 20
.87800000
  0
VERTEX
  8
0
 62
7
 10
10.21500000
 20
1.03400000
  0
SEQEND
  0
POLYLINE
  8
0
 62
7
 66
1
 70
1
  0
VERTEX
  8
0
 62
7
 10
10.00200000
 20
3.43100000
  0
VERTEX
  8
0
 62
7
 10
9.94100000
 20
3.33200000
  0
VERTEX
  8
0
 62
7
 10
9.88200000
 20
3.25300000
  0
VERTEX
  8
0
 62
7
 10
9.87500000
 20
3.24400000
  0
VERTEX
  8
0
 62
7
 10
9.87500000
 20
3.94000000
  0
VERTEX
  8
0
 62
7
 10
10.00200000
 20
3.94000000
  0
VERTEX
  8
0
 62
7
 10
10.00200000
 20
3.43100000
  0
SEQEND
  0
POLYLINE
  8
0
 62
7
 66
1
 70
1
  0
VERTEX
  8
0
 62
7
 10
9.20200000
 20
.87800000
  0
VERTEX
  8
0
 62
7
 10
9.09500000
 20
.87800000
  0
VERTEX
  8
0
 62
7
 10
9.09403125
 20
.94309375
  0
VERTEX
  8
0
 62
7
 10
9.09100000
 20
1.00800000
  0
VERTEX
  8
0
 62
7
 10
9.08571875
 20
1.07290625
  0
VERTEX
  8
0
 62
7
 10
9.07800000
 20
1.13800000
  0
VERTEX
  8
0
 62
7
 10
9.05875000
 20
1.24437500
  0
VERTEX
  8
0
 62
7
 10
9.03500000
 20
1.35000000
  0
VERTEX
  8
0
 62
7
 10
9.00650000
 20
1.45412500
  0
VERTEX
  8
0
 62
7
 10
8.97200000
 20
1.55600000
  0
VERTEX
  8
0
 62
7
 10
8.92815625
 20
1.50642188
  0
VERTEX
  8
0
 62
7
 10
8.87925000
 20
1.46162500
  0
VERTEX
  8
0
 62
7
 10
8.82546875
 20
1.42226563
  0
VERTEX
  8
0
 62
7
 10
8.76700000
 20
1.38900000
  0
VERTEX
  8
0
 62
7
 10
8.72803125
 20
1.37140625
  0
VERTEX
  8
0
 62
7
 10
8.68775000
 20
1.35625000
  0
VERTEX
  8
0
 62
7
 10
8.64634375
 20
1.34371875
  0
VERTEX
  8
0
 62
7
 10
8.60400000
 20
1.33400000
  0
VERTEX
  8
0
 62
7
 10
8.57190625
 20
1.32851563
  0
VERTEX
  8
0
 62
7
 10
8.54000000
 20
1.32537500
  0
VERTEX
  8
0
 62
7
 10
8.50809375
 20
1.32429688
  0
VERTEX
  8
0
 62
7
 10
8.47600000
 20
1.32500000
  0
VERTEX
  8
0
 62
7
 10
8.44618750
 20
1.32726563
  0
VERTEX
  8
0
 62
7
 10
8.41675000
 20
1.33037500
  0
VERTEX
  8
0
 62
7
 10
8.38768750
 20
1.33554688
  0
VERTEX
  8
0
 62
7
 10
8.35900000
 20
1.34400000
  0
VERTEX
  8
0
 62
7
 10
8.32437500
 20
1.36112500
  0
VERTEX
  8
0
 62
7
 10
8.29200000
 20
1.38200000
  0
VERTEX
  8
0
 62
7
 10
8.33334375
 20
1.43931250
  0
VERTEX
  8
0
 62
7
 10
8.37000000
 20
1.50000000
  0
VERTEX
  8
0
 62
7
 10
8.40140625
 20
1.56368750
  0
VERTEX
  8
0
 62
7
 10
8.42700000
 20
1.63000000
  0
VERTEX
  8
0
 62
7
 10
8.44501563
 20
1.68662500
  0
VERTEX
  8
0
 62
7
 10
8.45862500
 20
1.74400000
  0
VERTEX
  8
0
 62
7
 10
8.46792188
 20
1.80212500
  0
VERTEX
  8
0
 62
7
 10
8.47300000
 20
1.86100000
  0
VERTEX
  8
0
 62
7
 10
8.47356250
 20
1.89789063
  0
VERTEX
  8
0
 62
7
 10
8.47150000
 20
1.93487500
  0
VERTEX
  8
0
 62
7
 10
8.46793750
 20
1.97167188
  0
VERTEX
  8
0
 62
7
 10
8.46400000
 20
2.00800000
  0
VERTEX
  8
0
 62
7
 10
8.45556250
 20
2.06914063
  0
VERTEX
  8
0
 62
7
 10
8.44375000
 20
2.12962500
  0
VERTEX
  8
0
 62
7
 10
8.43081250
 20
2.18954688
  0
VERTEX
  8
0
 62
7
 10
8.41900000
 20
2.24900000
  0
VERTEX
  8
0
 62
7
 10
8.40409375
 20
2.33065625
  0
VERTEX
  8
0
 62
7
 10
8.38900000
 20
2.41250000
  0
VERTEX
  8
0
 62
7
 10
8.37540625
 20
2.49509375
  0
VERTEX
  8
0
 62
7
 10
8.36500000
 20
2.57900000
  0
VERTEX
  8
0
 62
7
 10
8.35400000
 20
2.69462500
  0
VERTEX
  8
0
 62
7
 10
8.34900000
 20
2.81100000
  0
VERTEX
  8
0
 62
7
 10
8.34912500
 20
2.93725000
  0
VERTEX
  8
0
 62
7
 10
8.35300000
 20
3.06200000
  0
VERTEX
  8
0
 62
7
 10
8.35420313
 20
3.11745313
  0
VERTEX
  8
0
 62
7
 10
8.35662500
 20
3.17262500
  0
VERTEX
  8
0
 62
7
 10
8.36073438
 20
3.22723438
  0
VERTEX
  8
0
 62
7
 10
8.36700000
 20
3.28100000
  0
VERTEX
  8
0
 62
7
 10
8.37864062
 20
3.36568750
  0
VERTEX
  8
0
 62
7
 10
8.39412500
 20
3.45000000
  0
VERTEX
  8
0
 62
7
 10
8.41354688
 20
3.53356250
  0
VERTEX
  8
0
 62
7
 10
8.43700000
 20
3.61600000
  0
VERTEX
  8
0
 62
7
 10
8.45579688
 20
3.67057813
  0
VERTEX
  8
0
 62
7
 10
8.47712500
 20
3.72487500
  0
VERTEX
  8
0
 62
7
 10
8.50014063
 20
3.77898438
  0
VERTEX
  8
0
 62
7
 10
8.52400000
 20
3.83300000
  0
VERTEX
  8
0
 62
7
 10
8.54848437
 20
3.89037500
  0
VERTEX
  8
0
 62
7
 10
8.57437500
 20
3.94700000
  0
VERTEX
  8
0
 62
7
 10
8.60232813
 20
4.00287500
  0
VERTEX
  8
0
 62
7
 10
8.63300000
 20
4.05800000
  0
VERTEX
  8
0
 62
7
 10
8.65789063
 20
4.09842188
  0
VERTEX
  8
0
 62
7
 10
8.68362500
 20
4.13837500
  0
VERTEX
  8
0
 62
7
 10
8.71104687
 20
4.17739063
  0
VERTEX
  8
0
 62
7
 10
8.74100000
 20
4.21500000
  0
VERTEX
  8
0
 62
7
 10
8.79625000
 20
4.27362500
  0
VERTEX
  8
0
 62
7
 10
8.85900000
 20
4.32700000
  0
VERTEX
  8
0
 62
7
 10
8.86046875
 20
4.30065625
  0
VERTEX
  8
0
 62
7
 10
8.85875000
 20
4.27450000
  0
VERTEX
  8
0
 62
7
 10
8.85365625
 20
4.24909375
  0
VERTEX
  8
0
 62
7
 10
8.84500000
 20
4.22500000
  0
VERTEX
  8
0
 62
7
 10
8.81600000
 20
4.18000000
  0
VERTEX
  8
0
 62
7
 10
8.80448242
 20
4.15771680
  0
VERTEX
  8
0
 62
7
 10
8.79529688
 20
4.13448438
  0
VERTEX
  8
0
 62
7
 10
8.78824414
 20
4.11047852
  0
VERTEX
  8
0
 62
7
 10
8.78312500
 20
4.08587500
  0
VERTEX
  8
0
 62
7
 10
8.77974023
 20
4.06084961
  0
VERTEX
  8
0
 62
7
 10
8.77789063
 20
4.03557813
  0
VERTEX
  8
0
 62
7
 10
8.77737695
 20
4.01023633
  0
VERTEX
  8
0
 62
7
 10
8.77800000
 20
3.98500000
  0
VERTEX
  8
0
 62
7
 10
8.78278125
 20
3.93462500
  0
VERTEX
  8
0
 62
7
 10
8.79075000
 20
3.88425000
  0
VERTEX
  8
0
 62
7
 10
8.80134375
 20
3.83425000
  0
VERTEX
  8
0
 62
7
 10
8.81400000
 20
3.78500000
  0
VERTEX
  8
0
 62
7
 10
8.83232813
 20
3.72762500
  0
VERTEX
  8
0
 62
7
 10
8.85487500
 20
3.67100000
  0
VERTEX
  8
0
 62
7
 10
8.88023438
 20
3.61512500
  0
VERTEX
  8
0
 62
7
 10
8.90700000
 20
3.56000000
  0
VERTEX
  8
0
 62
7
 10
8.97700000
 20
3.43300000
  0
VERTEX
  8
0
 62
7
 10
9.00201563
 20
3.37906250
  0
VERTEX
  8
0
 62
7
 10
9.02487500
 20
3.32400000
  0
VERTEX
  8
0
 62
7
 10
9.04604688
 20
3.26818750
  0
VERTEX
  8
0
 62
7
 10
9.06600000
 20
3.21200000
  0
VERTEX
  8
0
 62
7
 10
9.11500000
 20
3.05600000
  0
VERTEX
  8
0
 62
7
 10
9.12723438
 20
3.00710938
  0
VERTEX
  8
0
 62
7
 10
9.13937500
 20
2.95812500
  0
VERTEX
  8
0
 62
7
 10
9.15282812
 20
2.90932813
  0
VERTEX
  8
0
 62
7
 10
9.16900000
 20
2.86100000
  0
VERTEX
  8
0
 62
7
 10
9.18634375
 20
2.81212500
  0
VERTEX
  8
0
 62
7
 10
9.20575000
 20
2.76325000
  0
VERTEX
  8
0
 62
7
 10
9.22778125
 20
2.71475000
  0
VERTEX
  8
0
 62
7
 10
9.25300000
 20
2.66700000
  0
VERTEX
  8
0
 62
7
 10
9.29500000
 20
2.59887500
  0
VERTEX
  8
0
 62
7
 10
9.34300000
 20
2.53300000
  0
VERTEX
  8
0
 62
7
 10
9.40400000
 20
2.47400000
  0
VERTEX
  8
0
 62
7
 10
9.38900000
 20
2.44400000
  0
VERTEX
  8
0
 62
7
 10
9.38500000
 20
2.43500000
  0
VERTEX
  8
0
 62
7
 10
9.35678125
 20
2.37192188
  0
VERTEX
  8
0
 62
7
 10
9.32950000
 20
2.30837500
  0
VERTEX
  8
0
 62
7
 10
9.30371875
 20
2.24389063
  0
VERTEX
  8
0
 62
7
 10
9.28000000
 20
2.17800000
  0
VERTEX
  8
0
 62
7
 10
9.26112500
 20
2.10925000
  0
VERTEX
  8
0
 62
7
 10
9.24600000
 20
2.04200000
  0
VERTEX
  8
0
 62
7
 10
9.22200000
 20
1.94600000
  0
VERTEX
  8
0
 62
7
 10
9.21000000
 20
1.90000000
  0
VERTEX
  8
0
 62
7
 10
9.19162500
 20
1.83637500
  0
VERTEX
  8
0
 62
7
 10
9.17100000
 20
1.77800000
  0
VERTEX
  8
0
 62
7
 10
9.14687500
 20
1.72078125
  0
VERTEX
  8
0
 62
7
 10
9.11825000
 20
1.66600000
  0
VERTEX
  8
0
 62
7
 10
9.08550000
 20
1.61346875
  0
VERTEX
  8
0
 62
7
 10
9.04900000
 20
1.56300000
  0
VERTEX
  8
0
 62
7
 10
9.04049609
 20
1.54685742
  0
VERTEX
  8
0
 62
7
 10
9.03778125
 20
1.53042188
  0
VERTEX
  8
0
 62
7
 10
9.04017578
 20
1.51443164
  0
VERTEX
  8
0
 62
7
 10
9.04700000
 20
1.49962500
  0
VERTEX
  8
0
 62
7
 10
9.05757422
 20
1.48674023
  0
VERTEX
  8
0
 62
7
 10
9.07121875
 20
1.47651563
  0
VERTEX
  8
0
 62
7
 10
9.08725391
 20
1.46968945
  0
VERTEX
  8
0
 62
7
 10
9.10500000
 20
1.46700000
  0
VERTEX
  8
0
 62
7
 10
9.11900000
 20
1.46700000
  0
VERTEX
  8
0
 62
7
 10
9.13800000
 20
1.46400000
  0
VERTEX
  8
0
 62
7
 10
9.16425000
 20
1.37371875
  0
VERTEX
  8
0
 62
7
 10
9.18450000
 20
1.28175000
  0
VERTEX
  8
0
 62
7
 10
9.19875000
 20
1.18865625
  0
VERTEX
  8
0
 62
7
 10
9.20700000
 20
1.09500000
  0
VERTEX
  8
0
 62
7
 10
9.20937500
 20
1.01700000
  0
VERTEX
  8
0
 62
7
 10
9.20800000
 20
.93900000
  0
VERTEX
  8
0
 62
7
 10
9.20200000
 20
.87800000
  0
SEQEND
  0
POLYLINE
  8
0
 62
7
 66
1
 70
1
  0
VERTEX
  8
0
 62
7
 10
9.61200000
 20
.87800000
  0
VERTEX
  8
0
 62
7
 10
9.51600000
 20
.87800000
  0
VERTEX
  8
0
 62
7
 10
9.52500000
 20
.95387500
  0
VERTEX
  8
0
 62
7
 10
9.54000000
 20
1.02900000
  0
VERTEX
  8
0
 62
7
 10
9.55035937
 20
1.06900000
  0
VERTEX
  8
0
 62
7
 10
9.56287500
 20
1.10825000
  0
VERTEX
  8
0
 62
7
 10
9.57670313
 20
1.14712500
  0
VERTEX
  8
0
 62
7
 10
9.59100000
 20
1.18600000
  0
VERTEX
  8
0
 62
7
 10
9.62037500
 20
1.25237500
  0
VERTEX
  8
0
 62
7
 10
9.65200000
 20
1.31800000
  0
VERTEX
  8
0
 62
7
 10
9.67300000
 20
1.36400000
  0
VERTEX
  8
0
 62
7
 10
9.68500000
 20
1.39600000
  0
VERTEX
  8
0
 62
7
 10
9.68900000
 20
1.41462500
  0
VERTEX
  8
0
 62
7
 10
9.69000000
 20
1.43400000
  0
VERTEX
  8
0
 62
7
 10
9.64048438
 20
1.42610938
  0
VERTEX
  8
0
 62
7
 10
9.59087500
 20
1.42037500
  0
VERTEX
  8
0
 62
7
 10
9.54107813
 20
1.41670313
  0
VERTEX
  8
0
 62
7
 10
9.49100000
 20
1.41500000
  0
VERTEX
  8
0
 62
7
 10
9.46009375
 20
1.41554688
  0
VERTEX
  8
0
 62
7
 10
9.42900000
 20
1.41637500
  0
VERTEX
  8
0
 62
7
 10
9.39790625
 20
1.41851563
  0
VERTEX
  8
0
 62
7
 10
9.36700000
 20
1.42300000
  0
VERTEX
  8
0
 62
7
 10
9.34439063
 20
1.42615625
  0
VERTEX
  8
0
 62
7
 10
9.32187500
 20
1.43025000
  0
VERTEX
  8
0
 62
7
 10
9.29992188
 20
1.43621875
  0
VERTEX
  8
0
 62
7
 10
9.27900000
 20
1.44500000
  0
VERTEX
  8
0
 62
7
 10
9.24800000
 20
1.46700000
  0
VERTEX
  8
0
 62
7
 10
9.23484375
 20
1.47704688
  0
VERTEX
  8
0
 62
7
 10
9.22300000
 20
1.48812500
  0
VERTEX
  8
0
 62
7
 10
9.21115625
 20
1.49864063
  0
VERTEX
  8
0
 62
7
 10
9.19800000
 20
1.50700000
  0
VERTEX
  8
0
 62
7
 10
9.16600000
 20
1.52000000
  0
VERTEX
  8
0
 62
7
 10
9.13200000
 20
1.52550000
  0
VERTEX
  8
0
 62
7
 10
9.09800000
 20
1.52500000
  0
VERTEX
  8
0
 62
7
 10
9.13601563
 20
1.57921875
  0
VERTEX
  8
0
 62
7
 10
9.17037500
 20
1.63550000
  0
VERTEX
  8
0
 62
7
 10
9.20079688
 20
1.69403125
  0
VERTEX
  8
0
 62
7
 10
9.22700000
 20
1.75500000
  0
VERTEX
  8
0
 62
7
 10
9.24301563
 20
1.79779688
  0
VERTEX
  8
0
 62
7
 10
9.25612500
 20
1.84162500
  0
VERTEX
  8
0
 62
7
 10
9.26792188
 20
1.88564063
  0
VERTEX
  8
0
 62
7
 10
9.28000000
 20
1.92900000
  0
VERTEX
  8
0
 62
7
 10
9.33600000
 20
2.15800000
  0
VERTEX
  8
0
 62
7
 10
9.36004688
 20
2.22409375
  0
VERTEX
  8
0
 62
7
 10
9.38662500
 20
2.28925000
  0
VERTEX
  8
0
 62
7
 10
9.41489063
 20
2.35403125
  0
VERTEX
  8
0
 62
7
 10
9.44400000
 20
2.41900000
  0
VERTEX
  8
0
 62
7
 10
9.49500000
 20
2.52787500
  0
VERTEX
  8
0
 62
7
 10
9.54900000
 20
2.63600000
  0
VERTEX
  8
0
 62
7
 10
9.58589062
 20
2.69757813
  0
VERTEX
  8
0
 62
7
 10
9.62512500
 20
2.75812500
  0
VERTEX
  8
0
 62
7
 10
9.66529687
 20
2.81810938
  0
VERTEX
  8
0
 62
7
 10
9.70500000
 20
2.87800000
  0
VERTEX
  8
0
 62
7
 10
9.74662500
 20
2.94534375
  0
VERTEX
  8
0
 62
7
 10
9.78825000
 20
3.01325000
  0
VERTEX
  8
0
 62
7
 10
9.83100000
 20
3.08078125
  0
VERTEX
  8
0
 62
7
 10
9.87600000
 20
3.14700000
  0
VERTEX
  8
0
 62
7
 10
9.99100000
 20
3.29900000
  0
VERTEX
  8
0
 62
7
 10
10.04462500
 20
3.38475000
  0
VERTEX
  8
0
 62
7
 10
10.09600000
 20
3.47200000
  0
VERTEX
  8
0
 62
7
 10
10.11946875
 20
3.51192188
  0
VERTEX
  8
0
 62
7
 10
10.14275000
 20
3.55137500
  0
VERTEX
  8
0
 62
7
 10
10.16490625
 20
3.59139063
  0
VERTEX
  8
0
 62
7
 10
10.18500000
 20
3.63300000
  0
VERTEX
  8
0
 62
7
 10
10.20303125
 20
3.68154688
  0
VERTEX
  8
0
 62
7
 10
10.21900000
 20
3.73112500
  0
VERTEX
  8
0
 62
7
 10
10.23196875
 20
3.78164063
  0
VERTEX
  8
0
 62
7
 10
10.24100000
 20
3.83300000
  0
VERTEX
  8
0
 62
7
 10
10.24539063
 20
3.88448438
  0
VERTEX
  8
0
 62
7
 10
10.24537500
 20
3.93662500
  0
VERTEX
  8
0
 62
7
 10
10.24142188
 20
3.98895313
  0
VERTEX
  8
0
 62
7
 10
10.23400000
 20
4.04100000
  0
VERTEX
  8
0
 62
7
 10
10.22520313
 20
4.08370313
  0
VERTEX
  8
0
 62
7
 10
10.21387500
 20
4.12612500
  0
VERTEX
  8
0
 62
7
 10
10.20010938
 20
4.16798438
  0
VERTEX
  8
0
 62
7
 10
10.18400000
 20
4.20900000
  0
VERTEX
  8
0
 62
7
 10
10.24081250
 20
4.17739063
  0
VERTEX
  8
0
 62
7
 10
10.29350000
 20
4.13837500
  0
VERTEX
  8
0
 62
7
 10
10.34093750
 20
4.09242188
  0
VERTEX
  8
0
 62
7
 10
10.38200000
 20
4.04000000
  0
VERTEX
  8
0
 62
7
 10
10.40487500
 20
4.00525000
  0
VERTEX
  8
0
 62
7
 10
10.42400000
 20
3.96900000
  0
VERTEX
  8
0
 62
7
 10
10.44753125
 20
3.91700000
  0
VERTEX
  8
0
 62
7
 10
10.46675000
 20
3.86350000
  0
VERTEX
  8
0
 62
7
 10
10.48334375
 20
3.80925000
  0
VERTEX
  8
0
 62
7
 10
10.49900000
 20
3.75500000
  0
VERTEX
  8
0
 62
7
 10
10.51779688
 20
3.68067188
  0
VERTEX
  8
0
 62
7
 10
10.53387500
 20
3.60512500
  0
VERTEX
  8
0
 62
7
 10
10.54751563
 20
3.52901563
  0
VERTEX
  8
0
 62
7
 10
10.55900000
 20
3.45300000
  0
VERTEX
  8
0
 62
7
 10
10.56925000
 20
3.37123438
  0
VERTEX
  8
0
 62
7
 10
10.57725000
 20
3.28937500
  0
VERTEX
  8
0
 62
7
 10
10.58262500
 20
3.20732813
  0
VERTEX
  8
0
 62
7
 10
10.58500000
 20
3.12500000
  0
VERTEX
  8
0
 62
7
 10
10.58510938
 20
3.05090625
  0
VERTEX
  8
0
 62
7
 10
10.58287500
 20
2.97700000
  0
VERTEX
  8
0
 62
7
 10
10.57895313
 20
2.90309375
  0
VERTEX
  8
0
 62
7
 10
10.57400000
 20
2.82900000
  0
VERTEX
  8
0
 62
7
 10
10.55825000
 20
2.67525000
  0
VERTEX
  8
0
 62
7
 10
10.53800000
 20
2.52300000
  0
VERTEX
  8
0
 62
7
 10
10.49200000
 20
2.26100000
  0
VERTEX
  8
0
 62
7
 10
10.45150000
 20
2.06412500
  0
VERTEX
  8
0
 62
7
 10
10.41400000
 20
1.86800000
  0
VERTEX
  8
0
 62
7
 10
10.38275000
 20
1.69837500
  0
VERTEX
  8
0
 62
7
 10
10.35600000
 20
1.52800000
  0
VERTEX
  8
0
 62
7
 10
10.34892188
 20
1.48075000
  0
VERTEX
  8
0
 62
7
 10
10.34212500
 20
1.43350000
  0
VERTEX
  8
0
 62
7
 10
10.33701563
 20
1.38625000
  0
VERTEX
  8
0
 62
7
 10
10.33500000
 20
1.33900000
  0
VERTEX
  8
0
 62
7
 10
10.33800000
 20
1.26562500
  0
VERTEX
  8
0
 62
7
 10
10.34700000
 20
1.19300000
  0
VERTEX
  8
0
 62
7
 10
10.36162500
 20
1.13475000
  0
VERTEX
  8
0
 62
7
 10
10.38000000
 20
1.07800000
  0
VERTEX
  8
0
 62
7
 10
10.33043750
 20
1.07745313
  0
VERTEX
  8
0
 62
7
 10
10.28125000
 20
1.08187500
  0
VERTEX
  8
0
 62
7
 10
10.23318750
 20
1.09135938
  0
VERTEX
  8
0
 62
7
 10
10.18700000
 20
1.10600000
  0
VERTEX
  8
0
 62
7
 10
10.14875000
 20
1.12187500
  0
VERTEX
  8
0
 62
7
 10
10.11200000
 20
1.14075000
  0
VERTEX
  8
0
 62
7
 10
10.07675000
 20
1.16225000
  0
VERTEX
  8
0
 62
7
 10
10.04300000
 20
1.18600000
  0
VERTEX
  8
0
 62
7
 10
10.01020313
 20
1.21385938
  0
VERTEX
  8
0
 62
7
 10
9.97937500
 20
1.24462500
  0
VERTEX
  8
0
 62
7
 10
9.95060938
 20
1.27782813
  0
VERTEX
  8
0
 62
7
 10
9.92400000
 20
1.31300000
  0
VERTEX
  8
0
 62
7
 10
9.88362500
 20
1.37250000
  0
VERTEX
  8
0
 62
7
 10
9.85000000
 20
1.43500000
  0
VERTEX
  8
0
 62
7
 10
9.79400000
 20
1.36060938
  0
VERTEX
  8
0
 62
7
 10
9.74475000
 20
1.28162500
  0
VERTEX
  8
0
 62
7
 10
9.70262500
 20
1.19832813
  0
VERTEX
  8
0
 62
7
 10
9.66800000
 20
1.11100000
  0
VERTEX
  8
0
 62
7
 10
9.65279688
 20
1.07115625
  0
VERTEX
  8
0
 62
7
 10
9.64012500
 20
1.03000000
  0
VERTEX
  8
0
 62
7
 10
9.62989063
 20
.98809375
  0
VERTEX
  8
0
 62
7
 10
9.62200000
 20
.94600000
  0
VERTEX
  8
0
 62
7
 10
9.61200000
 20
.87800000
  0
SEQEND
  0
POLYLINE
  8
0
 62
7
 66
1
  0
VERTEX
  8
0
 62
7
 10
10.27500000
 20
1.82200000
  0
VERTEX
  8
0
 62
7
 10
10.23792750
 20
1.82294669
  0
VERTEX
  8
0
 62
7
 10
10.20104432
 20
1.82124265
  0
VERTEX
  8
0
 62
7
 10
10.16453974
 20
1.81688786
  0
VERTEX
  8
0
 62
7
 10
10.12860308
 20
1.80988233
  0
VERTEX
  8
0
 62
7
 10
10.06805660
 20
1.79014377
  0
VERTEX
  8
0
 62
7
 10
10.00997110
 20
1.76406237
  0
VERTEX
  8
0
 62
7
 10
9.95567172
 20
1.73135411
  0
VERTEX
  8
0
 62
7
 10
9.90648362
 20
1.69173500
  0
VERTEX
  8
0
 62
7
 10
9.86721833
 20
1.64974915
  0
VERTEX
  8
0
 62
7
 10
9.83315896
 20
1.60426054
  0
VERTEX
  8
0
 62
7
 10
9.80496809
 20
1.55555316
  0
VERTEX
  8
0
 62
7
 10
9.78330829
 20
1.50391104
  0
VERTEX
  8
0
 62
7
 10
9.78403396
 20
1.53781844
  0
VERTEX
  8
0
 62
7
 10
9.78305588
 20
1.57144183
  0
VERTEX
  8
0
 62
7
 10
9.78018473
 20
1.60487589
  0
VERTEX
  8
0
 62
7
 10
9.77523121
 20
1.63821527
  0
VERTEX
  8
0
 62
7
 10
9.76412524
 20
1.68908426
  0
VERTEX
  8
0
 62
7
 10
9.74999037
 20
1.73919589
  0
VERTEX
  8
0
 62
7
 10
9.73288969
 20
1.78488962
  0
VERTEX
  8
0
 62
7
 10
9.71238150
 20
1.82831129
  0
VERTEX
  8
0
 62
7
 10
9.68922303
 20
1.86983957
  0
VERTEX
  8
0
 62
7
 10
9.66417148
 20
1.90985314
  0
VERTEX
  8
0
 62
7
 10
9.63162657
 20
1.95701425
  0
VERTEX
  8
0
 62
7
 10
9.59614740
 20
2.00161928
  0
VERTEX
  8
0
 62
7
 10
9.55782864
 20
2.04376291
  0
VERTEX
  8
0
 62
7
 10
9.51676493
 20
2.08353981
  0
SEQEND
  0
POLYLINE
  8
0
 62
7
 66
1
  0
VERTEX
  8
0
 62
7
 10
9.80800000
 20
1.60500000
  0
VERTEX
  8
0
 62
7
 10
9.81785971
 20
1.68141393
  0
VERTEX
  8
0
 62
7
 10
9.83084297
 20
1.75735451
  0
VERTEX
  8
0
 62
7
 10
9.84704444
 20
1.83234840
  0
VERTEX
  8
0
 62
7
 10
9.86655877
 20
1.90592225
  0
VERTEX
  8
0
 62
7
 10
9.88522122
 20
1.96734687
  0
VERTEX
  8
0
 62
7
 10
9.90606069
 20
2.02773012
  0
VERTEX
  8
0
 62
7
 10
9.92860393
 20
2.08754536
  0
VERTEX
  8
0
 62
7
 10
9.95237765
 20
2.14726594
  0
VERTEX
  8
0
 62
7
 10
10.00727649
 20
2.27525887
  0
VERTEX
  8
0
 62
7
 10
10.06444701
 20
2.40173710
  0
VERTEX
  8
0
 62
7
 10
10.19065125
 20
2.67337497
  0
VERTEX
  8
0
 62
7
 10
10.21630226
 20
2.73128105
  0
VERTEX
  8
0
 62
7
 10
10.24214258
 20
2.78899778
  0
VERTEX
  8
0
 62
7
 10
10.26646845
 20
2.84747187
  0
VERTEX
  8
0
 62
7
 10
10.28757611
 20
2.90765001
  0
VERTEX
  8
0
 62
7
 10
10.31294316
 20
3.00544343
  0
VERTEX
  8
0
 62
7
 10
10.33149518
 20
3.10456222
  0
VERTEX
  8
0
 62
7
 10
10.34323218
 20
3.20443837
  0
VERTEX
  8
0
 62
7
 10
10.34815414
 20
3.30450385
  0
SEQEND
  0
POLYLINE
  8
0
 62
7
 66
1
  0
VERTEX
  8
0
 62
7
 10
9.20900000
 20
2.12600000
  0
VERTEX
  8
0
 62
7
 10
9.18101421
 20
2.09207682
  0
VERTEX
  8
0
 62
7
 10
9.15473218
 20
2.05682827
  0
VERTEX
  8
0
 62
7
 10
9.13034321
 20
2.02006502
  0
VERTEX
  8
0
 62
7
 10
9.10803661
 20
1.98159771
  0
VERTEX
  8
0
 62
7
 10
9.08934852
 20
1.94149342
  0
VERTEX
  8
0
 62
7
 10
9.07344087
 20
1.90008742
  0
VERTEX
  8
0
 62
7
 10
9.06034915
 20
1.85759272
  0
VERTEX
  8
0
 62
7
 10
9.05010886
 20
1.81422233
  0
VERTEX
  8
0
 62
7
 10
9.04275549
 20
1.77018926
  0
VERTEX
  8
0
 62
7
 10
9.03832454
 20
1.72570651
  0
VERTEX
  8
0
 62
7
 10
9.03685150
 20
1.68098708
  0
VERTEX
  8
0
 62
7
 10
9.03837187
 20
1.63624399
  0
VERTEX
  8
0
 62
7
 10
8.97779383
 20
1.71753339
  0
VERTEX
  8
0
 62
7
 10
8.91418690
 20
1.79579337
  0
VERTEX
  8
0
 62
7
 10
8.84212428
 20
1.87471604
  0
VERTEX
  8
0
 62
7
 10
8.76551830
 20
1.94928391
  0
VERTEX
  8
0
 62
7
 10
8.68474759
 20
2.01930766
  0
VERTEX
  8
0
 62
7
 10
8.60019075
 20
2.08459795
  0
SEQEND
  0
POLYLINE
  8
0
 62
7
 66
1
  0
VERTEX
  8
0
 62
7
 10
9.01300000
 20
1.72100000
  0
VERTEX
  8
0
 62
7
 10
8.94535453
 20
1.94820640
  0
VERTEX
  8
0
 62
7
 10
8.90875530
 20
2.10889181
  0
VERTEX
  8
0
 62
7
 10
8.87669942
 20
2.27033458
  0
VERTEX
  8
0
 62
7
 10
8.83782852
 20
2.48996743
  0
VERTEX
  8
0
 62
7
 10
8.80198651
 20
2.70960028
  0
VERTEX
  8
0
 62
7
 10
8.74443738
 20
3.04485594
  0
VERTEX
  8
0
 62
7
 10
8.70316859
 20
3.24833189
  0
VERTEX
  8
0
 62
7
 10
8.65962813
 20
3.45180784
  0
SEQEND
  0
POLYLINE
  8
0
 62
7
 66
1
 70
1
  0
VERTEX
  8
0
 62
7
 10
9.60600000
 20
2.83800000
  0
VERTEX
  8
0
 62
7
 10
9.59900000
 20
2.82800000
  0
VERTEX
  8
0
 62
7
 10
9.54675000
 20
2.74837500
  0
VERTEX
  8
0
 62
7
 10
9.49600000
 20
2.66500000
  0
VERTEX
  8
0
 62
7
 10
9.49000000
 20
2.65400000
  0
VERTEX
  8
0
 62
7
 10
9.49000000
 20
3.94000000
  0
VERTEX
  8
0
 62
7
 10
9.60600000
 20
3.94000000
  0
VERTEX
  8
0
 62
7
 10
9.60600000
 20
2.83800000
  0
SEQEND
  0
POLYLINE
  8
0
 62
7
 66
1
 70
1
  0
VERTEX
  8
0
 62
7
 10
9.49000000
 20
1.35500000
  0
VERTEX
  8
0
 62
7
 10
9.54875000
 20
1.35650000
  0
VERTEX
  8
0
 62
7
 10
9.60600000
 20
1.36100000
  0
VERTEX
  8
0
 62
7
 10
9.60100000
 20
1.35000000
  0
VERTEX
  8
0
 62
7
 10
9.59800000
 20
1.34400000
  0
VERTEX
  8
0
 62
7
 10
9.58800000
 20
1.32500000
  0
VERTEX
  8
0
 62
7
 10
9.56075000
 20
1.26787500
  0
VERTEX
  8
0
 62
7
 10
9.53500000
 20
1.20700000
  0
VERTEX
  8
0
 62
7
 10
9.51100000
 20
1.14287500
  0
VERTEX
  8
0
 62
7
 10
9.49000000
 20
1.07500000
  0
VERTEX
  8
0
 62
7
 10
9.49000000
 20
1.35500000
  0
SEQEND
  0
POLYLINE
  8
0
 62
7
 66
1
 70
1
  0
VERTEX
  8
0
 62
7
 10
9.03300000
 20
3.45600000
  0
VERTEX
  8
0
 62
7
 10
9.03100000
 20
3.46000000
  0
VERTEX
  8
0
 62
7
 10
8.99500000
 20
3.52500000
  0
VERTEX
  8
0
 62
7
 10
8.96100000
 20
3.58600000
  0
VERTEX
  8
0
 62
7
 10
8.90700000
 20
3.70200000
  0
VERTEX
  8
0
 62
7
 10
8.90700000
 20
3.94000000
  0
VERTEX
  8
0
 62
7
 10
9.03300000
 20
3.94000000
  0
VERTEX
  8
0
 62
7
 10
9.03300000
 20
3.45600000
  0
SEQEND
  0
POLYLINE
  8
0
 62
7
 66
1
 70
1
  0
VERTEX
  8
0
 62
7
 10
.00000000
 20
.00000000
  0
VERTEX
  8
0
 62
7
 10
42.00000000
 20
.00000000
  0
VERTEX
  8
0
 62
7
 10
41.05333333
 20
17.05800000
  0
VERTEX
  8
0
 62
7
 10
41.04309896
 20
17.15559082
  0
VERTEX
  8
0
 62
7
 10
41.02370833
 20
17.25007031
  0
VERTEX
  8
0
 62
7
 10
40.99563021
 20
17.34099902
  0
VERTEX
  8
0
 62
7
 10
40.95933333
 20
17.42793750
  0
VERTEX
  8
0
 62
7
 10
40.91528646
 20
17.51044629
  0
VERTEX
  8
0
 62
7
 10
40.86395833
 20
17.58808594
  0
VERTEX
  8
0
 62
7
 10
40.80581771
 20
17.66041699
  0
VERTEX
  8
0
 62
7
 10
40.74133333
 20
17.72700000
  0
VERTEX
  8
0
 62
7
 10
40.67097396
 20
17.78739551
  0
VERTEX
  8
0
 62
7
 10
40.59520833
 20
17.84116406
  0
VERTEX
  8
0
 62
7
 10
40.51450521
 20
17.88786621
  0
VERTEX
  8
0
 62
7
 10
40.42933333
 20
17.92706250
  0
VERTEX
  8
0
 62
7
 10
40.34016146
 20
17.95831348
  0
VERTEX
  8
0
 62
7
 10
40.24745833
 20
17.98117969
  0
VERTEX
  8
0
 62
7
 10
40.15169271
 20
17.99522168
  0
VERTEX
  8
0
 62
7
 10
40.05333333
 20
18.00000000
  0
VERTEX
  8
0
 62
7
 10
1.94666667
 20
18.00000000
  0
VERTEX
  8
0
 62
7
 10
1.84830729
 20
17.99522168
  0
VERTEX
  8
0
 62
7
 10
1.75254167
 20
17.98117969
  0
VERTEX
  8
0
 62
7
 10
1.65983854
 20
17.95831348
  0
VERTEX
  8
0
 62
7
 10
1.57066667
 20
17.92706250
  0
VERTEX
  8
0
 62
7
 10
1.48549479
 20
17.88786621
  0
VERTEX
  8
0
 62
7
 10
1.40479167
 20
17.84116406
  0
VERTEX
  8
0
 62
7
 10
1.32902604
 20
17.78739551
  0
VERTEX
  8
0
 62
7
 10
1.25866667
 20
17.72700000
  0
VERTEX
  8
0
 62
7
 10
1.19418229
 20
17.66041699
  0
VERTEX
  8
0
 62
7
 10
1.13604167
 20
17.58808594
  0
VERTEX
  8
0
 62
7
 10
1.08471354
 20
17.51044629
  0
VERTEX
  8
0
 62
7
 10
1.04066667
 20
17.42793750
  0
VERTEX
  8
0
 62
7
 10
1.00436979
 20
17.34099902
  0
VERTEX
  8
0
 62
7
 10
.97629167
 20
17.25007031
  0
VERTEX
  8
0
 62
7
 10
.95690104
 20
17.15559082
  0
VERTEX
  8
0
 62
7
 10
.94666667
 20
17.05800000
  0
VERTEX
  8
0
 62
7
 10
.00000000
 20
.00000000
  0
SEQEND
  0
ENDSEC
  0
EOF
