  0
SECTION
  2
ENTITIES
  0
POLYLINE
  8
0
 62
7
 66
1
 70
1
  0
VERTEX
  8
0
 62
7
 10
.00000000
 20
.00000000
  0
VERTEX
  8
0
 62
7
 10
42.00000000
 20
.00000000
  0
VERTEX
  8
0
 62
7
 10
41.04392703
 20
15.29730325
  0
VERTEX
  8
0
 62
7
 10
41.03571439
 20
15.37020587
  0
VERTEX
  8
0
 62
7
 10
41.02075770
 20
15.44076087
  0
VERTEX
  8
0
 62
7
 10
40.99940154
 20
15.50864320
  0
VERTEX
  8
0
 62
7
 10
40.97199052
 20
15.57352779
  0
VERTEX
  8
0
 62
7
 10
40.93886920
 20
15.63508961
  0
VERTEX
  8
0
 62
7
 10
40.90038219
 20
15.69300358
  0
VERTEX
  8
0
 62
7
 10
40.85687405
 20
15.74694465
  0
VERTEX
  8
0
 62
7
 10
40.80868939
 20
15.79658778
  0
VERTEX
  8
0
 62
7
 10
40.75617278
 20
15.84160790
  0
VERTEX
  8
0
 62
7
 10
40.69966882
 20
15.88167997
  0
VERTEX
  8
0
 62
7
 10
40.63952209
 20
15.91647891
  0
VERTEX
  8
0
 62
7
 10
40.57607717
 20
15.94567969
  0
VERTEX
  8
0
 62
7
 10
40.50967866
 20
15.96895724
  0
VERTEX
  8
0
 62
7
 10
40.44067113
 20
15.98598652
  0
VERTEX
  8
0
 62
7
 10
40.36939918
 20
15.99644245
  0
VERTEX
  8
0
 62
7
 10
40.29620739
 20
16.00000000
  0
VERTEX
  8
0
 62
7
 10
1.70379261
 20
16.00000000
  0
VERTEX
  8
0
 62
7
 10
1.63060082
 20
15.99644245
  0
VERTEX
  8
0
 62
7
 10
1.55932887
 20
15.98598652
  0
VERTEX
  8
0
 62
7
 10
1.49032134
 20
15.96895724
  0
VERTEX
  8
0
 62
7
 10
1.42392283
 20
15.94567969
  0
VERTEX
  8
0
 62
7
 10
1.36047791
 20
15.91647891
  0
VERTEX
  8
0
 62
7
 10
1.30033118
 20
15.88167997
  0
VERTEX
  8
0
 62
7
 10
1.24382722
 20
15.84160790
  0
VERTEX
  8
0
 62
7
 10
1.19131061
 20
15.79658778
  0
VERTEX
  8
0
 62
7
 10
1.14312595
 20
15.74694465
  0
VERTEX
  8
0
 62
7
 10
1.09961781
 20
15.69300358
  0
VERTEX
  8
0
 62
7
 10
1.06113080
 20
15.63508961
  0
VERTEX
  8
0
 62
7
 10
1.02800948
 20
15.57352779
  0
VERTEX
  8
0
 62
7
 10
1.00059846
 20
15.50864320
  0
VERTEX
  8
0
 62
7
 10
.97924230
 20
15.44076087
  0
VERTEX
  8
0
 62
7
 10
.96428561
 20
15.37020587
  0
VERTEX
  8
0
 62
7
 10
.95607297
 20
15.29730325
  0
VERTEX
  8
0
 62
7
 10
.00000000
 20
.00000000
  0
SEQEND
  0
POLYLINE
  8
0
 62
7
 66
1
 70
1
  0
VERTEX
  8
0
 62
7
 10
35.90400000
 20
10.05100000
  0
VERTEX
  8
0
 62
7
 10
35.92400000
 20
10.05700000
  0
VERTEX
  8
0
 62
7
 10
35.95000000
 20
10.06037500
  0
VERTEX
  8
0
 62
7
 10
35.97600000
 20
10.05700000
  0
VERTEX
  8
0
 62
7
 10
35.99185938
 20
10.05028125
  0
VERTEX
  8
0
 62
7
 10
36.00612500
 20
10.04075000
  0
VERTEX
  8
0
 62
7
 10
36.01832813
 20
10.02859375
  0
VERTEX
  8
0
 62
7
 10
36.02800000
 20
10.01400000
  0
VERTEX
  8
0
 62
7
 10
36.03498438
 20
9.99700000
  0
VERTEX
  8
0
 62
7
 10
36.03812500
 20
9.97925000
  0
VERTEX
  8
0
 62
7
 10
36.03770313
 20
9.96112500
  0
VERTEX
  8
0
 62
7
 10
36.03400000
 20
9.94300000
  0
VERTEX
  8
0
 62
7
 10
36.02362500
 20
9.92050000
  0
VERTEX
  8
0
 62
7
 10
36.00800000
 20
9.90100000
  0
VERTEX
  8
0
 62
7
 10
36.02829688
 20
9.89778125
  0
VERTEX
  8
0
 62
7
 10
36.04812500
 20
9.90000000
  0
VERTEX
  8
0
 62
7
 10
36.06664063
 20
9.90746875
  0
VERTEX
  8
0
 62
7
 10
36.08300000
 20
9.92000000
  0
VERTEX
  8
0
 62
7
 10
36.09234375
 20
9.93226562
  0
VERTEX
  8
0
 62
7
 10
36.09850000
 20
9.94612500
  0
VERTEX
  8
0
 62
7
 10
36.10240625
 20
9.96092188
  0
VERTEX
  8
0
 62
7
 10
36.10500000
 20
9.97600000
  0
VERTEX
  8
0
 62
7
 10
36.10695313
 20
10.00292188
  0
VERTEX
  8
0
 62
7
 10
36.10412500
 20
10.02937500
  0
VERTEX
  8
0
 62
7
 10
36.09698438
 20
10.05489063
  0
VERTEX
  8
0
 62
7
 10
36.08600000
 20
10.07900000
  0
VERTEX
  8
0
 62
7
 10
36.06487500
 20
10.10950000
  0
VERTEX
  8
0
 62
7
 10
36.03700000
 20
10.13400000
  0
VERTEX
  8
0
 62
7
 10
36.02206250
 20
10.14279688
  0
VERTEX
  8
0
 62
7
 10
36.00600000
 20
10.14962500
  0
VERTEX
  8
0
 62
7
 10
35.98918750
 20
10.15439063
  0
VERTEX
  8
0
 62
7
 10
35.97200000
 20
10.15700000
  0
VERTEX
  8
0
 62
7
 10
35.97446875
 20
10.19067188
  0
VERTEX
  8
0
 62
7
 10
35.97150000
 20
10.22387500
  0
VERTEX
  8
0
 62
7
 10
35.96328125
 20
10.25614063
  0
VERTEX
  8
0
 62
7
 10
35.95000000
 20
10.28700000
  0
VERTEX
  8
0
 62
7
 10
35.94268750
 20
10.30054688
  0
VERTEX
  8
0
 62
7
 10
35.93500000
 20
10.31362500
  0
VERTEX
  8
0
 62
7
 10
35.92581250
 20
10.32539063
  0
VERTEX
  8
0
 62
7
 10
35.91400000
 20
10.33500000
  0
VERTEX
  8
0
 62
7
 10
35.89910938
 20
10.34289063
  0
VERTEX
  8
0
 62
7
 10
35.88337500
 20
10.34862500
  0
VERTEX
  8
0
 62
7
 10
35.86745313
 20
10.35004688
  0
VERTEX
  8
0
 62
7
 10
35.85200000
 20
10.34500000
  0
VERTEX
  8
0
 62
7
 10
35.84100000
 20
10.33700000
  0
VERTEX
  8
0
 62
7
 10
35.83300000
 20
10.32600000
  0
VERTEX
  8
0
 62
7
 10
35.84787500
 20
10.30412500
  0
VERTEX
  8
0
 62
7
 10
35.85900000
 20
10.28000000
  0
VERTEX
  8
0
 62
7
 10
35.86478125
 20
10.26182813
  0
VERTEX
  8
0
 62
7
 10
35.86850000
 20
10.24337500
  0
VERTEX
  8
0
 62
7
 10
35.86996875
 20
10.22473438
  0
VERTEX
  8
0
 62
7
 10
35.86900000
 20
10.20600000
  0
VERTEX
  8
0
 62
7
 10
35.86596875
 20
10.18834375
  0
VERTEX
  8
0
 62
7
 10
35.86050000
 20
10.17125000
  0
VERTEX
  8
0
 62
7
 10
35.85353125
 20
10.15453125
  0
VERTEX
  8
0
 62
7
 10
35.84600000
 20
10.13800000
  0
VERTEX
  8
0
 62
7
 10
35.83600000
 20
10.12000000
  0
VERTEX
  8
0
 62
7
 10
35.90400000
 20
10.05100000
  0
SEQEND
  0
POLYLINE
  8
0
 62
7
 66
1
 70
1
  0
VERTEX
  8
0
 62
7
 10
34.79100000
 20
9.39200000
  0
VERTEX
  8
0
 62
7
 10
34.77600000
 20
9.39700000
  0
VERTEX
  8
0
 62
7
 10
34.70987500
 20
9.41525000
  0
VERTEX
  8
0
 62
7
 10
34.64300000
 20
9.42900000
  0
VERTEX
  8
0
 62
7
 10
34.61000977
 20
9.43392896
  0
VERTEX
  8
0
 62
7
 10
34.57646875
 20
9.43702539
  0
VERTEX
  8
0
 62
7
 10
34.54264648
 20
9.43819116
  0
VERTEX
  8
0
 62
7
 10
34.50881250
 20
9.43732813
  0
VERTEX
  8
0
 62
7
 10
34.47523633
 20
9.43433813
  0
VERTEX
  8
0
 62
7
 10
34.44218750
 20
9.42912305
  0
VERTEX
  8
0
 62
7
 10
34.40993555
 20
9.42158472
  0
VERTEX
  8
0
 62
7
 10
34.37875000
 20
9.41162500
  0
VERTEX
  8
0
 62
7
 10
34.34890039
 20
9.39914575
  0
VERTEX
  8
0
 62
7
 10
34.32065625
 20
9.38404883
  0
VERTEX
  8
0
 62
7
 10
34.29428711
 20
9.36623608
  0
VERTEX
  8
0
 62
7
 10
34.27006250
 20
9.34560938
  0
VERTEX
  8
0
 62
7
 10
34.24825195
 20
9.32207056
  0
VERTEX
  8
0
 62
7
 10
34.22912500
 20
9.29552148
  0
VERTEX
  8
0
 62
7
 10
34.21295117
 20
9.26586401
  0
VERTEX
  8
0
 62
7
 10
34.20000000
 20
9.23300000
  0
VERTEX
  8
0
 62
7
 10
34.19165625
 20
9.20506250
  0
VERTEX
  8
0
 62
7
 10
34.18500000
 20
9.17675000
  0
VERTEX
  8
0
 62
7
 10
34.18059375
 20
9.14806250
  0
VERTEX
  8
0
 62
7
 10
34.17900000
 20
9.11900000
  0
VERTEX
  8
0
 62
7
 10
34.18034375
 20
9.08082813
  0
VERTEX
  8
0
 62
7
 10
34.18600000
 20
9.04312500
  0
VERTEX
  8
0
 62
7
 10
34.19615625
 20
9.00635938
  0
VERTEX
  8
0
 62
7
 10
34.21100000
 20
8.97100000
  0
VERTEX
  8
0
 62
7
 10
34.23662500
 20
8.92837500
  0
VERTEX
  8
0
 62
7
 10
34.26900000
 20
8.89100000
  0
VERTEX
  8
0
 62
7
 10
34.28907813
 20
8.87318750
  0
VERTEX
  8
0
 62
7
 10
34.31037500
 20
8.85725000
  0
VERTEX
  8
0
 62
7
 10
34.33298438
 20
8.84318750
  0
VERTEX
  8
0
 62
7
 10
34.35700000
 20
8.83100000
  0
VERTEX
  8
0
 62
7
 10
34.39362500
 20
8.81775000
  0
VERTEX
  8
0
 62
7
 10
34.43100000
 20
8.80900000
  0
VERTEX
  8
0
 62
7
 10
34.45815625
 20
8.80545313
  0
VERTEX
  8
0
 62
7
 10
34.48550000
 20
8.80387500
  0
VERTEX
  8
0
 62
7
 10
34.51284375
 20
8.80435938
  0
VERTEX
  8
0
 62
7
 10
34.54000000
 20
8.80700000
  0
VERTEX
  8
0
 62
7
 10
34.56367383
 20
8.81041992
  0
VERTEX
  8
0
 62
7
 10
34.58726563
 20
8.81485937
  0
VERTEX
  8
0
 62
7
 10
34.61050586
 20
8.82058789
  0
VERTEX
  8
0
 62
7
 10
34.63312500
 20
8.82787500
  0
VERTEX
  8
0
 62
7
 10
34.65485352
 20
8.83699023
  0
VERTEX
  8
0
 62
7
 10
34.67542188
 20
8.84820313
  0
VERTEX
  8
0
 62
7
 10
34.69456055
 20
8.86178320
  0
VERTEX
  8
0
 62
7
 10
34.71200000
 20
8.87800000
  0
VERTEX
  8
0
 62
7
 10
34.73409375
 20
8.90414063
  0
VERTEX
  8
0
 62
7
 10
34.75225000
 20
8.93187500
  0
VERTEX
  8
0
 62
7
 10
34.76628125
 20
8.96167188
  0
VERTEX
  8
0
 62
7
 10
34.77600000
 20
8.99400000
  0
VERTEX
  8
0
 62
7
 10
34.78081445
 20
9.02049609
  0
VERTEX
  8
0
 62
7
 10
34.78376563
 20
9.04790625
  0
VERTEX
  8
0
 62
7
 10
34.78449023
 20
9.07573828
  0
VERTEX
  8
0
 62
7
 10
34.78262500
 20
9.10350000
  0
VERTEX
  8
0
 62
7
 10
34.77780664
 20
9.13069922
  0
VERTEX
  8
0
 62
7
 10
34.76967188
 20
9.15684375
  0
VERTEX
  8
0
 62
7
 10
34.75785742
 20
9.18144141
  0
VERTEX
  8
0
 62
7
 10
34.74200000
 20
9.20400000
  0
VERTEX
  8
0
 62
7
 10
34.72104688
 20
9.22596875
  0
VERTEX
  8
0
 62
7
 10
34.69662500
 20
9.24550000
  0
VERTEX
  8
0
 62
7
 10
34.67014063
 20
9.26053125
  0
VERTEX
  8
0
 62
7
 10
34.64300000
 20
9.26900000
  0
VERTEX
  8
0
 62
7
 10
34.61979688
 20
9.27165625
  0
VERTEX
  8
0
 62
7
 10
34.59612500
 20
9.27075000
  0
VERTEX
  8
0
 62
7
 10
34.57339063
 20
9.26421875
  0
VERTEX
  8
0
 62
7
 10
34.55300000
 20
9.25000000
  0
VERTEX
  8
0
 62
7
 10
34.54165625
 20
9.23684375
  0
VERTEX
  8
0
 62
7
 10
34.53350000
 20
9.22275000
  0
VERTEX
  8
0
 62
7
 10
34.52909375
 20
9.20753125
  0
VERTEX
  8
0
 62
7
 10
34.52900000
 20
9.19100000
  0
VERTEX
  8
0
 62
7
 10
34.55512500
 20
9.19900000
  0
VERTEX
  8
0
 62
7
 10
34.58200000
 20
9.20100000
  0
VERTEX
  8
0
 62
7
 10
34.59992188
 20
9.19907813
  0
VERTEX
  8
0
 62
7
 10
34.61737500
 20
9.19462500
  0
VERTEX
  8
0
 62
7
 10
34.63389063
 20
9.18735938
  0
VERTEX
  8
0
 62
7
 10
34.64900000
 20
9.17700000
  0
VERTEX
  8
0
 62
7
 10
34.66092188
 20
9.16381250
  0
VERTEX
  8
0
 62
7
 10
34.67012500
 20
9.14875000
  0
VERTEX
  8
0
 62
7
 10
34.67726563
 20
9.13256250
  0
VERTEX
  8
0
 62
7
 10
34.68300000
 20
9.11600000
  0
VERTEX
  8
0
 62
7
 10
34.68937500
 20
9.08087500
  0
VERTEX
  8
0
 62
7
 10
34.68900000
 20
9.04500000
  0
VERTEX
  8
0
 62
7
 10
34.68720313
 20
9.02779688
  0
VERTEX
  8
0
 62
7
 10
34.68437500
 20
9.01087500
  0
VERTEX
  8
0
 62
7
 10
34.67985938
 20
8.99451563
  0
VERTEX
  8
0
 62
7
 10
34.67300000
 20
8.97900000
  0
VERTEX
  8
0
 62
7
 10
34.65200000
 20
8.94987500
  0
VERTEX
  8
0
 62
7
 10
34.62500000
 20
8.92600000
  0
VERTEX
  8
0
 62
7
 10
34.59200000
 20
8.90662500
  0
VERTEX
  8
0
 62
7
 10
34.55600000
 20
8.89400000
  0
VERTEX
  8
0
 62
7
 10
34.53242188
 20
8.88931250
  0
VERTEX
  8
0
 62
7
 10
34.50837500
 20
8.88725000
  0
VERTEX
  8
0
 62
7
 10
34.48414063
 20
8.88781250
  0
VERTEX
  8
0
 62
7
 10
34.46000000
 20
8.89100000
  0
VERTEX
  8
0
 62
7
 10
34.43282813
 20
8.89821875
  0
VERTEX
  8
0
 62
7
 10
34.40687500
 20
8.90900000
  0
VERTEX
  8
0
 62
7
 10
34.38223438
 20
8.92278125
  0
VERTEX
  8
0
 62
7
 10
34.35900000
 20
8.93900000
  0
VERTEX
  8
0
 62
7
 10
34.33996875
 20
8.95492188
  0
VERTEX
  8
0
 62
7
 10
34.32225000
 20
8.97262500
  0
VERTEX
  8
0
 62
7
 10
34.30640625
 20
8.99201563
  0
VERTEX
  8
0
 62
7
 10
34.29300000
 20
9.01300000
  0
VERTEX
  8
0
 62
7
 10
34.27989063
 20
9.04087500
  0
VERTEX
  8
0
 62
7
 10
34.27062500
 20
9.07025000
  0
VERTEX
  8
0
 62
7
 10
34.26529688
 20
9.10075000
  0
VERTEX
  8
0
 62
7
 10
34.26400000
 20
9.13200000
  0
VERTEX
  8
0
 62
7
 10
34.26632813
 20
9.16131250
  0
VERTEX
  8
0
 62
7
 10
34.27212500
 20
9.19025000
  0
VERTEX
  8
0
 62
7
 10
34.28185938
 20
9.21806250
  0
VERTEX
  8
0
 62
7
 10
34.29600000
 20
9.24400000
  0
VERTEX
  8
0
 62
7
 10
34.31242188
 20
9.26503125
  0
VERTEX
  8
0
 62
7
 10
34.33137500
 20
9.28325000
  0
VERTEX
  8
0
 62
7
 10
34.35239063
 20
9.29884375
  0
VERTEX
  8
0
 62
7
 10
34.37500000
 20
9.31200000
  0
VERTEX
  8
0
 62
7
 10
34.40376563
 20
9.32423438
  0
VERTEX
  8
0
 62
7
 10
34.43412500
 20
9.33187500
  0
VERTEX
  8
0
 62
7
 10
34.46542188
 20
9.33632813
  0
VERTEX
  8
0
 62
7
 10
34.49700000
 20
9.33900000
  0
VERTEX
  8
0
 62
7
 10
34.52923438
 20
9.33967188
  0
VERTEX
  8
0
 62
7
 10
34.56137500
 20
9.33762500
  0
VERTEX
  8
0
 62
7
 10
34.59332813
 20
9.33351563
  0
VERTEX
  8
0
 62
7
 10
34.62500000
 20
9.32800000
  0
VERTEX
  8
0
 62
7
 10
34.68325000
 20
9.31312500
  0
VERTEX
  8
0
 62
7
 10
34.74000000
 20
9.29300000
  0
VERTEX
  8
0
 62
7
 10
34.74810938
 20
9.31915625
  0
VERTEX
  8
0
 62
7
 10
34.75912500
 20
9.34550000
  0
VERTEX
  8
0
 62
7
 10
34.77332813
 20
9.37034375
  0
VERTEX
  8
0
 62
7
 10
34.79100000
 20
9.39200000
  0
SEQEND
  0
POLYLINE
  8
0
 62
7
 66
1
  0
VERTEX
  8
0
 62
7
 10
34.03300000
 20
11.51800000
  0
VERTEX
  8
0
 62
7
 10
34.12150000
 20
11.43326563
  0
VERTEX
  8
0
 62
7
 10
34.20700000
 20
11.34562500
  0
VERTEX
  8
0
 62
7
 10
34.28950000
 20
11.25517188
  0
VERTEX
  8
0
 62
7
 10
34.36900000
 20
11.16200000
  0
VERTEX
  8
0
 62
7
 10
34.46004688
 20
11.04568750
  0
VERTEX
  8
0
 62
7
 10
34.54687500
 20
10.92675000
  0
VERTEX
  8
0
 62
7
 10
34.63126563
 20
10.80593750
  0
VERTEX
  8
0
 62
7
 10
34.71500000
 20
10.68400000
  0
VERTEX
  8
0
 62
7
 10
34.86950000
 20
10.44612500
  0
VERTEX
  8
0
 62
7
 10
35.02100000
 20
10.20600000
  0
VERTEX
  8
0
 62
7
 10
35.13668750
 20
10.01870313
  0
VERTEX
  8
0
 62
7
 10
35.24825000
 20
9.82887500
  0
VERTEX
  8
0
 62
7
 10
35.35568750
 20
9.63660938
  0
VERTEX
  8
0
 62
7
 10
35.45900000
 20
9.44200000
  0
SEQEND
  0
POLYLINE
  8
0
 62
7
 66
1
 70
1
  0
VERTEX
  8
0
 62
7
 10
36.59000000
 20
10.46100000
  0
VERTEX
  8
0
 62
7
 10
36.61500000
 20
10.48700000
  0
VERTEX
  8
0
 62
7
 10
36.61700000
 20
10.48800000
  0
VERTEX
  8
0
 62
7
 10
36.59000000
 20
10.51600000
  0
VERTEX
  8
0
 62
7
 10
36.57662500
 20
10.54325000
  0
VERTEX
  8
0
 62
7
 10
36.57000000
 20
10.56300000
  0
VERTEX
  8
0
 62
7
 10
36.56700000
 20
10.57200000
  0
VERTEX
  8
0
 62
7
 10
36.56100000
 20
10.59300000
  0
VERTEX
  8
0
 62
7
 10
36.55400000
 20
10.61500000
  0
VERTEX
  8
0
 62
7
 10
36.55200000
 20
10.61900000
  0
VERTEX
  8
0
 62
7
 10
36.54100000
 20
10.64200000
  0
VERTEX
  8
0
 62
7
 10
36.53400000
 20
10.65100000
  0
VERTEX
  8
0
 62
7
 10
36.52900000
 20
10.65300000
  0
VERTEX
  8
0
 62
7
 10
36.51512500
 20
10.65887500
  0
VERTEX
  8
0
 62
7
 10
36.49600000
 20
10.67000000
  0
VERTEX
  8
0
 62
7
 10
36.48068750
 20
10.68351563
  0
VERTEX
  8
0
 62
7
 10
36.46650000
 20
10.69862500
  0
VERTEX
  8
0
 62
7
 10
36.45381250
 20
10.71542188
  0
VERTEX
  8
0
 62
7
 10
36.44300000
 20
10.73400000
  0
VERTEX
  8
0
 62
7
 10
36.43385938
 20
10.75789063
  0
VERTEX
  8
0
 62
7
 10
36.42837500
 20
10.78112500
  0
VERTEX
  8
0
 62
7
 10
36.42570313
 20
10.80304688
  0
VERTEX
  8
0
 62
7
 10
36.42500000
 20
10.82300000
  0
VERTEX
  8
0
 62
7
 10
36.42600000
 20
10.84600000
  0
VERTEX
  8
0
 62
7
 10
36.42700000
 20
10.85700000
  0
VERTEX
  8
0
 62
7
 10
36.42700000
 20
10.87000000
  0
VERTEX
  8
0
 62
7
 10
36.42700000
 20
10.87300000
  0
VERTEX
  8
0
 62
7
 10
36.41900000
 20
10.87900000
  0
VERTEX
  8
0
 62
7
 10
36.41000000
 20
10.88600000
  0
VERTEX
  8
0
 62
7
 10
36.40900000
 20
10.88700000
  0
VERTEX
  8
0
 62
7
 10
36.40075000
 20
10.86237500
  0
VERTEX
  8
0
 62
7
 10
36.38800000
 20
10.84000000
  0
VERTEX
  8
0
 62
7
 10
36.37670313
 20
10.82743750
  0
VERTEX
  8
0
 62
7
 10
36.36137500
 20
10.81450000
  0
VERTEX
  8
0
 62
7
 10
36.34285938
 20
10.80231250
  0
VERTEX
  8
0
 62
7
 10
36.32200000
 20
10.79200000
  0
VERTEX
  8
0
 62
7
 10
36.32700000
 20
10.78500000
  0
VERTEX
  8
0
 62
7
 10
36.34100000
 20
10.76100000
  0
VERTEX
  8
0
 62
7
 10
36.35200000
 20
10.73800000
  0
VERTEX
  8
0
 62
7
 10
36.38200000
 20
10.72200000
  0
VERTEX
  8
0
 62
7
 10
36.42075000
 20
10.69562500
  0
VERTEX
  8
0
 62
7
 10
36.45500000
 20
10.66100000
  0
VERTEX
  8
0
 62
7
 10
36.47918750
 20
10.62528125
  0
VERTEX
  8
0
 62
7
 10
36.49775000
 20
10.58750000
  0
VERTEX
  8
0
 62
7
 10
36.51068750
 20
10.54821875
  0
VERTEX
  8
0
 62
7
 10
36.51800000
 20
10.50800000
  0
VERTEX
  8
0
 62
7
 10
36.53500000
 20
10.50000000
  0
VERTEX
  8
0
 62
7
 10
36.56400000
 20
10.48237500
  0
VERTEX
  8
0
 62
7
 10
36.59000000
 20
10.46100000
  0
SEQEND
  0
POLYLINE
  8
0
 62
7
 66
1
 70
1
  0
VERTEX
  8
0
 62
7
 10
36.40800000
 20
10.62400000
  0
VERTEX
  8
0
 62
7
 10
36.38275000
 20
10.64962500
  0
VERTEX
  8
0
 62
7
 10
36.35300000
 20
10.67000000
  0
VERTEX
  8
0
 62
7
 10
36.34196875
 20
10.67604688
  0
VERTEX
  8
0
 62
7
 10
36.33000000
 20
10.68237500
  0
VERTEX
  8
0
 62
7
 10
36.31953125
 20
10.68701563
  0
VERTEX
  8
0
 62
7
 10
36.31300000
 20
10.68800000
  0
VERTEX
  8
0
 62
7
 10
36.28056250
 20
10.67791211
  0
VERTEX
  8
0
 62
7
 10
36.25131250
 20
10.66635938
  0
VERTEX
  8
0
 62
7
 10
36.22496875
 20
10.65328320
  0
VERTEX
  8
0
 62
7
 10
36.20125000
 20
10.63862500
  0
VERTEX
  8
0
 62
7
 10
36.17987500
 20
10.62232617
  0
VERTEX
  8
0
 62
7
 10
36.16056250
 20
10.60432813
  0
VERTEX
  8
0
 62
7
 10
36.14303125
 20
10.58457227
  0
VERTEX
  8
0
 62
7
 10
36.12700000
 20
10.56300000
  0
VERTEX
  8
0
 62
7
 10
36.09784375
 20
10.51418750
  0
VERTEX
  8
0
 62
7
 10
36.07750000
 20
10.46575000
  0
VERTEX
  8
0
 62
7
 10
36.06540625
 20
10.41618750
  0
VERTEX
  8
0
 62
7
 10
36.06100000
 20
10.36400000
  0
VERTEX
  8
0
 62
7
 10
36.05945313
 20
10.35250000
  0
VERTEX
  8
0
 62
7
 10
36.05612500
 20
10.34475000
  0
VERTEX
  8
0
 62
7
 10
36.05073438
 20
10.34037500
  0
VERTEX
  8
0
 62
7
 10
36.04300000
 20
10.33900000
  0
VERTEX
  8
0
 62
7
 10
36.03568750
 20
10.34067188
  0
VERTEX
  8
0
 62
7
 10
36.03025000
 20
10.34562500
  0
VERTEX
  8
0
 62
7
 10
36.02668750
 20
10.35376563
  0
VERTEX
  8
0
 62
7
 10
36.02500000
 20
10.36500000
  0
VERTEX
  8
0
 62
7
 10
36.02395313
 20
10.39476367
  0
VERTEX
  8
0
 62
7
 10
36.02468750
 20
10.42404688
  0
VERTEX
  8
0
 62
7
 10
36.02739063
 20
10.45283789
  0
VERTEX
  8
0
 62
7
 10
36.03225000
 20
10.48112500
  0
VERTEX
  8
0
 62
7
 10
36.03945313
 20
10.50889648
  0
VERTEX
  8
0
 62
7
 10
36.04918750
 20
10.53614063
  0
VERTEX
  8
0
 62
7
 10
36.06164063
 20
10.56284570
  0
VERTEX
  8
0
 62
7
 10
36.07700000
 20
10.58900000
  0
VERTEX
  8
0
 62
7
 10
36.09619531
 20
10.61668164
  0
VERTEX
  8
0
 62
7
 10
36.11656250
 20
10.64132813
  0
VERTEX
  8
0
 62
7
 10
36.13852344
 20
10.66309180
  0
VERTEX
  8
0
 62
7
 10
36.16250000
 20
10.68212500
  0
VERTEX
  8
0
 62
7
 10
36.18891406
 20
10.69858008
  0
VERTEX
  8
0
 62
7
 10
36.21818750
 20
10.71260938
  0
VERTEX
  8
0
 62
7
 10
36.25074219
 20
10.72436523
  0
VERTEX
  8
0
 62
7
 10
36.28700000
 20
10.73400000
  0
VERTEX
  8
0
 62
7
 10
36.27700000
 20
10.75200000
  0
VERTEX
  8
0
 62
7
 10
36.26465625
 20
10.76860938
  0
VERTEX
  8
0
 62
7
 10
36.25025000
 20
10.78362500
  0
VERTEX
  8
0
 62
7
 10
36.23396875
 20
10.79657813
  0
VERTEX
  8
0
 62
7
 10
36.21600000
 20
10.80700000
  0
VERTEX
  8
0
 62
7
 10
36.19975000
 20
10.81325000
  0
VERTEX
  8
0
 62
7
 10
36.18275000
 20
10.81725000
  0
VERTEX
  8
0
 62
7
 10
36.16537500
 20
10.81937500
  0
VERTEX
  8
0
 62
7
 10
36.14800000
 20
10.82000000
  0
VERTEX
  8
0
 62
7
 10
36.12275000
 20
10.81837500
  0
VERTEX
  8
0
 62
7
 10
36.09750000
 20
10.81375000
  0
VERTEX
  8
0
 62
7
 10
36.07375000
 20
10.80650000
  0
VERTEX
  8
0
 62
7
 10
36.05300000
 20
10.79700000
  0
VERTEX
  8
0
 62
7
 10
36.02175000
 20
10.77687500
  0
VERTEX
  8
0
 62
7
 10
35.98900000
 20
10.74400000
  0
VERTEX
  8
0
 62
7
 10
35.97031250
 20
10.72167188
  0
VERTEX
  8
0
 62
7
 10
35.95350000
 20
10.69812500
  0
VERTEX
  8
0
 62
7
 10
35.93893750
 20
10.67326563
  0
VERTEX
  8
0
 62
7
 10
35.92700000
 20
10.64700000
  0
VERTEX
  8
0
 62
7
 10
35.91718750
 20
10.61275000
  0
VERTEX
  8
0
 62
7
 10
35.91225000
 20
10.57775000
  0
VERTEX
  8
0
 62
7
 10
35.91068750
 20
10.54237500
  0
VERTEX
  8
0
 62
7
 10
35.91100000
 20
10.50700000
  0
VERTEX
  8
0
 62
7
 10
35.91270313
 20
10.47418750
  0
VERTEX
  8
0
 62
7
 10
35.91637500
 20
10.44175000
  0
VERTEX
  8
0
 62
7
 10
35.92210938
 20
10.40968750
  0
VERTEX
  8
0
 62
7
 10
35.93000000
 20
10.37800000
  0
VERTEX
  8
0
 62
7
 10
35.94023438
 20
10.34610938
  0
VERTEX
  8
0
 62
7
 10
35.95262500
 20
10.31487500
  0
VERTEX
  8
0
 62
7
 10
35.96670313
 20
10.28420313
  0
VERTEX
  8
0
 62
7
 10
35.98200000
 20
10.25400000
  0
VERTEX
  8
0
 62
7
 10
35.99803125
 20
10.22575000
  0
VERTEX
  8
0
 62
7
 10
36.01500000
 20
10.19825000
  0
VERTEX
  8
0
 62
7
 10
36.03346875
 20
10.17187500
  0
VERTEX
  8
0
 62
7
 10
36.05400000
 20
10.14700000
  0
VERTEX
  8
0
 62
7
 10
36.08912500
 20
10.11275000
  0
VERTEX
  8
0
 62
7
 10
36.12800000
 20
10.08300000
  0
VERTEX
  8
0
 62
7
 10
36.16437500
 20
10.06125000
  0
VERTEX
  8
0
 62
7
 10
36.20300000
 20
10.04400000
  0
VERTEX
  8
0
 62
7
 10
36.22960938
 20
10.03539063
  0
VERTEX
  8
0
 62
7
 10
36.25687500
 20
10.02912500
  0
VERTEX
  8
0
 62
7
 10
36.28470313
 20
10.02529688
  0
VERTEX
  8
0
 62
7
 10
36.31300000
 20
10.02400000
  0
VERTEX
  8
0
 62
7
 10
36.33965625
 20
10.02543750
  0
VERTEX
  8
0
 62
7
 10
36.36575000
 20
10.02950000
  0
VERTEX
  8
0
 62
7
 10
36.39146875
 20
10.03581250
  0
VERTEX
  8
0
 62
7
 10
36.41700000
 20
10.04400000
  0
VERTEX
  8
0
 62
7
 10
36.46550000
 20
10.06500000
  0
VERTEX
  8
0
 62
7
 10
36.51100000
 20
10.09200000
  0
VERTEX
  8
0
 62
7
 10
36.53162500
 20
10.10750000
  0
VERTEX
  8
0
 62
7
 10
36.54700000
 20
10.12900000
  0
VERTEX
  8
0
 62
7
 10
36.55867188
 20
10.14695313
  0
VERTEX
  8
0
 62
7
 10
36.56837500
 20
10.16612500
  0
VERTEX
  8
0
 62
7
 10
36.57639063
 20
10.18623438
  0
VERTEX
  8
0
 62
7
 10
36.58300000
 20
10.20700000
  0
VERTEX
  8
0
 62
7
 10
36.58859375
 20
10.23265625
  0
VERTEX
  8
0
 62
7
 10
36.59175000
 20
10.25850000
  0
VERTEX
  8
0
 62
7
 10
36.59228125
 20
10.28434375
  0
VERTEX
  8
0
 62
7
 10
36.59000000
 20
10.31000000
  0
VERTEX
  8
0
 62
7
 10
36.58545313
 20
10.33792188
  0
VERTEX
  8
0
 62
7
 10
36.57837500
 20
10.36537500
  0
VERTEX
  8
0
 62
7
 10
36.56735938
 20
10.39114063
  0
VERTEX
  8
0
 62
7
 10
36.55100000
 20
10.41400000
  0
VERTEX
  8
0
 62
7
 10
36.53100000
 20
10.43187500
  0
VERTEX
  8
0
 62
7
 10
36.50800000
 20
10.44600000
  0
VERTEX
  8
0
 62
7
 10
36.50800000
 20
10.43600000
  0
VERTEX
  8
0
 62
7
 10
36.50465625
 20
10.39206250
  0
VERTEX
  8
0
 62
7
 10
36.49475000
 20
10.34925000
  0
VERTEX
  8
0
 62
7
 10
36.47846875
 20
10.30831250
  0
VERTEX
  8
0
 62
7
 10
36.45600000
 20
10.27000000
  0
VERTEX
  8
0
 62
7
 10
36.44146289
 20
10.25152344
  0
VERTEX
  8
0
 62
7
 10
36.42501563
 20
10.23506250
  0
VERTEX
  8
0
 62
7
 10
36.40690430
 20
10.22057031
  0
VERTEX
  8
0
 62
7
 10
36.38737500
 20
10.20800000
  0
VERTEX
  8
0
 62
7
 10
36.36667383
 20
10.19730469
  0
VERTEX
  8
0
 62
7
 10
36.34504688
 20
10.18843750
  0
VERTEX
  8
0
 62
7
 10
36.32274023
 20
10.18135156
  0
VERTEX
  8
0
 62
7
 10
36.30000000
 20
10.17600000
  0
VERTEX
  8
0
 62
7
 10
36.25204688
 20
10.16989063
  0
VERTEX
  8
0
 62
7
 10
36.20512500
 20
10.17062500
  0
VERTEX
  8
0
 62
7
 10
36.15839063
 20
10.17754688
  0
VERTEX
  8
0
 62
7
 10
36.11100000
 20
10.19000000
  0
VERTEX
  8
0
 62
7
 10
36.10042188
 20
10.19495313
  0
VERTEX
  8
0
 62
7
 10
36.09312500
 20
10.20187500
  0
VERTEX
  8
0
 62
7
 10
36.08976563
 20
10.21010938
  0
VERTEX
  8
0
 62
7
 10
36.09100000
 20
10.21900000
  0
VERTEX
  8
0
 62
7
 10
36.09423438
 20
10.22460938
  0
VERTEX
  8
0
 62
7
 10
36.09962500
 20
10.22787500
  0
VERTEX
  8
0
 62
7
 10
36.10745313
 20
10.22870313
  0
VERTEX
  8
0
 62
7
 10
36.11800000
 20
10.22700000
  0
VERTEX
  8
0
 62
7
 10
36.15957813
 20
10.21957813
  0
VERTEX
  8
0
 62
7
 10
36.20162500
 20
10.21787500
  0
VERTEX
  8
0
 62
7
 10
36.24385938
 20
10.22123438
  0
VERTEX
  8
0
 62
7
 10
36.28600000
 20
10.22900000
  0
VERTEX
  8
0
 62
7
 10
36.32223438
 20
10.24114063
  0
VERTEX
  8
0
 62
7
 10
36.35537500
 20
10.25937500
  0
VERTEX
  8
0
 62
7
 10
36.38457813
 20
10.28342188
  0
VERTEX
  8
0
 62
7
 10
36.40900000
 20
10.31300000
  0
VERTEX
  8
0
 62
7
 10
36.43028516
 20
10.34961914
  0
VERTEX
  8
0
 62
7
 10
36.44596875
 20
10.38845313
  0
VERTEX
  8
0
 62
7
 10
36.45579297
 20
10.42871680
  0
VERTEX
  8
0
 62
7
 10
36.45950000
 20
10.46962500
  0
VERTEX
  8
0
 62
7
 10
36.45683203
 20
10.51039258
  0
VERTEX
  8
0
 62
7
 10
36.44753125
 20
10.55023438
  0
VERTEX
  8
0
 62
7
 10
36.43133984
 20
10.58836523
  0
VERTEX
  8
0
 62
7
 10
36.40800000
 20
10.62400000
  0
SEQEND
  0
POLYLINE
  8
0
 62
7
 66
1
 70
1
  0
VERTEX
  8
0
 62
7
 10
36.41500000
 20
10.99300000
  0
VERTEX
  8
0
 62
7
 10
36.41675000
 20
10.97462500
  0
VERTEX
  8
0
 62
7
 10
36.42300000
 20
10.95700000
  0
VERTEX
  8
0
 62
7
 10
36.43387500
 20
10.94387500
  0
VERTEX
  8
0
 62
7
 10
36.44700000
 20
10.93300000
  0
VERTEX
  8
0
 62
7
 10
36.46500000
 20
10.91900000
  0
VERTEX
  8
0
 62
7
 10
36.48100000
 20
10.90100000
  0
VERTEX
  8
0
 62
7
 10
36.48475000
 20
10.89165625
  0
VERTEX
  8
0
 62
7
 10
36.48625000
 20
10.88175000
  0
VERTEX
  8
0
 62
7
 10
36.48662500
 20
10.87146875
  0
VERTEX
  8
0
 62
7
 10
36.48700000
 20
10.86100000
  0
VERTEX
  8
0
 62
7
 10
36.48500000
 20
10.82300000
  0
VERTEX
  8
0
 62
7
 10
36.48589063
 20
10.80712500
  0
VERTEX
  8
0
 62
7
 10
36.48762500
 20
10.79125000
  0
VERTEX
  8
0
 62
7
 10
36.49104688
 20
10.77575000
  0
VERTEX
  8
0
 62
7
 10
36.49700000
 20
10.76100000
  0
VERTEX
  8
0
 62
7
 10
36.51237500
 20
10.73725000
  0
VERTEX
  8
0
 62
7
 10
36.53300000
 20
10.71800000
  0
VERTEX
  8
0
 62
7
 10
36.57100000
 20
10.69800000
  0
VERTEX
  8
0
 62
7
 10
36.58900000
 20
10.67800000
  0
VERTEX
  8
0
 62
7
 10
36.60012500
 20
10.65875000
  0
VERTEX
  8
0
 62
7
 10
36.60900000
 20
10.63800000
  0
VERTEX
  8
0
 62
7
 10
36.62400000
 20
10.59200000
  0
VERTEX
  8
0
 62
7
 10
36.63050000
 20
10.57062500
  0
VERTEX
  8
0
 62
7
 10
36.64000000
 20
10.55000000
  0
VERTEX
  8
0
 62
7
 10
36.65850000
 20
10.53112500
  0
VERTEX
  8
0
 62
7
 10
36.68000000
 20
10.51600000
  0
VERTEX
  8
0
 62
7
 10
36.70387500
 20
10.49812500
  0
VERTEX
  8
0
 62
7
 10
36.73000000
 20
10.48400000
  0
VERTEX
  8
0
 62
7
 10
36.73825391
 20
10.48209180
  0
VERTEX
  8
0
 62
7
 10
36.74634375
 20
10.48223438
  0
VERTEX
  8
0
 62
7
 10
36.75401172
 20
10.48422852
  0
VERTEX
  8
0
 62
7
 10
36.76100000
 20
10.48787500
  0
VERTEX
  8
0
 62
7
 10
36.76705078
 20
10.49297461
  0
VERTEX
  8
0
 62
7
 10
36.77190625
 20
10.49932813
  0
VERTEX
  8
0
 62
7
 10
36.77530859
 20
10.50673633
  0
VERTEX
  8
0
 62
7
 10
36.77700000
 20
10.51500000
  0
VERTEX
  8
0
 62
7
 10
36.77681250
 20
10.53342188
  0
VERTEX
  8
0
 62
7
 10
36.77400000
 20
10.55137500
  0
VERTEX
  8
0
 62
7
 10
36.76968750
 20
10.56914063
  0
VERTEX
  8
0
 62
7
 10
36.76500000
 20
10.58700000
  0
VERTEX
  8
0
 62
7
 10
36.74900000
 20
10.63900000
  0
VERTEX
  8
0
 62
7
 10
36.74700000
 20
10.68300000
  0
VERTEX
  8
0
 62
7
 10
36.74500000
 20
10.73600000
  0
VERTEX
  8
0
 62
7
 10
36.74170313
 20
10.75410938
  0
VERTEX
  8
0
 62
7
 10
36.73737500
 20
10.77212500
  0
VERTEX
  8
0
 62
7
 10
36.73135938
 20
10.78957813
  0
VERTEX
  8
0
 62
7
 10
36.72300000
 20
10.80600000
  0
VERTEX
  8
0
 62
7
 10
36.69925000
 20
10.83525000
  0
VERTEX
  8
0
 62
7
 10
36.67100000
 20
10.86000000
  0
VERTEX
  8
0
 62
7
 10
36.60500000
 20
10.90200000
  0
VERTEX
  8
0
 62
7
 10
36.58200000
 20
10.91800000
  0
VERTEX
  8
0
 62
7
 10
36.57287500
 20
10.93325000
  0
VERTEX
  8
0
 62
7
 10
36.56600000
 20
10.95000000
  0
VERTEX
  8
0
 62
7
 10
36.54800000
 20
11.00000000
  0
VERTEX
  8
0
 62
7
 10
36.52900000
 20
11.02650000
  0
VERTEX
  8
0
 62
7
 10
36.50400000
 20
11.04700000
  0
VERTEX
  8
0
 62
7
 10
36.48840430
 20
11.05316992
  0
VERTEX
  8
0
 62
7
 10
36.47279688
 20
11.05473438
  0
VERTEX
  8
0
 62
7
 10
36.45782227
 20
11.05215039
  0
VERTEX
  8
0
 62
7
 10
36.44412500
 20
11.04587500
  0
VERTEX
  8
0
 62
7
 10
36.43234961
 20
11.03636523
  0
VERTEX
  8
0
 62
7
 10
36.42314063
 20
11.02407813
  0
VERTEX
  8
0
 62
7
 10
36.41714258
 20
11.00947070
  0
VERTEX
  8
0
 62
7
 10
36.41500000
 20
10.99300000
  0
SEQEND
  0
POLYLINE
  8
0
 62
7
 66
1
 70
1
  0
VERTEX
  8
0
 62
7
 10
33.24566554
 20
9.94400000
  0
VERTEX
  8
0
 62
7
 10
33.25857645
 20
9.93376562
  0
VERTEX
  8
0
 62
7
 10
33.27291723
 20
9.92587500
  0
VERTEX
  8
0
 62
7
 10
33.28843556
 20
9.92079688
  0
VERTEX
  8
0
 62
7
 10
33.30487910
 20
9.91900000
  0
VERTEX
  8
0
 62
7
 10
33.31994883
 20
9.91998438
  0
VERTEX
  8
0
 62
7
 10
33.33190650
 20
9.92312500
  0
VERTEX
  8
0
 62
7
 10
33.34134085
 20
9.92870313
  0
VERTEX
  8
0
 62
7
 10
33.34884068
 20
9.93700000
  0
VERTEX
  8
0
 62
7
 10
33.34973785
 20
9.94878125
  0
VERTEX
  8
0
 62
7
 10
33.35130791
 20
9.97725000
  0
VERTEX
  8
0
 62
7
 10
33.35186864
 20
10.01434375
  0
VERTEX
  8
0
 62
7
 10
33.34973785
 20
10.05200000
  0
VERTEX
  8
0
 62
7
 10
33.36751314
 20
10.02176563
  0
VERTEX
  8
0
 62
7
 10
33.38562486
 20
9.99312500
  0
VERTEX
  8
0
 62
7
 10
33.40171794
 20
9.97142188
  0
VERTEX
  8
0
 62
7
 10
33.41343729
 20
9.96200000
  0
VERTEX
  8
0
 62
7
 10
33.42566130
 20
9.96070313
  0
VERTEX
  8
0
 62
7
 10
33.43384802
 20
9.96362500
  0
VERTEX
  8
0
 62
7
 10
33.43967966
 20
9.96973438
  0
VERTEX
  8
0
 62
7
 10
33.44483842
 20
9.97800000
  0
VERTEX
  8
0
 62
7
 10
33.45968386
 20
10.00960938
  0
VERTEX
  8
0
 62
7
 10
33.47141723
 20
10.04862500
  0
VERTEX
  8
0
 62
7
 10
33.48130018
 20
10.09232813
  0
VERTEX
  8
0
 62
7
 10
33.49059435
 20
10.13800000
  0
VERTEX
  8
0
 62
7
 10
33.50109410
 20
10.09232813
  0
VERTEX
  8
0
 62
7
 10
33.51268729
 20
10.04862500
  0
VERTEX
  8
0
 62
7
 10
33.52579446
 20
10.00960938
  0
VERTEX
  8
0
 62
7
 10
33.54083616
 20
9.97800000
  0
VERTEX
  8
0
 62
7
 10
33.54613510
 20
9.96973438
  0
VERTEX
  8
0
 62
7
 10
33.55227514
 20
9.96362500
  0
VERTEX
  8
0
 62
7
 10
33.56077027
 20
9.96070313
  0
VERTEX
  8
0
 62
7
 10
33.57313446
 20
9.96200000
  0
VERTEX
  8
0
 62
7
 10
33.58446130
 20
9.97142188
  0
VERTEX
  8
0
 62
7
 10
33.60049831
 20
9.99312500
  0
VERTEX
  8
0
 62
7
 10
33.61855395
 20
10.02176563
  0
VERTEX
  8
0
 62
7
 10
33.63593672
 20
10.05200000
  0
VERTEX
  8
0
 62
7
 10
33.63380593
 20
10.01434375
  0
VERTEX
  8
0
 62
7
 10
33.63436667
 20
9.97725000
  0
VERTEX
  8
0
 62
7
 10
33.63593672
 20
9.94878125
  0
VERTEX
  8
0
 62
7
 10
33.63683390
 20
9.93700000
  0
VERTEX
  8
0
 62
7
 10
33.64445989
 20
9.92870313
  0
VERTEX
  8
0
 62
7
 10
33.65410452
 20
9.92312500
  0
VERTEX
  8
0
 62
7
 10
33.66610424
 20
9.91998438
  0
VERTEX
  8
0
 62
7
 10
33.68079548
 20
9.91900000
  0
VERTEX
  8
0
 62
7
 10
33.69938383
 20
9.92051563
  0
VERTEX
  8
0
 62
7
 10
33.71713107
 20
9.92512500
  0
VERTEX
  8
0
 62
7
 10
33.73353256
 20
9.93292188
  0
VERTEX
  8
0
 62
7
 10
33.74808362
 20
9.94400000
  0
VERTEX
  8
0
 62
7
 10
33.79159661
 20
9.99050000
  0
VERTEX
  8
0
 62
7
 10
33.82972655
 20
10.04300000
  0
VERTEX
  8
0
 62
7
 10
33.84307203
 20
10.06423438
  0
VERTEX
  8
0
 62
7
 10
33.85574463
 20
10.08612500
  0
VERTEX
  8
0
 62
7
 10
33.86707147
 20
10.10895313
  0
VERTEX
  8
0
 62
7
 10
33.87637966
 20
10.13300000
  0
VERTEX
  8
0
 62
7
 10
33.88582804
 20
10.16651563
  0
VERTEX
  8
0
 62
7
 10
33.89208023
 20
10.20087500
  0
VERTEX
  8
0
 62
7
 10
33.89429513
 20
10.23579688
  0
VERTEX
  8
0
 62
7
 10
33.89163164
 20
10.27100000
  0
VERTEX
  8
0
 62
7
 10
33.88623457
 20
10.29773438
  0
VERTEX
  8
0
 62
7
 10
33.87806186
 20
10.32362500
  0
VERTEX
  8
0
 62
7
 10
33.86702941
 20
10.34820313
  0
VERTEX
  8
0
 62
7
 10
33.85305311
 20
10.37100000
  0
VERTEX
  8
0
 62
7
 10
33.82613785
 20
10.40100000
  0
VERTEX
  8
0
 62
7
 10
33.81458672
 20
10.42175000
  0
VERTEX
  8
0
 62
7
 10
33.80640000
 20
10.44400000
  0
VERTEX
  8
0
 62
7
 10
33.78249869
 20
10.43275000
  0
VERTEX
  8
0
 62
7
 10
33.75716751
 20
10.42750000
  0
VERTEX
  8
0
 62
7
 10
33.73133167
 20
10.42825000
  0
VERTEX
  8
0
 62
7
 10
33.70591638
 20
10.43500000
  0
VERTEX
  8
0
 62
7
 10
33.68048708
 20
10.44871875
  0
VERTEX
  8
0
 62
7
 10
33.65859040
 20
10.46825000
  0
VERTEX
  8
0
 62
7
 10
33.64106744
 20
10.49265625
  0
VERTEX
  8
0
 62
7
 10
33.62875932
 20
10.52100000
  0
VERTEX
  8
0
 62
7
 10
33.61265222
 20
10.50845313
  0
VERTEX
  8
0
 62
7
 10
33.59545169
 20
10.49787500
  0
VERTEX
  8
0
 62
7
 10
33.57741006
 20
10.48935938
  0
VERTEX
  8
0
 62
7
 10
33.55877966
 20
10.48300000
  0
VERTEX
  8
0
 62
7
 10
33.52807945
 20
10.47681250
  0
VERTEX
  8
0
 62
7
 10
33.49687458
 20
10.47475000
  0
VERTEX
  8
0
 62
7
 10
33.46566970
 20
10.47681250
  0
VERTEX
  8
0
 62
7
 10
33.43496949
 20
10.48300000
  0
VERTEX
  8
0
 62
7
 10
33.41633909
 20
10.48935938
  0
VERTEX
  8
0
 62
7
 10
33.39829746
 20
10.49787500
  0
VERTEX
  8
0
 62
7
 10
33.38109693
 20
10.50845313
  0
VERTEX
  8
0
 62
7
 10
33.36498983
 20
10.52100000
  0
VERTEX
  8
0
 62
7
 10
33.35268171
 20
10.49265625
  0
VERTEX
  8
0
 62
7
 10
33.33515876
 20
10.46825000
  0
VERTEX
  8
0
 62
7
 10
33.31326208
 20
10.44871875
  0
VERTEX
  8
0
 62
7
 10
33.28783277
 20
10.43500000
  0
VERTEX
  8
0
 62
7
 10
33.26241748
 20
10.42825000
  0
VERTEX
  8
0
 62
7
 10
33.23658164
 20
10.42750000
  0
VERTEX
  8
0
 62
7
 10
33.21125046
 20
10.43275000
  0
VERTEX
  8
0
 62
7
 10
33.18734915
 20
10.44400000
  0
VERTEX
  8
0
 62
7
 10
33.17916243
 20
10.42175000
  0
VERTEX
  8
0
 62
7
 10
33.16761130
 20
10.40100000
  0
VERTEX
  8
0
 62
7
 10
33.14069605
 20
10.37100000
  0
VERTEX
  8
0
 62
7
 10
33.12671974
 20
10.34820313
  0
VERTEX
  8
0
 62
7
 10
33.11568729
 20
10.32362500
  0
VERTEX
  8
0
 62
7
 10
33.10751458
 20
10.29773438
  0
VERTEX
  8
0
 62
7
 10
33.10211751
 20
10.27100000
  0
VERTEX
  8
0
 62
7
 10
33.09945403
 20
10.23579688
  0
VERTEX
  8
0
 62
7
 10
33.10166893
 20
10.20087500
  0
VERTEX
  8
0
 62
7
 10
33.10792112
 20
10.16651563
  0
VERTEX
  8
0
 62
7
 10
33.11736949
 20
10.13300000
  0
VERTEX
  8
0
 62
7
 10
33.12667768
 20
10.10895313
  0
VERTEX
  8
0
 62
7
 10
33.13800452
 20
10.08612500
  0
VERTEX
  8
0
 62
7
 10
33.15067712
 20
10.06423438
  0
VERTEX
  8
0
 62
7
 10
33.16402260
 20
10.04300000
  0
VERTEX
  8
0
 62
7
 10
33.20215254
 20
9.99050000
  0
VERTEX
  8
0
 62
7
 10
33.24566554
 20
9.94400000
  0
SEQEND
  0
POLYLINE
  8
0
 62
7
 66
1
 70
1
  0
VERTEX
  8
0
 62
7
 10
33.79900000
 20
9.45500000
  0
VERTEX
  8
0
 62
7
 10
33.78735938
 20
9.44489062
  0
VERTEX
  8
0
 62
7
 10
33.78312500
 20
9.43112500
  0
VERTEX
  8
0
 62
7
 10
33.78507813
 20
9.41604687
  0
VERTEX
  8
0
 62
7
 10
33.79200000
 20
9.40200000
  0
VERTEX
  8
0
 62
7
 10
33.88900000
 20
9.27500000
  0
VERTEX
  8
0
 62
7
 10
33.90946875
 20
9.24820313
  0
VERTEX
  8
0
 62
7
 10
33.92975000
 20
9.22112500
  0
VERTEX
  8
0
 62
7
 10
33.95115625
 20
9.19498438
  0
VERTEX
  8
0
 62
7
 10
33.97500000
 20
9.17100000
  0
VERTEX
  8
0
 62
7
 10
33.99337500
 20
9.15487500
  0
VERTEX
  8
0
 62
7
 10
34.01400000
 20
9.14100000
  0
VERTEX
  8
0
 62
7
 10
34.03560938
 20
9.13184375
  0
VERTEX
  8
0
 62
7
 10
34.05562500
 20
9.12775000
  0
VERTEX
  8
0
 62
7
 10
34.07432813
 20
9.12778125
  0
VERTEX
  8
0
 62
7
 10
34.09200000
 20
9.13100000
  0
VERTEX
  8
0
 62
7
 10
34.10884375
 20
9.13751563
  0
VERTEX
  8
0
 62
7
 10
34.12475000
 20
9.14787500
  0
VERTEX
  8
0
 62
7
 10
34.13953125
 20
9.16179688
  0
VERTEX
  8
0
 62
7
 10
34.15300000
 20
9.17900000
  0
VERTEX
  8
0
 62
7
 10
34.16203125
 20
9.19567188
  0
VERTEX
  8
0
 62
7
 10
34.16975000
 20
9.21487500
  0
VERTEX
  8
0
 62
7
 10
34.17634375
 20
9.23314063
  0
VERTEX
  8
0
 62
7
 10
34.18200000
 20
9.24700000
  0
VERTEX
  8
0
 62
7
 10
34.19562500
 20
9.27535938
  0
VERTEX
  8
0
 62
7
 10
34.20925000
 20
9.30137500
  0
VERTEX
  8
0
 62
7
 10
34.22475000
 20
9.32645313
  0
VERTEX
  8
0
 62
7
 10
34.24400000
 20
9.35200000
  0
VERTEX
  8
0
 62
7
 10
34.25698438
 20
9.36776563
  0
VERTEX
  8
0
 62
7
 10
34.26987500
 20
9.38212500
  0
VERTEX
  8
0
 62
7
 10
34.28407813
 20
9.39517188
  0
VERTEX
  8
0
 62
7
 10
34.30100000
 20
9.40700000
  0
VERTEX
  8
0
 62
7
 10
34.28929688
 20
9.44414062
  0
VERTEX
  8
0
 62
7
 10
34.28237500
 20
9.47837500
  0
VERTEX
  8
0
 62
7
 10
34.27976563
 20
9.51317187
  0
VERTEX
  8
0
 62
7
 10
34.28100000
 20
9.55200000
  0
VERTEX
  8
0
 62
7
 10
34.28443750
 20
9.59064063
  0
VERTEX
  8
0
 62
7
 10
34.28975000
 20
9.62937500
  0
VERTEX
  8
0
 62
7
 10
34.29843750
 20
9.66717187
  0
VERTEX
  8
0
 62
7
 10
34.31200000
 20
9.70300000
  0
VERTEX
  8
0
 62
7
 10
34.28876367
 20
9.71596484
  0
VERTEX
  8
0
 62
7
 10
34.26785938
 20
9.73246875
  0
VERTEX
  8
0
 62
7
 10
34.24936914
 20
9.75155078
  0
VERTEX
  8
0
 62
7
 10
34.23337500
 20
9.77225000
  0
VERTEX
  8
0
 62
7
 10
34.21995898
 20
9.79360547
  0
VERTEX
  8
0
 62
7
 10
34.20920313
 20
9.81465625
  0
VERTEX
  8
0
 62
7
 10
34.20118945
 20
9.83444141
  0
VERTEX
  8
0
 62
7
 10
34.19600000
 20
9.85200000
  0
VERTEX
  8
0
 62
7
 10
34.19204102
 20
9.86964453
  0
VERTEX
  8
0
 62
7
 10
34.18870313
 20
9.88853125
  0
VERTEX
  8
0
 62
7
 10
34.18641992
 20
9.90821484
  0
VERTEX
  8
0
 62
7
 10
34.18562500
 20
9.92825000
  0
VERTEX
  8
0
 62
7
 10
34.18675195
 20
9.94819141
  0
VERTEX
  8
0
 62
7
 10
34.19023438
 20
9.96759375
  0
VERTEX
  8
0
 62
7
 10
34.19650586
 20
9.98601172
  0
VERTEX
  8
0
 62
7
 10
34.20600000
 20
10.00300000
  0
VERTEX
  8
0
 62
7
 10
34.18846875
 20
10.01262500
  0
VERTEX
  8
0
 62
7
 10
34.17675000
 20
10.02225000
  0
VERTEX
  8
0
 62
7
 10
34.16690625
 20
10.03450000
  0
VERTEX
  8
0
 62
7
 10
34.15500000
 20
10.05200000
  0
VERTEX
  8
0
 62
7
 10
34.13912500
 20
10.07400000
  0
VERTEX
  8
0
 62
7
 10
34.12100000
 20
10.09300000
  0
VERTEX
  8
0
 62
7
 10
34.09662500
 20
10.11037500
  0
VERTEX
  8
0
 62
7
 10
34.07000000
 20
10.12400000
  0
VERTEX
  8
0
 62
7
 10
34.04195313
 20
10.13053125
  0
VERTEX
  8
0
 62
7
 10
34.01362500
 20
10.13125000
  0
VERTEX
  8
0
 62
7
 10
33.98548438
 20
10.12709375
  0
VERTEX
  8
0
 62
7
 10
33.95800000
 20
10.11900000
  0
VERTEX
  8
0
 62
7
 10
33.93064063
 20
10.10528125
  0
VERTEX
  8
0
 62
7
 10
33.90637500
 20
10.08650000
  0
VERTEX
  8
0
 62
7
 10
33.88417188
 20
10.06471875
  0
VERTEX
  8
0
 62
7
 10
33.86300000
 20
10.04200000
  0
VERTEX
  8
0
 62
7
 10
33.84117188
 20
10.01528125
  0
VERTEX
  8
0
 62
7
 10
33.82187500
 20
9.98650000
  0
VERTEX
  8
0
 62
7
 10
33.80464063
 20
9.95621875
  0
VERTEX
  8
0
 62
7
 10
33.78900000
 20
9.92500000
  0
VERTEX
  8
0
 62
7
 10
33.77250000
 20
9.88837500
  0
VERTEX
  8
0
 62
7
 10
33.75900000
 20
9.85100000
  0
VERTEX
  8
0
 62
7
 10
33.75600000
 20
9.83300000
  0
VERTEX
  8
0
 62
7
 10
33.75875000
 20
9.81375000
  0
VERTEX
  8
0
 62
7
 10
33.76600000
 20
9.79600000
  0
VERTEX
  8
0
 62
7
 10
33.77962500
 20
9.78037500
  0
VERTEX
  8
0
 62
7
 10
33.79700000
 20
9.77000000
  0
VERTEX
  8
0
 62
7
 10
33.81695313
 20
9.76217188
  0
VERTEX
  8
0
 62
7
 10
33.83587500
 20
9.75912500
  0
VERTEX
  8
0
 62
7
 10
33.85985938
 20
9.76001562
  0
VERTEX
  8
0
 62
7
 10
33.89500000
 20
9.76400000
  0
VERTEX
  8
0
 62
7
 10
33.86556250
 20
9.73806250
  0
VERTEX
  8
0
 62
7
 10
33.84700000
 20
9.72000000
  0
VERTEX
  8
0
 62
7
 10
33.83593750
 20
9.70493750
  0
VERTEX
  8
0
 62
7
 10
33.82900000
 20
9.68800000
  0
VERTEX
  8
0
 62
7
 10
33.82475000
 20
9.67990625
  0
VERTEX
  8
0
 62
7
 10
33.82350000
 20
9.67050000
  0
VERTEX
  8
0
 62
7
 10
33.82450000
 20
9.66184375
  0
VERTEX
  8
0
 62
7
 10
33.82700000
 20
9.65600000
  0
VERTEX
  8
0
 62
7
 10
33.84403125
 20
9.64485937
  0
VERTEX
  8
0
 62
7
 10
33.87325000
 20
9.63362500
  0
VERTEX
  8
0
 62
7
 10
33.90659375
 20
9.62407813
  0
VERTEX
  8
0
 62
7
 10
33.93600000
 20
9.61800000
  0
VERTEX
  8
0
 62
7
 10
33.90682813
 20
9.60765625
  0
VERTEX
  8
0
 62
7
 10
33.87437500
 20
9.59225000
  0
VERTEX
  8
0
 62
7
 10
33.84698438
 20
9.57721875
  0
VERTEX
  8
0
 62
7
 10
33.83300000
 20
9.56800000
  0
VERTEX
  8
0
 62
7
 10
33.82717188
 20
9.55831250
  0
VERTEX
  8
0
 62
7
 10
33.82537500
 20
9.54825000
  0
VERTEX
  8
0
 62
7
 10
33.82639063
 20
9.53931250
  0
VERTEX
  8
0
 62
7
 10
33.82900000
 20
9.53300000
  0
VERTEX
  8
0
 62
7
 10
33.83931250
 20
9.51717188
  0
VERTEX
  8
0
 62
7
 10
33.85075000
 20
9.50237500
  0
VERTEX
  8
0
 62
7
 10
33.86781250
 20
9.48589063
  0
VERTEX
  8
0
 62
7
 10
33.89500000
 20
9.46500000
  0
VERTEX
  8
0
 62
7
 10
33.85806250
 20
9.46793750
  0
VERTEX
  8
0
 62
7
 10
33.83500000
 20
9.46750000
  0
VERTEX
  8
0
 62
7
 10
33.81793750
 20
9.46331250
  0
VERTEX
  8
0
 62
7
 10
33.79900000
 20
9.45500000
  0
SEQEND
  0
POLYLINE
  8
0
 62
7
 66
1
 70
1
  0
VERTEX
  8
0
 62
7
 10
33.74739691
 20
9.61481904
  0
VERTEX
  8
0
 62
7
 10
33.75622455
 20
9.66427801
  0
VERTEX
  8
0
 62
7
 10
33.77158222
 20
9.71156029
  0
VERTEX
  8
0
 62
7
 10
33.75365486
 20
9.72165766
  0
VERTEX
  8
0
 62
7
 10
33.73772278
 20
9.73429449
  0
VERTEX
  8
0
 62
7
 10
33.72396739
 20
9.74910799
  0
VERTEX
  8
0
 62
7
 10
33.71257006
 20
9.76573539
  0
VERTEX
  8
0
 62
7
 10
33.70226107
 20
9.78774403
  0
VERTEX
  8
0
 62
7
 10
33.69612404
 20
9.81120378
  0
VERTEX
  8
0
 62
7
 10
33.69434038
 20
9.83538910
  0
VERTEX
  8
0
 62
7
 10
33.69709146
 20
9.85957441
  0
VERTEX
  8
0
 62
7
 10
33.66723771
 20
9.85918140
  0
VERTEX
  8
0
 62
7
 10
33.63747466
 20
9.86223479
  0
VERTEX
  8
0
 62
7
 10
33.60825578
 20
9.86855321
  0
VERTEX
  8
0
 62
7
 10
33.58003454
 20
9.87795525
  0
VERTEX
  8
0
 62
7
 10
33.55593992
 20
9.88920142
  0
VERTEX
  8
0
 62
7
 10
33.53311503
 20
9.90262427
  0
VERTEX
  8
0
 62
7
 10
33.51174126
 20
9.91822379
  0
VERTEX
  8
0
 62
7
 10
33.49200000
 20
9.93600000
  0
VERTEX
  8
0
 62
7
 10
33.47225874
 20
9.91822379
  0
VERTEX
  8
0
 62
7
 10
33.45088497
 20
9.90262427
  0
VERTEX
  8
0
 62
7
 10
33.42806008
 20
9.88920142
  0
VERTEX
  8
0
 62
7
 10
33.40396546
 20
9.87795525
  0
VERTEX
  8
0
 62
7
 10
33.37574422
 20
9.86855321
  0
VERTEX
  8
0
 62
7
 10
33.34652534
 20
9.86223479
  0
VERTEX
  8
0
 62
7
 10
33.31676229
 20
9.85918140
  0
VERTEX
  8
0
 62
7
 10
33.28690854
 20
9.85957441
  0
VERTEX
  8
0
 62
7
 10
33.28965962
 20
9.83538910
  0
VERTEX
  8
0
 62
7
 10
33.28787596
 20
9.81120378
  0
VERTEX
  8
0
 62
7
 10
33.28173893
 20
9.78774403
  0
VERTEX
  8
0
 62
7
 10
33.27142994
 20
9.76573539
  0
VERTEX
  8
0
 62
7
 10
33.26003261
 20
9.74910799
  0
VERTEX
  8
0
 62
7
 10
33.24627722
 20
9.73429449
  0
VERTEX
  8
0
 62
7
 10
33.23034514
 20
9.72165766
  0
VERTEX
  8
0
 62
7
 10
33.21241778
 20
9.71156029
  0
VERTEX
  8
0
 62
7
 10
33.22156285
 20
9.68841797
  0
VERTEX
  8
0
 62
7
 10
33.22971028
 20
9.66427801
  0
VERTEX
  8
0
 62
7
 10
33.23622520
 20
9.63959387
  0
VERTEX
  8
0
 62
7
 10
33.24047274
 20
9.61481904
  0
VERTEX
  8
0
 62
7
 10
33.22971028
 20
9.56100672
  0
VERTEX
  8
0
 62
7
 10
33.21241778
 20
9.50937107
  0
VERTEX
  8
0
 62
7
 10
33.23034514
 20
9.49927371
  0
VERTEX
  8
0
 62
7
 10
33.24627722
 20
9.48663688
  0
VERTEX
  8
0
 62
7
 10
33.26003261
 20
9.47182337
  0
VERTEX
  8
0
 62
7
 10
33.27142994
 20
9.45519597
  0
VERTEX
  8
0
 62
7
 10
33.28173893
 20
9.43318734
  0
VERTEX
  8
0
 62
7
 10
33.28787596
 20
9.40972758
  0
VERTEX
  8
0
 62
7
 10
33.28965962
 20
9.38554227
  0
VERTEX
  8
0
 62
7
 10
33.28690854
 20
9.36135696
  0
VERTEX
  8
0
 62
7
 10
33.31676229
 20
9.36174997
  0
VERTEX
  8
0
 62
7
 10
33.34652534
 20
9.35869657
  0
VERTEX
  8
0
 62
7
 10
33.37574422
 20
9.35237816
  0
VERTEX
  8
0
 62
7
 10
33.40396546
 20
9.34297612
  0
VERTEX
  8
0
 62
7
 10
33.42806008
 20
9.33172995
  0
VERTEX
  8
0
 62
7
 10
33.45088497
 20
9.31830710
  0
VERTEX
  8
0
 62
7
 10
33.47225874
 20
9.30270757
  0
VERTEX
  8
0
 62
7
 10
33.49200000
 20
9.28493137
  0
VERTEX
  8
0
 62
7
 10
33.51174126
 20
9.30270757
  0
VERTEX
  8
0
 62
7
 10
33.53311503
 20
9.31830710
  0
VERTEX
  8
0
 62
7
 10
33.55593992
 20
9.33172995
  0
VERTEX
  8
0
 62
7
 10
33.58003454
 20
9.34297612
  0
VERTEX
  8
0
 62
7
 10
33.60825578
 20
9.35237816
  0
VERTEX
  8
0
 62
7
 10
33.63747466
 20
9.35869657
  0
VERTEX
  8
0
 62
7
 10
33.66723771
 20
9.36174997
  0
VERTEX
  8
0
 62
7
 10
33.69709146
 20
9.36135696
  0
VERTEX
  8
0
 62
7
 10
33.69434038
 20
9.38554227
  0
VERTEX
  8
0
 62
7
 10
33.69612404
 20
9.40972758
  0
VERTEX
  8
0
 62
7
 10
33.70226107
 20
9.43318734
  0
VERTEX
  8
0
 62
7
 10
33.71257006
 20
9.45519597
  0
VERTEX
  8
0
 62
7
 10
33.72396739
 20
9.47182337
  0
VERTEX
  8
0
 62
7
 10
33.73772278
 20
9.48663688
  0
VERTEX
  8
0
 62
7
 10
33.75365486
 20
9.49927371
  0
VERTEX
  8
0
 62
7
 10
33.77158222
 20
9.50937107
  0
VERTEX
  8
0
 62
7
 10
33.76304178
 20
9.53387382
  0
VERTEX
  8
0
 62
7
 10
33.75622455
 20
9.56100672
  0
VERTEX
  8
0
 62
7
 10
33.75103982
 20
9.58868379
  0
VERTEX
  8
0
 62
7
 10
33.74739691
 20
9.61481904
  0
SEQEND
  0
POLYLINE
  8
0
 62
7
 66
1
 70
1
  0
VERTEX
  8
0
 62
7
 10
33.18700000
 20
9.45500000
  0
VERTEX
  8
0
 62
7
 10
33.16806250
 20
9.46331250
  0
VERTEX
  8
0
 62
7
 10
33.15100000
 20
9.46750000
  0
VERTEX
  8
0
 62
7
 10
33.12793750
 20
9.46793750
  0
VERTEX
  8
0
 62
7
 10
33.09100000
 20
9.46500000
  0
VERTEX
  8
0
 62
7
 10
33.11818750
 20
9.48589063
  0
VERTEX
  8
0
 62
7
 10
33.13525000
 20
9.50237500
  0
VERTEX
  8
0
 62
7
 10
33.14668750
 20
9.51717188
  0
VERTEX
  8
0
 62
7
 10
33.15700000
 20
9.53300000
  0
VERTEX
  8
0
 62
7
 10
33.15960938
 20
9.53931250
  0
VERTEX
  8
0
 62
7
 10
33.16062500
 20
9.54825000
  0
VERTEX
  8
0
 62
7
 10
33.15882813
 20
9.55831250
  0
VERTEX
  8
0
 62
7
 10
33.15300000
 20
9.56800000
  0
VERTEX
  8
0
 62
7
 10
33.13901563
 20
9.57721875
  0
VERTEX
  8
0
 62
7
 10
33.11162500
 20
9.59225000
  0
VERTEX
  8
0
 62
7
 10
33.07917188
 20
9.60765625
  0
VERTEX
  8
0
 62
7
 10
33.05000000
 20
9.61800000
  0
VERTEX
  8
0
 62
7
 10
33.07940625
 20
9.62407813
  0
VERTEX
  8
0
 62
7
 10
33.11275000
 20
9.63362500
  0
VERTEX
  8
0
 62
7
 10
33.14196875
 20
9.64485937
  0
VERTEX
  8
0
 62
7
 10
33.15900000
 20
9.65600000
  0
VERTEX
  8
0
 62
7
 10
33.16150000
 20
9.66184375
  0
VERTEX
  8
0
 62
7
 10
33.16250000
 20
9.67050000
  0
VERTEX
  8
0
 62
7
 10
33.16125000
 20
9.67990625
  0
VERTEX
  8
0
 62
7
 10
33.15700000
 20
9.68800000
  0
VERTEX
  8
0
 62
7
 10
33.15006250
 20
9.70493750
  0
VERTEX
  8
0
 62
7
 10
33.13900000
 20
9.72000000
  0
VERTEX
  8
0
 62
7
 10
33.12043750
 20
9.73806250
  0
VERTEX
  8
0
 62
7
 10
33.09100000
 20
9.76400000
  0
VERTEX
  8
0
 62
7
 10
33.12614063
 20
9.76001562
  0
VERTEX
  8
0
 62
7
 10
33.15012500
 20
9.75912500
  0
VERTEX
  8
0
 62
7
 10
33.16904688
 20
9.76217188
  0
VERTEX
  8
0
 62
7
 10
33.18900000
 20
9.77000000
  0
VERTEX
  8
0
 62
7
 10
33.20637500
 20
9.78037500
  0
VERTEX
  8
0
 62
7
 10
33.22000000
 20
9.79600000
  0
VERTEX
  8
0
 62
7
 10
33.22562500
 20
9.81187500
  0
VERTEX
  8
0
 62
7
 10
33.22600000
 20
9.83300000
  0
VERTEX
  8
0
 62
7
 10
33.21075000
 20
9.87937500
  0
VERTEX
  8
0
 62
7
 10
33.19100000
 20
9.92500000
  0
VERTEX
  8
0
 62
7
 10
33.17535938
 20
9.95621875
  0
VERTEX
  8
0
 62
7
 10
33.15812500
 20
9.98650000
  0
VERTEX
  8
0
 62
7
 10
33.13882813
 20
10.01528125
  0
VERTEX
  8
0
 62
7
 10
33.11700000
 20
10.04200000
  0
VERTEX
  8
0
 62
7
 10
33.09582813
 20
10.06471875
  0
VERTEX
  8
0
 62
7
 10
33.07362500
 20
10.08650000
  0
VERTEX
  8
0
 62
7
 10
33.04935938
 20
10.10528125
  0
VERTEX
  8
0
 62
7
 10
33.02200000
 20
10.11900000
  0
VERTEX
  8
0
 62
7
 10
32.99451563
 20
10.12709375
  0
VERTEX
  8
0
 62
7
 10
32.96637500
 20
10.13125000
  0
VERTEX
  8
0
 62
7
 10
32.93804688
 20
10.13053125
  0
VERTEX
  8
0
 62
7
 10
32.91000000
 20
10.12400000
  0
VERTEX
  8
0
 62
7
 10
32.88337500
 20
10.11037500
  0
VERTEX
  8
0
 62
7
 10
32.85900000
 20
10.09300000
  0
VERTEX
  8
0
 62
7
 10
32.84087500
 20
10.07400000
  0
VERTEX
  8
0
 62
7
 10
32.82500000
 20
10.05200000
  0
VERTEX
  8
0
 62
7
 10
32.81309375
 20
10.03450000
  0
VERTEX
  8
0
 62
7
 10
32.80325000
 20
10.02225000
  0
VERTEX
  8
0
 62
7
 10
32.79153125
 20
10.01262500
  0
VERTEX
  8
0
 62
7
 10
32.77400000
 20
10.00300000
  0
VERTEX
  8
0
 62
7
 10
32.78349414
 20
9.98601172
  0
VERTEX
  8
0
 62
7
 10
32.78976563
 20
9.96759375
  0
VERTEX
  8
0
 62
7
 10
32.79324805
 20
9.94819141
  0
VERTEX
  8
0
 62
7
 10
32.79437500
 20
9.92825000
  0
VERTEX
  8
0
 62
7
 10
32.79358008
 20
9.90821484
  0
VERTEX
  8
0
 62
7
 10
32.79129688
 20
9.88853125
  0
VERTEX
  8
0
 62
7
 10
32.78795898
 20
9.86964453
  0
VERTEX
  8
0
 62
7
 10
32.78400000
 20
9.85200000
  0
VERTEX
  8
0
 62
7
 10
32.77881055
 20
9.83444141
  0
VERTEX
  8
0
 62
7
 10
32.77079688
 20
9.81465625
  0
VERTEX
  8
0
 62
7
 10
32.76004102
 20
9.79360547
  0
VERTEX
  8
0
 62
7
 10
32.74662500
 20
9.77225000
  0
VERTEX
  8
0
 62
7
 10
32.73063086
 20
9.75155078
  0
VERTEX
  8
0
 62
7
 10
32.71214063
 20
9.73246875
  0
VERTEX
  8
0
 62
7
 10
32.69123633
 20
9.71596484
  0
VERTEX
  8
0
 62
7
 10
32.66800000
 20
9.70300000
  0
VERTEX
  8
0
 62
7
 10
32.68156250
 20
9.66717187
  0
VERTEX
  8
0
 62
7
 10
32.69025000
 20
9.62937500
  0
VERTEX
  8
0
 62
7
 10
32.69556250
 20
9.59064063
  0
VERTEX
  8
0
 62
7
 10
32.69900000
 20
9.55200000
  0
VERTEX
  8
0
 62
7
 10
32.70023438
 20
9.51317187
  0
VERTEX
  8
0
 62
7
 10
32.69762500
 20
9.47837500
  0
VERTEX
  8
0
 62
7
 10
32.69070313
 20
9.44414062
  0
VERTEX
  8
0
 62
7
 10
32.67900000
 20
9.40700000
  0
VERTEX
  8
0
 62
7
 10
32.69592188
 20
9.39517188
  0
VERTEX
  8
0
 62
7
 10
32.71012500
 20
9.38212500
  0
VERTEX
  8
0
 62
7
 10
32.72301563
 20
9.36776563
  0
VERTEX
  8
0
 62
7
 10
32.73600000
 20
9.35200000
  0
VERTEX
  8
0
 62
7
 10
32.75525000
 20
9.32645313
  0
VERTEX
  8
0
 62
7
 10
32.77075000
 20
9.30137500
  0
VERTEX
  8
0
 62
7
 10
32.78437500
 20
9.27535938
  0
VERTEX
  8
0
 62
7
 10
32.79800000
 20
9.24700000
  0
VERTEX
  8
0
 62
7
 10
32.80365625
 20
9.23314063
  0
VERTEX
  8
0
 62
7
 10
32.81025000
 20
9.21487500
  0
VERTEX
  8
0
 62
7
 10
32.81796875
 20
9.19567188
  0
VERTEX
  8
0
 62
7
 10
32.82700000
 20
9.17900000
  0
VERTEX
  8
0
 62
7
 10
32.84046875
 20
9.16179688
  0
VERTEX
  8
0
 62
7
 10
32.85525000
 20
9.14787500
  0
VERTEX
  8
0
 62
7
 10
32.87115625
 20
9.13751563
  0
VERTEX
  8
0
 62
7
 10
32.88800000
 20
9.13100000
  0
VERTEX
  8
0
 62
7
 10
32.90567188
 20
9.12778125
  0
VERTEX
  8
0
 62
7
 10
32.92437500
 20
9.12775000
  0
VERTEX
  8
0
 62
7
 10
32.94439063
 20
9.13184375
  0
VERTEX
  8
0
 62
7
 10
32.96600000
 20
9.14100000
  0
VERTEX
  8
0
 62
7
 10
32.98662500
 20
9.15487500
  0
VERTEX
  8
0
 62
7
 10
33.00500000
 20
9.17100000
  0
VERTEX
  8
0
 62
7
 10
33.02884375
 20
9.19498438
  0
VERTEX
  8
0
 62
7
 10
33.05025000
 20
9.22112500
  0
VERTEX
  8
0
 62
7
 10
33.07053125
 20
9.24820313
  0
VERTEX
  8
0
 62
7
 10
33.09100000
 20
9.27500000
  0
VERTEX
  8
0
 62
7
 10
33.19000000
 20
9.40500000
  0
VERTEX
  8
0
 62
7
 10
33.19698438
 20
9.41773438
  0
VERTEX
  8
0
 62
7
 10
33.20012500
 20
9.43187500
  0
VERTEX
  8
0
 62
7
 10
33.19745313
 20
9.44507813
  0
VERTEX
  8
0
 62
7
 10
33.18700000
 20
9.45500000
  0
SEQEND
  0
POLYLINE
  8
0
 62
7
 66
1
 70
1
  0
VERTEX
  8
0
 62
7
 10
33.77400000
 20
9.29600000
  0
VERTEX
  8
0
 62
7
 10
33.75759375
 20
9.30236719
  0
VERTEX
  8
0
 62
7
 10
33.74025000
 20
9.30756250
  0
VERTEX
  8
0
 62
7
 10
33.72253125
 20
9.31097656
  0
VERTEX
  8
0
 62
7
 10
33.70500000
 20
9.31200000
  0
VERTEX
  8
0
 62
7
 10
33.68821875
 20
9.31002344
  0
VERTEX
  8
0
 62
7
 10
33.67275000
 20
9.30443750
  0
VERTEX
  8
0
 62
7
 10
33.65915625
 20
9.29463281
  0
VERTEX
  8
0
 62
7
 10
33.64800000
 20
9.28000000
  0
VERTEX
  8
0
 62
7
 10
33.64173438
 20
9.26654688
  0
VERTEX
  8
0
 62
7
 10
33.63687500
 20
9.25037500
  0
VERTEX
  8
0
 62
7
 10
33.63407813
 20
9.23176563
  0
VERTEX
  8
0
 62
7
 10
33.63400000
 20
9.21100000
  0
VERTEX
  8
0
 62
7
 10
33.62107813
 20
9.22664063
  0
VERTEX
  8
0
 62
7
 10
33.60412500
 20
9.24162500
  0
VERTEX
  8
0
 62
7
 10
33.58660938
 20
9.25304688
  0
VERTEX
  8
0
 62
7
 10
33.57200000
 20
9.25800000
  0
VERTEX
  8
0
 62
7
 10
33.56468750
 20
9.25762500
  0
VERTEX
  8
0
 62
7
 10
33.55625000
 20
9.25575000
  0
VERTEX
  8
0
 62
7
 10
33.54668750
 20
9.25125000
  0
VERTEX
  8
0
 62
7
 10
33.53600000
 20
9.24300000
  0
VERTEX
  8
0
 62
7
 10
33.52562500
 20
9.22915625
  0
VERTEX
  8
0
 62
7
 10
33.51600000
 20
9.20575000
  0
VERTEX
  8
0
 62
7
 10
33.50562500
 20
9.16846875
  0
VERTEX
  8
0
 62
7
 10
33.49300000
 20
9.11300000
  0
VERTEX
  8
0
 62
7
 10
33.48037500
 20
9.16846875
  0
VERTEX
  8
0
 62
7
 10
33.47000000
 20
9.20575000
  0
VERTEX
  8
0
 62
7
 10
33.46037500
 20
9.22915625
  0
VERTEX
  8
0
 62
7
 10
33.45000000
 20
9.24300000
  0
VERTEX
  8
0
 62
7
 10
33.43931250
 20
9.25125000
  0
VERTEX
  8
0
 62
7
 10
33.42975000
 20
9.25575000
  0
VERTEX
  8
0
 62
7
 10
33.42131250
 20
9.25762500
  0
VERTEX
  8
0
 62
7
 10
33.41400000
 20
9.25800000
  0
VERTEX
  8
0
 62
7
 10
33.39939063
 20
9.25304688
  0
VERTEX
  8
0
 62
7
 10
33.38187500
 20
9.24162500
  0
VERTEX
  8
0
 62
7
 10
33.36492188
 20
9.22664063
  0
VERTEX
  8
0
 62
7
 10
33.35200000
 20
9.21100000
  0
VERTEX
  8
0
 62
7
 10
33.35192188
 20
9.23176563
  0
VERTEX
  8
0
 62
7
 10
33.34912500
 20
9.25037500
  0
VERTEX
  8
0
 62
7
 10
33.34426563
 20
9.26654688
  0
VERTEX
  8
0
 62
7
 10
33.33800000
 20
9.28000000
  0
VERTEX
  8
0
 62
7
 10
33.32684375
 20
9.29463281
  0
VERTEX
  8
0
 62
7
 10
33.31325000
 20
9.30443750
  0
VERTEX
  8
0
 62
7
 10
33.29778125
 20
9.31002344
  0
VERTEX
  8
0
 62
7
 10
33.28100000
 20
9.31200000
  0
VERTEX
  8
0
 62
7
 10
33.26346875
 20
9.31097656
  0
VERTEX
  8
0
 62
7
 10
33.24575000
 20
9.30756250
  0
VERTEX
  8
0
 62
7
 10
33.22840625
 20
9.30236719
  0
VERTEX
  8
0
 62
7
 10
33.21200000
 20
9.29600000
  0
VERTEX
  8
0
 62
7
 10
33.18232813
 20
9.28142187
  0
VERTEX
  8
0
 62
7
 10
33.15237500
 20
9.26337500
  0
VERTEX
  8
0
 62
7
 10
33.12298438
 20
9.24214062
  0
VERTEX
  8
0
 62
7
 10
33.09500000
 20
9.21800000
  0
VERTEX
  8
0
 62
7
 10
33.07198438
 20
9.19443750
  0
VERTEX
  8
0
 62
7
 10
33.05262500
 20
9.16975000
  0
VERTEX
  8
0
 62
7
 10
33.03720313
 20
9.14318750
  0
VERTEX
  8
0
 62
7
 10
33.02600000
 20
9.11400000
  0
VERTEX
  8
0
 62
7
 10
33.02178125
 20
9.09807813
  0
VERTEX
  8
0
 62
7
 10
33.01850000
 20
9.08187500
  0
VERTEX
  8
0
 62
7
 10
33.01671875
 20
9.06548438
  0
VERTEX
  8
0
 62
7
 10
33.01700000
 20
9.04900000
  0
VERTEX
  8
0
 62
7
 10
33.02050000
 20
9.03092188
  0
VERTEX
  8
0
 62
7
 10
33.02700000
 20
9.01387500
  0
VERTEX
  8
0
 62
7
 10
33.03500000
 20
8.99739063
  0
VERTEX
  8
0
 62
7
 10
33.04300000
 20
8.98100000
  0
VERTEX
  8
0
 62
7
 10
33.05712500
 20
8.95537500
  0
VERTEX
  8
0
 62
7
 10
33.06900000
 20
8.92900000
  0
VERTEX
  8
0
 62
7
 10
33.07271875
 20
8.91217188
  0
VERTEX
  8
0
 62
7
 10
33.07475000
 20
8.89487500
  0
VERTEX
  8
0
 62
7
 10
33.07490625
 20
8.87739063
  0
VERTEX
  8
0
 62
7
 10
33.07300000
 20
8.86000000
  0
VERTEX
  8
0
 62
7
 10
33.10137500
 20
8.86370313
  0
VERTEX
  8
0
 62
7
 10
33.13050000
 20
8.86637500
  0
VERTEX
  8
0
 62
7
 10
33.15962500
 20
8.86660937
  0
VERTEX
  8
0
 62
7
 10
33.18800000
 20
8.86300000
  0
VERTEX
  8
0
 62
7
 10
33.22900000
 20
8.85279687
  0
VERTEX
  8
0
 62
7
 10
33.26775000
 20
8.83912500
  0
VERTEX
  8
0
 62
7
 10
33.30387500
 20
8.82039063
  0
VERTEX
  8
0
 62
7
 10
33.33700000
 20
8.79500000
  0
VERTEX
  8
0
 62
7
 10
33.37360938
 20
8.81142188
  0
VERTEX
  8
0
 62
7
 10
33.41012500
 20
8.82137500
  0
VERTEX
  8
0
 62
7
 10
33.44907813
 20
8.82664063
  0
VERTEX
  8
0
 62
7
 10
33.49300000
 20
8.82900000
  0
VERTEX
  8
0
 62
7
 10
33.53629688
 20
8.82632813
  0
VERTEX
  8
0
 62
7
 10
33.57387500
 20
8.82037500
  0
VERTEX
  8
0
 62
7
 10
33.60901563
 20
8.80973438
  0
VERTEX
  8
0
 62
7
 10
33.64500000
 20
8.79300000
  0
VERTEX
  8
0
 62
7
 10
33.67703125
 20
8.81839062
  0
VERTEX
  8
0
 62
7
 10
33.71075000
 20
8.83712500
  0
VERTEX
  8
0
 62
7
 10
33.74709375
 20
8.85079688
  0
VERTEX
  8
0
 62
7
 10
33.78700000
 20
8.86100000
  0
VERTEX
  8
0
 62
7
 10
33.81646875
 20
8.86492188
  0
VERTEX
  8
0
 62
7
 10
33.84800000
 20
8.86537500
  0
VERTEX
  8
0
 62
7
 10
33.87953125
 20
8.86339062
  0
VERTEX
  8
0
 62
7
 10
33.90900000
 20
8.86000000
  0
VERTEX
  8
0
 62
7
 10
33.90709375
 20
8.87739063
  0
VERTEX
  8
0
 62
7
 10
33.90725000
 20
8.89487500
  0
VERTEX
  8
0
 62
7
 10
33.90928125
 20
8.91217188
  0
VERTEX
  8
0
 62
7
 10
33.91300000
 20
8.92900000
  0
VERTEX
  8
0
 62
7
 10
33.92487500
 20
8.95537500
  0
VERTEX
  8
0
 62
7
 10
33.93900000
 20
8.98100000
  0
VERTEX
  8
0
 62
7
 10
33.94700000
 20
8.99739063
  0
VERTEX
  8
0
 62
7
 10
33.95500000
 20
9.01387500
  0
VERTEX
  8
0
 62
7
 10
33.96150000
 20
9.03092188
  0
VERTEX
  8
0
 62
7
 10
33.96500000
 20
9.04900000
  0
VERTEX
  8
0
 62
7
 10
33.96528125
 20
9.06548438
  0
VERTEX
  8
0
 62
7
 10
33.96350000
 20
9.08187500
  0
VERTEX
  8
0
 62
7
 10
33.96021875
 20
9.09807813
  0
VERTEX
  8
0
 62
7
 10
33.95600000
 20
9.11400000
  0
VERTEX
  8
0
 62
7
 10
33.94479688
 20
9.14318750
  0
VERTEX
  8
0
 62
7
 10
33.92937500
 20
9.16975000
  0
VERTEX
  8
0
 62
7
 10
33.91001563
 20
9.19443750
  0
VERTEX
  8
0
 62
7
 10
33.88700000
 20
9.21800000
  0
VERTEX
  8
0
 62
7
 10
33.85964063
 20
9.24214062
  0
VERTEX
  8
0
 62
7
 10
33.83162500
 20
9.26337500
  0
VERTEX
  8
0
 62
7
 10
33.80304688
 20
9.28142187
  0
VERTEX
  8
0
 62
7
 10
33.77400000
 20
9.29600000
  0
SEQEND
  0
POLYLINE
  8
0
 62
7
 66
1
 70
1
  0
VERTEX
  8
0
 62
7
 10
21.00000000
 20
3.91000000
  0
VERTEX
  8
0
 62
7
 10
37.09000000
 20
3.91000000
  0
VERTEX
  8
0
 62
7
 10
37.09000000
 20
8.86800000
  0
VERTEX
  8
0
 62
7
 10
37.05400000
 20
8.86800000
  0
VERTEX
  8
0
 62
7
 10
37.06723438
 20
8.88153125
  0
VERTEX
  8
0
 62
7
 10
37.07962500
 20
8.89675000
  0
VERTEX
  8
0
 62
7
 10
37.09070313
 20
8.91384375
  0
VERTEX
  8
0
 62
7
 10
37.10000000
 20
8.93300000
  0
VERTEX
  8
0
 62
7
 10
37.10771875
 20
8.95417188
  0
VERTEX
  8
0
 62
7
 10
37.11300000
 20
8.97562500
  0
VERTEX
  8
0
 62
7
 10
37.11603125
 20
8.99726563
  0
VERTEX
  8
0
 62
7
 10
37.11700000
 20
9.01900000
  0
VERTEX
  8
0
 62
7
 10
37.11562500
 20
9.04400000
  0
VERTEX
  8
0
 62
7
 10
37.11200000
 20
9.06900000
  0
VERTEX
  8
0
 62
7
 10
37.10301367
 20
9.09751563
  0
VERTEX
  8
0
 62
7
 10
37.09223438
 20
9.11937500
  0
VERTEX
  8
0
 62
7
 10
37.07918164
 20
9.13467188
  0
VERTEX
  8
0
 62
7
 10
37.06337500
 20
9.14350000
  0
VERTEX
  8
0
 62
7
 10
37.04433398
 20
9.14595313
  0
VERTEX
  8
0
 62
7
 10
37.02157813
 20
9.14212500
  0
VERTEX
  8
0
 62
7
 10
36.99462695
 20
9.13210938
  0
VERTEX
  8
0
 62
7
 10
36.96300000
 20
9.11600000
  0
VERTEX
  8
0
 62
7
 10
36.95600000
 20
9.11100000
  0
VERTEX
  8
0
 62
7
 10
36.94800000
 20
9.11000000
  0
VERTEX
  8
0
 62
7
 10
36.93800000
 20
9.11100000
  0
VERTEX
  8
0
 62
7
 10
36.91400000
 20
9.12500000
  0
VERTEX
  8
0
 62
7
 10
36.90100000
 20
9.13562500
  0
VERTEX
  8
0
 62
7
 10
36.88200000
 20
9.15600000
  0
VERTEX
  8
0
 62
7
 10
36.86300000
 20
9.18400000
  0
VERTEX
  8
0
 62
7
 10
36.83700000
 20
9.22100000
  0
VERTEX
  8
0
 62
7
 10
36.82700000
 20
9.23500000
  0
VERTEX
  8
0
 62
7
 10
36.81592188
 20
9.25020313
  0
VERTEX
  8
0
 62
7
 10
36.80062500
 20
9.26887500
  0
VERTEX
  8
0
 62
7
 10
36.78101563
 20
9.28885937
  0
VERTEX
  8
0
 62
7
 10
36.75700000
 20
9.30800000
  0
VERTEX
  8
0
 62
7
 10
36.72204688
 20
9.32768750
  0
VERTEX
  8
0
 62
7
 10
36.68512500
 20
9.34175000
  0
VERTEX
  8
0
 62
7
 10
36.64689063
 20
9.35018750
  0
VERTEX
  8
0
 62
7
 10
36.60800000
 20
9.35300000
  0
VERTEX
  8
0
 62
7
 10
36.57950000
 20
9.35150000
  0
VERTEX
  8
0
 62
7
 10
36.55100000
 20
9.34700000
  0
VERTEX
  8
0
 62
7
 10
36.45700000
 20
9.32700000
  0
VERTEX
  8
0
 62
7
 10
36.48300000
 20
9.23500000
  0
VERTEX
  8
0
 62
7
 10
36.48887500
 20
9.20762500
  0
VERTEX
  8
0
 62
7
 10
36.49100000
 20
9.18100000
  0
VERTEX
  8
0
 62
7
 10
36.48750000
 20
9.14362500
  0
VERTEX
  8
0
 62
7
 10
36.47800000
 20
9.11300000
  0
VERTEX
  8
0
 62
7
 10
36.46225000
 20
9.08800000
  0
VERTEX
  8
0
 62
7
 10
36.43900000
 20
9.06300000
  0
VERTEX
  8
0
 62
7
 10
36.40225000
 20
9.03637500
  0
VERTEX
  8
0
 62
7
 10
36.35800000
 20
9.01500000
  0
VERTEX
  8
0
 62
7
 10
36.31762500
 20
9.00475000
  0
VERTEX
  8
0
 62
7
 10
36.26600000
 20
8.99900000
  0
VERTEX
  8
0
 62
7
 10
36.21700000
 20
8.99600000
  0
VERTEX
  8
0
 62
7
 10
36.15600000
 20
8.99900000
  0
VERTEX
  8
0
 62
7
 10
36.10087500
 20
9.00425000
  0
VERTEX
  8
0
 62
7
 10
36.05100000
 20
9.01400000
  0
VERTEX
  8
0
 62
7
 10
36.00912500
 20
9.02775000
  0
VERTEX
  8
0
 62
7
 10
35.96500000
 20
9.04600000
  0
VERTEX
  8
0
 62
7
 10
35.91437500
 20
9.07162500
  0
VERTEX
  8
0
 62
7
 10
35.86600000
 20
9.10100000
  0
VERTEX
  8
0
 62
7
 10
35.91100000
 20
9.11800000
  0
VERTEX
  8
0
 62
7
 10
35.99300000
 20
9.15600000
  0
VERTEX
  8
0
 62
7
 10
35.98400000
 20
9.17500000
  0
VERTEX
  8
0
 62
7
 10
36.03700000
 20
9.19600000
  0
VERTEX
  8
0
 62
7
 10
36.08100000
 20
9.22050000
  0
VERTEX
  8
0
 62
7
 10
36.12125000
 20
9.25025000
  0
VERTEX
  8
0
 62
7
 10
36.15737500
 20
9.28487500
  0
VERTEX
  8
0
 62
7
 10
36.18900000
 20
9.32400000
  0
VERTEX
  8
0
 62
7
 10
36.24800000
 20
9.40600000
  0
VERTEX
  8
0
 62
7
 10
36.15900000
 20
9.45500000
  0
VERTEX
  8
0
 62
7
 10
36.13800000
 20
9.47400000
  0
VERTEX
  8
0
 62
7
 10
36.13350000
 20
9.48337500
  0
VERTEX
  8
0
 62
7
 10
36.12600000
 20
9.51000000
  0
VERTEX
  8
0
 62
7
 10
36.12200000
 20
9.52600000
  0
VERTEX
  8
0
 62
7
 10
36.11800000
 20
9.54800000
  0
VERTEX
  8
0
 62
7
 10
36.11437500
 20
9.57662500
  0
VERTEX
  8
0
 62
7
 10
36.10400000
 20
9.61500000
  0
VERTEX
  8
0
 62
7
 10
36.09350000
 20
9.64037500
  0
VERTEX
  8
0
 62
7
 10
36.08000000
 20
9.66500000
  0
VERTEX
  8
0
 62
7
 10
36.09400000
 20
9.70900000
  0
VERTEX
  8
0
 62
7
 10
36.11600000
 20
9.77300000
  0
VERTEX
  8
0
 62
7
 10
36.06000000
 20
9.81100000
  0
VERTEX
  8
0
 62
7
 10
36.08400000
 20
9.81718750
  0
VERTEX
  8
0
 62
7
 10
36.10650000
 20
9.82675000
  0
VERTEX
  8
0
 62
7
 10
36.12750000
 20
9.83968750
  0
VERTEX
  8
0
 62
7
 10
36.14700000
 20
9.85600000
  0
VERTEX
  8
0
 62
7
 10
36.16710938
 20
9.88198438
  0
VERTEX
  8
0
 62
7
 10
36.18037500
 20
9.90862500
  0
VERTEX
  8
0
 62
7
 10
36.18820313
 20
9.93320313
  0
VERTEX
  8
0
 62
7
 10
36.19200000
 20
9.95300000
  0
VERTEX
  8
0
 62
7
 10
36.22145313
 20
9.94454688
  0
VERTEX
  8
0
 62
7
 10
36.25137500
 20
9.93862500
  0
VERTEX
  8
0
 62
7
 10
36.28185938
 20
9.93514063
  0
VERTEX
  8
0
 62
7
 10
36.31300000
 20
9.93400000
  0
VERTEX
  8
0
 62
7
 10
36.34898438
 20
9.93593750
  0
VERTEX
  8
0
 62
7
 10
36.38337500
 20
9.94125000
  0
VERTEX
  8
0
 62
7
 10
36.41607813
 20
9.94918750
  0
VERTEX
  8
0
 62
7
 10
36.44700000
 20
9.95900000
  0
VERTEX
  8
0
 62
7
 10
36.50600000
 20
9.98475000
  0
VERTEX
  8
0
 62
7
 10
36.56200000
 20
10.01800000
  0
VERTEX
  8
0
 62
7
 10
36.56600000
 20
10.02000000
  0
VERTEX
  8
0
 62
7
 10
36.59050000
 20
10.03900000
  0
VERTEX
  8
0
 62
7
 10
36.61200000
 20
10.06400000
  0
VERTEX
  8
0
 62
7
 10
36.62000000
 20
10.07600000
  0
VERTEX
  8
0
 62
7
 10
36.63695313
 20
10.10214063
  0
VERTEX
  8
0
 62
7
 10
36.65062500
 20
10.12912500
  0
VERTEX
  8
0
 62
7
 10
36.66148438
 20
10.15629688
  0
VERTEX
  8
0
 62
7
 10
36.67000000
 20
10.18300000
  0
VERTEX
  8
0
 62
7
 10
36.67900000
 20
10.22912500
  0
VERTEX
  8
0
 62
7
 10
36.68200000
 20
10.27600000
  0
VERTEX
  8
0
 62
7
 10
36.67900000
 20
10.32300000
  0
VERTEX
  8
0
 62
7
 10
36.67312500
 20
10.35675000
  0
VERTEX
  8
0
 62
7
 10
36.66200000
 20
10.39800000
  0
VERTEX
  8
0
 62
7
 10
36.70200000
 20
10.39800000
  0
VERTEX
  8
0
 62
7
 10
36.71952539
 20
10.39798633
  0
VERTEX
  8
0
 62
7
 10
36.73739063
 20
10.39826563
  0
VERTEX
  8
0
 62
7
 10
36.75527930
 20
10.39931836
  0
VERTEX
  8
0
 62
7
 10
36.77287500
 20
10.40162500
  0
VERTEX
  8
0
 62
7
 10
36.78986133
 20
10.40566602
  0
VERTEX
  8
0
 62
7
 10
36.80592188
 20
10.41192188
  0
VERTEX
  8
0
 62
7
 10
36.82074023
 20
10.42087305
  0
VERTEX
  8
0
 62
7
 10
36.83400000
 20
10.43300000
  0
VERTEX
  8
0
 62
7
 10
36.84632813
 20
10.44907813
  0
VERTEX
  8
0
 62
7
 10
36.85612500
 20
10.46712500
  0
VERTEX
  8
0
 62
7
 10
36.86310938
 20
10.48685938
  0
VERTEX
  8
0
 62
7
 10
36.86700000
 20
10.50800000
  0
VERTEX
  8
0
 62
7
 10
36.86700000
 20
10.52300000
  0
VERTEX
  8
0
 62
7
 10
36.86300000
 20
10.56500000
  0
VERTEX
  8
0
 62
7
 10
36.85600000
 20
10.59500000
  0
VERTEX
  8
0
 62
7
 10
36.85300000
 20
10.60800000
  0
VERTEX
  8
0
 62
7
 10
36.84200000
 20
10.64100000
  0
VERTEX
  8
0
 62
7
 10
36.83800000
 20
10.65300000
  0
VERTEX
  8
0
 62
7
 10
36.83700000
 20
10.66700000
  0
VERTEX
  8
0
 62
7
 10
36.83700000
 20
10.68800000
  0
VERTEX
  8
0
 62
7
 10
36.83700000
 20
10.69700000
  0
VERTEX
  8
0
 62
7
 10
36.83700000
 20
10.70300000
  0
VERTEX
  8
0
 62
7
 10
36.83700000
 20
10.71000000
  0
VERTEX
  8
0
 62
7
 10
36.83400000
 20
10.75100000
  0
VERTEX
  8
0
 62
7
 10
36.83023438
 20
10.77171875
  0
VERTEX
  8
0
 62
7
 10
36.82412500
 20
10.79675000
  0
VERTEX
  8
0
 62
7
 10
36.81445313
 20
10.82440625
  0
VERTEX
  8
0
 62
7
 10
36.80000000
 20
10.85300000
  0
VERTEX
  8
0
 62
7
 10
36.78276563
 20
10.87734375
  0
VERTEX
  8
0
 62
7
 10
36.76412500
 20
10.89775000
  0
VERTEX
  8
0
 62
7
 10
36.74642188
 20
10.91403125
  0
VERTEX
  8
0
 62
7
 10
36.73200000
 20
10.92600000
  0
VERTEX
  8
0
 62
7
 10
36.72900000
 20
10.92900000
  0
VERTEX
  8
0
 62
7
 10
36.67500000
 20
10.96500000
  0
VERTEX
  8
0
 62
7
 10
36.65500000
 20
10.97700000
  0
VERTEX
  8
0
 62
7
 10
36.65100000
 20
10.97900000
  0
VERTEX
  8
0
 62
7
 10
36.64800000
 20
10.98600000
  0
VERTEX
  8
0
 62
7
 10
36.64500000
 20
10.99600000
  0
VERTEX
  8
0
 62
7
 10
36.63887500
 20
11.01612500
  0
VERTEX
  8
0
 62
7
 10
36.62600000
 20
11.04600000
  0
VERTEX
  8
0
 62
7
 10
36.61296875
 20
11.06579688
  0
VERTEX
  8
0
 62
7
 10
36.59600000
 20
11.08662500
  0
VERTEX
  8
0
 62
7
 10
36.57453125
 20
11.10689063
  0
VERTEX
  8
0
 62
7
 10
36.54800000
 20
11.12500000
  0
VERTEX
  8
0
 62
7
 10
36.53040625
 20
11.13360938
  0
VERTEX
  8
0
 62
7
 10
36.51225000
 20
11.13987500
  0
VERTEX
  8
0
 62
7
 10
36.49371875
 20
11.14370313
  0
VERTEX
  8
0
 62
7
 10
36.47500000
 20
11.14500000
  0
VERTEX
  8
0
 62
7
 10
36.44501172
 20
11.14195508
  0
VERTEX
  8
0
 62
7
 10
36.41696875
 20
11.13320313
  0
VERTEX
  8
0
 62
7
 10
36.39150391
 20
11.11931836
  0
VERTEX
  8
0
 62
7
 10
36.36925000
 20
11.10087500
  0
VERTEX
  8
0
 62
7
 10
36.35083984
 20
11.07844727
  0
VERTEX
  8
0
 62
7
 10
36.33690625
 20
11.05260938
  0
VERTEX
  8
0
 62
7
 10
36.32808203
 20
11.02393555
  0
VERTEX
  8
0
 62
7
 10
36.32500000
 20
10.99300000
  0
VERTEX
  8
0
 62
7
 10
36.32600000
 20
10.97237500
  0
VERTEX
  8
0
 62
7
 10
36.33000000
 20
10.94800000
  0
VERTEX
  8
0
 62
7
 10
36.32100000
 20
10.90800000
  0
VERTEX
  8
0
 62
7
 10
36.31600000
 20
10.89400000
  0
VERTEX
  8
0
 62
7
 10
36.30612500
 20
10.88525000
  0
VERTEX
  8
0
 62
7
 10
36.28800000
 20
10.87500000
  0
VERTEX
  8
0
 62
7
 10
36.28200000
 20
10.87300000
  0
VERTEX
  8
0
 62
7
 10
36.25500000
 20
10.88800000
  0
VERTEX
  8
0
 62
7
 10
36.22632813
 20
10.89903125
  0
VERTEX
  8
0
 62
7
 10
36.19812500
 20
10.90575000
  0
VERTEX
  8
0
 62
7
 10
36.17160938
 20
10.90909375
  0
VERTEX
  8
0
 62
7
 10
36.14800000
 20
10.91000000
  0
VERTEX
  8
0
 62
7
 10
36.11290625
 20
10.90790625
  0
VERTEX
  8
0
 62
7
 10
36.07650000
 20
10.90150000
  0
VERTEX
  8
0
 62
7
 10
36.04084375
 20
10.89059375
  0
VERTEX
  8
0
 62
7
 10
36.00800000
 20
10.87500000
  0
VERTEX
  8
0
 62
7
 10
35.96537500
 20
10.84737500
  0
VERTEX
  8
0
 62
7
 10
35.92200000
 20
10.80400000
  0
VERTEX
  8
0
 62
7
 10
35.89967188
 20
10.77715625
  0
VERTEX
  8
0
 62
7
 10
35.87837500
 20
10.74750000
  0
VERTEX
  8
0
 62
7
 10
35.85914063
 20
10.71484375
  0
VERTEX
  8
0
 62
7
 10
35.84300000
 20
10.67900000
  0
VERTEX
  8
0
 62
7
 10
35.83225000
 20
10.64612500
  0
VERTEX
  8
0
 62
7
 10
35.82600000
 20
10.61400000
  0
VERTEX
  8
0
 62
7
 10
35.81587500
 20
10.65600000
  0
VERTEX
  8
0
 62
7
 10
35.80200000
 20
10.69800000
  0
VERTEX
  8
0
 62
7
 10
35.78820313
 20
10.73337500
  0
VERTEX
  8
0
 62
7
 10
35.76962500
 20
10.77400000
  0
VERTEX
  8
0
 62
7
 10
35.74448438
 20
10.81612500
  0
VERTEX
  8
0
 62
7
 10
35.71100000
 20
10.85600000
  0
VERTEX
  8
0
 62
7
 10
35.68846875
 20
10.87609375
  0
VERTEX
  8
0
 62
7
 10
35.66275000
 20
10.89525000
  0
VERTEX
  8
0
 62
7
 10
35.63365625
 20
10.91253125
  0
VERTEX
  8
0
 62
7
 10
35.60100000
 20
10.92700000
  0
VERTEX
  8
0
 62
7
 10
35.57726563
 20
10.93487500
  0
VERTEX
  8
0
 62
7
 10
35.55287500
 20
10.94050000
  0
VERTEX
  8
0
 62
7
 10
35.52829688
 20
10.94387500
  0
VERTEX
  8
0
 62
7
 10
35.50400000
 20
10.94500000
  0
VERTEX
  8
0
 62
7
 10
35.47850000
 20
10.94362500
  0
VERTEX
  8
0
 62
7
 10
35.45300000
 20
10.94000000
  0
VERTEX
  8
0
 62
7
 10
35.44025000
 20
11.02387500
  0
VERTEX
  8
0
 62
7
 10
35.42000000
 20
11.10700000
  0
VERTEX
  8
0
 62
7
 10
35.40600000
 20
11.15800000
  0
VERTEX
  8
0
 62
7
 10
35.35500000
 20
11.17000000
  0
VERTEX
  8
0
 62
7
 10
35.33500000
 20
11.17400000
  0
VERTEX
  8
0
 62
7
 10
35.32207813
 20
11.23715625
  0
VERTEX
  8
0
 62
7
 10
35.30437500
 20
11.29900000
  0
VERTEX
  8
0
 62
7
 10
35.28198438
 20
11.35934375
  0
VERTEX
  8
0
 62
7
 10
35.25500000
 20
11.41800000
  0
VERTEX
  8
0
 62
7
 10
35.22107813
 20
11.47946875
  0
VERTEX
  8
0
 62
7
 10
35.18237500
 20
11.53775000
  0
VERTEX
  8
0
 62
7
 10
35.13898438
 20
11.59265625
  0
VERTEX
  8
0
 62
7
 10
35.09100000
 20
11.64400000
  0
VERTEX
  8
0
 62
7
 10
35.04800000
 20
11.68700000
  0
VERTEX
  8
0
 62
7
 10
34.99200000
 20
11.66300000
  0
VERTEX
  8
0
 62
7
 10
34.92800000
 20
11.73562500
  0
VERTEX
  8
0
 62
7
 10
34.85800000
 20
11.80300000
  0
VERTEX
  8
0
 62
7
 10
34.80387500
 20
11.84778125
  0
VERTEX
  8
0
 62
7
 10
34.74675000
 20
11.88900000
  0
VERTEX
  8
0
 62
7
 10
34.68700000
 20
11.92646875
  0
VERTEX
  8
0
 62
7
 10
34.62500000
 20
11.96000000
  0
VERTEX
  8
0
 62
7
 10
34.47000000
 20
12.02000000
  0
VERTEX
  8
0
 62
7
 10
34.45600000
 20
11.94600000
  0
VERTEX
  8
0
 62
7
 10
34.42500000
 20
11.97900000
  0
VERTEX
  8
0
 62
7
 10
34.37598438
 20
12.02398438
  0
VERTEX
  8
0
 62
7
 10
34.32237500
 20
12.06287500
  0
VERTEX
  8
0
 62
7
 10
34.26482813
 20
12.09557813
  0
VERTEX
  8
0
 62
7
 10
34.20400000
 20
12.12200000
  0
VERTEX
  8
0
 62
7
 10
34.14100000
 20
12.14500000
  0
VERTEX
  8
0
 62
7
 10
34.11500000
 20
12.11000000
  0
VERTEX
  8
0
 62
7
 10
34.03112500
 20
12.17075000
  0
VERTEX
  8
0
 62
7
 10
33.94200000
 20
12.22400000
  0
VERTEX
  8
0
 62
7
 10
33.86706250
 20
12.26000000
  0
VERTEX
  8
0
 62
7
 10
33.78950000
 20
12.29000000
  0
VERTEX
  8
0
 62
7
 10
33.70968750
 20
12.31400000
  0
VERTEX
  8
0
 62
7
 10
33.62800000
 20
12.33200000
  0
VERTEX
  8
0
 62
7
 10
33.53200000
 20
12.34900000
  0
VERTEX
  8
0
 62
7
 10
33.52500000
 20
12.28300000
  0
VERTEX
  8
0
 62
7
 10
33.50300000
 20
12.28800000
  0
VERTEX
  8
0
 62
7
 10
33.45406250
 20
12.29529688
  0
VERTEX
  8
0
 62
7
 10
33.40475000
 20
12.30062500
  0
VERTEX
  8
0
 62
7
 10
33.35506250
 20
12.30389063
  0
VERTEX
  8
0
 62
7
 10
33.30500000
 20
12.30500000
  0
VERTEX
  8
0
 62
7
 10
33.22100000
 20
12.30187500
  0
VERTEX
  8
0
 62
7
 10
33.13700000
 20
12.29200000
  0
VERTEX
  8
0
 62
7
 10
33.05100000
 20
12.27800000
  0
VERTEX
  8
0
 62
7
 10
33.06200000
 20
12.19100000
  0
VERTEX
  8
0
 62
7
 10
33.06200000
 20
12.18800000
  0
VERTEX
  8
0
 62
7
 10
33.01900000
 20
12.16800000
  0
VERTEX
  8
0
 62
7
 10
32.99185938
 20
12.15168750
  0
VERTEX
  8
0
 62
7
 10
32.96612500
 20
12.13275000
  0
VERTEX
  8
0
 62
7
 10
32.94207813
 20
12.11118750
  0
VERTEX
  8
0
 62
7
 10
32.92000000
 20
12.08700000
  0
VERTEX
  8
0
 62
7
 10
32.90693750
 20
12.07079297
  0
VERTEX
  8
0
 62
7
 10
32.89425000
 20
12.05296875
  0
VERTEX
  8
0
 62
7
 10
32.88231250
 20
12.03359766
  0
VERTEX
  8
0
 62
7
 10
32.87150000
 20
12.01275000
  0
VERTEX
  8
0
 62
7
 10
32.86218750
 20
11.99049609
  0
VERTEX
  8
0
 62
7
 10
32.85475000
 20
11.96690625
  0
VERTEX
  8
0
 62
7
 10
32.84956250
 20
11.94205078
  0
VERTEX
  8
0
 62
7
 10
32.84700000
 20
11.91600000
  0
VERTEX
  8
0
 62
7
 10
32.84700000
 20
11.90300000
  0
VERTEX
  8
0
 62
7
 10
32.84750000
 20
11.87162500
  0
VERTEX
  8
0
 62
7
 10
32.85100000
 20
11.84100000
  0
VERTEX
  8
0
 62
7
 10
32.52084937
 20
11.84781006
  0
VERTEX
  8
0
 62
7
 10
32.20437305
 20
11.85812109
  0
VERTEX
  8
0
 62
7
 10
31.89947192
 20
11.87194189
  0
VERTEX
  8
0
 62
7
 10
31.60404688
 20
11.88928125
  0
VERTEX
  8
0
 62
7
 10
31.31599878
 20
11.91014795
  0
VERTEX
  8
0
 62
7
 10
31.03322852
 20
11.93455078
  0
VERTEX
  8
0
 62
7
 10
30.75363696
 20
11.96249854
  0
VERTEX
  8
0
 62
7
 10
30.47512500
 20
11.99400000
  0
VERTEX
  8
0
 62
7
 10
30.19559351
 20
12.02906396
  0
VERTEX
  8
0
 62
7
 10
29.91294336
 20
12.06769922
  0
VERTEX
  8
0
 62
7
 10
29.62507544
 20
12.10991455
  0
VERTEX
  8
0
 62
7
 10
29.32989063
 20
12.15571875
  0
VERTEX
  8
0
 62
7
 10
29.02528979
 20
12.20512061
  0
VERTEX
  8
0
 62
7
 10
28.70917383
 20
12.25812891
  0
VERTEX
  8
0
 62
7
 10
28.37944360
 20
12.31475244
  0
VERTEX
  8
0
 62
7
 10
28.03400000
 20
12.37500000
  0
VERTEX
  8
0
 62
7
 10
27.63767603
 20
12.44267432
  0
VERTEX
  8
0
 62
7
 10
27.22562695
 20
12.50961328
  0
VERTEX
  8
0
 62
7
 10
26.79998706
 20
12.57531592
  0
VERTEX
  8
0
 62
7
 10
26.36289063
 20
12.63928125
  0
VERTEX
  8
0
 62
7
 10
25.91647192
 20
12.70100830
  0
VERTEX
  8
0
 62
7
 10
25.46286523
 20
12.75999609
  0
VERTEX
  8
0
 62
7
 10
25.00420483
 20
12.81574365
  0
VERTEX
  8
0
 62
7
 10
24.54262500
 20
12.86775000
  0
VERTEX
  8
0
 62
7
 10
24.08026001
 20
12.91551416
  0
VERTEX
  8
0
 62
7
 10
23.61924414
 20
12.95853516
  0
VERTEX
  8
0
 62
7
 10
23.16171167
 20
12.99631201
  0
VERTEX
  8
0
 62
7
 10
22.70979688
 20
13.02834375
  0
VERTEX
  8
0
 62
7
 10
22.26563403
 20
13.05412939
  0
VERTEX
  8
0
 62
7
 10
21.83135742
 20
13.07316797
  0
VERTEX
  8
0
 62
7
 10
21.40910132
 20
13.08495850
  0
VERTEX
  8
0
 62
7
 10
21.00100000
 20
13.08900000
  0
VERTEX
  8
0
 62
7
 10
20.59287622
 20
13.08495850
  0
VERTEX
  8
0
 62
7
 10
20.17055664
 20
13.07316797
  0
VERTEX
  8
0
 62
7
 10
19.73618140
 20
13.05412939
  0
VERTEX
  8
0
 62
7
 10
19.29189063
 20
13.02834375
  0
VERTEX
  8
0
 62
7
 10
18.83982446
 20
12.99631201
  0
VERTEX
  8
0
 62
7
 10
18.38212305
 20
12.95853516
  0
VERTEX
  8
0
 62
7
 10
17.92092651
 20
12.91551416
  0
VERTEX
  8
0
 62
7
 10
17.45837500
 20
12.86775000
  0
VERTEX
  8
0
 62
7
 10
16.99660864
 20
12.81574365
  0
VERTEX
  8
0
 62
7
 10
16.53776758
 20
12.75999609
  0
VERTEX
  8
0
 62
7
 10
16.08399194
 20
12.70100830
  0
VERTEX
  8
0
 62
7
 10
15.63742188
 20
12.63928125
  0
VERTEX
  8
0
 62
7
 10
15.20019751
 20
12.57531592
  0
VERTEX
  8
0
 62
7
 10
14.77445898
 20
12.50961328
  0
VERTEX
  8
0
 62
7
 10
14.36234644
 20
12.44267432
  0
VERTEX
  8
0
 62
7
 10
13.96600000
 20
12.37500000
  0
VERTEX
  8
0
 62
7
 10
13.62055640
 20
12.31475244
  0
VERTEX
  8
0
 62
7
 10
13.29082617
 20
12.25812891
  0
VERTEX
  8
0
 62
7
 10
12.97471021
 20
12.20512061
  0
VERTEX
  8
0
 62
7
 10
12.67010938
 20
12.15571875
  0
VERTEX
  8
0
 62
7
 10
12.37492456
 20
12.10991455
  0
VERTEX
  8
0
 62
7
 10
12.08705664
 20
12.06769922
  0
VERTEX
  8
0
 62
7
 10
11.80440649
 20
12.02906396
  0
VERTEX
  8
0
 62
7
 10
11.52487500
 20
11.99400000
  0
VERTEX
  8
0
 62
7
 10
11.24636304
 20
11.96249854
  0
VERTEX
  8
0
 62
7
 10
10.96677148
 20
11.93455078
  0
VERTEX
  8
0
 62
7
 10
10.68400122
 20
11.91014795
  0
VERTEX
  8
0
 62
7
 10
10.39595313
 20
11.88928125
  0
VERTEX
  8
0
 62
7
 10
10.10052808
 20
11.87194189
  0
VERTEX
  8
0
 62
7
 10
9.79562695
 20
11.85812109
  0
VERTEX
  8
0
 62
7
 10
9.47915063
 20
11.84781006
  0
VERTEX
  8
0
 62
7
 10
9.14900000
 20
11.84100000
  0
VERTEX
  8
0
 62
7
 10
9.15250000
 20
11.87162500
  0
VERTEX
  8
0
 62
7
 10
9.15300000
 20
11.90300000
  0
VERTEX
  8
0
 62
7
 10
9.15300000
 20
11.91600000
  0
VERTEX
  8
0
 62
7
 10
9.15043750
 20
11.94205078
  0
VERTEX
  8
0
 62
7
 10
9.14525000
 20
11.96690625
  0
VERTEX
  8
0
 62
7
 10
9.13781250
 20
11.99049609
  0
VERTEX
  8
0
 62
7
 10
9.12850000
 20
12.01275000
  0
VERTEX
  8
0
 62
7
 10
9.11768750
 20
12.03359766
  0
VERTEX
  8
0
 62
7
 10
9.10575000
 20
12.05296875
  0
VERTEX
  8
0
 62
7
 10
9.09306250
 20
12.07079297
  0
VERTEX
  8
0
 62
7
 10
9.08000000
 20
12.08700000
  0
VERTEX
  8
0
 62
7
 10
9.05792188
 20
12.11118750
  0
VERTEX
  8
0
 62
7
 10
9.03387500
 20
12.13275000
  0
VERTEX
  8
0
 62
7
 10
9.00814062
 20
12.15168750
  0
VERTEX
  8
0
 62
7
 10
8.98100000
 20
12.16800000
  0
VERTEX
  8
0
 62
7
 10
8.93800000
 20
12.18800000
  0
VERTEX
  8
0
 62
7
 10
8.93800000
 20
12.19100000
  0
VERTEX
  8
0
 62
7
 10
8.94900000
 20
12.27800000
  0
VERTEX
  8
0
 62
7
 10
8.86300000
 20
12.29200000
  0
VERTEX
  8
0
 62
7
 10
8.77900000
 20
12.30187500
  0
VERTEX
  8
0
 62
7
 10
8.69500000
 20
12.30500000
  0
VERTEX
  8
0
 62
7
 10
8.64493750
 20
12.30389063
  0
VERTEX
  8
0
 62
7
 10
8.59525000
 20
12.30062500
  0
VERTEX
  8
0
 62
7
 10
8.54593750
 20
12.29529688
  0
VERTEX
  8
0
 62
7
 10
8.49700000
 20
12.28800000
  0
VERTEX
  8
0
 62
7
 10
8.47500000
 20
12.28300000
  0
VERTEX
  8
0
 62
7
 10
8.46800000
 20
12.34900000
  0
VERTEX
  8
0
 62
7
 10
8.37200000
 20
12.33200000
  0
VERTEX
  8
0
 62
7
 10
8.29031250
 20
12.31400000
  0
VERTEX
  8
0
 62
7
 10
8.21050000
 20
12.29000000
  0
VERTEX
  8
0
 62
7
 10
8.13293750
 20
12.26000000
  0
VERTEX
  8
0
 62
7
 10
8.05800000
 20
12.22400000
  0
VERTEX
  8
0
 62
7
 10
7.96887500
 20
12.17075000
  0
VERTEX
  8
0
 62
7
 10
7.88500000
 20
12.11000000
  0
VERTEX
  8
0
 62
7
 10
7.85900000
 20
12.14500000
  0
VERTEX
  8
0
 62
7
 10
7.79600000
 20
12.12200000
  0
VERTEX
  8
0
 62
7
 10
7.73517188
 20
12.09557813
  0
VERTEX
  8
0
 62
7
 10
7.67762500
 20
12.06287500
  0
VERTEX
  8
0
 62
7
 10
7.62401563
 20
12.02398438
  0
VERTEX
  8
0
 62
7
 10
7.57500000
 20
11.97900000
  0
VERTEX
  8
0
 62
7
 10
7.54400000
 20
11.94600000
  0
VERTEX
  8
0
 62
7
 10
7.53000000
 20
12.02000000
  0
VERTEX
  8
0
 62
7
 10
7.37500000
 20
11.96000000
  0
VERTEX
  8
0
 62
7
 10
7.31300000
 20
11.92646875
  0
VERTEX
  8
0
 62
7
 10
7.25325000
 20
11.88900000
  0
VERTEX
  8
0
 62
7
 10
7.19612500
 20
11.84778125
  0
VERTEX
  8
0
 62
7
 10
7.14200000
 20
11.80300000
  0
VERTEX
  8
0
 62
7
 10
7.07200000
 20
11.73562500
  0
VERTEX
  8
0
 62
7
 10
7.00800000
 20
11.66300000
  0
VERTEX
  8
0
 62
7
 10
6.95200000
 20
11.68700000
  0
VERTEX
  8
0
 62
7
 10
6.90900000
 20
11.64400000
  0
VERTEX
  8
0
 62
7
 10
6.86101563
 20
11.59265625
  0
VERTEX
  8
0
 62
7
 10
6.81762500
 20
11.53775000
  0
VERTEX
  8
0
 62
7
 10
6.77892188
 20
11.47946875
  0
VERTEX
  8
0
 62
7
 10
6.74500000
 20
11.41800000
  0
VERTEX
  8
0
 62
7
 10
6.71801563
 20
11.35934375
  0
VERTEX
  8
0
 62
7
 10
6.69562500
 20
11.29900000
  0
VERTEX
  8
0
 62
7
 10
6.67792188
 20
11.23715625
  0
VERTEX
  8
0
 62
7
 10
6.66500000
 20
11.17400000
  0
VERTEX
  8
0
 62
7
 10
6.64500000
 20
11.17000000
  0
VERTEX
  8
0
 62
7
 10
6.59400000
 20
11.15800000
  0
VERTEX
  8
0
 62
7
 10
6.58000000
 20
11.10700000
  0
VERTEX
  8
0
 62
7
 10
6.55975000
 20
11.02387500
  0
VERTEX
  8
0
 62
7
 10
6.54700000
 20
10.94000000
  0
VERTEX
  8
0
 62
7
 10
6.52150000
 20
10.94362500
  0
VERTEX
  8
0
 62
7
 10
6.49600000
 20
10.94500000
  0
VERTEX
  8
0
 62
7
 10
6.47170313
 20
10.94387500
  0
VERTEX
  8
0
 62
7
 10
6.44712500
 20
10.94050000
  0
VERTEX
  8
0
 62
7
 10
6.42273438
 20
10.93487500
  0
VERTEX
  8
0
 62
7
 10
6.39900000
 20
10.92700000
  0
VERTEX
  8
0
 62
7
 10
6.36634375
 20
10.91253125
  0
VERTEX
  8
0
 62
7
 10
6.33725000
 20
10.89525000
  0
VERTEX
  8
0
 62
7
 10
6.31153125
 20
10.87609375
  0
VERTEX
  8
0
 62
7
 10
6.28900000
 20
10.85600000
  0
VERTEX
  8
0
 62
7
 10
6.25551563
 20
10.81612500
  0
VERTEX
  8
0
 62
7
 10
6.23037500
 20
10.77400000
  0
VERTEX
  8
0
 62
7
 10
6.21179688
 20
10.73337500
  0
VERTEX
  8
0
 62
7
 10
6.19800000
 20
10.69800000
  0
VERTEX
  8
0
 62
7
 10
6.18412500
 20
10.65600000
  0
VERTEX
  8
0
 62
7
 10
6.17400000
 20
10.61400000
  0
VERTEX
  8
0
 62
7
 10
6.16775000
 20
10.64612500
  0
VERTEX
  8
0
 62
7
 10
6.15700000
 20
10.67900000
  0
VERTEX
  8
0
 62
7
 10
6.14085938
 20
10.71484375
  0
VERTEX
  8
0
 62
7
 10
6.12162500
 20
10.74750000
  0
VERTEX
  8
0
 62
7
 10
6.10032813
 20
10.77715625
  0
VERTEX
  8
0
 62
7
 10
6.07800000
 20
10.80400000
  0
VERTEX
  8
0
 62
7
 10
6.03462500
 20
10.84737500
  0
VERTEX
  8
0
 62
7
 10
5.99200000
 20
10.87500000
  0
VERTEX
  8
0
 62
7
 10
5.95915625
 20
10.89059375
  0
VERTEX
  8
0
 62
7
 10
5.92350000
 20
10.90150000
  0
VERTEX
  8
0
 62
7
 10
5.88709375
 20
10.90790625
  0
VERTEX
  8
0
 62
7
 10
5.85200000
 20
10.91000000
  0
VERTEX
  8
0
 62
7
 10
5.82839063
 20
10.90909375
  0
VERTEX
  8
0
 62
7
 10
5.80187500
 20
10.90575000
  0
VERTEX
  8
0
 62
7
 10
5.77367188
 20
10.89903125
  0
VERTEX
  8
0
 62
7
 10
5.74500000
 20
10.88800000
  0
VERTEX
  8
0
 62
7
 10
5.71800000
 20
10.87300000
  0
VERTEX
  8
0
 62
7
 10
5.71200000
 20
10.87500000
  0
VERTEX
  8
0
 62
7
 10
5.69387500
 20
10.88525000
  0
VERTEX
  8
0
 62
7
 10
5.68400000
 20
10.89400000
  0
VERTEX
  8
0
 62
7
 10
5.67900000
 20
10.90800000
  0
VERTEX
  8
0
 62
7
 10
5.67000000
 20
10.94800000
  0
VERTEX
  8
0
 62
7
 10
5.67400000
 20
10.97237500
  0
VERTEX
  8
0
 62
7
 10
5.67500000
 20
10.99300000
  0
VERTEX
  8
0
 62
7
 10
5.67191797
 20
11.02393555
  0
VERTEX
  8
0
 62
7
 10
5.66309375
 20
11.05260938
  0
VERTEX
  8
0
 62
7
 10
5.64916016
 20
11.07844727
  0
VERTEX
  8
0
 62
7
 10
5.63075000
 20
11.10087500
  0
VERTEX
  8
0
 62
7
 10
5.60849609
 20
11.11931836
  0
VERTEX
  8
0
 62
7
 10
5.58303125
 20
11.13320313
  0
VERTEX
  8
0
 62
7
 10
5.55498828
 20
11.14195508
  0
VERTEX
  8
0
 62
7
 10
5.52500000
 20
11.14500000
  0
VERTEX
  8
0
 62
7
 10
5.50628125
 20
11.14370313
  0
VERTEX
  8
0
 62
7
 10
5.48775000
 20
11.13987500
  0
VERTEX
  8
0
 62
7
 10
5.46959375
 20
11.13360938
  0
VERTEX
  8
0
 62
7
 10
5.45200000
 20
11.12500000
  0
VERTEX
  8
0
 62
7
 10
5.42546875
 20
11.10689063
  0
VERTEX
  8
0
 62
7
 10
5.40400000
 20
11.08662500
  0
VERTEX
  8
0
 62
7
 10
5.38703125
 20
11.06579688
  0
VERTEX
  8
0
 62
7
 10
5.37400000
 20
11.04600000
  0
VERTEX
  8
0
 62
7
 10
5.36112500
 20
11.01612500
  0
VERTEX
  8
0
 62
7
 10
5.35500000
 20
10.99600000
  0
VERTEX
  8
0
 62
7
 10
5.35200000
 20
10.98600000
  0
VERTEX
  8
0
 62
7
 10
5.34900000
 20
10.97900000
  0
VERTEX
  8
0
 62
7
 10
5.34500000
 20
10.97700000
  0
VERTEX
  8
0
 62
7
 10
5.32500000
 20
10.96500000
  0
VERTEX
  8
0
 62
7
 10
5.27100000
 20
10.92900000
  0
VERTEX
  8
0
 62
7
 10
5.26800000
 20
10.92600000
  0
VERTEX
  8
0
 62
7
 10
5.25357813
 20
10.91403125
  0
VERTEX
  8
0
 62
7
 10
5.23587500
 20
10.89775000
  0
VERTEX
  8
0
 62
7
 10
5.21723438
 20
10.87734375
  0
VERTEX
  8
0
 62
7
 10
5.20000000
 20
10.85300000
  0
VERTEX
  8
0
 62
7
 10
5.18554688
 20
10.82440625
  0
VERTEX
  8
0
 62
7
 10
5.17587500
 20
10.79675000
  0
VERTEX
  8
0
 62
7
 10
5.16976563
 20
10.77171875
  0
VERTEX
  8
0
 62
7
 10
5.16600000
 20
10.75100000
  0
VERTEX
  8
0
 62
7
 10
5.16300000
 20
10.71000000
  0
VERTEX
  8
0
 62
7
 10
5.16300000
 20
10.70300000
  0
VERTEX
  8
0
 62
7
 10
5.16300000
 20
10.69700000
  0
VERTEX
  8
0
 62
7
 10
5.16300000
 20
10.68800000
  0
VERTEX
  8
0
 62
7
 10
5.16300000
 20
10.66700000
  0
VERTEX
  8
0
 62
7
 10
5.16200000
 20
10.65300000
  0
VERTEX
  8
0
 62
7
 10
5.15800000
 20
10.64100000
  0
VERTEX
  8
0
 62
7
 10
5.14700000
 20
10.60800000
  0
VERTEX
  8
0
 62
7
 10
5.14400000
 20
10.59500000
  0
VERTEX
  8
0
 62
7
 10
5.13700000
 20
10.56500000
  0
VERTEX
  8
0
 62
7
 10
5.13300000
 20
10.52300000
  0
VERTEX
  8
0
 62
7
 10
5.13300000
 20
10.50800000
  0
VERTEX
  8
0
 62
7
 10
5.13689063
 20
10.48685938
  0
VERTEX
  8
0
 62
7
 10
5.14387500
 20
10.46712500
  0
VERTEX
  8
0
 62
7
 10
5.15367188
 20
10.44907813
  0
VERTEX
  8
0
 62
7
 10
5.16600000
 20
10.43300000
  0
VERTEX
  8
0
 62
7
 10
5.17925977
 20
10.42087305
  0
VERTEX
  8
0
 62
7
 10
5.19407813
 20
10.41192188
  0
VERTEX
  8
0
 62
7
 10
5.21013867
 20
10.40566602
  0
VERTEX
  8
0
 62
7
 10
5.22712500
 20
10.40162500
  0
VERTEX
  8
0
 62
7
 10
5.24472070
 20
10.39931836
  0
VERTEX
  8
0
 62
7
 10
5.26260938
 20
10.39826563
  0
VERTEX
  8
0
 62
7
 10
5.28047461
 20
10.39798633
  0
VERTEX
  8
0
 62
7
 10
5.29800000
 20
10.39800000
  0
VERTEX
  8
0
 62
7
 10
5.33800000
 20
10.39800000
  0
VERTEX
  8
0
 62
7
 10
5.32687500
 20
10.35675000
  0
VERTEX
  8
0
 62
7
 10
5.32100000
 20
10.32300000
  0
VERTEX
  8
0
 62
7
 10
5.31800000
 20
10.27600000
  0
VERTEX
  8
0
 62
7
 10
5.32100000
 20
10.22912500
  0
VERTEX
  8
0
 62
7
 10
5.33000000
 20
10.18300000
  0
VERTEX
  8
0
 62
7
 10
5.33851563
 20
10.15629688
  0
VERTEX
  8
0
 62
7
 10
5.34937500
 20
10.12912500
  0
VERTEX
  8
0
 62
7
 10
5.36304688
 20
10.10214063
  0
VERTEX
  8
0
 62
7
 10
5.38000000
 20
10.07600000
  0
VERTEX
  8
0
 62
7
 10
5.38800000
 20
10.06400000
  0
VERTEX
  8
0
 62
7
 10
5.40950000
 20
10.03900000
  0
VERTEX
  8
0
 62
7
 10
5.43400000
 20
10.02000000
  0
VERTEX
  8
0
 62
7
 10
5.43800000
 20
10.01800000
  0
VERTEX
  8
0
 62
7
 10
5.49400000
 20
9.98475000
  0
VERTEX
  8
0
 62
7
 10
5.55300000
 20
9.95900000
  0
VERTEX
  8
0
 62
7
 10
5.58392188
 20
9.94918750
  0
VERTEX
  8
0
 62
7
 10
5.61662500
 20
9.94125000
  0
VERTEX
  8
0
 62
7
 10
5.65101563
 20
9.93593750
  0
VERTEX
  8
0
 62
7
 10
5.68700000
 20
9.93400000
  0
VERTEX
  8
0
 62
7
 10
5.71814063
 20
9.93514063
  0
VERTEX
  8
0
 62
7
 10
5.74862500
 20
9.93862500
  0
VERTEX
  8
0
 62
7
 10
5.77854688
 20
9.94454688
  0
VERTEX
  8
0
 62
7
 10
5.80800000
 20
9.95300000
  0
VERTEX
  8
0
 62
7
 10
5.81179688
 20
9.93320313
  0
VERTEX
  8
0
 62
7
 10
5.81962500
 20
9.90862500
  0
VERTEX
  8
0
 62
7
 10
5.83289063
 20
9.88198438
  0
VERTEX
  8
0
 62
7
 10
5.85300000
 20
9.85600000
  0
VERTEX
  8
0
 62
7
 10
5.87250000
 20
9.83968750
  0
VERTEX
  8
0
 62
7
 10
5.89350000
 20
9.82675000
  0
VERTEX
  8
0
 62
7
 10
5.91600000
 20
9.81718750
  0
VERTEX
  8
0
 62
7
 10
5.94000000
 20
9.81100000
  0
VERTEX
  8
0
 62
7
 10
5.88400000
 20
9.77300000
  0
VERTEX
  8
0
 62
7
 10
5.90600000
 20
9.70900000
  0
VERTEX
  8
0
 62
7
 10
5.92000000
 20
9.66500000
  0
VERTEX
  8
0
 62
7
 10
5.90650000
 20
9.64037500
  0
VERTEX
  8
0
 62
7
 10
5.89600000
 20
9.61500000
  0
VERTEX
  8
0
 62
7
 10
5.88562500
 20
9.57662500
  0
VERTEX
  8
0
 62
7
 10
5.88200000
 20
9.54800000
  0
VERTEX
  8
0
 62
7
 10
5.87800000
 20
9.52600000
  0
VERTEX
  8
0
 62
7
 10
5.87400000
 20
9.51000000
  0
VERTEX
  8
0
 62
7
 10
5.86650000
 20
9.48337500
  0
VERTEX
  8
0
 62
7
 10
5.86200000
 20
9.47400000
  0
VERTEX
  8
0
 62
7
 10
5.84100000
 20
9.45500000
  0
VERTEX
  8
0
 62
7
 10
5.75200000
 20
9.40600000
  0
VERTEX
  8
0
 62
7
 10
5.81100000
 20
9.32400000
  0
VERTEX
  8
0
 62
7
 10
5.84262500
 20
9.28487500
  0
VERTEX
  8
0
 62
7
 10
5.87875000
 20
9.25025000
  0
VERTEX
  8
0
 62
7
 10
5.91900000
 20
9.22050000
  0
VERTEX
  8
0
 62
7
 10
5.96300000
 20
9.19600000
  0
VERTEX
  8
0
 62
7
 10
6.01600000
 20
9.17500000
  0
VERTEX
  8
0
 62
7
 10
6.00700000
 20
9.15600000
  0
VERTEX
  8
0
 62
7
 10
6.08900000
 20
9.11800000
  0
VERTEX
  8
0
 62
7
 10
6.13400000
 20
9.10100000
  0
VERTEX
  8
0
 62
7
 10
6.08562500
 20
9.07162500
  0
VERTEX
  8
0
 62
7
 10
6.03500000
 20
9.04600000
  0
VERTEX
  8
0
 62
7
 10
5.99087500
 20
9.02775000
  0
VERTEX
  8
0
 62
7
 10
5.94900000
 20
9.01400000
  0
VERTEX
  8
0
 62
7
 10
5.89912500
 20
9.00425000
  0
VERTEX
  8
0
 62
7
 10
5.84400000
 20
8.99900000
  0
VERTEX
  8
0
 62
7
 10
5.78300000
 20
8.99600000
  0
VERTEX
  8
0
 62
7
 10
5.73400000
 20
8.99900000
  0
VERTEX
  8
0
 62
7
 10
5.68237500
 20
9.00475000
  0
VERTEX
  8
0
 62
7
 10
5.64200000
 20
9.01500000
  0
VERTEX
  8
0
 62
7
 10
5.59775000
 20
9.03637500
  0
VERTEX
  8
0
 62
7
 10
5.56100000
 20
9.06300000
  0
VERTEX
  8
0
 62
7
 10
5.53775000
 20
9.08800000
  0
VERTEX
  8
0
 62
7
 10
5.52200000
 20
9.11300000
  0
VERTEX
  8
0
 62
7
 10
5.51250000
 20
9.14362500
  0
VERTEX
  8
0
 62
7
 10
5.50900000
 20
9.18100000
  0
VERTEX
  8
0
 62
7
 10
5.51112500
 20
9.20762500
  0
VERTEX
  8
0
 62
7
 10
5.51700000
 20
9.23500000
  0
VERTEX
  8
0
 62
7
 10
5.54300000
 20
9.32700000
  0
VERTEX
  8
0
 62
7
 10
5.44900000
 20
9.34700000
  0
VERTEX
  8
0
 62
7
 10
5.42050000
 20
9.35150000
  0
VERTEX
  8
0
 62
7
 10
5.39200000
 20
9.35300000
  0
VERTEX
  8
0
 62
7
 10
5.35310938
 20
9.35018750
  0
VERTEX
  8
0
 62
7
 10
5.31487500
 20
9.34175000
  0
VERTEX
  8
0
 62
7
 10
5.27795313
 20
9.32768750
  0
VERTEX
  8
0
 62
7
 10
5.24300000
 20
9.30800000
  0
VERTEX
  8
0
 62
7
 10
5.21898438
 20
9.28885937
  0
VERTEX
  8
0
 62
7
 10
5.19937500
 20
9.26887500
  0
VERTEX
  8
0
 62
7
 10
5.18407813
 20
9.25020313
  0
VERTEX
  8
0
 62
7
 10
5.17300000
 20
9.23500000
  0
VERTEX
  8
0
 62
7
 10
5.16300000
 20
9.22100000
  0
VERTEX
  8
0
 62
7
 10
5.13700000
 20
9.18400000
  0
VERTEX
  8
0
 62
7
 10
5.11800000
 20
9.15600000
  0
VERTEX
  8
0
 62
7
 10
5.09900000
 20
9.13562500
  0
VERTEX
  8
0
 62
7
 10
5.08600000
 20
9.12500000
  0
VERTEX
  8
0
 62
7
 10
5.06200000
 20
9.11100000
  0
VERTEX
  8
0
 62
7
 10
5.05200000
 20
9.11000000
  0
VERTEX
  8
0
 62
7
 10
5.04400000
 20
9.11100000
  0
VERTEX
  8
0
 62
7
 10
5.03700000
 20
9.11600000
  0
VERTEX
  8
0
 62
7
 10
5.00537305
 20
9.13210938
  0
VERTEX
  8
0
 62
7
 10
4.97842188
 20
9.14212500
  0
VERTEX
  8
0
 62
7
 10
4.95566602
 20
9.14595313
  0
VERTEX
  8
0
 62
7
 10
4.93662500
 20
9.14350000
  0
VERTEX
  8
0
 62
7
 10
4.92081836
 20
9.13467188
  0
VERTEX
  8
0
 62
7
 10
4.90776563
 20
9.11937500
  0
VERTEX
  8
0
 62
7
 10
4.89698633
 20
9.09751563
  0
VERTEX
  8
0
 62
7
 10
4.88800000
 20
9.06900000
  0
VERTEX
  8
0
 62
7
 10
4.88437500
 20
9.04400000
  0
VERTEX
  8
0
 62
7
 10
4.88300000
 20
9.01900000
  0
VERTEX
  8
0
 62
7
 10
4.88396875
 20
8.99726563
  0
VERTEX
  8
0
 62
7
 10
4.88700000
 20
8.97562500
  0
VERTEX
  8
0
 62
7
 10
4.89228125
 20
8.95417188
  0
VERTEX
  8
0
 62
7
 10
4.90000000
 20
8.93300000
  0
VERTEX
  8
0
 62
7
 10
4.90929688
 20
8.91384375
  0
VERTEX
  8
0
 62
7
 10
4.92037500
 20
8.89675000
  0
VERTEX
  8
0
 62
7
 10
4.93276563
 20
8.88153125
  0
VERTEX
  8
0
 62
7
 10
4.94600000
 20
8.86800000
  0
VERTEX
  8
0
 62
7
 10
4.91000000
 20
8.86800000
  0
VERTEX
  8
0
 62
7
 10
4.91000000
 20
3.91000000
  0
VERTEX
  8
0
 62
7
 10
21.00000000
 20
3.91000000
  0
SEQEND
  0
POLYLINE
  8
0
 62
7
 66
1
 70
1
  0
VERTEX
  8
0
 62
7
 10
21.00000000
 20
4.00000000
  0
VERTEX
  8
0
 62
7
 10
37.00000000
 20
4.00000000
  0
VERTEX
  8
0
 62
7
 10
37.00000000
 20
8.77800000
  0
VERTEX
  8
0
 62
7
 10
33.15000000
 20
8.77700000
  0
VERTEX
  8
0
 62
7
 10
32.94000000
 20
8.77700000
  0
VERTEX
  8
0
 62
7
 10
32.97850000
 20
8.80912500
  0
VERTEX
  8
0
 62
7
 10
33.01100000
 20
8.84800000
  0
VERTEX
  8
0
 62
7
 10
33.01400000
 20
8.87000000
  0
VERTEX
  8
0
 62
7
 10
33.01500000
 20
8.88400000
  0
VERTEX
  8
0
 62
7
 10
33.01412500
 20
8.89887500
  0
VERTEX
  8
0
 62
7
 10
33.01100000
 20
8.91300000
  0
VERTEX
  8
0
 62
7
 10
33.00200000
 20
8.93000000
  0
VERTEX
  8
0
 62
7
 10
32.98800000
 20
8.95600000
  0
VERTEX
  8
0
 62
7
 10
32.98100000
 20
8.97000000
  0
VERTEX
  8
0
 62
7
 10
32.97471875
 20
8.98339063
  0
VERTEX
  8
0
 62
7
 10
32.96750000
 20
9.00062500
  0
VERTEX
  8
0
 62
7
 10
32.96103125
 20
9.02104688
  0
VERTEX
  8
0
 62
7
 10
32.95700000
 20
9.04400000
  0
VERTEX
  8
0
 62
7
 10
32.95700000
 20
9.05900000
  0
VERTEX
  8
0
 62
7
 10
32.95800000
 20
9.07300000
  0
VERTEX
  8
0
 62
7
 10
32.93712500
 20
9.06850000
  0
VERTEX
  8
0
 62
7
 10
32.91700000
 20
9.06700000
  0
VERTEX
  8
0
 62
7
 10
32.90175000
 20
9.02325000
  0
VERTEX
  8
0
 62
7
 10
32.88200000
 20
8.98100000
  0
VERTEX
  8
0
 62
7
 10
32.86525000
 20
8.95148438
  0
VERTEX
  8
0
 62
7
 10
32.84625000
 20
8.92337500
  0
VERTEX
  8
0
 62
7
 10
32.82462500
 20
8.89732813
  0
VERTEX
  8
0
 62
7
 10
32.80000000
 20
8.87400000
  0
VERTEX
  8
0
 62
7
 10
32.76979688
 20
8.85259375
  0
VERTEX
  8
0
 62
7
 10
32.73687500
 20
8.83550000
  0
VERTEX
  8
0
 62
7
 10
32.70226563
 20
8.82140625
  0
VERTEX
  8
0
 62
7
 10
32.66700000
 20
8.80900000
  0
VERTEX
  8
0
 62
7
 10
32.60175000
 20
8.79062500
  0
VERTEX
  8
0
 62
7
 10
32.53500000
 20
8.77900000
  0
VERTEX
  8
0
 62
7
 10
32.45462500
 20
8.77187500
  0
VERTEX
  8
0
 62
7
 10
32.35400000
 20
8.77000000
  0
VERTEX
  8
0
 62
7
 10
32.35400000
 20
8.57900000
  0
VERTEX
  8
0
 62
7
 10
33.17200000
 20
8.57800000
  0
VERTEX
  8
0
 62
7
 10
36.80000000
 20
8.57800000
  0
VERTEX
  8
0
 62
7
 10
36.80000000
 20
4.20000000
  0
VERTEX
  8
0
 62
7
 10
21.00000000
 20
4.20000000
  0
VERTEX
  8
0
 62
7
 10
5.20000000
 20
4.20000000
  0
VERTEX
  8
0
 62
7
 10
5.20000000
 20
8.57800000
  0
VERTEX
  8
0
 62
7
 10
8.82800000
 20
8.57800000
  0
VERTEX
  8
0
 62
7
 10
9.64600000
 20
8.57900000
  0
VERTEX
  8
0
 62
7
 10
9.64600000
 20
8.77000000
  0
VERTEX
  8
0
 62
7
 10
9.54537500
 20
8.77187500
  0
VERTEX
  8
0
 62
7
 10
9.46500000
 20
8.77900000
  0
VERTEX
  8
0
 62
7
 10
9.39825000
 20
8.79062500
  0
VERTEX
  8
0
 62
7
 10
9.33300000
 20
8.80900000
  0
VERTEX
  8
0
 62
7
 10
9.29773437
 20
8.82140625
  0
VERTEX
  8
0
 62
7
 10
9.26312500
 20
8.83550000
  0
VERTEX
  8
0
 62
7
 10
9.23020312
 20
8.85259375
  0
VERTEX
  8
0
 62
7
 10
9.20000000
 20
8.87400000
  0
VERTEX
  8
0
 62
7
 10
9.17537500
 20
8.89732813
  0
VERTEX
  8
0
 62
7
 10
9.15375000
 20
8.92337500
  0
VERTEX
  8
0
 62
7
 10
9.13475000
 20
8.95148438
  0
VERTEX
  8
0
 62
7
 10
9.11800000
 20
8.98100000
  0
VERTEX
  8
0
 62
7
 10
9.09825000
 20
9.02325000
  0
VERTEX
  8
0
 62
7
 10
9.08300000
 20
9.06700000
  0
VERTEX
  8
0
 62
7
 10
9.06287500
 20
9.06850000
  0
VERTEX
  8
0
 62
7
 10
9.04200000
 20
9.07300000
  0
VERTEX
  8
0
 62
7
 10
9.04300000
 20
9.05900000
  0
VERTEX
  8
0
 62
7
 10
9.04300000
 20
9.04400000
  0
VERTEX
  8
0
 62
7
 10
9.03896875
 20
9.02104688
  0
VERTEX
  8
0
 62
7
 10
9.03250000
 20
9.00062500
  0
VERTEX
  8
0
 62
7
 10
9.02528125
 20
8.98339063
  0
VERTEX
  8
0
 62
7
 10
9.01900000
 20
8.97000000
  0
VERTEX
  8
0
 62
7
 10
9.01200000
 20
8.95600000
  0
VERTEX
  8
0
 62
7
 10
8.99800000
 20
8.93000000
  0
VERTEX
  8
0
 62
7
 10
8.98900000
 20
8.91300000
  0
VERTEX
  8
0
 62
7
 10
8.98587500
 20
8.89887500
  0
VERTEX
  8
0
 62
7
 10
8.98500000
 20
8.88400000
  0
VERTEX
  8
0
 62
7
 10
8.98600000
 20
8.87000000
  0
VERTEX
  8
0
 62
7
 10
8.98900000
 20
8.84800000
  0
VERTEX
  8
0
 62
7
 10
9.02150000
 20
8.80912500
  0
VERTEX
  8
0
 62
7
 10
9.06000000
 20
8.77700000
  0
VERTEX
  8
0
 62
7
 10
8.85000000
 20
8.77700000
  0
VERTEX
  8
0
 62
7
 10
5.00000000
 20
8.77800000
  0
VERTEX
  8
0
 62
7
 10
5.00000000
 20
4.00000000
  0
VERTEX
  8
0
 62
7
 10
21.00000000
 20
4.00000000
  0
SEQEND
  0
POLYLINE
  8
0
 62
7
 66
1
 70
1
  0
VERTEX
  8
0
 62
7
 10
21.00000000
 20
12.79900000
  0
VERTEX
  8
0
 62
7
 10
21.40366211
 20
12.79499243
  0
VERTEX
  8
0
 62
7
 10
21.82160938
 20
12.78329883
  0
VERTEX
  8
0
 62
7
 10
22.25172070
 20
12.76441284
  0
VERTEX
  8
0
 62
7
 10
22.69187500
 20
12.73882813
  0
VERTEX
  8
0
 62
7
 10
23.13995117
 20
12.70703833
  0
VERTEX
  8
0
 62
7
 10
23.59382813
 20
12.66953711
  0
VERTEX
  8
0
 62
7
 10
24.05138477
 20
12.62681812
  0
VERTEX
  8
0
 62
7
 10
24.51050000
 20
12.57937500
  0
VERTEX
  8
0
 62
7
 10
24.96905273
 20
12.52770142
  0
VERTEX
  8
0
 62
7
 10
25.42492188
 20
12.47229102
  0
VERTEX
  8
0
 62
7
 10
25.87598633
 20
12.41363745
  0
VERTEX
  8
0
 62
7
 10
26.32012500
 20
12.35223438
  0
VERTEX
  8
0
 62
7
 10
26.75521680
 20
12.28857544
  0
VERTEX
  8
0
 62
7
 10
27.17914063
 20
12.22315430
  0
VERTEX
  8
0
 62
7
 10
27.58977539
 20
12.15646460
  0
VERTEX
  8
0
 62
7
 10
27.98500000
 20
12.08900000
  0
VERTEX
  8
0
 62
7
 10
28.35135352
 20
12.02520215
  0
VERTEX
  8
0
 62
7
 10
28.70056250
 20
11.96542969
  0
VERTEX
  8
0
 62
7
 10
29.03509961
 20
11.90967676
  0
VERTEX
  8
0
 62
7
 10
29.35743750
 20
11.85793750
  0
VERTEX
  8
0
 62
7
 10
29.67004883
 20
11.81020605
  0
VERTEX
  8
0
 62
7
 10
29.97540625
 20
11.76647656
  0
VERTEX
  8
0
 62
7
 10
30.27598242
 20
11.72674316
  0
VERTEX
  8
0
 62
7
 10
30.57425000
 20
11.69100000
  0
VERTEX
  8
0
 62
7
 10
30.87268164
 20
11.65924121
  0
VERTEX
  8
0
 62
7
 10
31.17375000
 20
11.63146094
  0
VERTEX
  8
0
 62
7
 10
31.47992773
 20
11.60765332
  0
VERTEX
  8
0
 62
7
 10
31.79368750
 20
11.58781250
  0
VERTEX
  8
0
 62
7
 10
32.11750195
 20
11.57193262
  0
VERTEX
  8
0
 62
7
 10
32.45384375
 20
11.56000781
  0
VERTEX
  8
0
 62
7
 10
32.80518555
 20
11.55203223
  0
VERTEX
  8
0
 62
7
 10
33.17400000
 20
11.54800000
  0
VERTEX
  8
0
 62
7
 10
33.17300000
 20
10.53500000
  0
VERTEX
  8
0
 62
7
 10
33.20175000
 20
10.53087500
  0
VERTEX
  8
0
 62
7
 10
33.23500000
 20
10.52000000
  0
VERTEX
  8
0
 62
7
 10
33.24600000
 20
10.51700000
  0
VERTEX
  8
0
 62
7
 10
33.25500000
 20
10.51900000
  0
VERTEX
  8
0
 62
7
 10
33.26142188
 20
10.52240625
  0
VERTEX
  8
0
 62
7
 10
33.26812500
 20
10.52825000
  0
VERTEX
  8
0
 62
7
 10
33.27426563
 20
10.53671875
  0
VERTEX
  8
0
 62
7
 10
33.27900000
 20
10.54800000
  0
VERTEX
  8
0
 62
7
 10
33.28697656
 20
10.56690625
  0
VERTEX
  8
0
 62
7
 10
33.29593750
 20
10.58243750
  0
VERTEX
  8
0
 62
7
 10
33.30592969
 20
10.59468750
  0
VERTEX
  8
0
 62
7
 10
33.31700000
 20
10.60375000
  0
VERTEX
  8
0
 62
7
 10
33.32919531
 20
10.60971875
  0
VERTEX
  8
0
 62
7
 10
33.34256250
 20
10.61268750
  0
VERTEX
  8
0
 62
7
 10
33.35714844
 20
10.61275000
  0
VERTEX
  8
0
 62
7
 10
33.37300000
 20
10.61000000
  0
VERTEX
  8
0
 62
7
 10
33.36900000
 20
11.74700000
  0
VERTEX
  8
0
 62
7
 10
32.98109619
 20
11.74907617
  0
VERTEX
  8
0
 62
7
 10
32.61317578
 20
11.75531250
  0
VERTEX
  8
0
 62
7
 10
32.26248779
 20
11.76572070
  0
VERTEX
  8
0
 62
7
 10
31.92628125
 20
11.78031250
  0
VERTEX
  8
0
 62
7
 10
31.60180518
 20
11.79909961
  0
VERTEX
  8
0
 62
7
 10
31.28630859
 20
11.82209375
  0
VERTEX
  8
0
 62
7
 10
30.97704053
 20
11.84930664
  0
VERTEX
  8
0
 62
7
 10
30.67125000
 20
11.88075000
  0
VERTEX
  8
0
 62
7
 10
30.36618604
 20
11.91643555
  0
VERTEX
  8
0
 62
7
 10
30.05909766
 20
11.95637500
  0
VERTEX
  8
0
 62
7
 10
29.74723389
 20
12.00058008
  0
VERTEX
  8
0
 62
7
 10
29.42784375
 20
12.04906250
  0
VERTEX
  8
0
 62
7
 10
29.09817627
 20
12.10183398
  0
VERTEX
  8
0
 62
7
 10
28.75548047
 20
12.15890625
  0
VERTEX
  8
0
 62
7
 10
28.39700537
 20
12.22029102
  0
VERTEX
  8
0
 62
7
 10
28.02000000
 20
12.28600000
  0
VERTEX
  8
0
 62
7
 10
27.62374536
 20
12.35366309
  0
VERTEX
  8
0
 62
7
 10
27.21190039
 20
12.42057031
  0
VERTEX
  8
0
 62
7
 10
26.78659351
 20
12.48622363
  0
VERTEX
  8
0
 62
7
 10
26.34995313
 20
12.55012500
  0
VERTEX
  8
0
 62
7
 10
25.90410767
 20
12.61177637
  0
VERTEX
  8
0
 62
7
 10
25.45118555
 20
12.67067969
  0
VERTEX
  8
0
 62
7
 10
24.99331519
 20
12.72633691
  0
VERTEX
  8
0
 62
7
 10
24.53262500
 20
12.77825000
  0
VERTEX
  8
0
 62
7
 10
24.07124341
 20
12.82592090
  0
VERTEX
  8
0
 62
7
 10
23.61129883
 20
12.86885156
  0
VERTEX
  8
0
 62
7
 10
23.15491968
 20
12.90654395
  0
VERTEX
  8
0
 62
7
 10
22.70423438
 20
12.93850000
  0
VERTEX
  8
0
 62
7
 10
22.26137134
 20
12.96422168
  0
VERTEX
  8
0
 62
7
 10
21.82845898
 20
12.98321094
  0
VERTEX
  8
0
 62
7
 10
21.40762573
 20
12.99496973
  0
VERTEX
  8
0
 62
7
 10
21.00100000
 20
12.99900000
  0
VERTEX
  8
0
 62
7
 10
20.59435181
 20
12.99496973
  0
VERTEX
  8
0
 62
7
 10
20.17345508
 20
12.98321094
  0
VERTEX
  8
0
 62
7
 10
19.74044409
 20
12.96422168
  0
VERTEX
  8
0
 62
7
 10
19.29745313
 20
12.93850000
  0
VERTEX
  8
0
 62
7
 10
18.84661646
 20
12.90654395
  0
VERTEX
  8
0
 62
7
 10
18.39006836
 20
12.86885156
  0
VERTEX
  8
0
 62
7
 10
17.92994312
 20
12.82592090
  0
VERTEX
  8
0
 62
7
 10
17.46837500
 20
12.77825000
  0
VERTEX
  8
0
 62
7
 10
17.00749829
 20
12.72633691
  0
VERTEX
  8
0
 62
7
 10
16.54944727
 20
12.67067969
  0
VERTEX
  8
0
 62
7
 10
16.09635620
 20
12.61177637
  0
VERTEX
  8
0
 62
7
 10
15.65035938
 20
12.55012500
  0
VERTEX
  8
0
 62
7
 10
15.21359106
 20
12.48622363
  0
VERTEX
  8
0
 62
7
 10
14.78818555
 20
12.42057031
  0
VERTEX
  8
0
 62
7
 10
14.37627710
 20
12.35366309
  0
VERTEX
  8
0
 62
7
 10
13.98000000
 20
12.28600000
  0
VERTEX
  8
0
 62
7
 10
13.60299463
 20
12.22029102
  0
VERTEX
  8
0
 62
7
 10
13.24451953
 20
12.15890625
  0
VERTEX
  8
0
 62
7
 10
12.90182373
 20
12.10183398
  0
VERTEX
  8
0
 62
7
 10
12.57215625
 20
12.04906250
  0
VERTEX
  8
0
 62
7
 10
12.25276611
 20
12.00058008
  0
VERTEX
  8
0
 62
7
 10
11.94090234
 20
11.95637500
  0
VERTEX
  8
0
 62
7
 10
11.63381396
 20
11.91643555
  0
VERTEX
  8
0
 62
7
 10
11.32875000
 20
11.88075000
  0
VERTEX
  8
0
 62
7
 10
11.02295947
 20
11.84930664
  0
VERTEX
  8
0
 62
7
 10
10.71369141
 20
11.82209375
  0
VERTEX
  8
0
 62
7
 10
10.39819482
 20
11.79909961
  0
VERTEX
  8
0
 62
7
 10
10.07371875
 20
11.78031250
  0
VERTEX
  8
0
 62
7
 10
9.73751221
 20
11.76572070
  0
VERTEX
  8
0
 62
7
 10
9.38682422
 20
11.75531250
  0
VERTEX
  8
0
 62
7
 10
9.01890381
 20
11.74907617
  0
VERTEX
  8
0
 62
7
 10
8.63100000
 20
11.74700000
  0
VERTEX
  8
0
 62
7
 10
8.62700000
 20
10.61000000
  0
VERTEX
  8
0
 62
7
 10
8.64285156
 20
10.61275000
  0
VERTEX
  8
0
 62
7
 10
8.65743750
 20
10.61268750
  0
VERTEX
  8
0
 62
7
 10
8.67080469
 20
10.60971875
  0
VERTEX
  8
0
 62
7
 10
8.68300000
 20
10.60375000
  0
VERTEX
  8
0
 62
7
 10
8.69407031
 20
10.59468750
  0
VERTEX
  8
0
 62
7
 10
8.70406250
 20
10.58243750
  0
VERTEX
  8
0
 62
7
 10
8.71302344
 20
10.56690625
  0
VERTEX
  8
0
 62
7
 10
8.72100000
 20
10.54800000
  0
VERTEX
  8
0
 62
7
 10
8.72573438
 20
10.53671875
  0
VERTEX
  8
0
 62
7
 10
8.73187500
 20
10.52825000
  0
VERTEX
  8
0
 62
7
 10
8.73857813
 20
10.52240625
  0
VERTEX
  8
0
 62
7
 10
8.74500000
 20
10.51900000
  0
VERTEX
  8
0
 62
7
 10
8.75400000
 20
10.51700000
  0
VERTEX
  8
0
 62
7
 10
8.76500000
 20
10.52000000
  0
VERTEX
  8
0
 62
7
 10
8.79825000
 20
10.53087500
  0
VERTEX
  8
0
 62
7
 10
8.82700000
 20
10.53500000
  0
VERTEX
  8
0
 62
7
 10
8.82600000
 20
11.54800000
  0
VERTEX
  8
0
 62
7
 10
9.19481445
 20
11.55203223
  0
VERTEX
  8
0
 62
7
 10
9.54615625
 20
11.56000781
  0
VERTEX
  8
0
 62
7
 10
9.88249805
 20
11.57193262
  0
VERTEX
  8
0
 62
7
 10
10.20631250
 20
11.58781250
  0
VERTEX
  8
0
 62
7
 10
10.52007227
 20
11.60765332
  0
VERTEX
  8
0
 62
7
 10
10.82625000
 20
11.63146094
  0
VERTEX
  8
0
 62
7
 10
11.12731836
 20
11.65924121
  0
VERTEX
  8
0
 62
7
 10
11.42575000
 20
11.69100000
  0
VERTEX
  8
0
 62
7
 10
11.72401758
 20
11.72674316
  0
VERTEX
  8
0
 62
7
 10
12.02459375
 20
11.76647656
  0
VERTEX
  8
0
 62
7
 10
12.32995117
 20
11.81020605
  0
VERTEX
  8
0
 62
7
 10
12.64256250
 20
11.85793750
  0
VERTEX
  8
0
 62
7
 10
12.96490039
 20
11.90967676
  0
VERTEX
  8
0
 62
7
 10
13.29943750
 20
11.96542969
  0
VERTEX
  8
0
 62
7
 10
13.64864648
 20
12.02520215
  0
VERTEX
  8
0
 62
7
 10
14.01500000
 20
12.08900000
  0
VERTEX
  8
0
 62
7
 10
14.41022461
 20
12.15646460
  0
VERTEX
  8
0
 62
7
 10
14.82085938
 20
12.22315430
  0
VERTEX
  8
0
 62
7
 10
15.24478320
 20
12.28857544
  0
VERTEX
  8
0
 62
7
 10
15.67987500
 20
12.35223438
  0
VERTEX
  8
0
 62
7
 10
16.12401367
 20
12.41363745
  0
VERTEX
  8
0
 62
7
 10
16.57507813
 20
12.47229102
  0
VERTEX
  8
0
 62
7
 10
17.03094727
 20
12.52770142
  0
VERTEX
  8
0
 62
7
 10
17.48950000
 20
12.57937500
  0
VERTEX
  8
0
 62
7
 10
17.94861523
 20
12.62681812
  0
VERTEX
  8
0
 62
7
 10
18.40617188
 20
12.66953711
  0
VERTEX
  8
0
 62
7
 10
18.86004883
 20
12.70703833
  0
VERTEX
  8
0
 62
7
 10
19.30812500
 20
12.73882813
  0
VERTEX
  8
0
 62
7
 10
19.74827930
 20
12.76441284
  0
VERTEX
  8
0
 62
7
 10
20.17839063
 20
12.78329883
  0
VERTEX
  8
0
 62
7
 10
20.59633789
 20
12.79499243
  0
VERTEX
  8
0
 62
7
 10
21.00000000
 20
12.79900000
  0
SEQEND
  0
POLYLINE
  8
0
 62
7
 66
1
 70
1
  0
VERTEX
  8
0
 62
7
 10
35.46300000
 20
8.96100000
  0
VERTEX
  8
0
 62
7
 10
35.47100000
 20
8.95300000
  0
VERTEX
  8
0
 62
7
 10
35.50250000
 20
8.92712500
  0
VERTEX
  8
0
 62
7
 10
35.53700000
 20
8.90500000
  0
VERTEX
  8
0
 62
7
 10
35.57103125
 20
8.88746875
  0
VERTEX
  8
0
 62
7
 10
35.60675000
 20
8.87350000
  0
VERTEX
  8
0
 62
7
 10
35.64359375
 20
8.86253125
  0
VERTEX
  8
0
 62
7
 10
35.68100000
 20
8.85400000
  0
VERTEX
  8
0
 62
7
 10
35.74203125
 20
8.84634375
  0
VERTEX
  8
0
 62
7
 10
35.80325000
 20
8.84600000
  0
VERTEX
  8
0
 62
7
 10
35.86409375
 20
8.85315625
  0
VERTEX
  8
0
 62
7
 10
35.92400000
 20
8.86800000
  0
VERTEX
  8
0
 62
7
 10
35.95293750
 20
8.86292188
  0
VERTEX
  8
0
 62
7
 10
35.98150000
 20
8.85512500
  0
VERTEX
  8
0
 62
7
 10
36.01006250
 20
8.84676563
  0
VERTEX
  8
0
 62
7
 10
36.03900000
 20
8.84000000
  0
VERTEX
  8
0
 62
7
 10
36.07875000
 20
8.83231250
  0
VERTEX
  8
0
 62
7
 10
36.12225000
 20
8.82500000
  0
VERTEX
  8
0
 62
7
 10
36.16612500
 20
8.81918750
  0
VERTEX
  8
0
 62
7
 10
36.20700000
 20
8.81600000
  0
VERTEX
  8
0
 62
7
 10
36.25295313
 20
8.81428125
  0
VERTEX
  8
0
 62
7
 10
36.29337500
 20
8.81425000
  0
VERTEX
  8
0
 62
7
 10
36.33510938
 20
8.81684375
  0
VERTEX
  8
0
 62
7
 10
36.38500000
 20
8.82300000
  0
VERTEX
  8
0
 62
7
 10
36.51100000
 20
8.84300000
  0
VERTEX
  8
0
 62
7
 10
36.57450000
 20
8.85162500
  0
VERTEX
  8
0
 62
7
 10
36.63800000
 20
8.85800000
  0
VERTEX
  8
0
 62
7
 10
36.75500000
 20
8.86200000
  0
VERTEX
  8
0
 62
7
 10
36.79000000
 20
8.86237500
  0
VERTEX
  8
0
 62
7
 10
36.82500000
 20
8.86500000
  0
VERTEX
  8
0
 62
7
 10
36.85567188
 20
8.86889063
  0
VERTEX
  8
0
 62
7
 10
36.88587500
 20
8.87512500
  0
VERTEX
  8
0
 62
7
 10
36.91514063
 20
8.88454688
  0
VERTEX
  8
0
 62
7
 10
36.94300000
 20
8.89800000
  0
VERTEX
  8
0
 62
7
 10
36.96525000
 20
8.91189063
  0
VERTEX
  8
0
 62
7
 10
36.98600000
 20
8.92737500
  0
VERTEX
  8
0
 62
7
 10
37.00375000
 20
8.94567188
  0
VERTEX
  8
0
 62
7
 10
37.01700000
 20
8.96800000
  0
VERTEX
  8
0
 62
7
 10
37.02357813
 20
8.98782813
  0
VERTEX
  8
0
 62
7
 10
37.02687500
 20
9.00812500
  0
VERTEX
  8
0
 62
7
 10
37.02698438
 20
9.02860938
  0
VERTEX
  8
0
 62
7
 10
37.02400000
 20
9.04900000
  0
VERTEX
  8
0
 62
7
 10
37.00662500
 20
9.03612500
  0
VERTEX
  8
0
 62
7
 10
36.98700000
 20
9.02700000
  0
VERTEX
  8
0
 62
7
 10
36.97092188
 20
9.02243750
  0
VERTEX
  8
0
 62
7
 10
36.95437500
 20
9.02050000
  0
VERTEX
  8
0
 62
7
 10
36.93764063
 20
9.02081250
  0
VERTEX
  8
0
 62
7
 10
36.92100000
 20
9.02300000
  0
VERTEX
  8
0
 62
7
 10
36.89187500
 20
9.03337500
  0
VERTEX
  8
0
 62
7
 10
36.86500000
 20
9.04900000
  0
VERTEX
  8
0
 62
7
 10
36.83762500
 20
9.07112500
  0
VERTEX
  8
0
 62
7
 10
36.81400000
 20
9.09700000
  0
VERTEX
  8
0
 62
7
 10
36.76600000
 20
9.16600000
  0
VERTEX
  8
0
 62
7
 10
36.75270313
 20
9.18378125
  0
VERTEX
  8
0
 62
7
 10
36.73912500
 20
9.20175000
  0
VERTEX
  8
0
 62
7
 10
36.72423438
 20
9.21859375
  0
VERTEX
  8
0
 62
7
 10
36.70700000
 20
9.23300000
  0
VERTEX
  8
0
 62
7
 10
36.67532813
 20
9.24985938
  0
VERTEX
  8
0
 62
7
 10
36.64112500
 20
9.25987500
  0
VERTEX
  8
0
 62
7
 10
36.60560938
 20
9.26295312
  0
VERTEX
  8
0
 62
7
 10
36.57000000
 20
9.25900000
  0
VERTEX
  8
0
 62
7
 10
36.57812500
 20
9.22037500
  0
VERTEX
  8
0
 62
7
 10
36.58100000
 20
9.18100000
  0
VERTEX
  8
0
 62
7
 10
36.57981250
 20
9.15331250
  0
VERTEX
  8
0
 62
7
 10
36.57600000
 20
9.12600000
  0
VERTEX
  8
0
 62
7
 10
36.56918750
 20
9.09943750
  0
VERTEX
  8
0
 62
7
 10
36.55900000
 20
9.07400000
  0
VERTEX
  8
0
 62
7
 10
36.54725000
 20
9.05240625
  0
VERTEX
  8
0
 62
7
 10
36.53325000
 20
9.03250000
  0
VERTEX
  8
0
 62
7
 10
36.51737500
 20
9.01409375
  0
VERTEX
  8
0
 62
7
 10
36.50000000
 20
8.99700000
  0
VERTEX
  8
0
 62
7
 10
36.47492188
 20
8.97614062
  0
VERTEX
  8
0
 62
7
 10
36.44787500
 20
8.95837500
  0
VERTEX
  8
0
 62
7
 10
36.41914063
 20
8.94342188
  0
VERTEX
  8
0
 62
7
 10
36.38900000
 20
8.93100000
  0
VERTEX
  8
0
 62
7
 10
36.36106250
 20
8.92221875
  0
VERTEX
  8
0
 62
7
 10
36.33275000
 20
8.91625000
  0
VERTEX
  8
0
 62
7
 10
36.30406250
 20
8.91215625
  0
VERTEX
  8
0
 62
7
 10
36.27500000
 20
8.90900000
  0
VERTEX
  8
0
 62
7
 10
36.21250000
 20
8.90637500
  0
VERTEX
  8
0
 62
7
 10
36.15000000
 20
8.90900000
  0
VERTEX
  8
0
 62
7
 10
36.11926563
 20
8.91153125
  0
VERTEX
  8
0
 62
7
 10
36.08862500
 20
8.91500000
  0
VERTEX
  8
0
 62
7
 10
36.05817188
 20
8.91996875
  0
VERTEX
  8
0
 62
7
 10
36.02800000
 20
8.92700000
  0
VERTEX
  8
0
 62
7
 10
35.97725000
 20
8.94325000
  0
VERTEX
  8
0
 62
7
 10
35.92800000
 20
8.96400000
  0
VERTEX
  8
0
 62
7
 10
35.88447266
 20
8.98522070
  0
VERTEX
  8
0
 62
7
 10
35.84246875
 20
9.00907813
  0
VERTEX
  8
0
 62
7
 10
35.80210547
 20
9.03549023
  0
VERTEX
  8
0
 62
7
 10
35.76350000
 20
9.06437500
  0
VERTEX
  8
0
 62
7
 10
35.72676953
 20
9.09565039
  0
VERTEX
  8
0
 62
7
 10
35.69203125
 20
9.12923437
  0
VERTEX
  8
0
 62
7
 10
35.65940234
 20
9.16504492
  0
VERTEX
  8
0
 62
7
 10
35.62900000
 20
9.20300000
  0
VERTEX
  8
0
 62
7
 10
35.65728125
 20
9.19101563
  0
VERTEX
  8
0
 62
7
 10
35.68650000
 20
9.18212500
  0
VERTEX
  8
0
 62
7
 10
35.71646875
 20
9.17642188
  0
VERTEX
  8
0
 62
7
 10
35.74700000
 20
9.17400000
  0
VERTEX
  8
0
 62
7
 10
35.77934375
 20
9.17510938
  0
VERTEX
  8
0
 62
7
 10
35.81150000
 20
9.17987500
  0
VERTEX
  8
0
 62
7
 10
35.84290625
 20
9.18820312
  0
VERTEX
  8
0
 62
7
 10
35.87300000
 20
9.20000000
  0
VERTEX
  8
0
 62
7
 10
35.85100000
 20
9.24700000
  0
VERTEX
  8
0
 62
7
 10
35.88901563
 20
9.24775000
  0
VERTEX
  8
0
 62
7
 10
35.92637500
 20
9.25300000
  0
VERTEX
  8
0
 62
7
 10
35.96279688
 20
9.26275000
  0
VERTEX
  8
0
 62
7
 10
35.99800000
 20
9.27700000
  0
VERTEX
  8
0
 62
7
 10
36.03204688
 20
9.29626563
  0
VERTEX
  8
0
 62
7
 10
36.06337500
 20
9.31937500
  0
VERTEX
  8
0
 62
7
 10
36.09151563
 20
9.34604688
  0
VERTEX
  8
0
 62
7
 10
36.11600000
 20
9.37600000
  0
VERTEX
  8
0
 62
7
 10
36.08825000
 20
9.39550000
  0
VERTEX
  8
0
 62
7
 10
36.06500000
 20
9.42100000
  0
VERTEX
  8
0
 62
7
 10
36.05426563
 20
9.43984375
  0
VERTEX
  8
0
 62
7
 10
36.04662500
 20
9.46000000
  0
VERTEX
  8
0
 62
7
 10
36.04067188
 20
9.48090625
  0
VERTEX
  8
0
 62
7
 10
36.03500000
 20
9.50200000
  0
VERTEX
  8
0
 62
7
 10
36.03110938
 20
9.52239063
  0
VERTEX
  8
0
 62
7
 10
36.02862500
 20
9.54287500
  0
VERTEX
  8
0
 62
7
 10
36.02557813
 20
9.56317188
  0
VERTEX
  8
0
 62
7
 10
36.02000000
 20
9.58300000
  0
VERTEX
  8
0
 62
7
 10
36.00300000
 20
9.61787500
  0
VERTEX
  8
0
 62
7
 10
35.98000000
 20
9.64900000
  0
VERTEX
  8
0
 62
7
 10
36.00900000
 20
9.73700000
  0
VERTEX
  8
0
 62
7
 10
35.98896875
 20
9.74939063
  0
VERTEX
  8
0
 62
7
 10
35.96800000
 20
9.75962500
  0
VERTEX
  8
0
 62
7
 10
35.94628125
 20
9.76779688
  0
VERTEX
  8
0
 62
7
 10
35.92400000
 20
9.77400000
  0
VERTEX
  8
0
 62
7
 10
35.89668750
 20
9.77821875
  0
VERTEX
  8
0
 62
7
 10
35.86900000
 20
9.77925000
  0
VERTEX
  8
0
 62
7
 10
35.84131250
 20
9.77765625
  0
VERTEX
  8
0
 62
7
 10
35.81400000
 20
9.77400000
  0
VERTEX
  8
0
 62
7
 10
35.78562500
 20
9.76762500
  0
VERTEX
  8
0
 62
7
 10
35.75800000
 20
9.75900000
  0
VERTEX
  8
0
 62
7
 10
35.70337500
 20
9.73575000
  0
VERTEX
  8
0
 62
7
 10
35.65100000
 20
9.70800000
  0
VERTEX
  8
0
 62
7
 10
35.63700000
 20
9.70000000
  0
VERTEX
  8
0
 62
7
 10
35.62998438
 20
9.69928125
  0
VERTEX
  8
0
 62
7
 10
35.62287500
 20
9.70025000
  0
VERTEX
  8
0
 62
7
 10
35.61632813
 20
9.70309375
  0
VERTEX
  8
0
 62
7
 10
35.61100000
 20
9.70800000
  0
VERTEX
  8
0
 62
7
 10
35.60754688
 20
9.71596875
  0
VERTEX
  8
0
 62
7
 10
35.60812500
 20
9.72450000
  0
VERTEX
  8
0
 62
7
 10
35.61114063
 20
9.73303125
  0
VERTEX
  8
0
 62
7
 10
35.61500000
 20
9.74100000
  0
VERTEX
  8
0
 62
7
 10
35.62087500
 20
9.75075000
  0
VERTEX
  8
0
 62
7
 10
35.62900000
 20
9.75900000
  0
VERTEX
  8
0
 62
7
 10
35.63640625
 20
9.76353125
  0
VERTEX
  8
0
 62
7
 10
35.64475000
 20
9.76600000
  0
VERTEX
  8
0
 62
7
 10
35.65346875
 20
9.76771875
  0
VERTEX
  8
0
 62
7
 10
35.66200000
 20
9.77000000
  0
VERTEX
  8
0
 62
7
 10
35.70113867
 20
9.78803711
  0
VERTEX
  8
0
 62
7
 10
35.73735938
 20
9.81042187
  0
VERTEX
  8
0
 62
7
 10
35.77036914
 20
9.83681445
  0
VERTEX
  8
0
 62
7
 10
35.79987500
 20
9.86687500
  0
VERTEX
  8
0
 62
7
 10
35.82558398
 20
9.90026367
  0
VERTEX
  8
0
 62
7
 10
35.84720313
 20
9.93664063
  0
VERTEX
  8
0
 62
7
 10
35.86443945
 20
9.97566602
  0
VERTEX
  8
0
 62
7
 10
35.87700000
 20
10.01700000
  0
VERTEX
  8
0
 62
7
 10
35.80600000
 20
10.09500000
  0
VERTEX
  8
0
 62
7
 10
35.81389063
 20
10.13043750
  0
VERTEX
  8
0
 62
7
 10
35.81962500
 20
10.16625000
  0
VERTEX
  8
0
 62
7
 10
35.82329688
 20
10.20243750
  0
VERTEX
  8
0
 62
7
 10
35.82500000
 20
10.23900000
  0
VERTEX
  8
0
 62
7
 10
35.82287500
 20
10.30187500
  0
VERTEX
  8
0
 62
7
 10
35.81400000
 20
10.36400000
  0
VERTEX
  8
0
 62
7
 10
35.75100000
 20
10.37500000
  0
VERTEX
  8
0
 62
7
 10
35.75400000
 20
10.43950000
  0
VERTEX
  8
0
 62
7
 10
35.75100000
 20
10.50400000
  0
VERTEX
  8
0
 62
7
 10
35.74654688
 20
10.54520313
  0
VERTEX
  8
0
 62
7
 10
35.74012500
 20
10.58612500
  0
VERTEX
  8
0
 62
7
 10
35.73089063
 20
10.62648438
  0
VERTEX
  8
0
 62
7
 10
35.71800000
 20
10.66600000
  0
VERTEX
  8
0
 62
7
 10
35.70481250
 20
10.69973438
  0
VERTEX
  8
0
 62
7
 10
35.68975000
 20
10.73262500
  0
VERTEX
  8
0
 62
7
 10
35.67131250
 20
10.76345313
  0
VERTEX
  8
0
 62
7
 10
35.64800000
 20
10.79100000
  0
VERTEX
  8
0
 62
7
 10
35.63032813
 20
10.80685938
  0
VERTEX
  8
0
 62
7
 10
35.61162500
 20
10.82112500
  0
VERTEX
  8
0
 62
7
 10
35.59160938
 20
10.83332813
  0
VERTEX
  8
0
 62
7
 10
35.57000000
 20
10.84300000
  0
VERTEX
  8
0
 62
7
 10
35.54325000
 20
10.85070313
  0
VERTEX
  8
0
 62
7
 10
35.51575000
 20
10.85437500
  0
VERTEX
  8
0
 62
7
 10
35.48787500
 20
10.85410938
  0
VERTEX
  8
0
 62
7
 10
35.46000000
 20
10.85000000
  0
VERTEX
  8
0
 62
7
 10
35.48225000
 20
10.83225000
  0
VERTEX
  8
0
 62
7
 10
35.50000000
 20
10.81000000
  0
VERTEX
  8
0
 62
7
 10
35.50881250
 20
10.79025000
  0
VERTEX
  8
0
 62
7
 10
35.51350000
 20
10.76900000
  0
VERTEX
  8
0
 62
7
 10
35.51518750
 20
10.74700000
  0
VERTEX
  8
0
 62
7
 10
35.51500000
 20
10.72500000
  0
VERTEX
  8
0
 62
7
 10
35.51290625
 20
10.70122266
  0
VERTEX
  8
0
 62
7
 10
35.50818750
 20
10.67803125
  0
VERTEX
  8
0
 62
7
 10
35.50093750
 20
10.65563672
  0
VERTEX
  8
0
 62
7
 10
35.49125000
 20
10.63425000
  0
VERTEX
  8
0
 62
7
 10
35.47921875
 20
10.61408203
  0
VERTEX
  8
0
 62
7
 10
35.46493750
 20
10.59534375
  0
VERTEX
  8
0
 62
7
 10
35.44850000
 20
10.57824609
  0
VERTEX
  8
0
 62
7
 10
35.43000000
 20
10.56300000
  0
VERTEX
  8
0
 62
7
 10
35.38200000
 20
10.61500000
  0
VERTEX
  8
0
 62
7
 10
35.35737500
 20
10.57987500
  0
VERTEX
  8
0
 62
7
 10
35.33800000
 20
10.54100000
  0
VERTEX
  8
0
 62
7
 10
35.32954688
 20
10.51409375
  0
VERTEX
  8
0
 62
7
 10
35.32437500
 20
10.48625000
  0
VERTEX
  8
0
 62
7
 10
35.32126563
 20
10.45803125
  0
VERTEX
  8
0
 62
7
 10
35.31900000
 20
10.43000000
  0
VERTEX
  8
0
 62
7
 10
35.31787500
 20
10.37850000
  0
VERTEX
  8
0
 62
7
 10
35.31900000
 20
10.32700000
  0
VERTEX
  8
0
 62
7
 10
35.31970313
 20
10.31709375
  0
VERTEX
  8
0
 62
7
 10
35.32087500
 20
10.30700000
  0
VERTEX
  8
0
 62
7
 10
35.32110938
 20
10.29690625
  0
VERTEX
  8
0
 62
7
 10
35.31900000
 20
10.28700000
  0
VERTEX
  8
0
 62
7
 10
35.31432813
 20
10.27678125
  0
VERTEX
  8
0
 62
7
 10
35.30787500
 20
10.26750000
  0
VERTEX
  8
0
 62
7
 10
35.29973438
 20
10.25971875
  0
VERTEX
  8
0
 62
7
 10
35.29000000
 20
10.25400000
  0
VERTEX
  8
0
 62
7
 10
35.27846875
 20
10.25053125
  0
VERTEX
  8
0
 62
7
 10
35.26675000
 20
10.24950000
  0
VERTEX
  8
0
 62
7
 10
35.25540625
 20
10.25146875
  0
VERTEX
  8
0
 62
7
 10
35.24500000
 20
10.25700000
  0
VERTEX
  8
0
 62
7
 10
35.23803125
 20
10.26565625
  0
VERTEX
  8
0
 62
7
 10
35.23425000
 20
10.27600000
  0
VERTEX
  8
0
 62
7
 10
35.23234375
 20
10.28709375
  0
VERTEX
  8
0
 62
7
 10
35.23100000
 20
10.29800000
  0
VERTEX
  8
0
 62
7
 10
35.22970313
 20
10.31582813
  0
VERTEX
  8
0
 62
7
 10
35.23112500
 20
10.33337500
  0
VERTEX
  8
0
 62
7
 10
35.23423438
 20
10.35073438
  0
VERTEX
  8
0
 62
7
 10
35.23800000
 20
10.36800000
  0
VERTEX
  8
0
 62
7
 10
35.25112500
 20
10.41125000
  0
VERTEX
  8
0
 62
7
 10
35.26800000
 20
10.45300000
  0
VERTEX
  8
0
 62
7
 10
35.30800000
 20
10.54100000
  0
VERTEX
  8
0
 62
7
 10
35.32121875
 20
10.57343750
  0
VERTEX
  8
0
 62
7
 10
35.33350000
 20
10.60625000
  0
VERTEX
  8
0
 62
7
 10
35.34428125
 20
10.63943750
  0
VERTEX
  8
0
 62
7
 10
35.35300000
 20
10.67300000
  0
VERTEX
  8
0
 62
7
 10
35.36193750
 20
10.72432813
  0
VERTEX
  8
0
 62
7
 10
35.36675000
 20
10.77612500
  0
VERTEX
  8
0
 62
7
 10
35.36818750
 20
10.82810938
  0
VERTEX
  8
0
 62
7
 10
35.36700000
 20
10.88000000
  0
VERTEX
  8
0
 62
7
 10
35.36325000
 20
10.93096875
  0
VERTEX
  8
0
 62
7
 10
35.35650000
 20
10.98175000
  0
VERTEX
  8
0
 62
7
 10
35.34675000
 20
11.03215625
  0
VERTEX
  8
0
 62
7
 10
35.33400000
 20
11.08200000
  0
VERTEX
  8
0
 62
7
 10
35.25300000
 20
11.10100000
  0
VERTEX
  8
0
 62
7
 10
35.24348438
 20
11.17254688
  0
VERTEX
  8
0
 62
7
 10
35.22712500
 20
11.24287500
  0
VERTEX
  8
0
 62
7
 10
35.20420313
 20
11.31151563
  0
VERTEX
  8
0
 62
7
 10
35.17500000
 20
11.37800000
  0
VERTEX
  8
0
 62
7
 10
35.14443750
 20
11.43290625
  0
VERTEX
  8
0
 62
7
 10
35.10975000
 20
11.48500000
  0
VERTEX
  8
0
 62
7
 10
35.07093750
 20
11.53409375
  0
VERTEX
  8
0
 62
7
 10
35.02800000
 20
11.58000000
  0
VERTEX
  8
0
 62
7
 10
34.96100000
 20
11.55100000
  0
VERTEX
  8
0
 62
7
 10
34.92485938
 20
11.60084375
  0
VERTEX
  8
0
 62
7
 10
34.88562500
 20
11.64825000
  0
VERTEX
  8
0
 62
7
 10
34.84357813
 20
11.69303125
  0
VERTEX
  8
0
 62
7
 10
34.79900000
 20
11.73500000
  0
VERTEX
  8
0
 62
7
 10
34.74896875
 20
11.77620313
  0
VERTEX
  8
0
 62
7
 10
34.69650000
 20
11.81412500
  0
VERTEX
  8
0
 62
7
 10
34.64178125
 20
11.84848438
  0
VERTEX
  8
0
 62
7
 10
34.58500000
 20
11.87900000
  0
VERTEX
  8
0
 62
7
 10
34.59928125
 20
11.84412500
  0
VERTEX
  8
0
 62
7
 10
34.61075000
 20
11.80850000
  0
VERTEX
  8
0
 62
7
 10
34.61959375
 20
11.77212500
  0
VERTEX
  8
0
 62
7
 10
34.62600000
 20
11.73500000
  0
VERTEX
  8
0
 62
7
 10
34.62937500
 20
11.70109375
  0
VERTEX
  8
0
 62
7
 10
34.63050000
 20
11.66700000
  0
VERTEX
  8
0
 62
7
 10
34.62937500
 20
11.63290625
  0
VERTEX
  8
0
 62
7
 10
34.62600000
 20
11.59900000
  0
VERTEX
  8
0
 62
7
 10
34.55500000
 20
11.59900000
  0
VERTEX
  8
0
 62
7
 10
34.55034375
 20
11.57679688
  0
VERTEX
  8
0
 62
7
 10
34.54925000
 20
11.55487500
  0
VERTEX
  8
0
 62
7
 10
34.55078125
 20
11.53276563
  0
VERTEX
  8
0
 62
7
 10
34.55400000
 20
11.51000000
  0
VERTEX
  8
0
 62
7
 10
34.55923438
 20
11.48692188
  0
VERTEX
  8
0
 62
7
 10
34.56662500
 20
11.46412500
  0
VERTEX
  8
0
 62
7
 10
34.57495313
 20
11.44151563
  0
VERTEX
  8
0
 62
7
 10
34.58300000
 20
11.41900000
  0
VERTEX
  8
0
 62
7
 10
34.59100000
 20
11.39812500
  0
VERTEX
  8
0
 62
7
 10
34.59900000
 20
11.37725000
  0
VERTEX
  8
0
 62
7
 10
34.60550000
 20
11.35600000
  0
VERTEX
  8
0
 62
7
 10
34.60900000
 20
11.33400000
  0
VERTEX
  8
0
 62
7
 10
34.60929688
 20
11.31735938
  0
VERTEX
  8
0
 62
7
 10
34.60837500
 20
11.30062500
  0
VERTEX
  8
0
 62
7
 10
34.60576563
 20
11.28407813
  0
VERTEX
  8
0
 62
7
 10
34.60100000
 20
11.26800000
  0
VERTEX
  8
0
 62
7
 10
34.59400000
 20
11.25300000
  0
VERTEX
  8
0
 62
7
 10
34.58375000
 20
11.24875000
  0
VERTEX
  8
0
 62
7
 10
34.57200000
 20
11.24900000
  0
VERTEX
  8
0
 62
7
 10
34.56343750
 20
11.25250000
  0
VERTEX
  8
0
 62
7
 10
34.55675000
 20
11.25900000
  0
VERTEX
  8
0
 62
7
 10
34.55118750
 20
11.26700000
  0
VERTEX
  8
0
 62
7
 10
34.54600000
 20
11.27500000
  0
VERTEX
  8
0
 62
7
 10
34.53740625
 20
11.29232813
  0
VERTEX
  8
0
 62
7
 10
34.53275000
 20
11.31087500
  0
VERTEX
  8
0
 62
7
 10
34.52996875
 20
11.32998438
  0
VERTEX
  8
0
 62
7
 10
34.52700000
 20
11.34900000
  0
VERTEX
  8
0
 62
7
 10
34.52037500
 20
11.40362500
  0
VERTEX
  8
0
 62
7
 10
34.51600000
 20
11.45900000
  0
VERTEX
  8
0
 62
7
 10
34.50500000
 20
11.58400000
  0
VERTEX
  8
0
 62
7
 10
34.49893750
 20
11.62701563
  0
VERTEX
  8
0
 62
7
 10
34.49175000
 20
11.67012500
  0
VERTEX
  8
0
 62
7
 10
34.48193750
 20
11.71267188
  0
VERTEX
  8
0
 62
7
 10
34.46800000
 20
11.75400000
  0
VERTEX
  8
0
 62
7
 10
34.44720313
 20
11.79801563
  0
VERTEX
  8
0
 62
7
 10
34.42237500
 20
11.83987500
  0
VERTEX
  8
0
 62
7
 10
34.39360938
 20
11.87929688
  0
VERTEX
  8
0
 62
7
 10
34.36100000
 20
11.91600000
  0
VERTEX
  8
0
 62
7
 10
34.31925000
 20
11.95403125
  0
VERTEX
  8
0
 62
7
 10
34.27375000
 20
11.98700000
  0
VERTEX
  8
0
 62
7
 10
34.22487500
 20
12.01471875
  0
VERTEX
  8
0
 62
7
 10
34.17300000
 20
12.03700000
  0
VERTEX
  8
0
 62
7
 10
34.12900000
 20
11.97800000
  0
VERTEX
  8
0
 62
7
 10
34.07634375
 20
12.02559375
  0
VERTEX
  8
0
 62
7
 10
34.02050000
 20
12.06925000
  0
VERTEX
  8
0
 62
7
 10
33.96165625
 20
12.10878125
  0
VERTEX
  8
0
 62
7
 10
33.90000000
 20
12.14400000
  0
VERTEX
  8
0
 62
7
 10
33.83123438
 20
12.17718750
  0
VERTEX
  8
0
 62
7
 10
33.76012500
 20
12.20475000
  0
VERTEX
  8
0
 62
7
 10
33.68695313
 20
12.22668750
  0
VERTEX
  8
0
 62
7
 10
33.61200000
 20
12.24300000
  0
VERTEX
  8
0
 62
7
 10
33.60500000
 20
12.17000000
  0
VERTEX
  8
0
 62
7
 10
33.54637500
 20
12.18637500
  0
VERTEX
  8
0
 62
7
 10
33.48700000
 20
12.19900000
  0
VERTEX
  8
0
 62
7
 10
33.40328125
 20
12.21059375
  0
VERTEX
  8
0
 62
7
 10
33.31900000
 20
12.21525000
  0
VERTEX
  8
0
 62
7
 10
33.23471875
 20
12.21278125
  0
VERTEX
  8
0
 62
7
 10
33.15100000
 20
12.20300000
  0
VERTEX
  8
0
 62
7
 10
33.16200000
 20
12.11800000
  0
VERTEX
  8
0
 62
7
 10
33.13596875
 20
12.11459375
  0
VERTEX
  8
0
 62
7
 10
33.11050000
 20
12.10875000
  0
VERTEX
  8
0
 62
7
 10
33.08578125
 20
12.10028125
  0
VERTEX
  8
0
 62
7
 10
33.06200000
 20
12.08900000
  0
VERTEX
  8
0
 62
7
 10
33.02250000
 20
12.06287500
  0
VERTEX
  8
0
 62
7
 10
32.98900000
 20
12.03000000
  0
VERTEX
  8
0
 62
7
 10
32.96934375
 20
12.00340625
  0
VERTEX
  8
0
 62
7
 10
32.95325000
 20
11.97475000
  0
VERTEX
  8
0
 62
7
 10
32.94203125
 20
11.94421875
  0
VERTEX
  8
0
 62
7
 10
32.93700000
 20
11.91200000
  0
VERTEX
  8
0
 62
7
 10
32.93807813
 20
11.88153125
  0
VERTEX
  8
0
 62
7
 10
32.94412500
 20
11.85200000
  0
VERTEX
  8
0
 62
7
 10
32.95485938
 20
11.82396875
  0
VERTEX
  8
0
 62
7
 10
32.97000000
 20
11.79800000
  0
VERTEX
  8
0
 62
7
 10
32.98900000
 20
11.82112500
  0
VERTEX
  8
0
 62
7
 10
33.01100000
 20
11.84200000
  0
VERTEX
  8
0
 62
7
 10
33.03737500
 20
11.86112500
  0
VERTEX
  8
0
 62
7
 10
33.06600000
 20
11.87500000
  0
VERTEX
  8
0
 62
7
 10
33.08417188
 20
11.87962500
  0
VERTEX
  8
0
 62
7
 10
33.10262500
 20
11.88200000
  0
VERTEX
  8
0
 62
7
 10
33.12126563
 20
11.88287500
  0
VERTEX
  8
0
 62
7
 10
33.14000000
 20
11.88300000
  0
VERTEX
  8
0
 62
7
 10
33.18087500
 20
11.88050000
  0
VERTEX
  8
0
 62
7
 10
33.22100000
 20
11.87200000
  0
VERTEX
  8
0
 62
7
 10
33.26300000
 20
11.85450000
  0
VERTEX
  8
0
 62
7
 10
33.30200000
 20
11.83100000
  0
VERTEX
  8
0
 62
7
 10
33.33900000
 20
11.80200000
  0
VERTEX
  8
0
 62
7
 10
33.40262500
 20
11.74562500
  0
VERTEX
  8
0
 62
7
 10
33.46100000
 20
11.68400000
  0
VERTEX
  8
0
 62
7
 10
33.39400000
 20
11.67600000
  0
VERTEX
  8
0
 62
7
 10
33.40114063
 20
11.63367188
  0
VERTEX
  8
0
 62
7
 10
33.41212500
 20
11.59237500
  0
VERTEX
  8
0
 62
7
 10
33.42704688
 20
11.55239063
  0
VERTEX
  8
0
 62
7
 10
33.44600000
 20
11.51400000
  0
VERTEX
  8
0
 62
7
 10
33.48131250
 20
11.46048438
  0
VERTEX
  8
0
 62
7
 10
33.52375000
 20
11.41287500
  0
VERTEX
  8
0
 62
7
 10
33.57256250
 20
11.37182813
  0
VERTEX
  8
0
 62
7
 10
33.62700000
 20
11.33800000
  0
VERTEX
  8
0
 62
7
 10
33.57200000
 20
11.29700000
  0
VERTEX
  8
0
 62
7
 10
33.60712500
 20
11.25150000
  0
VERTEX
  8
0
 62
7
 10
33.64900000
 20
11.21200000
  0
VERTEX
  8
0
 62
7
 10
33.68218750
 20
11.18926563
  0
VERTEX
  8
0
 62
7
 10
33.71800000
 20
11.17112500
  0
VERTEX
  8
0
 62
7
 10
33.75531250
 20
11.15617188
  0
VERTEX
  8
0
 62
7
 10
33.79300000
 20
11.14300000
  0
VERTEX
  8
0
 62
7
 10
33.82934375
 20
11.13192188
  0
VERTEX
  8
0
 62
7
 10
33.86625000
 20
11.12337500
  0
VERTEX
  8
0
 62
7
 10
33.90353125
 20
11.11614063
  0
VERTEX
  8
0
 62
7
 10
33.94100000
 20
11.10900000
  0
VERTEX
  8
0
 62
7
 10
34.05900000
 20
11.08700000
  0
VERTEX
  8
0
 62
7
 10
34.08328125
 20
11.08134375
  0
VERTEX
  8
0
 62
7
 10
34.10775000
 20
11.07550000
  0
VERTEX
  8
0
 62
7
 10
34.13184375
 20
11.06815625
  0
VERTEX
  8
0
 62
7
 10
34.15500000
 20
11.05800000
  0
VERTEX
  8
0
 62
7
 10
34.17493750
 20
11.04743750
  0
VERTEX
  8
0
 62
7
 10
34.19450000
 20
11.03575000
  0
VERTEX
  8
0
 62
7
 10
34.21181250
 20
11.02143750
  0
VERTEX
  8
0
 62
7
 10
34.22500000
 20
11.00300000
  0
VERTEX
  8
0
 62
7
 10
34.23000000
 20
10.99387500
  0
VERTEX
  8
0
 62
7
 10
34.23200000
 20
10.98400000
  0
VERTEX
  8
0
 62
7
 10
34.22712500
 20
10.97312500
  0
VERTEX
  8
0
 62
7
 10
34.21700000
 20
10.96600000
  0
VERTEX
  8
0
 62
7
 10
34.20800000
 20
10.96487500
  0
VERTEX
  8
0
 62
7
 10
34.19900000
 20
10.96600000
  0
VERTEX
  8
0
 62
7
 10
34.17775000
 20
10.97200000
  0
VERTEX
  8
0
 62
7
 10
34.15800000
 20
10.98100000
  0
VERTEX
  8
0
 62
7
 10
34.12775000
 20
10.99987500
  0
VERTEX
  8
0
 62
7
 10
34.09900000
 20
11.02100000
  0
VERTEX
  8
0
 62
7
 10
34.07917188
 20
11.03489063
  0
VERTEX
  8
0
 62
7
 10
34.05962500
 20
11.04887500
  0
VERTEX
  8
0
 62
7
 10
34.03951563
 20
11.06192188
  0
VERTEX
  8
0
 62
7
 10
34.01800000
 20
11.07300000
  0
VERTEX
  8
0
 62
7
 10
33.98250000
 20
11.08561523
  0
VERTEX
  8
0
 62
7
 10
33.94606250
 20
11.09348438
  0
VERTEX
  8
0
 62
7
 10
33.90915625
 20
11.09664258
  0
VERTEX
  8
0
 62
7
 10
33.87225000
 20
11.09512500
  0
VERTEX
  8
0
 62
7
 10
33.83581250
 20
11.08896680
  0
VERTEX
  8
0
 62
7
 10
33.80031250
 20
11.07820313
  0
VERTEX
  8
0
 62
7
 10
33.76621875
 20
11.06286914
  0
VERTEX
  8
0
 62
7
 10
33.73400000
 20
11.04300000
  0
VERTEX
  8
0
 62
7
 10
33.76000000
 20
10.95500000
  0
VERTEX
  8
0
 62
7
 10
33.72487500
 20
10.93312500
  0
VERTEX
  8
0
 62
7
 10
33.68600000
 20
10.91800000
  0
VERTEX
  8
0
 62
7
 10
33.64881250
 20
10.91085938
  0
VERTEX
  8
0
 62
7
 10
33.61125000
 20
10.91037500
  0
VERTEX
  8
0
 62
7
 10
33.57406250
 20
10.91645313
  0
VERTEX
  8
0
 62
7
 10
33.53800000
 20
10.92900000
  0
VERTEX
  8
0
 62
7
 10
33.54807813
 20
10.87189063
  0
VERTEX
  8
0
 62
7
 10
33.56462500
 20
10.81637500
  0
VERTEX
  8
0
 62
7
 10
33.58735938
 20
10.76292188
  0
VERTEX
  8
0
 62
7
 10
33.61600000
 20
10.71200000
  0
VERTEX
  8
0
 62
7
 10
33.65360938
 20
10.66050000
  0
VERTEX
  8
0
 62
7
 10
33.69712500
 20
10.61425000
  0
VERTEX
  8
0
 62
7
 10
33.74607813
 20
10.57362500
  0
VERTEX
  8
0
 62
7
 10
33.80000000
 20
10.53900000
  0
VERTEX
  8
0
 62
7
 10
33.79300000
 20
10.48700000
  0
VERTEX
  8
0
 62
7
 10
33.82123438
 20
10.45087500
  0
VERTEX
  8
0
 62
7
 10
33.85312500
 20
10.41775000
  0
VERTEX
  8
0
 62
7
 10
33.88820313
 20
10.38800000
  0
VERTEX
  8
0
 62
7
 10
33.92600000
 20
10.36200000
  0
VERTEX
  8
0
 62
7
 10
33.96273438
 20
10.34195313
  0
VERTEX
  8
0
 62
7
 10
34.00087500
 20
10.32537500
  0
VERTEX
  8
0
 62
7
 10
34.04032813
 20
10.31235938
  0
VERTEX
  8
0
 62
7
 10
34.08100000
 20
10.30300000
  0
VERTEX
  8
0
 62
7
 10
34.07300000
 20
10.22900000
  0
VERTEX
  8
0
 62
7
 10
34.13450000
 20
10.20362500
  0
VERTEX
  8
0
 62
7
 10
34.19900000
 20
10.18500000
  0
VERTEX
  8
0
 62
7
 10
34.24448438
 20
10.17610938
  0
VERTEX
  8
0
 62
7
 10
34.29062500
 20
10.17087500
  0
VERTEX
  8
0
 62
7
 10
34.33695313
 20
10.16995313
  0
VERTEX
  8
0
 62
7
 10
34.38300000
 20
10.17400000
  0
VERTEX
  8
0
 62
7
 10
34.46100000
 20
10.19300000
  0
VERTEX
  8
0
 62
7
 10
34.52162500
 20
10.20625000
  0
VERTEX
  8
0
 62
7
 10
34.58300000
 20
10.21500000
  0
VERTEX
  8
0
 62
7
 10
34.60623438
 20
10.21654688
  0
VERTEX
  8
0
 62
7
 10
34.62937500
 20
10.21762500
  0
VERTEX
  8
0
 62
7
 10
34.65232813
 20
10.21739063
  0
VERTEX
  8
0
 62
7
 10
34.67500000
 20
10.21500000
  0
VERTEX
  8
0
 62
7
 10
34.71075000
 20
10.20662500
  0
VERTEX
  8
0
 62
7
 10
34.74500000
 20
10.19300000
  0
VERTEX
  8
0
 62
7
 10
34.76654688
 20
10.18270313
  0
VERTEX
  8
0
 62
7
 10
34.78762500
 20
10.17137500
  0
VERTEX
  8
0
 62
7
 10
34.80589063
 20
10.15685938
  0
VERTEX
  8
0
 62
7
 10
34.81900000
 20
10.13700000
  0
VERTEX
  8
0
 62
7
 10
34.82475000
 20
10.12287500
  0
VERTEX
  8
0
 62
7
 10
34.82600000
 20
10.10800000
  0
VERTEX
  8
0
 62
7
 10
34.82200000
 20
10.09775000
  0
VERTEX
  8
0
 62
7
 10
34.81500000
 20
10.08900000
  0
VERTEX
  8
0
 62
7
 10
34.80275000
 20
10.08250000
  0
VERTEX
  8
0
 62
7
 10
34.78900000
 20
10.08200000
  0
VERTEX
  8
0
 62
7
 10
34.77925000
 20
10.08837500
  0
VERTEX
  8
0
 62
7
 10
34.77100000
 20
10.09700000
  0
VERTEX
  8
0
 62
7
 10
34.74500000
 20
10.12300000
  0
VERTEX
  8
0
 62
7
 10
34.72220313
 20
10.13906250
  0
VERTEX
  8
0
 62
7
 10
34.69762500
 20
10.15175000
  0
VERTEX
  8
0
 62
7
 10
34.67173438
 20
10.16181250
  0
VERTEX
  8
0
 62
7
 10
34.64500000
 20
10.17000000
  0
VERTEX
  8
0
 62
7
 10
34.61362695
 20
10.17759375
  0
VERTEX
  8
0
 62
7
 10
34.58189063
 20
10.18237500
  0
VERTEX
  8
0
 62
7
 10
34.54999023
 20
10.18434375
  0
VERTEX
  8
0
 62
7
 10
34.51812500
 20
10.18350000
  0
VERTEX
  8
0
 62
7
 10
34.48649414
 20
10.17984375
  0
VERTEX
  8
0
 62
7
 10
34.45529688
 20
10.17337500
  0
VERTEX
  8
0
 62
7
 10
34.42473242
 20
10.16409375
  0
VERTEX
  8
0
 62
7
 10
34.39500000
 20
10.15200000
  0
VERTEX
  8
0
 62
7
 10
34.40600000
 20
10.09300000
  0
VERTEX
  8
0
 62
7
 10
34.38557813
 20
10.08810938
  0
VERTEX
  8
0
 62
7
 10
34.36487500
 20
10.08537500
  0
VERTEX
  8
0
 62
7
 10
34.34398438
 20
10.08470313
  0
VERTEX
  8
0
 62
7
 10
34.32300000
 20
10.08600000
  0
VERTEX
  8
0
 62
7
 10
34.29864063
 20
10.09031250
  0
VERTEX
  8
0
 62
7
 10
34.27512500
 20
10.09725000
  0
VERTEX
  8
0
 62
7
 10
34.25254688
 20
10.10681250
  0
VERTEX
  8
0
 62
7
 10
34.23100000
 20
10.11900000
  0
VERTEX
  8
0
 62
7
 10
34.22351563
 20
10.07204688
  0
VERTEX
  8
0
 62
7
 10
34.22212500
 20
10.02462500
  0
VERTEX
  8
0
 62
7
 10
34.22692188
 20
9.97739063
  0
VERTEX
  8
0
 62
7
 10
34.23800000
 20
9.93100000
  0
VERTEX
  8
0
 62
7
 10
34.24811133
 20
9.90298828
  0
VERTEX
  8
0
 62
7
 10
34.26039063
 20
9.87603125
  0
VERTEX
  8
0
 62
7
 10
34.27475586
 20
9.85024609
  0
VERTEX
  8
0
 62
7
 10
34.29112500
 20
9.82575000
  0
VERTEX
  8
0
 62
7
 10
34.30941602
 20
9.80266016
  0
VERTEX
  8
0
 62
7
 10
34.32954688
 20
9.78109375
  0
VERTEX
  8
0
 62
7
 10
34.35143555
 20
9.76116797
  0
VERTEX
  8
0
 62
7
 10
34.37500000
 20
9.74300000
  0
VERTEX
  8
0
 62
7
 10
34.33100000
 20
9.71000000
  0
VERTEX
  8
0
 62
7
 10
34.34637500
 20
9.67742188
  0
VERTEX
  8
0
 62
7
 10
34.36550000
 20
9.64737500
  0
VERTEX
  8
0
 62
7
 10
34.38837500
 20
9.62014062
  0
VERTEX
  8
0
 62
7
 10
34.41500000
 20
9.59600000
  0
VERTEX
  8
0
 62
7
 10
34.44825000
 20
9.57314063
  0
VERTEX
  8
0
 62
7
 10
34.48450000
 20
9.55562500
  0
VERTEX
  8
0
 62
7
 10
34.52300000
 20
9.54354688
  0
VERTEX
  8
0
 62
7
 10
34.56300000
 20
9.53700000
  0
VERTEX
  8
0
 62
7
 10
34.55200000
 20
9.47800000
  0
VERTEX
  8
0
 62
7
 10
34.58625000
 20
9.46162500
  0
VERTEX
  8
0
 62
7
 10
34.62200000
 20
9.44900000
  0
VERTEX
  8
0
 62
7
 10
34.65307813
 20
9.44159375
  0
VERTEX
  8
0
 62
7
 10
34.68462500
 20
9.43700000
  0
VERTEX
  8
0
 62
7
 10
34.71635938
 20
9.43465625
  0
VERTEX
  8
0
 62
7
 10
34.74800000
 20
9.43400000
  0
VERTEX
  8
0
 62
7
 10
34.78232813
 20
9.43521875
  0
VERTEX
  8
0
 62
7
 10
34.81637500
 20
9.43850000
  0
VERTEX
  8
0
 62
7
 10
34.85023438
 20
9.44328125
  0
VERTEX
  8
0
 62
7
 10
34.88400000
 20
9.44900000
  0
VERTEX
  8
0
 62
7
 10
34.92792188
 20
9.45826562
  0
VERTEX
  8
0
 62
7
 10
34.97137500
 20
9.46987500
  0
VERTEX
  8
0
 62
7
 10
35.01464063
 20
9.48204688
  0
VERTEX
  8
0
 62
7
 10
35.05800000
 20
9.49300000
  0
VERTEX
  8
0
 62
7
 10
35.07200000
 20
9.49600000
  0
VERTEX
  8
0
 62
7
 10
35.08650000
 20
9.49350000
  0
VERTEX
  8
0
 62
7
 10
35.09800000
 20
9.48500000
  0
VERTEX
  8
0
 62
7
 10
35.10171875
 20
9.47850000
  0
VERTEX
  8
0
 62
7
 10
35.10375000
 20
9.47125000
  0
VERTEX
  8
0
 62
7
 10
35.10390625
 20
9.46362500
  0
VERTEX
  8
0
 62
7
 10
35.10200000
 20
9.45600000
  0
VERTEX
  8
0
 62
7
 10
35.09675000
 20
9.44882813
  0
VERTEX
  8
0
 62
7
 10
35.08925000
 20
9.44437500
  0
VERTEX
  8
0
 62
7
 10
35.08062500
 20
9.44123438
  0
VERTEX
  8
0
 62
7
 10
35.07200000
 20
9.43800000
  0
VERTEX
  8
0
 62
7
 10
35.04487500
 20
9.43062500
  0
VERTEX
  8
0
 62
7
 10
35.01700000
 20
9.42700000
  0
VERTEX
  8
0
 62
7
 10
34.97762500
 20
9.42162500
  0
VERTEX
  8
0
 62
7
 10
34.93900000
 20
9.41400000
  0
VERTEX
  8
0
 62
7
 10
34.91456250
 20
9.40610938
  0
VERTEX
  8
0
 62
7
 10
34.89200000
 20
9.39662500
  0
VERTEX
  8
0
 62
7
 10
34.87093750
 20
9.38432813
  0
VERTEX
  8
0
 62
7
 10
34.85100000
 20
9.36800000
  0
VERTEX
  8
0
 62
7
 10
34.82912500
 20
9.34239063
  0
VERTEX
  8
0
 62
7
 10
34.81175000
 20
9.31387500
  0
VERTEX
  8
0
 62
7
 10
34.79925000
 20
9.28292188
  0
VERTEX
  8
0
 62
7
 10
34.79200000
 20
9.25000000
  0
VERTEX
  8
0
 62
7
 10
34.87300000
 20
9.20900000
  0
VERTEX
  8
0
 62
7
 10
34.86900000
 20
9.13600000
  0
VERTEX
  8
0
 62
7
 10
34.86600000
 20
9.06200000
  0
VERTEX
  8
0
 62
7
 10
34.86237500
 20
9.04164062
  0
VERTEX
  8
0
 62
7
 10
34.85575000
 20
9.02287500
  0
VERTEX
  8
0
 62
7
 10
34.84575000
 20
9.00617188
  0
VERTEX
  8
0
 62
7
 10
34.83200000
 20
8.99200000
  0
VERTEX
  8
0
 62
7
 10
34.81475000
 20
8.98075000
  0
VERTEX
  8
0
 62
7
 10
34.79600000
 20
8.97400000
  0
VERTEX
  8
0
 62
7
 10
34.80101563
 20
8.95926563
  0
VERTEX
  8
0
 62
7
 10
34.80837500
 20
8.94537500
  0
VERTEX
  8
0
 62
7
 10
34.81779688
 20
8.93279687
  0
VERTEX
  8
0
 62
7
 10
34.82900000
 20
8.92200000
  0
VERTEX
  8
0
 62
7
 10
34.84332813
 20
8.91335938
  0
VERTEX
  8
0
 62
7
 10
34.85887500
 20
8.90762500
  0
VERTEX
  8
0
 62
7
 10
34.87498438
 20
8.90357812
  0
VERTEX
  8
0
 62
7
 10
34.89100000
 20
8.90000000
  0
VERTEX
  8
0
 62
7
 10
34.91667188
 20
8.89553125
  0
VERTEX
  8
0
 62
7
 10
34.94262500
 20
8.89350000
  0
VERTEX
  8
0
 62
7
 10
34.96876563
 20
8.89296875
  0
VERTEX
  8
0
 62
7
 10
34.99500000
 20
8.89300000
  0
VERTEX
  8
0
 62
7
 10
35.05787500
 20
8.89700000
  0
VERTEX
  8
0
 62
7
 10
35.12000000
 20
8.90700000
  0
VERTEX
  8
0
 62
7
 10
35.16887500
 20
8.92064063
  0
VERTEX
  8
0
 62
7
 10
35.21625000
 20
8.93887500
  0
VERTEX
  8
0
 62
7
 10
35.26175000
 20
8.96142187
  0
VERTEX
  8
0
 62
7
 10
35.30500000
 20
8.98800000
  0
VERTEX
  8
0
 62
7
 10
35.34200000
 20
8.92900000
  0
VERTEX
  8
0
 62
7
 10
35.37159375
 20
8.94432813
  0
VERTEX
  8
0
 62
7
 10
35.39875000
 20
8.96312500
  0
VERTEX
  8
0
 62
7
 10
35.42328125
 20
8.98510938
  0
VERTEX
  8
0
 62
7
 10
35.44500000
 20
9.01000000
  0
VERTEX
  8
0
 62
7
 10
35.46535938
 20
9.04125000
  0
VERTEX
  8
0
 62
7
 10
35.48112500
 20
9.07475000
  0
VERTEX
  8
0
 62
7
 10
35.49182813
 20
9.11012500
  0
VERTEX
  8
0
 62
7
 10
35.49700000
 20
9.14700000
  0
VERTEX
  8
0
 62
7
 10
35.49721875
 20
9.17828125
  0
VERTEX
  8
0
 62
7
 10
35.49350000
 20
9.20900000
  0
VERTEX
  8
0
 62
7
 10
35.48603125
 20
9.23896875
  0
VERTEX
  8
0
 62
7
 10
35.47500000
 20
9.26800000
  0
VERTEX
  8
0
 62
7
 10
35.47275000
 20
9.27350000
  0
VERTEX
  8
0
 62
7
 10
35.47500000
 20
9.27900000
  0
VERTEX
  8
0
 62
7
 10
35.48050000
 20
9.28125000
  0
VERTEX
  8
0
 62
7
 10
35.48600000
 20
9.27900000
  0
VERTEX
  8
0
 62
7
 10
35.50473438
 20
9.23701563
  0
VERTEX
  8
0
 62
7
 10
35.52637500
 20
9.19662500
  0
VERTEX
  8
0
 62
7
 10
35.55082813
 20
9.15792188
  0
VERTEX
  8
0
 62
7
 10
35.57800000
 20
9.12100000
  0
VERTEX
  8
0
 62
7
 10
35.61995313
 20
9.07270313
  0
VERTEX
  8
0
 62
7
 10
35.66612500
 20
9.02862500
  0
VERTEX
  8
0
 62
7
 10
35.71623438
 20
8.98923438
  0
VERTEX
  8
0
 62
7
 10
35.77000000
 20
8.95500000
  0
VERTEX
  8
0
 62
7
 10
35.73300000
 20
8.95350000
  0
VERTEX
  8
0
 62
7
 10
35.69600000
 20
8.95500000
  0
VERTEX
  8
0
 62
7
 10
35.65862500
 20
8.96025000
  0
VERTEX
  8
0
 62
7
 10
35.62200000
 20
8.97000000
  0
VERTEX
  8
0
 62
7
 10
35.59093750
 20
8.98179688
  0
VERTEX
  8
0
 62
7
 10
35.56100000
 20
8.99612500
  0
VERTEX
  8
0
 62
7
 10
35.53256250
 20
9.01289063
  0
VERTEX
  8
0
 62
7
 10
35.50600000
 20
9.03200000
  0
VERTEX
  8
0
 62
7
 10
35.48400000
 20
8.98900000
  0
VERTEX
  8
0
 62
7
 10
35.46300000
 20
8.96100000
  0
SEQEND
  0
POLYLINE
  8
0
 62
7
 66
1
 70
1
  0
VERTEX
  8
0
 62
7
 10
33.50700000
 20
9.37500000
  0
VERTEX
  8
0
 62
7
 10
33.50837500
 20
9.38937500
  0
VERTEX
  8
0
 62
7
 10
33.51200000
 20
9.40300000
  0
VERTEX
  8
0
 62
7
 10
33.51700000
 20
9.41300000
  0
VERTEX
  8
0
 62
7
 10
33.52400000
 20
9.42800000
  0
VERTEX
  8
0
 62
7
 10
33.52400000
 20
9.43000000
  0
VERTEX
  8
0
 62
7
 10
33.52700000
 20
9.44500000
  0
VERTEX
  8
0
 62
7
 10
33.52600000
 20
9.45300000
  0
VERTEX
  8
0
 62
7
 10
33.51875000
 20
9.46600000
  0
VERTEX
  8
0
 62
7
 10
33.50700000
 20
9.47600000
  0
VERTEX
  8
0
 62
7
 10
33.49200000
 20
9.48000000
  0
VERTEX
  8
0
 62
7
 10
33.47700000
 20
9.47600000
  0
VERTEX
  8
0
 62
7
 10
33.46525000
 20
9.46600000
  0
VERTEX
  8
0
 62
7
 10
33.45800000
 20
9.45300000
  0
VERTEX
  8
0
 62
7
 10
33.45700000
 20
9.44500000
  0
VERTEX
  8
0
 62
7
 10
33.46000000
 20
9.43000000
  0
VERTEX
  8
0
 62
7
 10
33.46000000
 20
9.42800000
  0
VERTEX
  8
0
 62
7
 10
33.46700000
 20
9.41300000
  0
VERTEX
  8
0
 62
7
 10
33.47200000
 20
9.40300000
  0
VERTEX
  8
0
 62
7
 10
33.47562500
 20
9.38937500
  0
VERTEX
  8
0
 62
7
 10
33.47700000
 20
9.37500000
  0
VERTEX
  8
0
 62
7
 10
33.47828906
 20
9.36843750
  0
VERTEX
  8
0
 62
7
 10
33.48168750
 20
9.36375000
  0
VERTEX
  8
0
 62
7
 10
33.48649219
 20
9.36093750
  0
VERTEX
  8
0
 62
7
 10
33.49200000
 20
9.36000000
  0
VERTEX
  8
0
 62
7
 10
33.49750781
 20
9.36093750
  0
VERTEX
  8
0
 62
7
 10
33.50231250
 20
9.36375000
  0
VERTEX
  8
0
 62
7
 10
33.50571094
 20
9.36843750
  0
VERTEX
  8
0
 62
7
 10
33.50700000
 20
9.37500000
  0
SEQEND
  0
POLYLINE
  8
0
 62
7
 66
1
 70
1
  0
VERTEX
  8
0
 62
7
 10
33.50700000
 20
9.56500000
  0
VERTEX
  8
0
 62
7
 10
33.50837500
 20
9.57937500
  0
VERTEX
  8
0
 62
7
 10
33.51200000
 20
9.59300000
  0
VERTEX
  8
0
 62
7
 10
33.51700000
 20
9.60300000
  0
VERTEX
  8
0
 62
7
 10
33.52400000
 20
9.61800000
  0
VERTEX
  8
0
 62
7
 10
33.52400000
 20
9.62000000
  0
VERTEX
  8
0
 62
7
 10
33.52700000
 20
9.63500000
  0
VERTEX
  8
0
 62
7
 10
33.52600000
 20
9.64300000
  0
VERTEX
  8
0
 62
7
 10
33.51875000
 20
9.65600000
  0
VERTEX
  8
0
 62
7
 10
33.50700000
 20
9.66600000
  0
VERTEX
  8
0
 62
7
 10
33.49200000
 20
9.67000000
  0
VERTEX
  8
0
 62
7
 10
33.47700000
 20
9.66600000
  0
VERTEX
  8
0
 62
7
 10
33.46525000
 20
9.65600000
  0
VERTEX
  8
0
 62
7
 10
33.45800000
 20
9.64300000
  0
VERTEX
  8
0
 62
7
 10
33.45700000
 20
9.63500000
  0
VERTEX
  8
0
 62
7
 10
33.46000000
 20
9.62000000
  0
VERTEX
  8
0
 62
7
 10
33.46000000
 20
9.61800000
  0
VERTEX
  8
0
 62
7
 10
33.46700000
 20
9.60300000
  0
VERTEX
  8
0
 62
7
 10
33.47200000
 20
9.59300000
  0
VERTEX
  8
0
 62
7
 10
33.47562500
 20
9.57937500
  0
VERTEX
  8
0
 62
7
 10
33.47700000
 20
9.56500000
  0
VERTEX
  8
0
 62
7
 10
33.47828906
 20
9.55843750
  0
VERTEX
  8
0
 62
7
 10
33.48168750
 20
9.55375000
  0
VERTEX
  8
0
 62
7
 10
33.48649219
 20
9.55093750
  0
VERTEX
  8
0
 62
7
 10
33.49200000
 20
9.55000000
  0
VERTEX
  8
0
 62
7
 10
33.49750781
 20
9.55093750
  0
VERTEX
  8
0
 62
7
 10
33.50231250
 20
9.55375000
  0
VERTEX
  8
0
 62
7
 10
33.50571094
 20
9.55843750
  0
VERTEX
  8
0
 62
7
 10
33.50700000
 20
9.56500000
  0
SEQEND
  0
POLYLINE
  8
0
 62
7
 66
1
 70
1
  0
VERTEX
  8
0
 62
7
 10
33.50700000
 20
9.75500000
  0
VERTEX
  8
0
 62
7
 10
33.50837500
 20
9.76937500
  0
VERTEX
  8
0
 62
7
 10
33.51200000
 20
9.78300000
  0
VERTEX
  8
0
 62
7
 10
33.51700000
 20
9.79300000
  0
VERTEX
  8
0
 62
7
 10
33.52400000
 20
9.80800000
  0
VERTEX
  8
0
 62
7
 10
33.52400000
 20
9.81000000
  0
VERTEX
  8
0
 62
7
 10
33.52700000
 20
9.82500000
  0
VERTEX
  8
0
 62
7
 10
33.52600000
 20
9.83300000
  0
VERTEX
  8
0
 62
7
 10
33.51875000
 20
9.84600000
  0
VERTEX
  8
0
 62
7
 10
33.50700000
 20
9.85600000
  0
VERTEX
  8
0
 62
7
 10
33.49200000
 20
9.86000000
  0
VERTEX
  8
0
 62
7
 10
33.47700000
 20
9.85600000
  0
VERTEX
  8
0
 62
7
 10
33.46525000
 20
9.84600000
  0
VERTEX
  8
0
 62
7
 10
33.45800000
 20
9.83300000
  0
VERTEX
  8
0
 62
7
 10
33.45700000
 20
9.82500000
  0
VERTEX
  8
0
 62
7
 10
33.46000000
 20
9.81000000
  0
VERTEX
  8
0
 62
7
 10
33.46000000
 20
9.80800000
  0
VERTEX
  8
0
 62
7
 10
33.46700000
 20
9.79300000
  0
VERTEX
  8
0
 62
7
 10
33.47200000
 20
9.78300000
  0
VERTEX
  8
0
 62
7
 10
33.47562500
 20
9.76937500
  0
VERTEX
  8
0
 62
7
 10
33.47700000
 20
9.75500000
  0
VERTEX
  8
0
 62
7
 10
33.47828906
 20
9.74843750
  0
VERTEX
  8
0
 62
7
 10
33.48168750
 20
9.74375000
  0
VERTEX
  8
0
 62
7
 10
33.48649219
 20
9.74093750
  0
VERTEX
  8
0
 62
7
 10
33.49200000
 20
9.74000000
  0
VERTEX
  8
0
 62
7
 10
33.49750781
 20
9.74093750
  0
VERTEX
  8
0
 62
7
 10
33.50231250
 20
9.74375000
  0
VERTEX
  8
0
 62
7
 10
33.50571094
 20
9.74843750
  0
VERTEX
  8
0
 62
7
 10
33.50700000
 20
9.75500000
  0
SEQEND
  0
POLYLINE
  8
0
 62
7
 66
1
 70
1
  0
VERTEX
  8
0
 62
7
 10
33.37400000
 20
9.65600000
  0
VERTEX
  8
0
 62
7
 10
33.37537500
 20
9.67037500
  0
VERTEX
  8
0
 62
7
 10
33.37900000
 20
9.68400000
  0
VERTEX
  8
0
 62
7
 10
33.38400000
 20
9.69400000
  0
VERTEX
  8
0
 62
7
 10
33.39100000
 20
9.70900000
  0
VERTEX
  8
0
 62
7
 10
33.39100000
 20
9.71100000
  0
VERTEX
  8
0
 62
7
 10
33.39400000
 20
9.72600000
  0
VERTEX
  8
0
 62
7
 10
33.39300000
 20
9.73400000
  0
VERTEX
  8
0
 62
7
 10
33.38575000
 20
9.74700000
  0
VERTEX
  8
0
 62
7
 10
33.37400000
 20
9.75700000
  0
VERTEX
  8
0
 62
7
 10
33.35900000
 20
9.76100000
  0
VERTEX
  8
0
 62
7
 10
33.34400000
 20
9.75700000
  0
VERTEX
  8
0
 62
7
 10
33.33225000
 20
9.74700000
  0
VERTEX
  8
0
 62
7
 10
33.32500000
 20
9.73400000
  0
VERTEX
  8
0
 62
7
 10
33.32400000
 20
9.72600000
  0
VERTEX
  8
0
 62
7
 10
33.32700000
 20
9.71100000
  0
VERTEX
  8
0
 62
7
 10
33.32700000
 20
9.70900000
  0
VERTEX
  8
0
 62
7
 10
33.33400000
 20
9.69400000
  0
VERTEX
  8
0
 62
7
 10
33.33900000
 20
9.68400000
  0
VERTEX
  8
0
 62
7
 10
33.34262500
 20
9.67037500
  0
VERTEX
  8
0
 62
7
 10
33.34400000
 20
9.65600000
  0
VERTEX
  8
0
 62
7
 10
33.34528906
 20
9.64943750
  0
VERTEX
  8
0
 62
7
 10
33.34868750
 20
9.64475000
  0
VERTEX
  8
0
 62
7
 10
33.35349219
 20
9.64193750
  0
VERTEX
  8
0
 62
7
 10
33.35900000
 20
9.64100000
  0
VERTEX
  8
0
 62
7
 10
33.36450781
 20
9.64193750
  0
VERTEX
  8
0
 62
7
 10
33.36931250
 20
9.64475000
  0
VERTEX
  8
0
 62
7
 10
33.37271094
 20
9.64943750
  0
VERTEX
  8
0
 62
7
 10
33.37400000
 20
9.65600000
  0
SEQEND
  0
POLYLINE
  8
0
 62
7
 66
1
 70
1
  0
VERTEX
  8
0
 62
7
 10
33.37400000
 20
9.47100000
  0
VERTEX
  8
0
 62
7
 10
33.37537500
 20
9.48537500
  0
VERTEX
  8
0
 62
7
 10
33.37900000
 20
9.49900000
  0
VERTEX
  8
0
 62
7
 10
33.38400000
 20
9.50900000
  0
VERTEX
  8
0
 62
7
 10
33.39100000
 20
9.52400000
  0
VERTEX
  8
0
 62
7
 10
33.39100000
 20
9.52600000
  0
VERTEX
  8
0
 62
7
 10
33.39400000
 20
9.54100000
  0
VERTEX
  8
0
 62
7
 10
33.39300000
 20
9.54900000
  0
VERTEX
  8
0
 62
7
 10
33.38575000
 20
9.56200000
  0
VERTEX
  8
0
 62
7
 10
33.37400000
 20
9.57200000
  0
VERTEX
  8
0
 62
7
 10
33.35900000
 20
9.57600000
  0
VERTEX
  8
0
 62
7
 10
33.34400000
 20
9.57200000
  0
VERTEX
  8
0
 62
7
 10
33.33225000
 20
9.56200000
  0
VERTEX
  8
0
 62
7
 10
33.32500000
 20
9.54900000
  0
VERTEX
  8
0
 62
7
 10
33.32400000
 20
9.54100000
  0
VERTEX
  8
0
 62
7
 10
33.32700000
 20
9.52600000
  0
VERTEX
  8
0
 62
7
 10
33.32700000
 20
9.52400000
  0
VERTEX
  8
0
 62
7
 10
33.33400000
 20
9.50900000
  0
VERTEX
  8
0
 62
7
 10
33.33900000
 20
9.49900000
  0
VERTEX
  8
0
 62
7
 10
33.34262500
 20
9.48537500
  0
VERTEX
  8
0
 62
7
 10
33.34400000
 20
9.47100000
  0
VERTEX
  8
0
 62
7
 10
33.34528906
 20
9.46443750
  0
VERTEX
  8
0
 62
7
 10
33.34868750
 20
9.45975000
  0
VERTEX
  8
0
 62
7
 10
33.35349219
 20
9.45693750
  0
VERTEX
  8
0
 62
7
 10
33.35900000
 20
9.45600000
  0
VERTEX
  8
0
 62
7
 10
33.36450781
 20
9.45693750
  0
VERTEX
  8
0
 62
7
 10
33.36931250
 20
9.45975000
  0
VERTEX
  8
0
 62
7
 10
33.37271094
 20
9.46443750
  0
VERTEX
  8
0
 62
7
 10
33.37400000
 20
9.47100000
  0
SEQEND
  0
POLYLINE
  8
0
 62
7
 66
1
 70
1
  0
VERTEX
  8
0
 62
7
 10
33.60800000
 20
9.65600000
  0
VERTEX
  8
0
 62
7
 10
33.60662500
 20
9.67037500
  0
VERTEX
  8
0
 62
7
 10
33.60300000
 20
9.68400000
  0
VERTEX
  8
0
 62
7
 10
33.59800000
 20
9.69400000
  0
VERTEX
  8
0
 62
7
 10
33.59100000
 20
9.70900000
  0
VERTEX
  8
0
 62
7
 10
33.59100000
 20
9.71100000
  0
VERTEX
  8
0
 62
7
 10
33.58800000
 20
9.72600000
  0
VERTEX
  8
0
 62
7
 10
33.58900000
 20
9.73400000
  0
VERTEX
  8
0
 62
7
 10
33.59625000
 20
9.74700000
  0
VERTEX
  8
0
 62
7
 10
33.60800000
 20
9.75700000
  0
VERTEX
  8
0
 62
7
 10
33.62300000
 20
9.76100000
  0
VERTEX
  8
0
 62
7
 10
33.63800000
 20
9.75700000
  0
VERTEX
  8
0
 62
7
 10
33.64975000
 20
9.74700000
  0
VERTEX
  8
0
 62
7
 10
33.65700000
 20
9.73400000
  0
VERTEX
  8
0
 62
7
 10
33.65800000
 20
9.72600000
  0
VERTEX
  8
0
 62
7
 10
33.65500000
 20
9.71100000
  0
VERTEX
  8
0
 62
7
 10
33.65500000
 20
9.70900000
  0
VERTEX
  8
0
 62
7
 10
33.64800000
 20
9.69400000
  0
VERTEX
  8
0
 62
7
 10
33.64300000
 20
9.68400000
  0
VERTEX
  8
0
 62
7
 10
33.63937500
 20
9.67037500
  0
VERTEX
  8
0
 62
7
 10
33.63800000
 20
9.65600000
  0
VERTEX
  8
0
 62
7
 10
33.63671094
 20
9.64943750
  0
VERTEX
  8
0
 62
7
 10
33.63331250
 20
9.64475000
  0
VERTEX
  8
0
 62
7
 10
33.62850781
 20
9.64193750
  0
VERTEX
  8
0
 62
7
 10
33.62300000
 20
9.64100000
  0
VERTEX
  8
0
 62
7
 10
33.61749219
 20
9.64193750
  0
VERTEX
  8
0
 62
7
 10
33.61268750
 20
9.64475000
  0
VERTEX
  8
0
 62
7
 10
33.60928906
 20
9.64943750
  0
VERTEX
  8
0
 62
7
 10
33.60800000
 20
9.65600000
  0
SEQEND
  0
POLYLINE
  8
0
 62
7
 66
1
 70
1
  0
VERTEX
  8
0
 62
7
 10
33.60800000
 20
9.47100000
  0
VERTEX
  8
0
 62
7
 10
33.60662500
 20
9.48537500
  0
VERTEX
  8
0
 62
7
 10
33.60300000
 20
9.49900000
  0
VERTEX
  8
0
 62
7
 10
33.59800000
 20
9.50900000
  0
VERTEX
  8
0
 62
7
 10
33.59100000
 20
9.52400000
  0
VERTEX
  8
0
 62
7
 10
33.59100000
 20
9.52600000
  0
VERTEX
  8
0
 62
7
 10
33.58800000
 20
9.54100000
  0
VERTEX
  8
0
 62
7
 10
33.58900000
 20
9.54900000
  0
VERTEX
  8
0
 62
7
 10
33.59625000
 20
9.56200000
  0
VERTEX
  8
0
 62
7
 10
33.60800000
 20
9.57200000
  0
VERTEX
  8
0
 62
7
 10
33.62300000
 20
9.57600000
  0
VERTEX
  8
0
 62
7
 10
33.63800000
 20
9.57200000
  0
VERTEX
  8
0
 62
7
 10
33.64975000
 20
9.56200000
  0
VERTEX
  8
0
 62
7
 10
33.65700000
 20
9.54900000
  0
VERTEX
  8
0
 62
7
 10
33.65800000
 20
9.54100000
  0
VERTEX
  8
0
 62
7
 10
33.65500000
 20
9.52600000
  0
VERTEX
  8
0
 62
7
 10
33.65500000
 20
9.52400000
  0
VERTEX
  8
0
 62
7
 10
33.64800000
 20
9.50900000
  0
VERTEX
  8
0
 62
7
 10
33.64300000
 20
9.49900000
  0
VERTEX
  8
0
 62
7
 10
33.63937500
 20
9.48537500
  0
VERTEX
  8
0
 62
7
 10
33.63800000
 20
9.47100000
  0
VERTEX
  8
0
 62
7
 10
33.63671094
 20
9.46443750
  0
VERTEX
  8
0
 62
7
 10
33.63331250
 20
9.45975000
  0
VERTEX
  8
0
 62
7
 10
33.62850781
 20
9.45693750
  0
VERTEX
  8
0
 62
7
 10
33.62300000
 20
9.45600000
  0
VERTEX
  8
0
 62
7
 10
33.61749219
 20
9.45693750
  0
VERTEX
  8
0
 62
7
 10
33.61268750
 20
9.45975000
  0
VERTEX
  8
0
 62
7
 10
33.60928906
 20
9.46443750
  0
VERTEX
  8
0
 62
7
 10
33.60800000
 20
9.47100000
  0
SEQEND
  0
POLYLINE
  8
0
 62
7
 66
1
 70
1
  0
VERTEX
  8
0
 62
7
 10
6.09600000
 20
10.05100000
  0
VERTEX
  8
0
 62
7
 10
6.07600000
 20
10.05700000
  0
VERTEX
  8
0
 62
7
 10
6.05000000
 20
10.06037500
  0
VERTEX
  8
0
 62
7
 10
6.02400000
 20
10.05700000
  0
VERTEX
  8
0
 62
7
 10
6.00814063
 20
10.05028125
  0
VERTEX
  8
0
 62
7
 10
5.99387500
 20
10.04075000
  0
VERTEX
  8
0
 62
7
 10
5.98167188
 20
10.02859375
  0
VERTEX
  8
0
 62
7
 10
5.97200000
 20
10.01400000
  0
VERTEX
  8
0
 62
7
 10
5.96501563
 20
9.99700000
  0
VERTEX
  8
0
 62
7
 10
5.96187500
 20
9.97925000
  0
VERTEX
  8
0
 62
7
 10
5.96229688
 20
9.96112500
  0
VERTEX
  8
0
 62
7
 10
5.96600000
 20
9.94300000
  0
VERTEX
  8
0
 62
7
 10
5.97637500
 20
9.92050000
  0
VERTEX
  8
0
 62
7
 10
5.99200000
 20
9.90100000
  0
VERTEX
  8
0
 62
7
 10
5.97170313
 20
9.89778125
  0
VERTEX
  8
0
 62
7
 10
5.95187500
 20
9.90000000
  0
VERTEX
  8
0
 62
7
 10
5.93335938
 20
9.90746875
  0
VERTEX
  8
0
 62
7
 10
5.91700000
 20
9.92000000
  0
VERTEX
  8
0
 62
7
 10
5.90765625
 20
9.93226562
  0
VERTEX
  8
0
 62
7
 10
5.90150000
 20
9.94612500
  0
VERTEX
  8
0
 62
7
 10
5.89759375
 20
9.96092188
  0
VERTEX
  8
0
 62
7
 10
5.89500000
 20
9.97600000
  0
VERTEX
  8
0
 62
7
 10
5.89304688
 20
10.00292188
  0
VERTEX
  8
0
 62
7
 10
5.89587500
 20
10.02937500
  0
VERTEX
  8
0
 62
7
 10
5.90301563
 20
10.05489063
  0
VERTEX
  8
0
 62
7
 10
5.91400000
 20
10.07900000
  0
VERTEX
  8
0
 62
7
 10
5.93512500
 20
10.10950000
  0
VERTEX
  8
0
 62
7
 10
5.96300000
 20
10.13400000
  0
VERTEX
  8
0
 62
7
 10
5.97793750
 20
10.14279688
  0
VERTEX
  8
0
 62
7
 10
5.99400000
 20
10.14962500
  0
VERTEX
  8
0
 62
7
 10
6.01081250
 20
10.15439063
  0
VERTEX
  8
0
 62
7
 10
6.02800000
 20
10.15700000
  0
VERTEX
  8
0
 62
7
 10
6.02553125
 20
10.19067188
  0
VERTEX
  8
0
 62
7
 10
6.02850000
 20
10.22387500
  0
VERTEX
  8
0
 62
7
 10
6.03671875
 20
10.25614063
  0
VERTEX
  8
0
 62
7
 10
6.05000000
 20
10.28700000
  0
VERTEX
  8
0
 62
7
 10
6.05731250
 20
10.30054688
  0
VERTEX
  8
0
 62
7
 10
6.06500000
 20
10.31362500
  0
VERTEX
  8
0
 62
7
 10
6.07418750
 20
10.32539063
  0
VERTEX
  8
0
 62
7
 10
6.08600000
 20
10.33500000
  0
VERTEX
  8
0
 62
7
 10
6.10089063
 20
10.34289063
  0
VERTEX
  8
0
 62
7
 10
6.11662500
 20
10.34862500
  0
VERTEX
  8
0
 62
7
 10
6.13254688
 20
10.35004688
  0
VERTEX
  8
0
 62
7
 10
6.14800000
 20
10.34500000
  0
VERTEX
  8
0
 62
7
 10
6.15900000
 20
10.33700000
  0
VERTEX
  8
0
 62
7
 10
6.16700000
 20
10.32600000
  0
VERTEX
  8
0
 62
7
 10
6.15212500
 20
10.30412500
  0
VERTEX
  8
0
 62
7
 10
6.14100000
 20
10.28000000
  0
VERTEX
  8
0
 62
7
 10
6.13521875
 20
10.26182813
  0
VERTEX
  8
0
 62
7
 10
6.13150000
 20
10.24337500
  0
VERTEX
  8
0
 62
7
 10
6.13003125
 20
10.22473438
  0
VERTEX
  8
0
 62
7
 10
6.13100000
 20
10.20600000
  0
VERTEX
  8
0
 62
7
 10
6.13403125
 20
10.18834375
  0
VERTEX
  8
0
 62
7
 10
6.13950000
 20
10.17125000
  0
VERTEX
  8
0
 62
7
 10
6.14646875
 20
10.15453125
  0
VERTEX
  8
0
 62
7
 10
6.15400000
 20
10.13800000
  0
VERTEX
  8
0
 62
7
 10
6.16400000
 20
10.12000000
  0
VERTEX
  8
0
 62
7
 10
6.09600000
 20
10.05100000
  0
SEQEND
  0
POLYLINE
  8
0
 62
7
 66
1
 70
1
  0
VERTEX
  8
0
 62
7
 10
7.20900000
 20
9.39200000
  0
VERTEX
  8
0
 62
7
 10
7.22400000
 20
9.39700000
  0
VERTEX
  8
0
 62
7
 10
7.29012500
 20
9.41525000
  0
VERTEX
  8
0
 62
7
 10
7.35700000
 20
9.42900000
  0
VERTEX
  8
0
 62
7
 10
7.38999023
 20
9.43392896
  0
VERTEX
  8
0
 62
7
 10
7.42353125
 20
9.43702539
  0
VERTEX
  8
0
 62
7
 10
7.45735352
 20
9.43819116
  0
VERTEX
  8
0
 62
7
 10
7.49118750
 20
9.43732813
  0
VERTEX
  8
0
 62
7
 10
7.52476367
 20
9.43433813
  0
VERTEX
  8
0
 62
7
 10
7.55781250
 20
9.42912305
  0
VERTEX
  8
0
 62
7
 10
7.59006445
 20
9.42158472
  0
VERTEX
  8
0
 62
7
 10
7.62125000
 20
9.41162500
  0
VERTEX
  8
0
 62
7
 10
7.65109961
 20
9.39914575
  0
VERTEX
  8
0
 62
7
 10
7.67934375
 20
9.38404883
  0
VERTEX
  8
0
 62
7
 10
7.70571289
 20
9.36623608
  0
VERTEX
  8
0
 62
7
 10
7.72993750
 20
9.34560938
  0
VERTEX
  8
0
 62
7
 10
7.75174805
 20
9.32207056
  0
VERTEX
  8
0
 62
7
 10
7.77087500
 20
9.29552148
  0
VERTEX
  8
0
 62
7
 10
7.78704883
 20
9.26586401
  0
VERTEX
  8
0
 62
7
 10
7.80000000
 20
9.23300000
  0
VERTEX
  8
0
 62
7
 10
7.80834375
 20
9.20506250
  0
VERTEX
  8
0
 62
7
 10
7.81500000
 20
9.17675000
  0
VERTEX
  8
0
 62
7
 10
7.81940625
 20
9.14806250
  0
VERTEX
  8
0
 62
7
 10
7.82100000
 20
9.11900000
  0
VERTEX
  8
0
 62
7
 10
7.81965625
 20
9.08082813
  0
VERTEX
  8
0
 62
7
 10
7.81400000
 20
9.04312500
  0
VERTEX
  8
0
 62
7
 10
7.80384375
 20
9.00635938
  0
VERTEX
  8
0
 62
7
 10
7.78900000
 20
8.97100000
  0
VERTEX
  8
0
 62
7
 10
7.76337500
 20
8.92837500
  0
VERTEX
  8
0
 62
7
 10
7.73100000
 20
8.89100000
  0
VERTEX
  8
0
 62
7
 10
7.71092188
 20
8.87318750
  0
VERTEX
  8
0
 62
7
 10
7.68962500
 20
8.85725000
  0
VERTEX
  8
0
 62
7
 10
7.66701563
 20
8.84318750
  0
VERTEX
  8
0
 62
7
 10
7.64300000
 20
8.83100000
  0
VERTEX
  8
0
 62
7
 10
7.60637500
 20
8.81775000
  0
VERTEX
  8
0
 62
7
 10
7.56900000
 20
8.80900000
  0
VERTEX
  8
0
 62
7
 10
7.54184375
 20
8.80545313
  0
VERTEX
  8
0
 62
7
 10
7.51450000
 20
8.80387500
  0
VERTEX
  8
0
 62
7
 10
7.48715625
 20
8.80435938
  0
VERTEX
  8
0
 62
7
 10
7.46000000
 20
8.80700000
  0
VERTEX
  8
0
 62
7
 10
7.43632617
 20
8.81041992
  0
VERTEX
  8
0
 62
7
 10
7.41273438
 20
8.81485937
  0
VERTEX
  8
0
 62
7
 10
7.38949414
 20
8.82058789
  0
VERTEX
  8
0
 62
7
 10
7.36687500
 20
8.82787500
  0
VERTEX
  8
0
 62
7
 10
7.34514648
 20
8.83699023
  0
VERTEX
  8
0
 62
7
 10
7.32457813
 20
8.84820313
  0
VERTEX
  8
0
 62
7
 10
7.30543945
 20
8.86178320
  0
VERTEX
  8
0
 62
7
 10
7.28800000
 20
8.87800000
  0
VERTEX
  8
0
 62
7
 10
7.26590625
 20
8.90414063
  0
VERTEX
  8
0
 62
7
 10
7.24775000
 20
8.93187500
  0
VERTEX
  8
0
 62
7
 10
7.23371875
 20
8.96167188
  0
VERTEX
  8
0
 62
7
 10
7.22400000
 20
8.99400000
  0
VERTEX
  8
0
 62
7
 10
7.21918555
 20
9.02049609
  0
VERTEX
  8
0
 62
7
 10
7.21623438
 20
9.04790625
  0
VERTEX
  8
0
 62
7
 10
7.21550977
 20
9.07573828
  0
VERTEX
  8
0
 62
7
 10
7.21737500
 20
9.10350000
  0
VERTEX
  8
0
 62
7
 10
7.22219336
 20
9.13069922
  0
VERTEX
  8
0
 62
7
 10
7.23032813
 20
9.15684375
  0
VERTEX
  8
0
 62
7
 10
7.24214258
 20
9.18144141
  0
VERTEX
  8
0
 62
7
 10
7.25800000
 20
9.20400000
  0
VERTEX
  8
0
 62
7
 10
7.27895313
 20
9.22596875
  0
VERTEX
  8
0
 62
7
 10
7.30337500
 20
9.24550000
  0
VERTEX
  8
0
 62
7
 10
7.32985938
 20
9.26053125
  0
VERTEX
  8
0
 62
7
 10
7.35700000
 20
9.26900000
  0
VERTEX
  8
0
 62
7
 10
7.38020313
 20
9.27165625
  0
VERTEX
  8
0
 62
7
 10
7.40387500
 20
9.27075000
  0
VERTEX
  8
0
 62
7
 10
7.42660938
 20
9.26421875
  0
VERTEX
  8
0
 62
7
 10
7.44700000
 20
9.25000000
  0
VERTEX
  8
0
 62
7
 10
7.45834375
 20
9.23684375
  0
VERTEX
  8
0
 62
7
 10
7.46650000
 20
9.22275000
  0
VERTEX
  8
0
 62
7
 10
7.47090625
 20
9.20753125
  0
VERTEX
  8
0
 62
7
 10
7.47100000
 20
9.19100000
  0
VERTEX
  8
0
 62
7
 10
7.44487500
 20
9.19900000
  0
VERTEX
  8
0
 62
7
 10
7.41800000
 20
9.20100000
  0
VERTEX
  8
0
 62
7
 10
7.40007813
 20
9.19907813
  0
VERTEX
  8
0
 62
7
 10
7.38262500
 20
9.19462500
  0
VERTEX
  8
0
 62
7
 10
7.36610938
 20
9.18735938
  0
VERTEX
  8
0
 62
7
 10
7.35100000
 20
9.17700000
  0
VERTEX
  8
0
 62
7
 10
7.33907813
 20
9.16381250
  0
VERTEX
  8
0
 62
7
 10
7.32987500
 20
9.14875000
  0
VERTEX
  8
0
 62
7
 10
7.32273438
 20
9.13256250
  0
VERTEX
  8
0
 62
7
 10
7.31700000
 20
9.11600000
  0
VERTEX
  8
0
 62
7
 10
7.31062500
 20
9.08087500
  0
VERTEX
  8
0
 62
7
 10
7.31100000
 20
9.04500000
  0
VERTEX
  8
0
 62
7
 10
7.31279688
 20
9.02779688
  0
VERTEX
  8
0
 62
7
 10
7.31562500
 20
9.01087500
  0
VERTEX
  8
0
 62
7
 10
7.32014063
 20
8.99451563
  0
VERTEX
  8
0
 62
7
 10
7.32700000
 20
8.97900000
  0
VERTEX
  8
0
 62
7
 10
7.34800000
 20
8.94987500
  0
VERTEX
  8
0
 62
7
 10
7.37500000
 20
8.92600000
  0
VERTEX
  8
0
 62
7
 10
7.40800000
 20
8.90662500
  0
VERTEX
  8
0
 62
7
 10
7.44400000
 20
8.89400000
  0
VERTEX
  8
0
 62
7
 10
7.46757813
 20
8.88931250
  0
VERTEX
  8
0
 62
7
 10
7.49162500
 20
8.88725000
  0
VERTEX
  8
0
 62
7
 10
7.51585938
 20
8.88781250
  0
VERTEX
  8
0
 62
7
 10
7.54000000
 20
8.89100000
  0
VERTEX
  8
0
 62
7
 10
7.56717188
 20
8.89821875
  0
VERTEX
  8
0
 62
7
 10
7.59312500
 20
8.90900000
  0
VERTEX
  8
0
 62
7
 10
7.61776563
 20
8.92278125
  0
VERTEX
  8
0
 62
7
 10
7.64100000
 20
8.93900000
  0
VERTEX
  8
0
 62
7
 10
7.66003125
 20
8.95492188
  0
VERTEX
  8
0
 62
7
 10
7.67775000
 20
8.97262500
  0
VERTEX
  8
0
 62
7
 10
7.69359375
 20
8.99201563
  0
VERTEX
  8
0
 62
7
 10
7.70700000
 20
9.01300000
  0
VERTEX
  8
0
 62
7
 10
7.72010938
 20
9.04087500
  0
VERTEX
  8
0
 62
7
 10
7.72937500
 20
9.07025000
  0
VERTEX
  8
0
 62
7
 10
7.73470313
 20
9.10075000
  0
VERTEX
  8
0
 62
7
 10
7.73600000
 20
9.13200000
  0
VERTEX
  8
0
 62
7
 10
7.73367188
 20
9.16131250
  0
VERTEX
  8
0
 62
7
 10
7.72787500
 20
9.19025000
  0
VERTEX
  8
0
 62
7
 10
7.71814063
 20
9.21806250
  0
VERTEX
  8
0
 62
7
 10
7.70400000
 20
9.24400000
  0
VERTEX
  8
0
 62
7
 10
7.68757813
 20
9.26503125
  0
VERTEX
  8
0
 62
7
 10
7.66862500
 20
9.28325000
  0
VERTEX
  8
0
 62
7
 10
7.64760938
 20
9.29884375
  0
VERTEX
  8
0
 62
7
 10
7.62500000
 20
9.31200000
  0
VERTEX
  8
0
 62
7
 10
7.59623438
 20
9.32423438
  0
VERTEX
  8
0
 62
7
 10
7.56587500
 20
9.33187500
  0
VERTEX
  8
0
 62
7
 10
7.53457813
 20
9.33632813
  0
VERTEX
  8
0
 62
7
 10
7.50300000
 20
9.33900000
  0
VERTEX
  8
0
 62
7
 10
7.47076563
 20
9.33967188
  0
VERTEX
  8
0
 62
7
 10
7.43862500
 20
9.33762500
  0
VERTEX
  8
0
 62
7
 10
7.40667188
 20
9.33351563
  0
VERTEX
  8
0
 62
7
 10
7.37500000
 20
9.32800000
  0
VERTEX
  8
0
 62
7
 10
7.31675000
 20
9.31312500
  0
VERTEX
  8
0
 62
7
 10
7.26000000
 20
9.29300000
  0
VERTEX
  8
0
 62
7
 10
7.25189063
 20
9.31915625
  0
VERTEX
  8
0
 62
7
 10
7.24087500
 20
9.34550000
  0
VERTEX
  8
0
 62
7
 10
7.22667188
 20
9.37034375
  0
VERTEX
  8
0
 62
7
 10
7.20900000
 20
9.39200000
  0
SEQEND
  0
POLYLINE
  8
0
 62
7
 66
1
  0
VERTEX
  8
0
 62
7
 10
7.96700000
 20
11.51800000
  0
VERTEX
  8
0
 62
7
 10
7.87850000
 20
11.43326563
  0
VERTEX
  8
0
 62
7
 10
7.79300000
 20
11.34562500
  0
VERTEX
  8
0
 62
7
 10
7.71050000
 20
11.25517188
  0
VERTEX
  8
0
 62
7
 10
7.63100000
 20
11.16200000
  0
VERTEX
  8
0
 62
7
 10
7.53995313
 20
11.04568750
  0
VERTEX
  8
0
 62
7
 10
7.45312500
 20
10.92675000
  0
VERTEX
  8
0
 62
7
 10
7.36873438
 20
10.80593750
  0
VERTEX
  8
0
 62
7
 10
7.28500000
 20
10.68400000
  0
VERTEX
  8
0
 62
7
 10
7.13050000
 20
10.44612500
  0
VERTEX
  8
0
 62
7
 10
6.97900000
 20
10.20600000
  0
VERTEX
  8
0
 62
7
 10
6.86331250
 20
10.01870313
  0
VERTEX
  8
0
 62
7
 10
6.75175000
 20
9.82887500
  0
VERTEX
  8
0
 62
7
 10
6.64431250
 20
9.63660938
  0
VERTEX
  8
0
 62
7
 10
6.54100000
 20
9.44200000
  0
SEQEND
  0
POLYLINE
  8
0
 62
7
 66
1
 70
1
  0
VERTEX
  8
0
 62
7
 10
5.41000000
 20
10.46100000
  0
VERTEX
  8
0
 62
7
 10
5.38500000
 20
10.48700000
  0
VERTEX
  8
0
 62
7
 10
5.38300000
 20
10.48800000
  0
VERTEX
  8
0
 62
7
 10
5.41000000
 20
10.51600000
  0
VERTEX
  8
0
 62
7
 10
5.42337500
 20
10.54325000
  0
VERTEX
  8
0
 62
7
 10
5.43000000
 20
10.56300000
  0
VERTEX
  8
0
 62
7
 10
5.43300000
 20
10.57200000
  0
VERTEX
  8
0
 62
7
 10
5.43900000
 20
10.59300000
  0
VERTEX
  8
0
 62
7
 10
5.44600000
 20
10.61500000
  0
VERTEX
  8
0
 62
7
 10
5.44800000
 20
10.61900000
  0
VERTEX
  8
0
 62
7
 10
5.45900000
 20
10.64200000
  0
VERTEX
  8
0
 62
7
 10
5.46600000
 20
10.65100000
  0
VERTEX
  8
0
 62
7
 10
5.47100000
 20
10.65300000
  0
VERTEX
  8
0
 62
7
 10
5.48487500
 20
10.65887500
  0
VERTEX
  8
0
 62
7
 10
5.50400000
 20
10.67000000
  0
VERTEX
  8
0
 62
7
 10
5.51931250
 20
10.68351563
  0
VERTEX
  8
0
 62
7
 10
5.53350000
 20
10.69862500
  0
VERTEX
  8
0
 62
7
 10
5.54618750
 20
10.71542188
  0
VERTEX
  8
0
 62
7
 10
5.55700000
 20
10.73400000
  0
VERTEX
  8
0
 62
7
 10
5.56614063
 20
10.75789063
  0
VERTEX
  8
0
 62
7
 10
5.57162500
 20
10.78112500
  0
VERTEX
  8
0
 62
7
 10
5.57429688
 20
10.80304688
  0
VERTEX
  8
0
 62
7
 10
5.57500000
 20
10.82300000
  0
VERTEX
  8
0
 62
7
 10
5.57400000
 20
10.84600000
  0
VERTEX
  8
0
 62
7
 10
5.57300000
 20
10.85700000
  0
VERTEX
  8
0
 62
7
 10
5.57300000
 20
10.87000000
  0
VERTEX
  8
0
 62
7
 10
5.57300000
 20
10.87300000
  0
VERTEX
  8
0
 62
7
 10
5.58100000
 20
10.87900000
  0
VERTEX
  8
0
 62
7
 10
5.59000000
 20
10.88600000
  0
VERTEX
  8
0
 62
7
 10
5.59100000
 20
10.88700000
  0
VERTEX
  8
0
 62
7
 10
5.59925000
 20
10.86237500
  0
VERTEX
  8
0
 62
7
 10
5.61200000
 20
10.84000000
  0
VERTEX
  8
0
 62
7
 10
5.62329688
 20
10.82743750
  0
VERTEX
  8
0
 62
7
 10
5.63862500
 20
10.81450000
  0
VERTEX
  8
0
 62
7
 10
5.65714063
 20
10.80231250
  0
VERTEX
  8
0
 62
7
 10
5.67800000
 20
10.79200000
  0
VERTEX
  8
0
 62
7
 10
5.67300000
 20
10.78500000
  0
VERTEX
  8
0
 62
7
 10
5.65900000
 20
10.76100000
  0
VERTEX
  8
0
 62
7
 10
5.64800000
 20
10.73800000
  0
VERTEX
  8
0
 62
7
 10
5.61800000
 20
10.72200000
  0
VERTEX
  8
0
 62
7
 10
5.57925000
 20
10.69562500
  0
VERTEX
  8
0
 62
7
 10
5.54500000
 20
10.66100000
  0
VERTEX
  8
0
 62
7
 10
5.52081250
 20
10.62528125
  0
VERTEX
  8
0
 62
7
 10
5.50225000
 20
10.58750000
  0
VERTEX
  8
0
 62
7
 10
5.48931250
 20
10.54821875
  0
VERTEX
  8
0
 62
7
 10
5.48200000
 20
10.50800000
  0
VERTEX
  8
0
 62
7
 10
5.46500000
 20
10.50000000
  0
VERTEX
  8
0
 62
7
 10
5.43600000
 20
10.48237500
  0
VERTEX
  8
0
 62
7
 10
5.41000000
 20
10.46100000
  0
SEQEND
  0
POLYLINE
  8
0
 62
7
 66
1
 70
1
  0
VERTEX
  8
0
 62
7
 10
5.59200000
 20
10.62400000
  0
VERTEX
  8
0
 62
7
 10
5.61725000
 20
10.64962500
  0
VERTEX
  8
0
 62
7
 10
5.64700000
 20
10.67000000
  0
VERTEX
  8
0
 62
7
 10
5.65803125
 20
10.67604688
  0
VERTEX
  8
0
 62
7
 10
5.67000000
 20
10.68237500
  0
VERTEX
  8
0
 62
7
 10
5.68046875
 20
10.68701563
  0
VERTEX
  8
0
 62
7
 10
5.68700000
 20
10.68800000
  0
VERTEX
  8
0
 62
7
 10
5.71943750
 20
10.67791211
  0
VERTEX
  8
0
 62
7
 10
5.74868750
 20
10.66635938
  0
VERTEX
  8
0
 62
7
 10
5.77503125
 20
10.65328320
  0
VERTEX
  8
0
 62
7
 10
5.79875000
 20
10.63862500
  0
VERTEX
  8
0
 62
7
 10
5.82012500
 20
10.62232617
  0
VERTEX
  8
0
 62
7
 10
5.83943750
 20
10.60432813
  0
VERTEX
  8
0
 62
7
 10
5.85696875
 20
10.58457227
  0
VERTEX
  8
0
 62
7
 10
5.87300000
 20
10.56300000
  0
VERTEX
  8
0
 62
7
 10
5.90215625
 20
10.51418750
  0
VERTEX
  8
0
 62
7
 10
5.92250000
 20
10.46575000
  0
VERTEX
  8
0
 62
7
 10
5.93459375
 20
10.41618750
  0
VERTEX
  8
0
 62
7
 10
5.93900000
 20
10.36400000
  0
VERTEX
  8
0
 62
7
 10
5.94054688
 20
10.35250000
  0
VERTEX
  8
0
 62
7
 10
5.94387500
 20
10.34475000
  0
VERTEX
  8
0
 62
7
 10
5.94926563
 20
10.34037500
  0
VERTEX
  8
0
 62
7
 10
5.95700000
 20
10.33900000
  0
VERTEX
  8
0
 62
7
 10
5.96431250
 20
10.34067188
  0
VERTEX
  8
0
 62
7
 10
5.96975000
 20
10.34562500
  0
VERTEX
  8
0
 62
7
 10
5.97331250
 20
10.35376563
  0
VERTEX
  8
0
 62
7
 10
5.97500000
 20
10.36500000
  0
VERTEX
  8
0
 62
7
 10
5.97604688
 20
10.39476367
  0
VERTEX
  8
0
 62
7
 10
5.97531250
 20
10.42404688
  0
VERTEX
  8
0
 62
7
 10
5.97260938
 20
10.45283789
  0
VERTEX
  8
0
 62
7
 10
5.96775000
 20
10.48112500
  0
VERTEX
  8
0
 62
7
 10
5.96054688
 20
10.50889648
  0
VERTEX
  8
0
 62
7
 10
5.95081250
 20
10.53614063
  0
VERTEX
  8
0
 62
7
 10
5.93835938
 20
10.56284570
  0
VERTEX
  8
0
 62
7
 10
5.92300000
 20
10.58900000
  0
VERTEX
  8
0
 62
7
 10
5.90380469
 20
10.61668164
  0
VERTEX
  8
0
 62
7
 10
5.88343750
 20
10.64132813
  0
VERTEX
  8
0
 62
7
 10
5.86147656
 20
10.66309180
  0
VERTEX
  8
0
 62
7
 10
5.83750000
 20
10.68212500
  0
VERTEX
  8
0
 62
7
 10
5.81108594
 20
10.69858008
  0
VERTEX
  8
0
 62
7
 10
5.78181250
 20
10.71260938
  0
VERTEX
  8
0
 62
7
 10
5.74925781
 20
10.72436523
  0
VERTEX
  8
0
 62
7
 10
5.71300000
 20
10.73400000
  0
VERTEX
  8
0
 62
7
 10
5.72300000
 20
10.75200000
  0
VERTEX
  8
0
 62
7
 10
5.73534375
 20
10.76860938
  0
VERTEX
  8
0
 62
7
 10
5.74975000
 20
10.78362500
  0
VERTEX
  8
0
 62
7
 10
5.76603125
 20
10.79657813
  0
VERTEX
  8
0
 62
7
 10
5.78400000
 20
10.80700000
  0
VERTEX
  8
0
 62
7
 10
5.80025000
 20
10.81325000
  0
VERTEX
  8
0
 62
7
 10
5.81725000
 20
10.81725000
  0
VERTEX
  8
0
 62
7
 10
5.83462500
 20
10.81937500
  0
VERTEX
  8
0
 62
7
 10
5.85200000
 20
10.82000000
  0
VERTEX
  8
0
 62
7
 10
5.87725000
 20
10.81837500
  0
VERTEX
  8
0
 62
7
 10
5.90250000
 20
10.81375000
  0
VERTEX
  8
0
 62
7
 10
5.92625000
 20
10.80650000
  0
VERTEX
  8
0
 62
7
 10
5.94700000
 20
10.79700000
  0
VERTEX
  8
0
 62
7
 10
5.97825000
 20
10.77687500
  0
VERTEX
  8
0
 62
7
 10
6.01100000
 20
10.74400000
  0
VERTEX
  8
0
 62
7
 10
6.02968750
 20
10.72167188
  0
VERTEX
  8
0
 62
7
 10
6.04650000
 20
10.69812500
  0
VERTEX
  8
0
 62
7
 10
6.06106250
 20
10.67326563
  0
VERTEX
  8
0
 62
7
 10
6.07300000
 20
10.64700000
  0
VERTEX
  8
0
 62
7
 10
6.08281250
 20
10.61275000
  0
VERTEX
  8
0
 62
7
 10
6.08775000
 20
10.57775000
  0
VERTEX
  8
0
 62
7
 10
6.08931250
 20
10.54237500
  0
VERTEX
  8
0
 62
7
 10
6.08900000
 20
10.50700000
  0
VERTEX
  8
0
 62
7
 10
6.08729688
 20
10.47418750
  0
VERTEX
  8
0
 62
7
 10
6.08362500
 20
10.44175000
  0
VERTEX
  8
0
 62
7
 10
6.07789063
 20
10.40968750
  0
VERTEX
  8
0
 62
7
 10
6.07000000
 20
10.37800000
  0
VERTEX
  8
0
 62
7
 10
6.05976563
 20
10.34610938
  0
VERTEX
  8
0
 62
7
 10
6.04737500
 20
10.31487500
  0
VERTEX
  8
0
 62
7
 10
6.03329688
 20
10.28420313
  0
VERTEX
  8
0
 62
7
 10
6.01800000
 20
10.25400000
  0
VERTEX
  8
0
 62
7
 10
6.00196875
 20
10.22575000
  0
VERTEX
  8
0
 62
7
 10
5.98500000
 20
10.19825000
  0
VERTEX
  8
0
 62
7
 10
5.96653125
 20
10.17187500
  0
VERTEX
  8
0
 62
7
 10
5.94600000
 20
10.14700000
  0
VERTEX
  8
0
 62
7
 10
5.91087500
 20
10.11275000
  0
VERTEX
  8
0
 62
7
 10
5.87200000
 20
10.08300000
  0
VERTEX
  8
0
 62
7
 10
5.83562500
 20
10.06125000
  0
VERTEX
  8
0
 62
7
 10
5.79700000
 20
10.04400000
  0
VERTEX
  8
0
 62
7
 10
5.77039063
 20
10.03539063
  0
VERTEX
  8
0
 62
7
 10
5.74312500
 20
10.02912500
  0
VERTEX
  8
0
 62
7
 10
5.71529688
 20
10.02529688
  0
VERTEX
  8
0
 62
7
 10
5.68700000
 20
10.02400000
  0
VERTEX
  8
0
 62
7
 10
5.66034375
 20
10.02543750
  0
VERTEX
  8
0
 62
7
 10
5.63425000
 20
10.02950000
  0
VERTEX
  8
0
 62
7
 10
5.60853125
 20
10.03581250
  0
VERTEX
  8
0
 62
7
 10
5.58300000
 20
10.04400000
  0
VERTEX
  8
0
 62
7
 10
5.53450000
 20
10.06500000
  0
VERTEX
  8
0
 62
7
 10
5.48900000
 20
10.09200000
  0
VERTEX
  8
0
 62
7
 10
5.46837500
 20
10.10750000
  0
VERTEX
  8
0
 62
7
 10
5.45300000
 20
10.12900000
  0
VERTEX
  8
0
 62
7
 10
5.44132813
 20
10.14695313
  0
VERTEX
  8
0
 62
7
 10
5.43162500
 20
10.16612500
  0
VERTEX
  8
0
 62
7
 10
5.42360938
 20
10.18623438
  0
VERTEX
  8
0
 62
7
 10
5.41700000
 20
10.20700000
  0
VERTEX
  8
0
 62
7
 10
5.41140625
 20
10.23265625
  0
VERTEX
  8
0
 62
7
 10
5.40825000
 20
10.25850000
  0
VERTEX
  8
0
 62
7
 10
5.40771875
 20
10.28434375
  0
VERTEX
  8
0
 62
7
 10
5.41000000
 20
10.31000000
  0
VERTEX
  8
0
 62
7
 10
5.41454688
 20
10.33792188
  0
VERTEX
  8
0
 62
7
 10
5.42162500
 20
10.36537500
  0
VERTEX
  8
0
 62
7
 10
5.43264063
 20
10.39114063
  0
VERTEX
  8
0
 62
7
 10
5.44900000
 20
10.41400000
  0
VERTEX
  8
0
 62
7
 10
5.46900000
 20
10.43187500
  0
VERTEX
  8
0
 62
7
 10
5.49200000
 20
10.44600000
  0
VERTEX
  8
0
 62
7
 10
5.49200000
 20
10.43600000
  0
VERTEX
  8
0
 62
7
 10
5.49534375
 20
10.39206250
  0
VERTEX
  8
0
 62
7
 10
5.50525000
 20
10.34925000
  0
VERTEX
  8
0
 62
7
 10
5.52153125
 20
10.30831250
  0
VERTEX
  8
0
 62
7
 10
5.54400000
 20
10.27000000
  0
VERTEX
  8
0
 62
7
 10
5.55853711
 20
10.25152344
  0
VERTEX
  8
0
 62
7
 10
5.57498438
 20
10.23506250
  0
VERTEX
  8
0
 62
7
 10
5.59309570
 20
10.22057031
  0
VERTEX
  8
0
 62
7
 10
5.61262500
 20
10.20800000
  0
VERTEX
  8
0
 62
7
 10
5.63332617
 20
10.19730469
  0
VERTEX
  8
0
 62
7
 10
5.65495313
 20
10.18843750
  0
VERTEX
  8
0
 62
7
 10
5.67725977
 20
10.18135156
  0
VERTEX
  8
0
 62
7
 10
5.70000000
 20
10.17600000
  0
VERTEX
  8
0
 62
7
 10
5.74795313
 20
10.16989063
  0
VERTEX
  8
0
 62
7
 10
5.79487500
 20
10.17062500
  0
VERTEX
  8
0
 62
7
 10
5.84160938
 20
10.17754688
  0
VERTEX
  8
0
 62
7
 10
5.88900000
 20
10.19000000
  0
VERTEX
  8
0
 62
7
 10
5.89957813
 20
10.19495313
  0
VERTEX
  8
0
 62
7
 10
5.90687500
 20
10.20187500
  0
VERTEX
  8
0
 62
7
 10
5.91023438
 20
10.21010938
  0
VERTEX
  8
0
 62
7
 10
5.90900000
 20
10.21900000
  0
VERTEX
  8
0
 62
7
 10
5.90576563
 20
10.22460938
  0
VERTEX
  8
0
 62
7
 10
5.90037500
 20
10.22787500
  0
VERTEX
  8
0
 62
7
 10
5.89254688
 20
10.22870313
  0
VERTEX
  8
0
 62
7
 10
5.88200000
 20
10.22700000
  0
VERTEX
  8
0
 62
7
 10
5.84042188
 20
10.21957813
  0
VERTEX
  8
0
 62
7
 10
5.79837500
 20
10.21787500
  0
VERTEX
  8
0
 62
7
 10
5.75614063
 20
10.22123438
  0
VERTEX
  8
0
 62
7
 10
5.71400000
 20
10.22900000
  0
VERTEX
  8
0
 62
7
 10
5.67776563
 20
10.24114063
  0
VERTEX
  8
0
 62
7
 10
5.64462500
 20
10.25937500
  0
VERTEX
  8
0
 62
7
 10
5.61542188
 20
10.28342188
  0
VERTEX
  8
0
 62
7
 10
5.59100000
 20
10.31300000
  0
VERTEX
  8
0
 62
7
 10
5.56971484
 20
10.34961914
  0
VERTEX
  8
0
 62
7
 10
5.55403125
 20
10.38845313
  0
VERTEX
  8
0
 62
7
 10
5.54420703
 20
10.42871680
  0
VERTEX
  8
0
 62
7
 10
5.54050000
 20
10.46962500
  0
VERTEX
  8
0
 62
7
 10
5.54316797
 20
10.51039258
  0
VERTEX
  8
0
 62
7
 10
5.55246875
 20
10.55023438
  0
VERTEX
  8
0
 62
7
 10
5.56866016
 20
10.58836523
  0
VERTEX
  8
0
 62
7
 10
5.59200000
 20
10.62400000
  0
SEQEND
  0
POLYLINE
  8
0
 62
7
 66
1
 70
1
  0
VERTEX
  8
0
 62
7
 10
5.58500000
 20
10.99300000
  0
VERTEX
  8
0
 62
7
 10
5.58325000
 20
10.97462500
  0
VERTEX
  8
0
 62
7
 10
5.57700000
 20
10.95700000
  0
VERTEX
  8
0
 62
7
 10
5.56612500
 20
10.94387500
  0
VERTEX
  8
0
 62
7
 10
5.55300000
 20
10.93300000
  0
VERTEX
  8
0
 62
7
 10
5.53500000
 20
10.91900000
  0
VERTEX
  8
0
 62
7
 10
5.51900000
 20
10.90100000
  0
VERTEX
  8
0
 62
7
 10
5.51525000
 20
10.89165625
  0
VERTEX
  8
0
 62
7
 10
5.51375000
 20
10.88175000
  0
VERTEX
  8
0
 62
7
 10
5.51337500
 20
10.87146875
  0
VERTEX
  8
0
 62
7
 10
5.51300000
 20
10.86100000
  0
VERTEX
  8
0
 62
7
 10
5.51500000
 20
10.82300000
  0
VERTEX
  8
0
 62
7
 10
5.51410938
 20
10.80712500
  0
VERTEX
  8
0
 62
7
 10
5.51237500
 20
10.79125000
  0
VERTEX
  8
0
 62
7
 10
5.50895313
 20
10.77575000
  0
VERTEX
  8
0
 62
7
 10
5.50300000
 20
10.76100000
  0
VERTEX
  8
0
 62
7
 10
5.48762500
 20
10.73725000
  0
VERTEX
  8
0
 62
7
 10
5.46700000
 20
10.71800000
  0
VERTEX
  8
0
 62
7
 10
5.42900000
 20
10.69800000
  0
VERTEX
  8
0
 62
7
 10
5.41100000
 20
10.67800000
  0
VERTEX
  8
0
 62
7
 10
5.39987500
 20
10.65875000
  0
VERTEX
  8
0
 62
7
 10
5.39100000
 20
10.63800000
  0
VERTEX
  8
0
 62
7
 10
5.37600000
 20
10.59200000
  0
VERTEX
  8
0
 62
7
 10
5.36950000
 20
10.57062500
  0
VERTEX
  8
0
 62
7
 10
5.36000000
 20
10.55000000
  0
VERTEX
  8
0
 62
7
 10
5.34150000
 20
10.53112500
  0
VERTEX
  8
0
 62
7
 10
5.32000000
 20
10.51600000
  0
VERTEX
  8
0
 62
7
 10
5.29612500
 20
10.49812500
  0
VERTEX
  8
0
 62
7
 10
5.27000000
 20
10.48400000
  0
VERTEX
  8
0
 62
7
 10
5.26174609
 20
10.48209180
  0
VERTEX
  8
0
 62
7
 10
5.25365625
 20
10.48223438
  0
VERTEX
  8
0
 62
7
 10
5.24598828
 20
10.48422852
  0
VERTEX
  8
0
 62
7
 10
5.23900000
 20
10.48787500
  0
VERTEX
  8
0
 62
7
 10
5.23294922
 20
10.49297461
  0
VERTEX
  8
0
 62
7
 10
5.22809375
 20
10.49932813
  0
VERTEX
  8
0
 62
7
 10
5.22469141
 20
10.50673633
  0
VERTEX
  8
0
 62
7
 10
5.22300000
 20
10.51500000
  0
VERTEX
  8
0
 62
7
 10
5.22318750
 20
10.53342188
  0
VERTEX
  8
0
 62
7
 10
5.22600000
 20
10.55137500
  0
VERTEX
  8
0
 62
7
 10
5.23031250
 20
10.56914063
  0
VERTEX
  8
0
 62
7
 10
5.23500000
 20
10.58700000
  0
VERTEX
  8
0
 62
7
 10
5.25100000
 20
10.63900000
  0
VERTEX
  8
0
 62
7
 10
5.25300000
 20
10.68300000
  0
VERTEX
  8
0
 62
7
 10
5.25500000
 20
10.73600000
  0
VERTEX
  8
0
 62
7
 10
5.25829688
 20
10.75410938
  0
VERTEX
  8
0
 62
7
 10
5.26262500
 20
10.77212500
  0
VERTEX
  8
0
 62
7
 10
5.26864063
 20
10.78957813
  0
VERTEX
  8
0
 62
7
 10
5.27700000
 20
10.80600000
  0
VERTEX
  8
0
 62
7
 10
5.30075000
 20
10.83525000
  0
VERTEX
  8
0
 62
7
 10
5.32900000
 20
10.86000000
  0
VERTEX
  8
0
 62
7
 10
5.39500000
 20
10.90200000
  0
VERTEX
  8
0
 62
7
 10
5.41800000
 20
10.91800000
  0
VERTEX
  8
0
 62
7
 10
5.42712500
 20
10.93325000
  0
VERTEX
  8
0
 62
7
 10
5.43400000
 20
10.95000000
  0
VERTEX
  8
0
 62
7
 10
5.45200000
 20
11.00000000
  0
VERTEX
  8
0
 62
7
 10
5.47100000
 20
11.02650000
  0
VERTEX
  8
0
 62
7
 10
5.49600000
 20
11.04700000
  0
VERTEX
  8
0
 62
7
 10
5.51159570
 20
11.05316992
  0
VERTEX
  8
0
 62
7
 10
5.52720313
 20
11.05473438
  0
VERTEX
  8
0
 62
7
 10
5.54217773
 20
11.05215039
  0
VERTEX
  8
0
 62
7
 10
5.55587500
 20
11.04587500
  0
VERTEX
  8
0
 62
7
 10
5.56765039
 20
11.03636523
  0
VERTEX
  8
0
 62
7
 10
5.57685938
 20
11.02407813
  0
VERTEX
  8
0
 62
7
 10
5.58285742
 20
11.00947070
  0
VERTEX
  8
0
 62
7
 10
5.58500000
 20
10.99300000
  0
SEQEND
  0
POLYLINE
  8
0
 62
7
 66
1
 70
1
  0
VERTEX
  8
0
 62
7
 10
8.75433446
 20
9.94400000
  0
VERTEX
  8
0
 62
7
 10
8.74142355
 20
9.93376562
  0
VERTEX
  8
0
 62
7
 10
8.72708277
 20
9.92587500
  0
VERTEX
  8
0
 62
7
 10
8.71156444
 20
9.92079688
  0
VERTEX
  8
0
 62
7
 10
8.69512090
 20
9.91900000
  0
VERTEX
  8
0
 62
7
 10
8.68005117
 20
9.91998438
  0
VERTEX
  8
0
 62
7
 10
8.66809350
 20
9.92312500
  0
VERTEX
  8
0
 62
7
 10
8.65865915
 20
9.92870313
  0
VERTEX
  8
0
 62
7
 10
8.65115932
 20
9.93700000
  0
VERTEX
  8
0
 62
7
 10
8.65026215
 20
9.94878125
  0
VERTEX
  8
0
 62
7
 10
8.64869209
 20
9.97725000
  0
VERTEX
  8
0
 62
7
 10
8.64813136
 20
10.01434375
  0
VERTEX
  8
0
 62
7
 10
8.65026215
 20
10.05200000
  0
VERTEX
  8
0
 62
7
 10
8.63248686
 20
10.02176563
  0
VERTEX
  8
0
 62
7
 10
8.61437514
 20
9.99312500
  0
VERTEX
  8
0
 62
7
 10
8.59828206
 20
9.97142188
  0
VERTEX
  8
0
 62
7
 10
8.58656271
 20
9.96200000
  0
VERTEX
  8
0
 62
7
 10
8.57433870
 20
9.96070313
  0
VERTEX
  8
0
 62
7
 10
8.56615198
 20
9.96362500
  0
VERTEX
  8
0
 62
7
 10
8.56032034
 20
9.96973438
  0
VERTEX
  8
0
 62
7
 10
8.55516158
 20
9.97800000
  0
VERTEX
  8
0
 62
7
 10
8.54031614
 20
10.00960938
  0
VERTEX
  8
0
 62
7
 10
8.52858277
 20
10.04862500
  0
VERTEX
  8
0
 62
7
 10
8.51869982
 20
10.09232813
  0
VERTEX
  8
0
 62
7
 10
8.50940565
 20
10.13800000
  0
VERTEX
  8
0
 62
7
 10
8.49890590
 20
10.09232813
  0
VERTEX
  8
0
 62
7
 10
8.48731271
 20
10.04862500
  0
VERTEX
  8
0
 62
7
 10
8.47420554
 20
10.00960938
  0
VERTEX
  8
0
 62
7
 10
8.45916384
 20
9.97800000
  0
VERTEX
  8
0
 62
7
 10
8.45386490
 20
9.96973438
  0
VERTEX
  8
0
 62
7
 10
8.44772486
 20
9.96362500
  0
VERTEX
  8
0
 62
7
 10
8.43922973
 20
9.96070313
  0
VERTEX
  8
0
 62
7
 10
8.42686554
 20
9.96200000
  0
VERTEX
  8
0
 62
7
 10
8.41553870
 20
9.97142188
  0
VERTEX
  8
0
 62
7
 10
8.39950169
 20
9.99312500
  0
VERTEX
  8
0
 62
7
 10
8.38144605
 20
10.02176563
  0
VERTEX
  8
0
 62
7
 10
8.36406328
 20
10.05200000
  0
VERTEX
  8
0
 62
7
 10
8.36619407
 20
10.01434375
  0
VERTEX
  8
0
 62
7
 10
8.36563333
 20
9.97725000
  0
VERTEX
  8
0
 62
7
 10
8.36406328
 20
9.94878125
  0
VERTEX
  8
0
 62
7
 10
8.36316610
 20
9.93700000
  0
VERTEX
  8
0
 62
7
 10
8.35554011
 20
9.92870313
  0
VERTEX
  8
0
 62
7
 10
8.34589548
 20
9.92312500
  0
VERTEX
  8
0
 62
7
 10
8.33389576
 20
9.91998438
  0
VERTEX
  8
0
 62
7
 10
8.31920452
 20
9.91900000
  0
VERTEX
  8
0
 62
7
 10
8.30061617
 20
9.92051563
  0
VERTEX
  8
0
 62
7
 10
8.28286893
 20
9.92512500
  0
VERTEX
  8
0
 62
7
 10
8.26646744
 20
9.93292188
  0
VERTEX
  8
0
 62
7
 10
8.25191638
 20
9.94400000
  0
VERTEX
  8
0
 62
7
 10
8.20840339
 20
9.99050000
  0
VERTEX
  8
0
 62
7
 10
8.17027345
 20
10.04300000
  0
VERTEX
  8
0
 62
7
 10
8.15692797
 20
10.06423438
  0
VERTEX
  8
0
 62
7
 10
8.14425537
 20
10.08612500
  0
VERTEX
  8
0
 62
7
 10
8.13292853
 20
10.10895313
  0
VERTEX
  8
0
 62
7
 10
8.12362034
 20
10.13300000
  0
VERTEX
  8
0
 62
7
 10
8.11417196
 20
10.16651563
  0
VERTEX
  8
0
 62
7
 10
8.10791977
 20
10.20087500
  0
VERTEX
  8
0
 62
7
 10
8.10570487
 20
10.23579688
  0
VERTEX
  8
0
 62
7
 10
8.10836836
 20
10.27100000
  0
VERTEX
  8
0
 62
7
 10
8.11376543
 20
10.29773438
  0
VERTEX
  8
0
 62
7
 10
8.12193814
 20
10.32362500
  0
VERTEX
  8
0
 62
7
 10
8.13297059
 20
10.34820313
  0
VERTEX
  8
0
 62
7
 10
8.14694689
 20
10.37100000
  0
VERTEX
  8
0
 62
7
 10
8.17386215
 20
10.40100000
  0
VERTEX
  8
0
 62
7
 10
8.18541328
 20
10.42175000
  0
VERTEX
  8
0
 62
7
 10
8.19360000
 20
10.44400000
  0
VERTEX
  8
0
 62
7
 10
8.21750131
 20
10.43275000
  0
VERTEX
  8
0
 62
7
 10
8.24283249
 20
10.42750000
  0
VERTEX
  8
0
 62
7
 10
8.26866833
 20
10.42825000
  0
VERTEX
  8
0
 62
7
 10
8.29408362
 20
10.43500000
  0
VERTEX
  8
0
 62
7
 10
8.31951292
 20
10.44871875
  0
VERTEX
  8
0
 62
7
 10
8.34140960
 20
10.46825000
  0
VERTEX
  8
0
 62
7
 10
8.35893256
 20
10.49265625
  0
VERTEX
  8
0
 62
7
 10
8.37124068
 20
10.52100000
  0
VERTEX
  8
0
 62
7
 10
8.38734778
 20
10.50845313
  0
VERTEX
  8
0
 62
7
 10
8.40454831
 20
10.49787500
  0
VERTEX
  8
0
 62
7
 10
8.42258994
 20
10.48935938
  0
VERTEX
  8
0
 62
7
 10
8.44122034
 20
10.48300000
  0
VERTEX
  8
0
 62
7
 10
8.47192055
 20
10.47681250
  0
VERTEX
  8
0
 62
7
 10
8.50312542
 20
10.47475000
  0
VERTEX
  8
0
 62
7
 10
8.53433030
 20
10.47681250
  0
VERTEX
  8
0
 62
7
 10
8.56503051
 20
10.48300000
  0
VERTEX
  8
0
 62
7
 10
8.58366091
 20
10.48935938
  0
VERTEX
  8
0
 62
7
 10
8.60170254
 20
10.49787500
  0
VERTEX
  8
0
 62
7
 10
8.61890307
 20
10.50845313
  0
VERTEX
  8
0
 62
7
 10
8.63501017
 20
10.52100000
  0
VERTEX
  8
0
 62
7
 10
8.64731829
 20
10.49265625
  0
VERTEX
  8
0
 62
7
 10
8.66484124
 20
10.46825000
  0
VERTEX
  8
0
 62
7
 10
8.68673792
 20
10.44871875
  0
VERTEX
  8
0
 62
7
 10
8.71216723
 20
10.43500000
  0
VERTEX
  8
0
 62
7
 10
8.73758252
 20
10.42825000
  0
VERTEX
  8
0
 62
7
 10
8.76341836
 20
10.42750000
  0
VERTEX
  8
0
 62
7
 10
8.78874954
 20
10.43275000
  0
VERTEX
  8
0
 62
7
 10
8.81265085
 20
10.44400000
  0
VERTEX
  8
0
 62
7
 10
8.82083757
 20
10.42175000
  0
VERTEX
  8
0
 62
7
 10
8.83238870
 20
10.40100000
  0
VERTEX
  8
0
 62
7
 10
8.85930395
 20
10.37100000
  0
VERTEX
  8
0
 62
7
 10
8.87328026
 20
10.34820313
  0
VERTEX
  8
0
 62
7
 10
8.88431271
 20
10.32362500
  0
VERTEX
  8
0
 62
7
 10
8.89248542
 20
10.29773438
  0
VERTEX
  8
0
 62
7
 10
8.89788249
 20
10.27100000
  0
VERTEX
  8
0
 62
7
 10
8.90054597
 20
10.23579688
  0
VERTEX
  8
0
 62
7
 10
8.89833107
 20
10.20087500
  0
VERTEX
  8
0
 62
7
 10
8.89207888
 20
10.16651563
  0
VERTEX
  8
0
 62
7
 10
8.88263051
 20
10.13300000
  0
VERTEX
  8
0
 62
7
 10
8.87332232
 20
10.10895313
  0
VERTEX
  8
0
 62
7
 10
8.86199548
 20
10.08612500
  0
VERTEX
  8
0
 62
7
 10
8.84932288
 20
10.06423438
  0
VERTEX
  8
0
 62
7
 10
8.83597740
 20
10.04300000
  0
VERTEX
  8
0
 62
7
 10
8.79784746
 20
9.99050000
  0
VERTEX
  8
0
 62
7
 10
8.75433446
 20
9.94400000
  0
SEQEND
  0
POLYLINE
  8
0
 62
7
 66
1
 70
1
  0
VERTEX
  8
0
 62
7
 10
8.20100000
 20
9.45500000
  0
VERTEX
  8
0
 62
7
 10
8.21264063
 20
9.44489062
  0
VERTEX
  8
0
 62
7
 10
8.21687500
 20
9.43112500
  0
VERTEX
  8
0
 62
7
 10
8.21492188
 20
9.41604687
  0
VERTEX
  8
0
 62
7
 10
8.20800000
 20
9.40200000
  0
VERTEX
  8
0
 62
7
 10
8.11100000
 20
9.27500000
  0
VERTEX
  8
0
 62
7
 10
8.09053125
 20
9.24820313
  0
VERTEX
  8
0
 62
7
 10
8.07025000
 20
9.22112500
  0
VERTEX
  8
0
 62
7
 10
8.04884375
 20
9.19498438
  0
VERTEX
  8
0
 62
7
 10
8.02500000
 20
9.17100000
  0
VERTEX
  8
0
 62
7
 10
8.00662500
 20
9.15487500
  0
VERTEX
  8
0
 62
7
 10
7.98600000
 20
9.14100000
  0
VERTEX
  8
0
 62
7
 10
7.96439063
 20
9.13184375
  0
VERTEX
  8
0
 62
7
 10
7.94437500
 20
9.12775000
  0
VERTEX
  8
0
 62
7
 10
7.92567188
 20
9.12778125
  0
VERTEX
  8
0
 62
7
 10
7.90800000
 20
9.13100000
  0
VERTEX
  8
0
 62
7
 10
7.89115625
 20
9.13751563
  0
VERTEX
  8
0
 62
7
 10
7.87525000
 20
9.14787500
  0
VERTEX
  8
0
 62
7
 10
7.86046875
 20
9.16179688
  0
VERTEX
  8
0
 62
7
 10
7.84700000
 20
9.17900000
  0
VERTEX
  8
0
 62
7
 10
7.83796875
 20
9.19567188
  0
VERTEX
  8
0
 62
7
 10
7.83025000
 20
9.21487500
  0
VERTEX
  8
0
 62
7
 10
7.82365625
 20
9.23314063
  0
VERTEX
  8
0
 62
7
 10
7.81800000
 20
9.24700000
  0
VERTEX
  8
0
 62
7
 10
7.80437500
 20
9.27535938
  0
VERTEX
  8
0
 62
7
 10
7.79075000
 20
9.30137500
  0
VERTEX
  8
0
 62
7
 10
7.77525000
 20
9.32645313
  0
VERTEX
  8
0
 62
7
 10
7.75600000
 20
9.35200000
  0
VERTEX
  8
0
 62
7
 10
7.74301563
 20
9.36776563
  0
VERTEX
  8
0
 62
7
 10
7.73012500
 20
9.38212500
  0
VERTEX
  8
0
 62
7
 10
7.71592188
 20
9.39517188
  0
VERTEX
  8
0
 62
7
 10
7.69900000
 20
9.40700000
  0
VERTEX
  8
0
 62
7
 10
7.71070313
 20
9.44414062
  0
VERTEX
  8
0
 62
7
 10
7.71762500
 20
9.47837500
  0
VERTEX
  8
0
 62
7
 10
7.72023438
 20
9.51317187
  0
VERTEX
  8
0
 62
7
 10
7.71900000
 20
9.55200000
  0
VERTEX
  8
0
 62
7
 10
7.71556250
 20
9.59064063
  0
VERTEX
  8
0
 62
7
 10
7.71025000
 20
9.62937500
  0
VERTEX
  8
0
 62
7
 10
7.70156250
 20
9.66717187
  0
VERTEX
  8
0
 62
7
 10
7.68800000
 20
9.70300000
  0
VERTEX
  8
0
 62
7
 10
7.71123633
 20
9.71596484
  0
VERTEX
  8
0
 62
7
 10
7.73214063
 20
9.73246875
  0
VERTEX
  8
0
 62
7
 10
7.75063086
 20
9.75155078
  0
VERTEX
  8
0
 62
7
 10
7.76662500
 20
9.77225000
  0
VERTEX
  8
0
 62
7
 10
7.78004102
 20
9.79360547
  0
VERTEX
  8
0
 62
7
 10
7.79079688
 20
9.81465625
  0
VERTEX
  8
0
 62
7
 10
7.79881055
 20
9.83444141
  0
VERTEX
  8
0
 62
7
 10
7.80400000
 20
9.85200000
  0
VERTEX
  8
0
 62
7
 10
7.80795898
 20
9.86964453
  0
VERTEX
  8
0
 62
7
 10
7.81129688
 20
9.88853125
  0
VERTEX
  8
0
 62
7
 10
7.81358008
 20
9.90821484
  0
VERTEX
  8
0
 62
7
 10
7.81437500
 20
9.92825000
  0
VERTEX
  8
0
 62
7
 10
7.81324805
 20
9.94819141
  0
VERTEX
  8
0
 62
7
 10
7.80976563
 20
9.96759375
  0
VERTEX
  8
0
 62
7
 10
7.80349414
 20
9.98601172
  0
VERTEX
  8
0
 62
7
 10
7.79400000
 20
10.00300000
  0
VERTEX
  8
0
 62
7
 10
7.81153125
 20
10.01262500
  0
VERTEX
  8
0
 62
7
 10
7.82325000
 20
10.02225000
  0
VERTEX
  8
0
 62
7
 10
7.83309375
 20
10.03450000
  0
VERTEX
  8
0
 62
7
 10
7.84500000
 20
10.05200000
  0
VERTEX
  8
0
 62
7
 10
7.86087500
 20
10.07400000
  0
VERTEX
  8
0
 62
7
 10
7.87900000
 20
10.09300000
  0
VERTEX
  8
0
 62
7
 10
7.90337500
 20
10.11037500
  0
VERTEX
  8
0
 62
7
 10
7.93000000
 20
10.12400000
  0
VERTEX
  8
0
 62
7
 10
7.95804688
 20
10.13053125
  0
VERTEX
  8
0
 62
7
 10
7.98637500
 20
10.13125000
  0
VERTEX
  8
0
 62
7
 10
8.01451563
 20
10.12709375
  0
VERTEX
  8
0
 62
7
 10
8.04200000
 20
10.11900000
  0
VERTEX
  8
0
 62
7
 10
8.06935937
 20
10.10528125
  0
VERTEX
  8
0
 62
7
 10
8.09362500
 20
10.08650000
  0
VERTEX
  8
0
 62
7
 10
8.11582813
 20
10.06471875
  0
VERTEX
  8
0
 62
7
 10
8.13700000
 20
10.04200000
  0
VERTEX
  8
0
 62
7
 10
8.15882812
 20
10.01528125
  0
VERTEX
  8
0
 62
7
 10
8.17812500
 20
9.98650000
  0
VERTEX
  8
0
 62
7
 10
8.19535938
 20
9.95621875
  0
VERTEX
  8
0
 62
7
 10
8.21100000
 20
9.92500000
  0
VERTEX
  8
0
 62
7
 10
8.22750000
 20
9.88837500
  0
VERTEX
  8
0
 62
7
 10
8.24100000
 20
9.85100000
  0
VERTEX
  8
0
 62
7
 10
8.24400000
 20
9.83300000
  0
VERTEX
  8
0
 62
7
 10
8.24125000
 20
9.81375000
  0
VERTEX
  8
0
 62
7
 10
8.23400000
 20
9.79600000
  0
VERTEX
  8
0
 62
7
 10
8.22037500
 20
9.78037500
  0
VERTEX
  8
0
 62
7
 10
8.20300000
 20
9.77000000
  0
VERTEX
  8
0
 62
7
 10
8.18304688
 20
9.76217188
  0
VERTEX
  8
0
 62
7
 10
8.16412500
 20
9.75912500
  0
VERTEX
  8
0
 62
7
 10
8.14014063
 20
9.76001562
  0
VERTEX
  8
0
 62
7
 10
8.10500000
 20
9.76400000
  0
VERTEX
  8
0
 62
7
 10
8.13443750
 20
9.73806250
  0
VERTEX
  8
0
 62
7
 10
8.15300000
 20
9.72000000
  0
VERTEX
  8
0
 62
7
 10
8.16406250
 20
9.70493750
  0
VERTEX
  8
0
 62
7
 10
8.17100000
 20
9.68800000
  0
VERTEX
  8
0
 62
7
 10
8.17525000
 20
9.67990625
  0
VERTEX
  8
0
 62
7
 10
8.17650000
 20
9.67050000
  0
VERTEX
  8
0
 62
7
 10
8.17550000
 20
9.66184375
  0
VERTEX
  8
0
 62
7
 10
8.17300000
 20
9.65600000
  0
VERTEX
  8
0
 62
7
 10
8.15596875
 20
9.64485937
  0
VERTEX
  8
0
 62
7
 10
8.12675000
 20
9.63362500
  0
VERTEX
  8
0
 62
7
 10
8.09340625
 20
9.62407813
  0
VERTEX
  8
0
 62
7
 10
8.06400000
 20
9.61800000
  0
VERTEX
  8
0
 62
7
 10
8.09317187
 20
9.60765625
  0
VERTEX
  8
0
 62
7
 10
8.12562500
 20
9.59225000
  0
VERTEX
  8
0
 62
7
 10
8.15301563
 20
9.57721875
  0
VERTEX
  8
0
 62
7
 10
8.16700000
 20
9.56800000
  0
VERTEX
  8
0
 62
7
 10
8.17282813
 20
9.55831250
  0
VERTEX
  8
0
 62
7
 10
8.17462500
 20
9.54825000
  0
VERTEX
  8
0
 62
7
 10
8.17360938
 20
9.53931250
  0
VERTEX
  8
0
 62
7
 10
8.17100000
 20
9.53300000
  0
VERTEX
  8
0
 62
7
 10
8.16068750
 20
9.51717188
  0
VERTEX
  8
0
 62
7
 10
8.14925000
 20
9.50237500
  0
VERTEX
  8
0
 62
7
 10
8.13218750
 20
9.48589063
  0
VERTEX
  8
0
 62
7
 10
8.10500000
 20
9.46500000
  0
VERTEX
  8
0
 62
7
 10
8.14193750
 20
9.46793750
  0
VERTEX
  8
0
 62
7
 10
8.16500000
 20
9.46750000
  0
VERTEX
  8
0
 62
7
 10
8.18206250
 20
9.46331250
  0
VERTEX
  8
0
 62
7
 10
8.20100000
 20
9.45500000
  0
SEQEND
  0
POLYLINE
  8
0
 62
7
 66
1
 70
1
  0
VERTEX
  8
0
 62
7
 10
8.25260309
 20
9.61481904
  0
VERTEX
  8
0
 62
7
 10
8.24377545
 20
9.66427801
  0
VERTEX
  8
0
 62
7
 10
8.22841778
 20
9.71156029
  0
VERTEX
  8
0
 62
7
 10
8.24634514
 20
9.72165766
  0
VERTEX
  8
0
 62
7
 10
8.26227722
 20
9.73429449
  0
VERTEX
  8
0
 62
7
 10
8.27603261
 20
9.74910799
  0
VERTEX
  8
0
 62
7
 10
8.28742994
 20
9.76573539
  0
VERTEX
  8
0
 62
7
 10
8.29773893
 20
9.78774403
  0
VERTEX
  8
0
 62
7
 10
8.30387596
 20
9.81120378
  0
VERTEX
  8
0
 62
7
 10
8.30565962
 20
9.83538910
  0
VERTEX
  8
0
 62
7
 10
8.30290854
 20
9.85957441
  0
VERTEX
  8
0
 62
7
 10
8.33276229
 20
9.85918140
  0
VERTEX
  8
0
 62
7
 10
8.36252534
 20
9.86223479
  0
VERTEX
  8
0
 62
7
 10
8.39174422
 20
9.86855321
  0
VERTEX
  8
0
 62
7
 10
8.41996546
 20
9.87795525
  0
VERTEX
  8
0
 62
7
 10
8.44406008
 20
9.88920142
  0
VERTEX
  8
0
 62
7
 10
8.46688497
 20
9.90262427
  0
VERTEX
  8
0
 62
7
 10
8.48825874
 20
9.91822379
  0
VERTEX
  8
0
 62
7
 10
8.50800000
 20
9.93600000
  0
VERTEX
  8
0
 62
7
 10
8.52774126
 20
9.91822379
  0
VERTEX
  8
0
 62
7
 10
8.54911503
 20
9.90262427
  0
VERTEX
  8
0
 62
7
 10
8.57193992
 20
9.88920142
  0
VERTEX
  8
0
 62
7
 10
8.59603454
 20
9.87795525
  0
VERTEX
  8
0
 62
7
 10
8.62425578
 20
9.86855321
  0
VERTEX
  8
0
 62
7
 10
8.65347466
 20
9.86223479
  0
VERTEX
  8
0
 62
7
 10
8.68323771
 20
9.85918140
  0
VERTEX
  8
0
 62
7
 10
8.71309146
 20
9.85957441
  0
VERTEX
  8
0
 62
7
 10
8.71034038
 20
9.83538910
  0
VERTEX
  8
0
 62
7
 10
8.71212404
 20
9.81120378
  0
VERTEX
  8
0
 62
7
 10
8.71826107
 20
9.78774403
  0
VERTEX
  8
0
 62
7
 10
8.72857006
 20
9.76573539
  0
VERTEX
  8
0
 62
7
 10
8.73996739
 20
9.74910799
  0
VERTEX
  8
0
 62
7
 10
8.75372278
 20
9.73429449
  0
VERTEX
  8
0
 62
7
 10
8.76965486
 20
9.72165766
  0
VERTEX
  8
0
 62
7
 10
8.78758222
 20
9.71156029
  0
VERTEX
  8
0
 62
7
 10
8.77843715
 20
9.68841797
  0
VERTEX
  8
0
 62
7
 10
8.77028972
 20
9.66427801
  0
VERTEX
  8
0
 62
7
 10
8.76377480
 20
9.63959387
  0
VERTEX
  8
0
 62
7
 10
8.75952726
 20
9.61481904
  0
VERTEX
  8
0
 62
7
 10
8.77028972
 20
9.56100672
  0
VERTEX
  8
0
 62
7
 10
8.78758222
 20
9.50937107
  0
VERTEX
  8
0
 62
7
 10
8.76965486
 20
9.49927371
  0
VERTEX
  8
0
 62
7
 10
8.75372278
 20
9.48663688
  0
VERTEX
  8
0
 62
7
 10
8.73996739
 20
9.47182337
  0
VERTEX
  8
0
 62
7
 10
8.72857006
 20
9.45519597
  0
VERTEX
  8
0
 62
7
 10
8.71826107
 20
9.43318734
  0
VERTEX
  8
0
 62
7
 10
8.71212404
 20
9.40972758
  0
VERTEX
  8
0
 62
7
 10
8.71034038
 20
9.38554227
  0
VERTEX
  8
0
 62
7
 10
8.71309146
 20
9.36135696
  0
VERTEX
  8
0
 62
7
 10
8.68323771
 20
9.36174997
  0
VERTEX
  8
0
 62
7
 10
8.65347466
 20
9.35869657
  0
VERTEX
  8
0
 62
7
 10
8.62425578
 20
9.35237816
  0
VERTEX
  8
0
 62
7
 10
8.59603454
 20
9.34297612
  0
VERTEX
  8
0
 62
7
 10
8.57193992
 20
9.33172995
  0
VERTEX
  8
0
 62
7
 10
8.54911503
 20
9.31830710
  0
VERTEX
  8
0
 62
7
 10
8.52774126
 20
9.30270757
  0
VERTEX
  8
0
 62
7
 10
8.50800000
 20
9.28493137
  0
VERTEX
  8
0
 62
7
 10
8.48825874
 20
9.30270757
  0
VERTEX
  8
0
 62
7
 10
8.46688497
 20
9.31830710
  0
VERTEX
  8
0
 62
7
 10
8.44406008
 20
9.33172995
  0
VERTEX
  8
0
 62
7
 10
8.41996546
 20
9.34297612
  0
VERTEX
  8
0
 62
7
 10
8.39174422
 20
9.35237816
  0
VERTEX
  8
0
 62
7
 10
8.36252534
 20
9.35869657
  0
VERTEX
  8
0
 62
7
 10
8.33276229
 20
9.36174997
  0
VERTEX
  8
0
 62
7
 10
8.30290854
 20
9.36135696
  0
VERTEX
  8
0
 62
7
 10
8.30565962
 20
9.38554227
  0
VERTEX
  8
0
 62
7
 10
8.30387596
 20
9.40972758
  0
VERTEX
  8
0
 62
7
 10
8.29773893
 20
9.43318734
  0
VERTEX
  8
0
 62
7
 10
8.28742994
 20
9.45519597
  0
VERTEX
  8
0
 62
7
 10
8.27603261
 20
9.47182337
  0
VERTEX
  8
0
 62
7
 10
8.26227722
 20
9.48663688
  0
VERTEX
  8
0
 62
7
 10
8.24634514
 20
9.49927371
  0
VERTEX
  8
0
 62
7
 10
8.22841778
 20
9.50937107
  0
VERTEX
  8
0
 62
7
 10
8.23695822
 20
9.53387382
  0
VERTEX
  8
0
 62
7
 10
8.24377545
 20
9.56100672
  0
VERTEX
  8
0
 62
7
 10
8.24896018
 20
9.58868379
  0
VERTEX
  8
0
 62
7
 10
8.25260309
 20
9.61481904
  0
SEQEND
  0
POLYLINE
  8
0
 62
7
 66
1
 70
1
  0
VERTEX
  8
0
 62
7
 10
8.81300000
 20
9.45500000
  0
VERTEX
  8
0
 62
7
 10
8.83193750
 20
9.46331250
  0
VERTEX
  8
0
 62
7
 10
8.84900000
 20
9.46750000
  0
VERTEX
  8
0
 62
7
 10
8.87206250
 20
9.46793750
  0
VERTEX
  8
0
 62
7
 10
8.90900000
 20
9.46500000
  0
VERTEX
  8
0
 62
7
 10
8.88181250
 20
9.48589063
  0
VERTEX
  8
0
 62
7
 10
8.86475000
 20
9.50237500
  0
VERTEX
  8
0
 62
7
 10
8.85331250
 20
9.51717188
  0
VERTEX
  8
0
 62
7
 10
8.84300000
 20
9.53300000
  0
VERTEX
  8
0
 62
7
 10
8.84039063
 20
9.53931250
  0
VERTEX
  8
0
 62
7
 10
8.83937500
 20
9.54825000
  0
VERTEX
  8
0
 62
7
 10
8.84117188
 20
9.55831250
  0
VERTEX
  8
0
 62
7
 10
8.84700000
 20
9.56800000
  0
VERTEX
  8
0
 62
7
 10
8.86098437
 20
9.57721875
  0
VERTEX
  8
0
 62
7
 10
8.88837500
 20
9.59225000
  0
VERTEX
  8
0
 62
7
 10
8.92082813
 20
9.60765625
  0
VERTEX
  8
0
 62
7
 10
8.95000000
 20
9.61800000
  0
VERTEX
  8
0
 62
7
 10
8.92059375
 20
9.62407813
  0
VERTEX
  8
0
 62
7
 10
8.88725000
 20
9.63362500
  0
VERTEX
  8
0
 62
7
 10
8.85803125
 20
9.64485937
  0
VERTEX
  8
0
 62
7
 10
8.84100000
 20
9.65600000
  0
VERTEX
  8
0
 62
7
 10
8.83850000
 20
9.66184375
  0
VERTEX
  8
0
 62
7
 10
8.83750000
 20
9.67050000
  0
VERTEX
  8
0
 62
7
 10
8.83875000
 20
9.67990625
  0
VERTEX
  8
0
 62
7
 10
8.84300000
 20
9.68800000
  0
VERTEX
  8
0
 62
7
 10
8.84993750
 20
9.70493750
  0
VERTEX
  8
0
 62
7
 10
8.86100000
 20
9.72000000
  0
VERTEX
  8
0
 62
7
 10
8.87956250
 20
9.73806250
  0
VERTEX
  8
0
 62
7
 10
8.90900000
 20
9.76400000
  0
VERTEX
  8
0
 62
7
 10
8.87385938
 20
9.76001562
  0
VERTEX
  8
0
 62
7
 10
8.84987500
 20
9.75912500
  0
VERTEX
  8
0
 62
7
 10
8.83095313
 20
9.76217188
  0
VERTEX
  8
0
 62
7
 10
8.81100000
 20
9.77000000
  0
VERTEX
  8
0
 62
7
 10
8.79362500
 20
9.78037500
  0
VERTEX
  8
0
 62
7
 10
8.78000000
 20
9.79600000
  0
VERTEX
  8
0
 62
7
 10
8.77437500
 20
9.81187500
  0
VERTEX
  8
0
 62
7
 10
8.77400000
 20
9.83300000
  0
VERTEX
  8
0
 62
7
 10
8.78925000
 20
9.87937500
  0
VERTEX
  8
0
 62
7
 10
8.80900000
 20
9.92500000
  0
VERTEX
  8
0
 62
7
 10
8.82464063
 20
9.95621875
  0
VERTEX
  8
0
 62
7
 10
8.84187500
 20
9.98650000
  0
VERTEX
  8
0
 62
7
 10
8.86117188
 20
10.01528125
  0
VERTEX
  8
0
 62
7
 10
8.88300000
 20
10.04200000
  0
VERTEX
  8
0
 62
7
 10
8.90417187
 20
10.06471875
  0
VERTEX
  8
0
 62
7
 10
8.92637500
 20
10.08650000
  0
VERTEX
  8
0
 62
7
 10
8.95064063
 20
10.10528125
  0
VERTEX
  8
0
 62
7
 10
8.97800000
 20
10.11900000
  0
VERTEX
  8
0
 62
7
 10
9.00548438
 20
10.12709375
  0
VERTEX
  8
0
 62
7
 10
9.03362500
 20
10.13125000
  0
VERTEX
  8
0
 62
7
 10
9.06195313
 20
10.13053125
  0
VERTEX
  8
0
 62
7
 10
9.09000000
 20
10.12400000
  0
VERTEX
  8
0
 62
7
 10
9.11662500
 20
10.11037500
  0
VERTEX
  8
0
 62
7
 10
9.14100000
 20
10.09300000
  0
VERTEX
  8
0
 62
7
 10
9.15912500
 20
10.07400000
  0
VERTEX
  8
0
 62
7
 10
9.17500000
 20
10.05200000
  0
VERTEX
  8
0
 62
7
 10
9.18690625
 20
10.03450000
  0
VERTEX
  8
0
 62
7
 10
9.19675000
 20
10.02225000
  0
VERTEX
  8
0
 62
7
 10
9.20846875
 20
10.01262500
  0
VERTEX
  8
0
 62
7
 10
9.22600000
 20
10.00300000
  0
VERTEX
  8
0
 62
7
 10
9.21650586
 20
9.98601172
  0
VERTEX
  8
0
 62
7
 10
9.21023438
 20
9.96759375
  0
VERTEX
  8
0
 62
7
 10
9.20675195
 20
9.94819141
  0
VERTEX
  8
0
 62
7
 10
9.20562500
 20
9.92825000
  0
VERTEX
  8
0
 62
7
 10
9.20641992
 20
9.90821484
  0
VERTEX
  8
0
 62
7
 10
9.20870313
 20
9.88853125
  0
VERTEX
  8
0
 62
7
 10
9.21204102
 20
9.86964453
  0
VERTEX
  8
0
 62
7
 10
9.21600000
 20
9.85200000
  0
VERTEX
  8
0
 62
7
 10
9.22118945
 20
9.83444141
  0
VERTEX
  8
0
 62
7
 10
9.22920313
 20
9.81465625
  0
VERTEX
  8
0
 62
7
 10
9.23995898
 20
9.79360547
  0
VERTEX
  8
0
 62
7
 10
9.25337500
 20
9.77225000
  0
VERTEX
  8
0
 62
7
 10
9.26936914
 20
9.75155078
  0
VERTEX
  8
0
 62
7
 10
9.28785938
 20
9.73246875
  0
VERTEX
  8
0
 62
7
 10
9.30876367
 20
9.71596484
  0
VERTEX
  8
0
 62
7
 10
9.33200000
 20
9.70300000
  0
VERTEX
  8
0
 62
7
 10
9.31843750
 20
9.66717187
  0
VERTEX
  8
0
 62
7
 10
9.30975000
 20
9.62937500
  0
VERTEX
  8
0
 62
7
 10
9.30443750
 20
9.59064063
  0
VERTEX
  8
0
 62
7
 10
9.30100000
 20
9.55200000
  0
VERTEX
  8
0
 62
7
 10
9.29976562
 20
9.51317187
  0
VERTEX
  8
0
 62
7
 10
9.30237500
 20
9.47837500
  0
VERTEX
  8
0
 62
7
 10
9.30929687
 20
9.44414062
  0
VERTEX
  8
0
 62
7
 10
9.32100000
 20
9.40700000
  0
VERTEX
  8
0
 62
7
 10
9.30407813
 20
9.39517188
  0
VERTEX
  8
0
 62
7
 10
9.28987500
 20
9.38212500
  0
VERTEX
  8
0
 62
7
 10
9.27698438
 20
9.36776563
  0
VERTEX
  8
0
 62
7
 10
9.26400000
 20
9.35200000
  0
VERTEX
  8
0
 62
7
 10
9.24475000
 20
9.32645313
  0
VERTEX
  8
0
 62
7
 10
9.22925000
 20
9.30137500
  0
VERTEX
  8
0
 62
7
 10
9.21562500
 20
9.27535938
  0
VERTEX
  8
0
 62
7
 10
9.20200000
 20
9.24700000
  0
VERTEX
  8
0
 62
7
 10
9.19634375
 20
9.23314063
  0
VERTEX
  8
0
 62
7
 10
9.18975000
 20
9.21487500
  0
VERTEX
  8
0
 62
7
 10
9.18203125
 20
9.19567188
  0
VERTEX
  8
0
 62
7
 10
9.17300000
 20
9.17900000
  0
VERTEX
  8
0
 62
7
 10
9.15953125
 20
9.16179688
  0
VERTEX
  8
0
 62
7
 10
9.14475000
 20
9.14787500
  0
VERTEX
  8
0
 62
7
 10
9.12884375
 20
9.13751563
  0
VERTEX
  8
0
 62
7
 10
9.11200000
 20
9.13100000
  0
VERTEX
  8
0
 62
7
 10
9.09432813
 20
9.12778125
  0
VERTEX
  8
0
 62
7
 10
9.07562500
 20
9.12775000
  0
VERTEX
  8
0
 62
7
 10
9.05560938
 20
9.13184375
  0
VERTEX
  8
0
 62
7
 10
9.03400000
 20
9.14100000
  0
VERTEX
  8
0
 62
7
 10
9.01337500
 20
9.15487500
  0
VERTEX
  8
0
 62
7
 10
8.99500000
 20
9.17100000
  0
VERTEX
  8
0
 62
7
 10
8.97115625
 20
9.19498438
  0
VERTEX
  8
0
 62
7
 10
8.94975000
 20
9.22112500
  0
VERTEX
  8
0
 62
7
 10
8.92946875
 20
9.24820313
  0
VERTEX
  8
0
 62
7
 10
8.90900000
 20
9.27500000
  0
VERTEX
  8
0
 62
7
 10
8.81000000
 20
9.40500000
  0
VERTEX
  8
0
 62
7
 10
8.80301563
 20
9.41773438
  0
VERTEX
  8
0
 62
7
 10
8.79987500
 20
9.43187500
  0
VERTEX
  8
0
 62
7
 10
8.80254688
 20
9.44507813
  0
VERTEX
  8
0
 62
7
 10
8.81300000
 20
9.45500000
  0
SEQEND
  0
POLYLINE
  8
0
 62
7
 66
1
 70
1
  0
VERTEX
  8
0
 62
7
 10
8.22600000
 20
9.29600000
  0
VERTEX
  8
0
 62
7
 10
8.24240625
 20
9.30236719
  0
VERTEX
  8
0
 62
7
 10
8.25975000
 20
9.30756250
  0
VERTEX
  8
0
 62
7
 10
8.27746875
 20
9.31097656
  0
VERTEX
  8
0
 62
7
 10
8.29500000
 20
9.31200000
  0
VERTEX
  8
0
 62
7
 10
8.31178125
 20
9.31002344
  0
VERTEX
  8
0
 62
7
 10
8.32725000
 20
9.30443750
  0
VERTEX
  8
0
 62
7
 10
8.34084375
 20
9.29463281
  0
VERTEX
  8
0
 62
7
 10
8.35200000
 20
9.28000000
  0
VERTEX
  8
0
 62
7
 10
8.35826563
 20
9.26654688
  0
VERTEX
  8
0
 62
7
 10
8.36312500
 20
9.25037500
  0
VERTEX
  8
0
 62
7
 10
8.36592188
 20
9.23176563
  0
VERTEX
  8
0
 62
7
 10
8.36600000
 20
9.21100000
  0
VERTEX
  8
0
 62
7
 10
8.37892188
 20
9.22664063
  0
VERTEX
  8
0
 62
7
 10
8.39587500
 20
9.24162500
  0
VERTEX
  8
0
 62
7
 10
8.41339063
 20
9.25304688
  0
VERTEX
  8
0
 62
7
 10
8.42800000
 20
9.25800000
  0
VERTEX
  8
0
 62
7
 10
8.43531250
 20
9.25762500
  0
VERTEX
  8
0
 62
7
 10
8.44375000
 20
9.25575000
  0
VERTEX
  8
0
 62
7
 10
8.45331250
 20
9.25125000
  0
VERTEX
  8
0
 62
7
 10
8.46400000
 20
9.24300000
  0
VERTEX
  8
0
 62
7
 10
8.47437500
 20
9.22915625
  0
VERTEX
  8
0
 62
7
 10
8.48400000
 20
9.20575000
  0
VERTEX
  8
0
 62
7
 10
8.49437500
 20
9.16846875
  0
VERTEX
  8
0
 62
7
 10
8.50700000
 20
9.11300000
  0
VERTEX
  8
0
 62
7
 10
8.51962500
 20
9.16846875
  0
VERTEX
  8
0
 62
7
 10
8.53000000
 20
9.20575000
  0
VERTEX
  8
0
 62
7
 10
8.53962500
 20
9.22915625
  0
VERTEX
  8
0
 62
7
 10
8.55000000
 20
9.24300000
  0
VERTEX
  8
0
 62
7
 10
8.56068750
 20
9.25125000
  0
VERTEX
  8
0
 62
7
 10
8.57025000
 20
9.25575000
  0
VERTEX
  8
0
 62
7
 10
8.57868750
 20
9.25762500
  0
VERTEX
  8
0
 62
7
 10
8.58600000
 20
9.25800000
  0
VERTEX
  8
0
 62
7
 10
8.60060937
 20
9.25304688
  0
VERTEX
  8
0
 62
7
 10
8.61812500
 20
9.24162500
  0
VERTEX
  8
0
 62
7
 10
8.63507813
 20
9.22664063
  0
VERTEX
  8
0
 62
7
 10
8.64800000
 20
9.21100000
  0
VERTEX
  8
0
 62
7
 10
8.64807813
 20
9.23176563
  0
VERTEX
  8
0
 62
7
 10
8.65087500
 20
9.25037500
  0
VERTEX
  8
0
 62
7
 10
8.65573438
 20
9.26654688
  0
VERTEX
  8
0
 62
7
 10
8.66200000
 20
9.28000000
  0
VERTEX
  8
0
 62
7
 10
8.67315625
 20
9.29463281
  0
VERTEX
  8
0
 62
7
 10
8.68675000
 20
9.30443750
  0
VERTEX
  8
0
 62
7
 10
8.70221875
 20
9.31002344
  0
VERTEX
  8
0
 62
7
 10
8.71900000
 20
9.31200000
  0
VERTEX
  8
0
 62
7
 10
8.73653125
 20
9.31097656
  0
VERTEX
  8
0
 62
7
 10
8.75425000
 20
9.30756250
  0
VERTEX
  8
0
 62
7
 10
8.77159375
 20
9.30236719
  0
VERTEX
  8
0
 62
7
 10
8.78800000
 20
9.29600000
  0
VERTEX
  8
0
 62
7
 10
8.81767188
 20
9.28142187
  0
VERTEX
  8
0
 62
7
 10
8.84762500
 20
9.26337500
  0
VERTEX
  8
0
 62
7
 10
8.87701563
 20
9.24214062
  0
VERTEX
  8
0
 62
7
 10
8.90500000
 20
9.21800000
  0
VERTEX
  8
0
 62
7
 10
8.92801563
 20
9.19443750
  0
VERTEX
  8
0
 62
7
 10
8.94737500
 20
9.16975000
  0
VERTEX
  8
0
 62
7
 10
8.96279688
 20
9.14318750
  0
VERTEX
  8
0
 62
7
 10
8.97400000
 20
9.11400000
  0
VERTEX
  8
0
 62
7
 10
8.97821875
 20
9.09807813
  0
VERTEX
  8
0
 62
7
 10
8.98150000
 20
9.08187500
  0
VERTEX
  8
0
 62
7
 10
8.98328125
 20
9.06548438
  0
VERTEX
  8
0
 62
7
 10
8.98300000
 20
9.04900000
  0
VERTEX
  8
0
 62
7
 10
8.97950000
 20
9.03092188
  0
VERTEX
  8
0
 62
7
 10
8.97300000
 20
9.01387500
  0
VERTEX
  8
0
 62
7
 10
8.96500000
 20
8.99739063
  0
VERTEX
  8
0
 62
7
 10
8.95700000
 20
8.98100000
  0
VERTEX
  8
0
 62
7
 10
8.94287500
 20
8.95537500
  0
VERTEX
  8
0
 62
7
 10
8.93100000
 20
8.92900000
  0
VERTEX
  8
0
 62
7
 10
8.92728125
 20
8.91217188
  0
VERTEX
  8
0
 62
7
 10
8.92525000
 20
8.89487500
  0
VERTEX
  8
0
 62
7
 10
8.92509375
 20
8.87739063
  0
VERTEX
  8
0
 62
7
 10
8.92700000
 20
8.86000000
  0
VERTEX
  8
0
 62
7
 10
8.89862500
 20
8.86370313
  0
VERTEX
  8
0
 62
7
 10
8.86950000
 20
8.86637500
  0
VERTEX
  8
0
 62
7
 10
8.84037500
 20
8.86660937
  0
VERTEX
  8
0
 62
7
 10
8.81200000
 20
8.86300000
  0
VERTEX
  8
0
 62
7
 10
8.77100000
 20
8.85279687
  0
VERTEX
  8
0
 62
7
 10
8.73225000
 20
8.83912500
  0
VERTEX
  8
0
 62
7
 10
8.69612500
 20
8.82039063
  0
VERTEX
  8
0
 62
7
 10
8.66300000
 20
8.79500000
  0
VERTEX
  8
0
 62
7
 10
8.62639063
 20
8.81142188
  0
VERTEX
  8
0
 62
7
 10
8.58987500
 20
8.82137500
  0
VERTEX
  8
0
 62
7
 10
8.55092188
 20
8.82664063
  0
VERTEX
  8
0
 62
7
 10
8.50700000
 20
8.82900000
  0
VERTEX
  8
0
 62
7
 10
8.46370313
 20
8.82632813
  0
VERTEX
  8
0
 62
7
 10
8.42612500
 20
8.82037500
  0
VERTEX
  8
0
 62
7
 10
8.39098438
 20
8.80973438
  0
VERTEX
  8
0
 62
7
 10
8.35500000
 20
8.79300000
  0
VERTEX
  8
0
 62
7
 10
8.32296875
 20
8.81839062
  0
VERTEX
  8
0
 62
7
 10
8.28925000
 20
8.83712500
  0
VERTEX
  8
0
 62
7
 10
8.25290625
 20
8.85079688
  0
VERTEX
  8
0
 62
7
 10
8.21300000
 20
8.86100000
  0
VERTEX
  8
0
 62
7
 10
8.18353125
 20
8.86492188
  0
VERTEX
  8
0
 62
7
 10
8.15200000
 20
8.86537500
  0
VERTEX
  8
0
 62
7
 10
8.12046875
 20
8.86339062
  0
VERTEX
  8
0
 62
7
 10
8.09100000
 20
8.86000000
  0
VERTEX
  8
0
 62
7
 10
8.09290625
 20
8.87739063
  0
VERTEX
  8
0
 62
7
 10
8.09275000
 20
8.89487500
  0
VERTEX
  8
0
 62
7
 10
8.09071875
 20
8.91217188
  0
VERTEX
  8
0
 62
7
 10
8.08700000
 20
8.92900000
  0
VERTEX
  8
0
 62
7
 10
8.07512500
 20
8.95537500
  0
VERTEX
  8
0
 62
7
 10
8.06100000
 20
8.98100000
  0
VERTEX
  8
0
 62
7
 10
8.05300000
 20
8.99739063
  0
VERTEX
  8
0
 62
7
 10
8.04500000
 20
9.01387500
  0
VERTEX
  8
0
 62
7
 10
8.03850000
 20
9.03092188
  0
VERTEX
  8
0
 62
7
 10
8.03500000
 20
9.04900000
  0
VERTEX
  8
0
 62
7
 10
8.03471875
 20
9.06548438
  0
VERTEX
  8
0
 62
7
 10
8.03650000
 20
9.08187500
  0
VERTEX
  8
0
 62
7
 10
8.03978125
 20
9.09807813
  0
VERTEX
  8
0
 62
7
 10
8.04400000
 20
9.11400000
  0
VERTEX
  8
0
 62
7
 10
8.05520313
 20
9.14318750
  0
VERTEX
  8
0
 62
7
 10
8.07062500
 20
9.16975000
  0
VERTEX
  8
0
 62
7
 10
8.08998438
 20
9.19443750
  0
VERTEX
  8
0
 62
7
 10
8.11300000
 20
9.21800000
  0
VERTEX
  8
0
 62
7
 10
8.14035937
 20
9.24214062
  0
VERTEX
  8
0
 62
7
 10
8.16837500
 20
9.26337500
  0
VERTEX
  8
0
 62
7
 10
8.19695313
 20
9.28142187
  0
VERTEX
  8
0
 62
7
 10
8.22600000
 20
9.29600000
  0
SEQEND
  0
POLYLINE
  8
0
 62
7
 66
1
 70
1
  0
VERTEX
  8
0
 62
7
 10
21.00000000
 20
4.29000000
  0
VERTEX
  8
0
 62
7
 10
36.71100000
 20
4.29000000
  0
VERTEX
  8
0
 62
7
 10
36.71100000
 20
8.48800000
  0
VERTEX
  8
0
 62
7
 10
33.24300000
 20
8.48900000
  0
VERTEX
  8
0
 62
7
 10
32.26400000
 20
8.48900000
  0
VERTEX
  8
0
 62
7
 10
32.26400000
 20
8.77000000
  0
VERTEX
  8
0
 62
7
 10
32.26400000
 20
8.86000000
  0
VERTEX
  8
0
 62
7
 10
32.35400000
 20
8.86000000
  0
VERTEX
  8
0
 62
7
 10
32.45000000
 20
8.86175000
  0
VERTEX
  8
0
 62
7
 10
32.52500000
 20
8.86800000
  0
VERTEX
  8
0
 62
7
 10
32.58187500
 20
8.87837500
  0
VERTEX
  8
0
 62
7
 10
32.63800000
 20
8.89400000
  0
VERTEX
  8
0
 62
7
 10
32.67168750
 20
8.90601563
  0
VERTEX
  8
0
 62
7
 10
32.69975000
 20
8.91737500
  0
VERTEX
  8
0
 62
7
 10
32.72293750
 20
8.92929688
  0
VERTEX
  8
0
 62
7
 10
32.74200000
 20
8.94300000
  0
VERTEX
  8
0
 62
7
 10
32.75856250
 20
8.95873438
  0
VERTEX
  8
0
 62
7
 10
32.77400000
 20
8.97737500
  0
VERTEX
  8
0
 62
7
 10
32.78868750
 20
8.99882812
  0
VERTEX
  8
0
 62
7
 10
32.80300000
 20
9.02300000
  0
VERTEX
  8
0
 62
7
 10
32.82000000
 20
9.06300000
  0
VERTEX
  8
0
 62
7
 10
32.80010938
 20
9.07695312
  0
VERTEX
  8
0
 62
7
 10
32.78237500
 20
9.09287500
  0
VERTEX
  8
0
 62
7
 10
32.76670313
 20
9.11010938
  0
VERTEX
  8
0
 62
7
 10
32.75300000
 20
9.12800000
  0
VERTEX
  8
0
 62
7
 10
32.74153125
 20
9.14706250
  0
VERTEX
  8
0
 62
7
 10
32.73250000
 20
9.16650000
  0
VERTEX
  8
0
 62
7
 10
32.72571875
 20
9.18368750
  0
VERTEX
  8
0
 62
7
 10
32.72100000
 20
9.19600000
  0
VERTEX
  8
0
 62
7
 10
32.71700000
 20
9.20800000
  0
VERTEX
  8
0
 62
7
 10
32.71400000
 20
9.21300000
  0
VERTEX
  8
0
 62
7
 10
32.69087500
 20
9.25925000
  0
VERTEX
  8
0
 62
7
 10
32.66700000
 20
9.29500000
  0
VERTEX
  8
0
 62
7
 10
32.66300000
 20
9.29900000
  0
VERTEX
  8
0
 62
7
 10
32.64462500
 20
9.32050000
  0
VERTEX
  8
0
 62
7
 10
32.63300000
 20
9.33000000
  0
VERTEX
  8
0
 62
7
 10
32.62037305
 20
9.33956055
  0
VERTEX
  8
0
 62
7
 10
32.60960938
 20
9.35079688
  0
VERTEX
  8
0
 62
7
 10
32.60088477
 20
9.36341602
  0
VERTEX
  8
0
 62
7
 10
32.59437500
 20
9.37712500
  0
VERTEX
  8
0
 62
7
 10
32.59025586
 20
9.39163086
  0
VERTEX
  8
0
 62
7
 10
32.58870313
 20
9.40664063
  0
VERTEX
  8
0
 62
7
 10
32.58989258
 20
9.42186133
  0
VERTEX
  8
0
 62
7
 10
32.59400000
 20
9.43700000
  0
VERTEX
  8
0
 62
7
 10
32.60687500
 20
9.48137500
  0
VERTEX
  8
0
 62
7
 10
32.61000000
 20
9.51900000
  0
VERTEX
  8
0
 62
7
 10
32.60900000
 20
9.54500000
  0
VERTEX
  8
0
 62
7
 10
32.60584375
 20
9.58201563
  0
VERTEX
  8
0
 62
7
 10
32.60175000
 20
9.61387500
  0
VERTEX
  8
0
 62
7
 10
32.59578125
 20
9.64104688
  0
VERTEX
  8
0
 62
7
 10
32.58700000
 20
9.66400000
  0
VERTEX
  8
0
 62
7
 10
32.58035938
 20
9.68129883
  0
VERTEX
  8
0
 62
7
 10
32.57756250
 20
9.69907813
  0
VERTEX
  8
0
 62
7
 10
32.57842188
 20
9.71678711
  0
VERTEX
  8
0
 62
7
 10
32.58275000
 20
9.73387500
  0
VERTEX
  8
0
 62
7
 10
32.59035938
 20
9.74979102
  0
VERTEX
  8
0
 62
7
 10
32.60106250
 20
9.76398438
  0
VERTEX
  8
0
 62
7
 10
32.61467188
 20
9.77590430
  0
VERTEX
  8
0
 62
7
 10
32.63100000
 20
9.78500000
  0
VERTEX
  8
0
 62
7
 10
32.65296875
 20
9.80029688
  0
VERTEX
  8
0
 62
7
 10
32.67250000
 20
9.82337500
  0
VERTEX
  8
0
 62
7
 10
32.68753125
 20
9.84926562
  0
VERTEX
  8
0
 62
7
 10
32.69600000
 20
9.87300000
  0
VERTEX
  8
0
 62
7
 10
32.70187500
 20
9.90125000
  0
VERTEX
  8
0
 62
7
 10
32.70400000
 20
9.92800000
  0
VERTEX
  8
0
 62
7
 10
32.70237500
 20
9.94562500
  0
VERTEX
  8
0
 62
7
 10
32.70000000
 20
9.95200000
  0
VERTEX
  8
0
 62
7
 10
32.68698438
 20
9.96915625
  0
VERTEX
  8
0
 62
7
 10
32.67987500
 20
9.98781250
  0
VERTEX
  8
0
 62
7
 10
32.67820313
 20
10.00712500
  0
VERTEX
  8
0
 62
7
 10
32.68150000
 20
10.02625000
  0
VERTEX
  8
0
 62
7
 10
32.68929688
 20
10.04434375
  0
VERTEX
  8
0
 62
7
 10
32.70112500
 20
10.06056250
  0
VERTEX
  8
0
 62
7
 10
32.71651563
 20
10.07406250
  0
VERTEX
  8
0
 62
7
 10
32.73500000
 20
10.08400000
  0
VERTEX
  8
0
 62
7
 10
32.74100000
 20
10.08800000
  0
VERTEX
  8
0
 62
7
 10
32.74500000
 20
10.09500000
  0
VERTEX
  8
0
 62
7
 10
32.75100000
 20
10.10300000
  0
VERTEX
  8
0
 62
7
 10
32.75500000
 20
10.10900000
  0
VERTEX
  8
0
 62
7
 10
32.77312500
 20
10.13350000
  0
VERTEX
  8
0
 62
7
 10
32.80400000
 20
10.16400000
  0
VERTEX
  8
0
 62
7
 10
32.81742188
 20
10.17440625
  0
VERTEX
  8
0
 62
7
 10
32.83487500
 20
10.18650000
  0
VERTEX
  8
0
 62
7
 10
32.85589063
 20
10.19859375
  0
VERTEX
  8
0
 62
7
 10
32.88000000
 20
10.20900000
  0
VERTEX
  8
0
 62
7
 10
32.91800000
 20
10.21887500
  0
VERTEX
  8
0
 62
7
 10
32.95600000
 20
10.22200000
  0
VERTEX
  8
0
 62
7
 10
32.98375000
 20
10.22050000
  0
VERTEX
  8
0
 62
7
 10
33.01000000
 20
10.21600000
  0
VERTEX
  8
0
 62
7
 10
33.00900000
 20
10.23500000
  0
VERTEX
  8
0
 62
7
 10
33.01300000
 20
10.28400000
  0
VERTEX
  8
0
 62
7
 10
33.02018750
 20
10.31964063
  0
VERTEX
  8
0
 62
7
 10
33.03150000
 20
10.35537500
  0
VERTEX
  8
0
 62
7
 10
33.04731250
 20
10.39017188
  0
VERTEX
  8
0
 62
7
 10
33.06800000
 20
10.42300000
  0
VERTEX
  8
0
 62
7
 10
33.08400000
 20
10.44400000
  0
VERTEX
  8
0
 62
7
 10
33.08600000
 20
11.45900000
  0
VERTEX
  8
0
 62
7
 10
32.72493726
 20
11.46374634
  0
VERTEX
  8
0
 62
7
 10
32.38041992
 20
11.47236133
  0
VERTEX
  8
0
 62
7
 10
32.05007935
 20
11.48484644
  0
VERTEX
  8
0
 62
7
 10
31.73154688
 20
11.50120313
  0
VERTEX
  8
0
 62
7
 10
31.42245386
 20
11.52143286
  0
VERTEX
  8
0
 62
7
 10
31.12043164
 20
11.54553711
  0
VERTEX
  8
0
 62
7
 10
30.82311157
 20
11.57351733
  0
VERTEX
  8
0
 62
7
 10
30.52812500
 20
11.60537500
  0
VERTEX
  8
0
 62
7
 10
30.23310327
 20
11.64111157
  0
VERTEX
  8
0
 62
7
 10
29.93567773
 20
11.68072852
  0
VERTEX
  8
0
 62
7
 10
29.63347974
 20
11.72422729
  0
VERTEX
  8
0
 62
7
 10
29.32414063
 20
11.77160938
  0
VERTEX
  8
0
 62
7
 10
29.00529175
 20
11.82287622
  0
VERTEX
  8
0
 62
7
 10
28.67456445
 20
11.87802930
  0
VERTEX
  8
0
 62
7
 10
28.32959009
 20
11.93707007
  0
VERTEX
  8
0
 62
7
 10
27.96800000
 20
12.00000000
  0
VERTEX
  8
0
 62
7
 10
27.57370190
 20
12.06745337
  0
VERTEX
  8
0
 62
7
 10
27.16397461
 20
12.13411133
  0
VERTEX
  8
0
 62
7
 10
26.74094360
 20
12.19948315
  0
VERTEX
  8
0
 62
7
 10
26.30673438
 20
12.26307813
  0
VERTEX
  8
0
 62
7
 10
25.86347241
 20
12.32440552
  0
VERTEX
  8
0
 62
7
 10
25.41328320
 20
12.38297461
  0
VERTEX
  8
0
 62
7
 10
24.95829224
 20
12.43829468
  0
VERTEX
  8
0
 62
7
 10
24.50062500
 20
12.48987500
  0
VERTEX
  8
0
 62
7
 10
24.04240698
 20
12.53722485
  0
VERTEX
  8
0
 62
7
 10
23.58576367
 20
12.57985352
  0
VERTEX
  8
0
 62
7
 10
23.13282056
 20
12.61727026
  0
VERTEX
  8
0
 62
7
 10
22.68570313
 20
12.64898438
  0
VERTEX
  8
0
 62
7
 10
22.24653687
 20
12.67450513
  0
VERTEX
  8
0
 62
7
 10
21.81744727
 20
12.69334180
  0
VERTEX
  8
0
 62
7
 10
21.40055981
 20
12.70500366
  0
VERTEX
  8
0
 62
7
 10
20.99800000
 20
12.70900000
  0
VERTEX
  8
0
 62
7
 10
20.59548511
 20
12.70500366
  0
VERTEX
  8
0
 62
7
 10
20.17872461
 20
12.69334180
  0
VERTEX
  8
0
 62
7
 10
19.74983228
 20
12.67450513
  0
VERTEX
  8
0
 62
7
 10
19.31092188
 20
12.64898438
  0
VERTEX
  8
0
 62
7
 10
18.86410718
 20
12.61727026
  0
VERTEX
  8
0
 62
7
 10
18.41150195
 20
12.57985352
  0
VERTEX
  8
0
 62
7
 10
17.95521997
 20
12.53722485
  0
VERTEX
  8
0
 62
7
 10
17.49737500
 20
12.48987500
  0
VERTEX
  8
0
 62
7
 10
17.04008081
 20
12.43829468
  0
VERTEX
  8
0
 62
7
 10
16.58545117
 20
12.38297461
  0
VERTEX
  8
0
 62
7
 10
16.13559985
 20
12.32440552
  0
VERTEX
  8
0
 62
7
 10
15.69264063
 20
12.26307813
  0
VERTEX
  8
0
 62
7
 10
15.25868726
 20
12.19948315
  0
VERTEX
  8
0
 62
7
 10
14.83585352
 20
12.13411133
  0
VERTEX
  8
0
 62
7
 10
14.42625317
 20
12.06745337
  0
VERTEX
  8
0
 62
7
 10
14.03200000
 20
12.00000000
  0
VERTEX
  8
0
 62
7
 10
13.67040991
 20
11.93707007
  0
VERTEX
  8
0
 62
7
 10
13.32543555
 20
11.87802930
  0
VERTEX
  8
0
 62
7
 10
12.99470825
 20
11.82287622
  0
VERTEX
  8
0
 62
7
 10
12.67585938
 20
11.77160938
  0
VERTEX
  8
0
 62
7
 10
12.36652026
 20
11.72422729
  0
VERTEX
  8
0
 62
7
 10
12.06432227
 20
11.68072852
  0
VERTEX
  8
0
 62
7
 10
11.76689673
 20
11.64111157
  0
VERTEX
  8
0
 62
7
 10
11.47187500
 20
11.60537500
  0
VERTEX
  8
0
 62
7
 10
11.17688843
 20
11.57351733
  0
VERTEX
  8
0
 62
7
 10
10.87956836
 20
11.54553711
  0
VERTEX
  8
0
 62
7
 10
10.57754614
 20
11.52143286
  0
VERTEX
  8
0
 62
7
 10
10.26845313
 20
11.50120313
  0
VERTEX
  8
0
 62
7
 10
9.94992065
 20
11.48484644
  0
VERTEX
  8
0
 62
7
 10
9.61958008
 20
11.47236133
  0
VERTEX
  8
0
 62
7
 10
9.27506274
 20
11.46374634
  0
VERTEX
  8
0
 62
7
 10
8.91400000
 20
11.45900000
  0
VERTEX
  8
0
 62
7
 10
8.91600000
 20
10.44400000
  0
VERTEX
  8
0
 62
7
 10
8.93200000
 20
10.42300000
  0
VERTEX
  8
0
 62
7
 10
8.95268750
 20
10.39017188
  0
VERTEX
  8
0
 62
7
 10
8.96850000
 20
10.35537500
  0
VERTEX
  8
0
 62
7
 10
8.97981250
 20
10.31964063
  0
VERTEX
  8
0
 62
7
 10
8.98700000
 20
10.28400000
  0
VERTEX
  8
0
 62
7
 10
8.99100000
 20
10.23500000
  0
VERTEX
  8
0
 62
7
 10
8.99000000
 20
10.21600000
  0
VERTEX
  8
0
 62
7
 10
9.01625000
 20
10.22050000
  0
VERTEX
  8
0
 62
7
 10
9.04400000
 20
10.22200000
  0
VERTEX
  8
0
 62
7
 10
9.08200000
 20
10.21887500
  0
VERTEX
  8
0
 62
7
 10
9.12000000
 20
10.20900000
  0
VERTEX
  8
0
 62
7
 10
9.14410937
 20
10.19859375
  0
VERTEX
  8
0
 62
7
 10
9.16512500
 20
10.18650000
  0
VERTEX
  8
0
 62
7
 10
9.18257812
 20
10.17440625
  0
VERTEX
  8
0
 62
7
 10
9.19600000
 20
10.16400000
  0
VERTEX
  8
0
 62
7
 10
9.22687500
 20
10.13350000
  0
VERTEX
  8
0
 62
7
 10
9.24500000
 20
10.10900000
  0
VERTEX
  8
0
 62
7
 10
9.24900000
 20
10.10300000
  0
VERTEX
  8
0
 62
7
 10
9.25500000
 20
10.09500000
  0
VERTEX
  8
0
 62
7
 10
9.25900000
 20
10.08800000
  0
VERTEX
  8
0
 62
7
 10
9.26500000
 20
10.08400000
  0
VERTEX
  8
0
 62
7
 10
9.28348438
 20
10.07406250
  0
VERTEX
  8
0
 62
7
 10
9.29887500
 20
10.06056250
  0
VERTEX
  8
0
 62
7
 10
9.31070313
 20
10.04434375
  0
VERTEX
  8
0
 62
7
 10
9.31850000
 20
10.02625000
  0
VERTEX
  8
0
 62
7
 10
9.32179688
 20
10.00712500
  0
VERTEX
  8
0
 62
7
 10
9.32012500
 20
9.98781250
  0
VERTEX
  8
0
 62
7
 10
9.31301563
 20
9.96915625
  0
VERTEX
  8
0
 62
7
 10
9.30000000
 20
9.95200000
  0
VERTEX
  8
0
 62
7
 10
9.29762500
 20
9.94562500
  0
VERTEX
  8
0
 62
7
 10
9.29600000
 20
9.92800000
  0
VERTEX
  8
0
 62
7
 10
9.29812500
 20
9.90125000
  0
VERTEX
  8
0
 62
7
 10
9.30400000
 20
9.87300000
  0
VERTEX
  8
0
 62
7
 10
9.31246875
 20
9.84926562
  0
VERTEX
  8
0
 62
7
 10
9.32750000
 20
9.82337500
  0
VERTEX
  8
0
 62
7
 10
9.34703125
 20
9.80029688
  0
VERTEX
  8
0
 62
7
 10
9.36900000
 20
9.78500000
  0
VERTEX
  8
0
 62
7
 10
9.38532812
 20
9.77590430
  0
VERTEX
  8
0
 62
7
 10
9.39893750
 20
9.76398438
  0
VERTEX
  8
0
 62
7
 10
9.40964063
 20
9.74979102
  0
VERTEX
  8
0
 62
7
 10
9.41725000
 20
9.73387500
  0
VERTEX
  8
0
 62
7
 10
9.42157813
 20
9.71678711
  0
VERTEX
  8
0
 62
7
 10
9.42243750
 20
9.69907813
  0
VERTEX
  8
0
 62
7
 10
9.41964063
 20
9.68129883
  0
VERTEX
  8
0
 62
7
 10
9.41300000
 20
9.66400000
  0
VERTEX
  8
0
 62
7
 10
9.40421875
 20
9.64104688
  0
VERTEX
  8
0
 62
7
 10
9.39825000
 20
9.61387500
  0
VERTEX
  8
0
 62
7
 10
9.39415625
 20
9.58201563
  0
VERTEX
  8
0
 62
7
 10
9.39100000
 20
9.54500000
  0
VERTEX
  8
0
 62
7
 10
9.39000000
 20
9.51900000
  0
VERTEX
  8
0
 62
7
 10
9.39312500
 20
9.48137500
  0
VERTEX
  8
0
 62
7
 10
9.40600000
 20
9.43700000
  0
VERTEX
  8
0
 62
7
 10
9.41010742
 20
9.42186133
  0
VERTEX
  8
0
 62
7
 10
9.41129688
 20
9.40664063
  0
VERTEX
  8
0
 62
7
 10
9.40974414
 20
9.39163086
  0
VERTEX
  8
0
 62
7
 10
9.40562500
 20
9.37712500
  0
VERTEX
  8
0
 62
7
 10
9.39911523
 20
9.36341602
  0
VERTEX
  8
0
 62
7
 10
9.39039063
 20
9.35079688
  0
VERTEX
  8
0
 62
7
 10
9.37962695
 20
9.33956055
  0
VERTEX
  8
0
 62
7
 10
9.36700000
 20
9.33000000
  0
VERTEX
  8
0
 62
7
 10
9.35537500
 20
9.32050000
  0
VERTEX
  8
0
 62
7
 10
9.33700000
 20
9.29900000
  0
VERTEX
  8
0
 62
7
 10
9.33300000
 20
9.29500000
  0
VERTEX
  8
0
 62
7
 10
9.30912500
 20
9.25925000
  0
VERTEX
  8
0
 62
7
 10
9.28600000
 20
9.21300000
  0
VERTEX
  8
0
 62
7
 10
9.28300000
 20
9.20800000
  0
VERTEX
  8
0
 62
7
 10
9.27900000
 20
9.19600000
  0
VERTEX
  8
0
 62
7
 10
9.27428125
 20
9.18368750
  0
VERTEX
  8
0
 62
7
 10
9.26750000
 20
9.16650000
  0
VERTEX
  8
0
 62
7
 10
9.25846875
 20
9.14706250
  0
VERTEX
  8
0
 62
7
 10
9.24700000
 20
9.12800000
  0
VERTEX
  8
0
 62
7
 10
9.23329688
 20
9.11010938
  0
VERTEX
  8
0
 62
7
 10
9.21762500
 20
9.09287500
  0
VERTEX
  8
0
 62
7
 10
9.19989063
 20
9.07695312
  0
VERTEX
  8
0
 62
7
 10
9.18000000
 20
9.06300000
  0
VERTEX
  8
0
 62
7
 10
9.19700000
 20
9.02300000
  0
VERTEX
  8
0
 62
7
 10
9.21131250
 20
8.99882812
  0
VERTEX
  8
0
 62
7
 10
9.22600000
 20
8.97737500
  0
VERTEX
  8
0
 62
7
 10
9.24143750
 20
8.95873438
  0
VERTEX
  8
0
 62
7
 10
9.25800000
 20
8.94300000
  0
VERTEX
  8
0
 62
7
 10
9.27706250
 20
8.92929688
  0
VERTEX
  8
0
 62
7
 10
9.30025000
 20
8.91737500
  0
VERTEX
  8
0
 62
7
 10
9.32831250
 20
8.90601563
  0
VERTEX
  8
0
 62
7
 10
9.36200000
 20
8.89400000
  0
VERTEX
  8
0
 62
7
 10
9.41812500
 20
8.87837500
  0
VERTEX
  8
0
 62
7
 10
9.47500000
 20
8.86800000
  0
VERTEX
  8
0
 62
7
 10
9.55000000
 20
8.86175000
  0
VERTEX
  8
0
 62
7
 10
9.64600000
 20
8.86000000
  0
VERTEX
  8
0
 62
7
 10
9.73600000
 20
8.86000000
  0
VERTEX
  8
0
 62
7
 10
9.73600000
 20
8.77000000
  0
VERTEX
  8
0
 62
7
 10
9.73600000
 20
8.48900000
  0
VERTEX
  8
0
 62
7
 10
8.75700000
 20
8.48900000
  0
VERTEX
  8
0
 62
7
 10
5.28900000
 20
8.48800000
  0
VERTEX
  8
0
 62
7
 10
5.28900000
 20
4.29000000
  0
VERTEX
  8
0
 62
7
 10
21.00000000
 20
4.29000000
  0
SEQEND
  0
POLYLINE
  8
0
 62
7
 66
1
 70
1
  0
VERTEX
  8
0
 62
7
 10
6.53700000
 20
8.96100000
  0
VERTEX
  8
0
 62
7
 10
6.52900000
 20
8.95300000
  0
VERTEX
  8
0
 62
7
 10
6.49750000
 20
8.92712500
  0
VERTEX
  8
0
 62
7
 10
6.46300000
 20
8.90500000
  0
VERTEX
  8
0
 62
7
 10
6.42896875
 20
8.88746875
  0
VERTEX
  8
0
 62
7
 10
6.39325000
 20
8.87350000
  0
VERTEX
  8
0
 62
7
 10
6.35640625
 20
8.86253125
  0
VERTEX
  8
0
 62
7
 10
6.31900000
 20
8.85400000
  0
VERTEX
  8
0
 62
7
 10
6.25796875
 20
8.84634375
  0
VERTEX
  8
0
 62
7
 10
6.19675000
 20
8.84600000
  0
VERTEX
  8
0
 62
7
 10
6.13590625
 20
8.85315625
  0
VERTEX
  8
0
 62
7
 10
6.07600000
 20
8.86800000
  0
VERTEX
  8
0
 62
7
 10
6.04706250
 20
8.86292188
  0
VERTEX
  8
0
 62
7
 10
6.01850000
 20
8.85512500
  0
VERTEX
  8
0
 62
7
 10
5.98993750
 20
8.84676563
  0
VERTEX
  8
0
 62
7
 10
5.96100000
 20
8.84000000
  0
VERTEX
  8
0
 62
7
 10
5.92125000
 20
8.83231250
  0
VERTEX
  8
0
 62
7
 10
5.87775000
 20
8.82500000
  0
VERTEX
  8
0
 62
7
 10
5.83387500
 20
8.81918750
  0
VERTEX
  8
0
 62
7
 10
5.79300000
 20
8.81600000
  0
VERTEX
  8
0
 62
7
 10
5.74704688
 20
8.81428125
  0
VERTEX
  8
0
 62
7
 10
5.70662500
 20
8.81425000
  0
VERTEX
  8
0
 62
7
 10
5.66489063
 20
8.81684375
  0
VERTEX
  8
0
 62
7
 10
5.61500000
 20
8.82300000
  0
VERTEX
  8
0
 62
7
 10
5.48900000
 20
8.84300000
  0
VERTEX
  8
0
 62
7
 10
5.42550000
 20
8.85162500
  0
VERTEX
  8
0
 62
7
 10
5.36200000
 20
8.85800000
  0
VERTEX
  8
0
 62
7
 10
5.24500000
 20
8.86200000
  0
VERTEX
  8
0
 62
7
 10
5.21000000
 20
8.86237500
  0
VERTEX
  8
0
 62
7
 10
5.17500000
 20
8.86500000
  0
VERTEX
  8
0
 62
7
 10
5.14432813
 20
8.86889063
  0
VERTEX
  8
0
 62
7
 10
5.11412500
 20
8.87512500
  0
VERTEX
  8
0
 62
7
 10
5.08485938
 20
8.88454688
  0
VERTEX
  8
0
 62
7
 10
5.05700000
 20
8.89800000
  0
VERTEX
  8
0
 62
7
 10
5.03475000
 20
8.91189063
  0
VERTEX
  8
0
 62
7
 10
5.01400000
 20
8.92737500
  0
VERTEX
  8
0
 62
7
 10
4.99625000
 20
8.94567188
  0
VERTEX
  8
0
 62
7
 10
4.98300000
 20
8.96800000
  0
VERTEX
  8
0
 62
7
 10
4.97642188
 20
8.98782813
  0
VERTEX
  8
0
 62
7
 10
4.97312500
 20
9.00812500
  0
VERTEX
  8
0
 62
7
 10
4.97301563
 20
9.02860938
  0
VERTEX
  8
0
 62
7
 10
4.97600000
 20
9.04900000
  0
VERTEX
  8
0
 62
7
 10
4.99337500
 20
9.03612500
  0
VERTEX
  8
0
 62
7
 10
5.01300000
 20
9.02700000
  0
VERTEX
  8
0
 62
7
 10
5.02907813
 20
9.02243750
  0
VERTEX
  8
0
 62
7
 10
5.04562500
 20
9.02050000
  0
VERTEX
  8
0
 62
7
 10
5.06235938
 20
9.02081250
  0
VERTEX
  8
0
 62
7
 10
5.07900000
 20
9.02300000
  0
VERTEX
  8
0
 62
7
 10
5.10812500
 20
9.03337500
  0
VERTEX
  8
0
 62
7
 10
5.13500000
 20
9.04900000
  0
VERTEX
  8
0
 62
7
 10
5.16237500
 20
9.07112500
  0
VERTEX
  8
0
 62
7
 10
5.18600000
 20
9.09700000
  0
VERTEX
  8
0
 62
7
 10
5.23400000
 20
9.16600000
  0
VERTEX
  8
0
 62
7
 10
5.24729688
 20
9.18378125
  0
VERTEX
  8
0
 62
7
 10
5.26087500
 20
9.20175000
  0
VERTEX
  8
0
 62
7
 10
5.27576563
 20
9.21859375
  0
VERTEX
  8
0
 62
7
 10
5.29300000
 20
9.23300000
  0
VERTEX
  8
0
 62
7
 10
5.32467188
 20
9.24985938
  0
VERTEX
  8
0
 62
7
 10
5.35887500
 20
9.25987500
  0
VERTEX
  8
0
 62
7
 10
5.39439063
 20
9.26295312
  0
VERTEX
  8
0
 62
7
 10
5.43000000
 20
9.25900000
  0
VERTEX
  8
0
 62
7
 10
5.42187500
 20
9.22037500
  0
VERTEX
  8
0
 62
7
 10
5.41900000
 20
9.18100000
  0
VERTEX
  8
0
 62
7
 10
5.42018750
 20
9.15331250
  0
VERTEX
  8
0
 62
7
 10
5.42400000
 20
9.12600000
  0
VERTEX
  8
0
 62
7
 10
5.43081250
 20
9.09943750
  0
VERTEX
  8
0
 62
7
 10
5.44100000
 20
9.07400000
  0
VERTEX
  8
0
 62
7
 10
5.45275000
 20
9.05240625
  0
VERTEX
  8
0
 62
7
 10
5.46675000
 20
9.03250000
  0
VERTEX
  8
0
 62
7
 10
5.48262500
 20
9.01409375
  0
VERTEX
  8
0
 62
7
 10
5.50000000
 20
8.99700000
  0
VERTEX
  8
0
 62
7
 10
5.52507813
 20
8.97614062
  0
VERTEX
  8
0
 62
7
 10
5.55212500
 20
8.95837500
  0
VERTEX
  8
0
 62
7
 10
5.58085938
 20
8.94342188
  0
VERTEX
  8
0
 62
7
 10
5.61100000
 20
8.93100000
  0
VERTEX
  8
0
 62
7
 10
5.63893750
 20
8.92221875
  0
VERTEX
  8
0
 62
7
 10
5.66725000
 20
8.91625000
  0
VERTEX
  8
0
 62
7
 10
5.69593750
 20
8.91215625
  0
VERTEX
  8
0
 62
7
 10
5.72500000
 20
8.90900000
  0
VERTEX
  8
0
 62
7
 10
5.78750000
 20
8.90637500
  0
VERTEX
  8
0
 62
7
 10
5.85000000
 20
8.90900000
  0
VERTEX
  8
0
 62
7
 10
5.88073438
 20
8.91153125
  0
VERTEX
  8
0
 62
7
 10
5.91137500
 20
8.91500000
  0
VERTEX
  8
0
 62
7
 10
5.94182813
 20
8.91996875
  0
VERTEX
  8
0
 62
7
 10
5.97200000
 20
8.92700000
  0
VERTEX
  8
0
 62
7
 10
6.02275000
 20
8.94325000
  0
VERTEX
  8
0
 62
7
 10
6.07200000
 20
8.96400000
  0
VERTEX
  8
0
 62
7
 10
6.11552734
 20
8.98522070
  0
VERTEX
  8
0
 62
7
 10
6.15753125
 20
9.00907813
  0
VERTEX
  8
0
 62
7
 10
6.19789453
 20
9.03549023
  0
VERTEX
  8
0
 62
7
 10
6.23650000
 20
9.06437500
  0
VERTEX
  8
0
 62
7
 10
6.27323047
 20
9.09565039
  0
VERTEX
  8
0
 62
7
 10
6.30796875
 20
9.12923437
  0
VERTEX
  8
0
 62
7
 10
6.34059766
 20
9.16504492
  0
VERTEX
  8
0
 62
7
 10
6.37100000
 20
9.20300000
  0
VERTEX
  8
0
 62
7
 10
6.34271875
 20
9.19101563
  0
VERTEX
  8
0
 62
7
 10
6.31350000
 20
9.18212500
  0
VERTEX
  8
0
 62
7
 10
6.28353125
 20
9.17642188
  0
VERTEX
  8
0
 62
7
 10
6.25300000
 20
9.17400000
  0
VERTEX
  8
0
 62
7
 10
6.22065625
 20
9.17510938
  0
VERTEX
  8
0
 62
7
 10
6.18850000
 20
9.17987500
  0
VERTEX
  8
0
 62
7
 10
6.15709375
 20
9.18820312
  0
VERTEX
  8
0
 62
7
 10
6.12700000
 20
9.20000000
  0
VERTEX
  8
0
 62
7
 10
6.14900000
 20
9.24700000
  0
VERTEX
  8
0
 62
7
 10
6.11098438
 20
9.24775000
  0
VERTEX
  8
0
 62
7
 10
6.07362500
 20
9.25300000
  0
VERTEX
  8
0
 62
7
 10
6.03720313
 20
9.26275000
  0
VERTEX
  8
0
 62
7
 10
6.00200000
 20
9.27700000
  0
VERTEX
  8
0
 62
7
 10
5.96795313
 20
9.29626563
  0
VERTEX
  8
0
 62
7
 10
5.93662500
 20
9.31937500
  0
VERTEX
  8
0
 62
7
 10
5.90848438
 20
9.34604688
  0
VERTEX
  8
0
 62
7
 10
5.88400000
 20
9.37600000
  0
VERTEX
  8
0
 62
7
 10
5.91175000
 20
9.39550000
  0
VERTEX
  8
0
 62
7
 10
5.93500000
 20
9.42100000
  0
VERTEX
  8
0
 62
7
 10
5.94573438
 20
9.43984375
  0
VERTEX
  8
0
 62
7
 10
5.95337500
 20
9.46000000
  0
VERTEX
  8
0
 62
7
 10
5.95932813
 20
9.48090625
  0
VERTEX
  8
0
 62
7
 10
5.96500000
 20
9.50200000
  0
VERTEX
  8
0
 62
7
 10
5.96889063
 20
9.52239063
  0
VERTEX
  8
0
 62
7
 10
5.97137500
 20
9.54287500
  0
VERTEX
  8
0
 62
7
 10
5.97442188
 20
9.56317188
  0
VERTEX
  8
0
 62
7
 10
5.98000000
 20
9.58300000
  0
VERTEX
  8
0
 62
7
 10
5.99700000
 20
9.61787500
  0
VERTEX
  8
0
 62
7
 10
6.02000000
 20
9.64900000
  0
VERTEX
  8
0
 62
7
 10
5.99100000
 20
9.73700000
  0
VERTEX
  8
0
 62
7
 10
6.01103125
 20
9.74939063
  0
VERTEX
  8
0
 62
7
 10
6.03200000
 20
9.75962500
  0
VERTEX
  8
0
 62
7
 10
6.05371875
 20
9.76779688
  0
VERTEX
  8
0
 62
7
 10
6.07600000
 20
9.77400000
  0
VERTEX
  8
0
 62
7
 10
6.10331250
 20
9.77821875
  0
VERTEX
  8
0
 62
7
 10
6.13100000
 20
9.77925000
  0
VERTEX
  8
0
 62
7
 10
6.15868750
 20
9.77765625
  0
VERTEX
  8
0
 62
7
 10
6.18600000
 20
9.77400000
  0
VERTEX
  8
0
 62
7
 10
6.21437500
 20
9.76762500
  0
VERTEX
  8
0
 62
7
 10
6.24200000
 20
9.75900000
  0
VERTEX
  8
0
 62
7
 10
6.29662500
 20
9.73575000
  0
VERTEX
  8
0
 62
7
 10
6.34900000
 20
9.70800000
  0
VERTEX
  8
0
 62
7
 10
6.36300000
 20
9.70000000
  0
VERTEX
  8
0
 62
7
 10
6.37001563
 20
9.69928125
  0
VERTEX
  8
0
 62
7
 10
6.37712500
 20
9.70025000
  0
VERTEX
  8
0
 62
7
 10
6.38367188
 20
9.70309375
  0
VERTEX
  8
0
 62
7
 10
6.38900000
 20
9.70800000
  0
VERTEX
  8
0
 62
7
 10
6.39245313
 20
9.71596875
  0
VERTEX
  8
0
 62
7
 10
6.39187500
 20
9.72450000
  0
VERTEX
  8
0
 62
7
 10
6.38885938
 20
9.73303125
  0
VERTEX
  8
0
 62
7
 10
6.38500000
 20
9.74100000
  0
VERTEX
  8
0
 62
7
 10
6.37912500
 20
9.75075000
  0
VERTEX
  8
0
 62
7
 10
6.37100000
 20
9.75900000
  0
VERTEX
  8
0
 62
7
 10
6.36359375
 20
9.76353125
  0
VERTEX
  8
0
 62
7
 10
6.35525000
 20
9.76600000
  0
VERTEX
  8
0
 62
7
 10
6.34653125
 20
9.76771875
  0
VERTEX
  8
0
 62
7
 10
6.33800000
 20
9.77000000
  0
VERTEX
  8
0
 62
7
 10
6.29886133
 20
9.78803711
  0
VERTEX
  8
0
 62
7
 10
6.26264063
 20
9.81042187
  0
VERTEX
  8
0
 62
7
 10
6.22963086
 20
9.83681445
  0
VERTEX
  8
0
 62
7
 10
6.20012500
 20
9.86687500
  0
VERTEX
  8
0
 62
7
 10
6.17441602
 20
9.90026367
  0
VERTEX
  8
0
 62
7
 10
6.15279688
 20
9.93664063
  0
VERTEX
  8
0
 62
7
 10
6.13556055
 20
9.97566602
  0
VERTEX
  8
0
 62
7
 10
6.12300000
 20
10.01700000
  0
VERTEX
  8
0
 62
7
 10
6.19400000
 20
10.09500000
  0
VERTEX
  8
0
 62
7
 10
6.18610938
 20
10.13043750
  0
VERTEX
  8
0
 62
7
 10
6.18037500
 20
10.16625000
  0
VERTEX
  8
0
 62
7
 10
6.17670313
 20
10.20243750
  0
VERTEX
  8
0
 62
7
 10
6.17500000
 20
10.23900000
  0
VERTEX
  8
0
 62
7
 10
6.17712500
 20
10.30187500
  0
VERTEX
  8
0
 62
7
 10
6.18600000
 20
10.36400000
  0
VERTEX
  8
0
 62
7
 10
6.24900000
 20
10.37500000
  0
VERTEX
  8
0
 62
7
 10
6.24600000
 20
10.43950000
  0
VERTEX
  8
0
 62
7
 10
6.24900000
 20
10.50400000
  0
VERTEX
  8
0
 62
7
 10
6.25345313
 20
10.54520313
  0
VERTEX
  8
0
 62
7
 10
6.25987500
 20
10.58612500
  0
VERTEX
  8
0
 62
7
 10
6.26910938
 20
10.62648438
  0
VERTEX
  8
0
 62
7
 10
6.28200000
 20
10.66600000
  0
VERTEX
  8
0
 62
7
 10
6.29518750
 20
10.69973438
  0
VERTEX
  8
0
 62
7
 10
6.31025000
 20
10.73262500
  0
VERTEX
  8
0
 62
7
 10
6.32868750
 20
10.76345313
  0
VERTEX
  8
0
 62
7
 10
6.35200000
 20
10.79100000
  0
VERTEX
  8
0
 62
7
 10
6.36967188
 20
10.80685938
  0
VERTEX
  8
0
 62
7
 10
6.38837500
 20
10.82112500
  0
VERTEX
  8
0
 62
7
 10
6.40839063
 20
10.83332813
  0
VERTEX
  8
0
 62
7
 10
6.43000000
 20
10.84300000
  0
VERTEX
  8
0
 62
7
 10
6.45675000
 20
10.85070313
  0
VERTEX
  8
0
 62
7
 10
6.48425000
 20
10.85437500
  0
VERTEX
  8
0
 62
7
 10
6.51212500
 20
10.85410938
  0
VERTEX
  8
0
 62
7
 10
6.54000000
 20
10.85000000
  0
VERTEX
  8
0
 62
7
 10
6.51775000
 20
10.83225000
  0
VERTEX
  8
0
 62
7
 10
6.50000000
 20
10.81000000
  0
VERTEX
  8
0
 62
7
 10
6.49118750
 20
10.79025000
  0
VERTEX
  8
0
 62
7
 10
6.48650000
 20
10.76900000
  0
VERTEX
  8
0
 62
7
 10
6.48481250
 20
10.74700000
  0
VERTEX
  8
0
 62
7
 10
6.48500000
 20
10.72500000
  0
VERTEX
  8
0
 62
7
 10
6.48709375
 20
10.70122266
  0
VERTEX
  8
0
 62
7
 10
6.49181250
 20
10.67803125
  0
VERTEX
  8
0
 62
7
 10
6.49906250
 20
10.65563672
  0
VERTEX
  8
0
 62
7
 10
6.50875000
 20
10.63425000
  0
VERTEX
  8
0
 62
7
 10
6.52078125
 20
10.61408203
  0
VERTEX
  8
0
 62
7
 10
6.53506250
 20
10.59534375
  0
VERTEX
  8
0
 62
7
 10
6.55150000
 20
10.57824609
  0
VERTEX
  8
0
 62
7
 10
6.57000000
 20
10.56300000
  0
VERTEX
  8
0
 62
7
 10
6.61800000
 20
10.61500000
  0
VERTEX
  8
0
 62
7
 10
6.64262500
 20
10.57987500
  0
VERTEX
  8
0
 62
7
 10
6.66200000
 20
10.54100000
  0
VERTEX
  8
0
 62
7
 10
6.67045313
 20
10.51409375
  0
VERTEX
  8
0
 62
7
 10
6.67562500
 20
10.48625000
  0
VERTEX
  8
0
 62
7
 10
6.67873438
 20
10.45803125
  0
VERTEX
  8
0
 62
7
 10
6.68100000
 20
10.43000000
  0
VERTEX
  8
0
 62
7
 10
6.68212500
 20
10.37850000
  0
VERTEX
  8
0
 62
7
 10
6.68100000
 20
10.32700000
  0
VERTEX
  8
0
 62
7
 10
6.68029688
 20
10.31709375
  0
VERTEX
  8
0
 62
7
 10
6.67912500
 20
10.30700000
  0
VERTEX
  8
0
 62
7
 10
6.67889063
 20
10.29690625
  0
VERTEX
  8
0
 62
7
 10
6.68100000
 20
10.28700000
  0
VERTEX
  8
0
 62
7
 10
6.68567188
 20
10.27678125
  0
VERTEX
  8
0
 62
7
 10
6.69212500
 20
10.26750000
  0
VERTEX
  8
0
 62
7
 10
6.70026563
 20
10.25971875
  0
VERTEX
  8
0
 62
7
 10
6.71000000
 20
10.25400000
  0
VERTEX
  8
0
 62
7
 10
6.72153125
 20
10.25053125
  0
VERTEX
  8
0
 62
7
 10
6.73325000
 20
10.24950000
  0
VERTEX
  8
0
 62
7
 10
6.74459375
 20
10.25146875
  0
VERTEX
  8
0
 62
7
 10
6.75500000
 20
10.25700000
  0
VERTEX
  8
0
 62
7
 10
6.76196875
 20
10.26565625
  0
VERTEX
  8
0
 62
7
 10
6.76575000
 20
10.27600000
  0
VERTEX
  8
0
 62
7
 10
6.76765625
 20
10.28709375
  0
VERTEX
  8
0
 62
7
 10
6.76900000
 20
10.29800000
  0
VERTEX
  8
0
 62
7
 10
6.77029688
 20
10.31582813
  0
VERTEX
  8
0
 62
7
 10
6.76887500
 20
10.33337500
  0
VERTEX
  8
0
 62
7
 10
6.76576563
 20
10.35073438
  0
VERTEX
  8
0
 62
7
 10
6.76200000
 20
10.36800000
  0
VERTEX
  8
0
 62
7
 10
6.74887500
 20
10.41125000
  0
VERTEX
  8
0
 62
7
 10
6.73200000
 20
10.45300000
  0
VERTEX
  8
0
 62
7
 10
6.69200000
 20
10.54100000
  0
VERTEX
  8
0
 62
7
 10
6.67878125
 20
10.57343750
  0
VERTEX
  8
0
 62
7
 10
6.66650000
 20
10.60625000
  0
VERTEX
  8
0
 62
7
 10
6.65571875
 20
10.63943750
  0
VERTEX
  8
0
 62
7
 10
6.64700000
 20
10.67300000
  0
VERTEX
  8
0
 62
7
 10
6.63806250
 20
10.72432813
  0
VERTEX
  8
0
 62
7
 10
6.63325000
 20
10.77612500
  0
VERTEX
  8
0
 62
7
 10
6.63181250
 20
10.82810938
  0
VERTEX
  8
0
 62
7
 10
6.63300000
 20
10.88000000
  0
VERTEX
  8
0
 62
7
 10
6.63675000
 20
10.93096875
  0
VERTEX
  8
0
 62
7
 10
6.64350000
 20
10.98175000
  0
VERTEX
  8
0
 62
7
 10
6.65325000
 20
11.03215625
  0
VERTEX
  8
0
 62
7
 10
6.66600000
 20
11.08200000
  0
VERTEX
  8
0
 62
7
 10
6.74700000
 20
11.10100000
  0
VERTEX
  8
0
 62
7
 10
6.75651563
 20
11.17254688
  0
VERTEX
  8
0
 62
7
 10
6.77287500
 20
11.24287500
  0
VERTEX
  8
0
 62
7
 10
6.79579688
 20
11.31151563
  0
VERTEX
  8
0
 62
7
 10
6.82500000
 20
11.37800000
  0
VERTEX
  8
0
 62
7
 10
6.85556250
 20
11.43290625
  0
VERTEX
  8
0
 62
7
 10
6.89025000
 20
11.48500000
  0
VERTEX
  8
0
 62
7
 10
6.92906250
 20
11.53409375
  0
VERTEX
  8
0
 62
7
 10
6.97200000
 20
11.58000000
  0
VERTEX
  8
0
 62
7
 10
7.03900000
 20
11.55100000
  0
VERTEX
  8
0
 62
7
 10
7.07514063
 20
11.60084375
  0
VERTEX
  8
0
 62
7
 10
7.11437500
 20
11.64825000
  0
VERTEX
  8
0
 62
7
 10
7.15642188
 20
11.69303125
  0
VERTEX
  8
0
 62
7
 10
7.20100000
 20
11.73500000
  0
VERTEX
  8
0
 62
7
 10
7.25103125
 20
11.77620313
  0
VERTEX
  8
0
 62
7
 10
7.30350000
 20
11.81412500
  0
VERTEX
  8
0
 62
7
 10
7.35821875
 20
11.84848438
  0
VERTEX
  8
0
 62
7
 10
7.41500000
 20
11.87900000
  0
VERTEX
  8
0
 62
7
 10
7.40071875
 20
11.84412500
  0
VERTEX
  8
0
 62
7
 10
7.38925000
 20
11.80850000
  0
VERTEX
  8
0
 62
7
 10
7.38040625
 20
11.77212500
  0
VERTEX
  8
0
 62
7
 10
7.37400000
 20
11.73500000
  0
VERTEX
  8
0
 62
7
 10
7.37062500
 20
11.70109375
  0
VERTEX
  8
0
 62
7
 10
7.36950000
 20
11.66700000
  0
VERTEX
  8
0
 62
7
 10
7.37062500
 20
11.63290625
  0
VERTEX
  8
0
 62
7
 10
7.37400000
 20
11.59900000
  0
VERTEX
  8
0
 62
7
 10
7.44500000
 20
11.59900000
  0
VERTEX
  8
0
 62
7
 10
7.44965625
 20
11.57679688
  0
VERTEX
  8
0
 62
7
 10
7.45075000
 20
11.55487500
  0
VERTEX
  8
0
 62
7
 10
7.44921875
 20
11.53276563
  0
VERTEX
  8
0
 62
7
 10
7.44600000
 20
11.51000000
  0
VERTEX
  8
0
 62
7
 10
7.44076563
 20
11.48692188
  0
VERTEX
  8
0
 62
7
 10
7.43337500
 20
11.46412500
  0
VERTEX
  8
0
 62
7
 10
7.42504688
 20
11.44151563
  0
VERTEX
  8
0
 62
7
 10
7.41700000
 20
11.41900000
  0
VERTEX
  8
0
 62
7
 10
7.40900000
 20
11.39812500
  0
VERTEX
  8
0
 62
7
 10
7.40100000
 20
11.37725000
  0
VERTEX
  8
0
 62
7
 10
7.39450000
 20
11.35600000
  0
VERTEX
  8
0
 62
7
 10
7.39100000
 20
11.33400000
  0
VERTEX
  8
0
 62
7
 10
7.39070313
 20
11.31735938
  0
VERTEX
  8
0
 62
7
 10
7.39162500
 20
11.30062500
  0
VERTEX
  8
0
 62
7
 10
7.39423438
 20
11.28407813
  0
VERTEX
  8
0
 62
7
 10
7.39900000
 20
11.26800000
  0
VERTEX
  8
0
 62
7
 10
7.40600000
 20
11.25300000
  0
VERTEX
  8
0
 62
7
 10
7.41625000
 20
11.24875000
  0
VERTEX
  8
0
 62
7
 10
7.42800000
 20
11.24900000
  0
VERTEX
  8
0
 62
7
 10
7.43656250
 20
11.25250000
  0
VERTEX
  8
0
 62
7
 10
7.44325000
 20
11.25900000
  0
VERTEX
  8
0
 62
7
 10
7.44881250
 20
11.26700000
  0
VERTEX
  8
0
 62
7
 10
7.45400000
 20
11.27500000
  0
VERTEX
  8
0
 62
7
 10
7.46259375
 20
11.29232813
  0
VERTEX
  8
0
 62
7
 10
7.46725000
 20
11.31087500
  0
VERTEX
  8
0
 62
7
 10
7.47003125
 20
11.32998438
  0
VERTEX
  8
0
 62
7
 10
7.47300000
 20
11.34900000
  0
VERTEX
  8
0
 62
7
 10
7.47962500
 20
11.40362500
  0
VERTEX
  8
0
 62
7
 10
7.48400000
 20
11.45900000
  0
VERTEX
  8
0
 62
7
 10
7.49500000
 20
11.58400000
  0
VERTEX
  8
0
 62
7
 10
7.50106250
 20
11.62701563
  0
VERTEX
  8
0
 62
7
 10
7.50825000
 20
11.67012500
  0
VERTEX
  8
0
 62
7
 10
7.51806250
 20
11.71267188
  0
VERTEX
  8
0
 62
7
 10
7.53200000
 20
11.75400000
  0
VERTEX
  8
0
 62
7
 10
7.55279688
 20
11.79801563
  0
VERTEX
  8
0
 62
7
 10
7.57762500
 20
11.83987500
  0
VERTEX
  8
0
 62
7
 10
7.60639063
 20
11.87929688
  0
VERTEX
  8
0
 62
7
 10
7.63900000
 20
11.91600000
  0
VERTEX
  8
0
 62
7
 10
7.68075000
 20
11.95403125
  0
VERTEX
  8
0
 62
7
 10
7.72625000
 20
11.98700000
  0
VERTEX
  8
0
 62
7
 10
7.77512500
 20
12.01471875
  0
VERTEX
  8
0
 62
7
 10
7.82700000
 20
12.03700000
  0
VERTEX
  8
0
 62
7
 10
7.87100000
 20
11.97800000
  0
VERTEX
  8
0
 62
7
 10
7.92365625
 20
12.02559375
  0
VERTEX
  8
0
 62
7
 10
7.97950000
 20
12.06925000
  0
VERTEX
  8
0
 62
7
 10
8.03834375
 20
12.10878125
  0
VERTEX
  8
0
 62
7
 10
8.10000000
 20
12.14400000
  0
VERTEX
  8
0
 62
7
 10
8.16876563
 20
12.17718750
  0
VERTEX
  8
0
 62
7
 10
8.23987500
 20
12.20475000
  0
VERTEX
  8
0
 62
7
 10
8.31304688
 20
12.22668750
  0
VERTEX
  8
0
 62
7
 10
8.38800000
 20
12.24300000
  0
VERTEX
  8
0
 62
7
 10
8.39500000
 20
12.17000000
  0
VERTEX
  8
0
 62
7
 10
8.45362500
 20
12.18637500
  0
VERTEX
  8
0
 62
7
 10
8.51300000
 20
12.19900000
  0
VERTEX
  8
0
 62
7
 10
8.59671875
 20
12.21059375
  0
VERTEX
  8
0
 62
7
 10
8.68100000
 20
12.21525000
  0
VERTEX
  8
0
 62
7
 10
8.76528125
 20
12.21278125
  0
VERTEX
  8
0
 62
7
 10
8.84900000
 20
12.20300000
  0
VERTEX
  8
0
 62
7
 10
8.83800000
 20
12.11800000
  0
VERTEX
  8
0
 62
7
 10
8.86403125
 20
12.11459375
  0
VERTEX
  8
0
 62
7
 10
8.88950000
 20
12.10875000
  0
VERTEX
  8
0
 62
7
 10
8.91421875
 20
12.10028125
  0
VERTEX
  8
0
 62
7
 10
8.93800000
 20
12.08900000
  0
VERTEX
  8
0
 62
7
 10
8.97750000
 20
12.06287500
  0
VERTEX
  8
0
 62
7
 10
9.01100000
 20
12.03000000
  0
VERTEX
  8
0
 62
7
 10
9.03065625
 20
12.00340625
  0
VERTEX
  8
0
 62
7
 10
9.04675000
 20
11.97475000
  0
VERTEX
  8
0
 62
7
 10
9.05796875
 20
11.94421875
  0
VERTEX
  8
0
 62
7
 10
9.06300000
 20
11.91200000
  0
VERTEX
  8
0
 62
7
 10
9.06192187
 20
11.88153125
  0
VERTEX
  8
0
 62
7
 10
9.05587500
 20
11.85200000
  0
VERTEX
  8
0
 62
7
 10
9.04514063
 20
11.82396875
  0
VERTEX
  8
0
 62
7
 10
9.03000000
 20
11.79800000
  0
VERTEX
  8
0
 62
7
 10
9.01100000
 20
11.82112500
  0
VERTEX
  8
0
 62
7
 10
8.98900000
 20
11.84200000
  0
VERTEX
  8
0
 62
7
 10
8.96262500
 20
11.86112500
  0
VERTEX
  8
0
 62
7
 10
8.93400000
 20
11.87500000
  0
VERTEX
  8
0
 62
7
 10
8.91582813
 20
11.87962500
  0
VERTEX
  8
0
 62
7
 10
8.89737500
 20
11.88200000
  0
VERTEX
  8
0
 62
7
 10
8.87873438
 20
11.88287500
  0
VERTEX
  8
0
 62
7
 10
8.86000000
 20
11.88300000
  0
VERTEX
  8
0
 62
7
 10
8.81912500
 20
11.88050000
  0
VERTEX
  8
0
 62
7
 10
8.77900000
 20
11.87200000
  0
VERTEX
  8
0
 62
7
 10
8.73700000
 20
11.85450000
  0
VERTEX
  8
0
 62
7
 10
8.69800000
 20
11.83100000
  0
VERTEX
  8
0
 62
7
 10
8.66100000
 20
11.80200000
  0
VERTEX
  8
0
 62
7
 10
8.59737500
 20
11.74562500
  0
VERTEX
  8
0
 62
7
 10
8.53900000
 20
11.68400000
  0
VERTEX
  8
0
 62
7
 10
8.60600000
 20
11.67600000
  0
VERTEX
  8
0
 62
7
 10
8.59885938
 20
11.63367188
  0
VERTEX
  8
0
 62
7
 10
8.58787500
 20
11.59237500
  0
VERTEX
  8
0
 62
7
 10
8.57295313
 20
11.55239063
  0
VERTEX
  8
0
 62
7
 10
8.55400000
 20
11.51400000
  0
VERTEX
  8
0
 62
7
 10
8.51868750
 20
11.46048438
  0
VERTEX
  8
0
 62
7
 10
8.47625000
 20
11.41287500
  0
VERTEX
  8
0
 62
7
 10
8.42743750
 20
11.37182813
  0
VERTEX
  8
0
 62
7
 10
8.37300000
 20
11.33800000
  0
VERTEX
  8
0
 62
7
 10
8.42800000
 20
11.29700000
  0
VERTEX
  8
0
 62
7
 10
8.39287500
 20
11.25150000
  0
VERTEX
  8
0
 62
7
 10
8.35100000
 20
11.21200000
  0
VERTEX
  8
0
 62
7
 10
8.31781250
 20
11.18926563
  0
VERTEX
  8
0
 62
7
 10
8.28200000
 20
11.17112500
  0
VERTEX
  8
0
 62
7
 10
8.24468750
 20
11.15617188
  0
VERTEX
  8
0
 62
7
 10
8.20700000
 20
11.14300000
  0
VERTEX
  8
0
 62
7
 10
8.17065625
 20
11.13192188
  0
VERTEX
  8
0
 62
7
 10
8.13375000
 20
11.12337500
  0
VERTEX
  8
0
 62
7
 10
8.09646875
 20
11.11614063
  0
VERTEX
  8
0
 62
7
 10
8.05900000
 20
11.10900000
  0
VERTEX
  8
0
 62
7
 10
7.94100000
 20
11.08700000
  0
VERTEX
  8
0
 62
7
 10
7.91671875
 20
11.08134375
  0
VERTEX
  8
0
 62
7
 10
7.89225000
 20
11.07550000
  0
VERTEX
  8
0
 62
7
 10
7.86815625
 20
11.06815625
  0
VERTEX
  8
0
 62
7
 10
7.84500000
 20
11.05800000
  0
VERTEX
  8
0
 62
7
 10
7.82506250
 20
11.04743750
  0
VERTEX
  8
0
 62
7
 10
7.80550000
 20
11.03575000
  0
VERTEX
  8
0
 62
7
 10
7.78818750
 20
11.02143750
  0
VERTEX
  8
0
 62
7
 10
7.77500000
 20
11.00300000
  0
VERTEX
  8
0
 62
7
 10
7.77000000
 20
10.99387500
  0
VERTEX
  8
0
 62
7
 10
7.76800000
 20
10.98400000
  0
VERTEX
  8
0
 62
7
 10
7.77287500
 20
10.97312500
  0
VERTEX
  8
0
 62
7
 10
7.78300000
 20
10.96600000
  0
VERTEX
  8
0
 62
7
 10
7.79200000
 20
10.96487500
  0
VERTEX
  8
0
 62
7
 10
7.80100000
 20
10.96600000
  0
VERTEX
  8
0
 62
7
 10
7.82225000
 20
10.97200000
  0
VERTEX
  8
0
 62
7
 10
7.84200000
 20
10.98100000
  0
VERTEX
  8
0
 62
7
 10
7.87225000
 20
10.99987500
  0
VERTEX
  8
0
 62
7
 10
7.90100000
 20
11.02100000
  0
VERTEX
  8
0
 62
7
 10
7.92082813
 20
11.03489063
  0
VERTEX
  8
0
 62
7
 10
7.94037500
 20
11.04887500
  0
VERTEX
  8
0
 62
7
 10
7.96048438
 20
11.06192188
  0
VERTEX
  8
0
 62
7
 10
7.98200000
 20
11.07300000
  0
VERTEX
  8
0
 62
7
 10
8.01750000
 20
11.08561523
  0
VERTEX
  8
0
 62
7
 10
8.05393750
 20
11.09348438
  0
VERTEX
  8
0
 62
7
 10
8.09084375
 20
11.09664258
  0
VERTEX
  8
0
 62
7
 10
8.12775000
 20
11.09512500
  0
VERTEX
  8
0
 62
7
 10
8.16418750
 20
11.08896680
  0
VERTEX
  8
0
 62
7
 10
8.19968750
 20
11.07820313
  0
VERTEX
  8
0
 62
7
 10
8.23378125
 20
11.06286914
  0
VERTEX
  8
0
 62
7
 10
8.26600000
 20
11.04300000
  0
VERTEX
  8
0
 62
7
 10
8.24000000
 20
10.95500000
  0
VERTEX
  8
0
 62
7
 10
8.27512500
 20
10.93312500
  0
VERTEX
  8
0
 62
7
 10
8.31400000
 20
10.91800000
  0
VERTEX
  8
0
 62
7
 10
8.35118750
 20
10.91085938
  0
VERTEX
  8
0
 62
7
 10
8.38875000
 20
10.91037500
  0
VERTEX
  8
0
 62
7
 10
8.42593750
 20
10.91645313
  0
VERTEX
  8
0
 62
7
 10
8.46200000
 20
10.92900000
  0
VERTEX
  8
0
 62
7
 10
8.45192188
 20
10.87189063
  0
VERTEX
  8
0
 62
7
 10
8.43537500
 20
10.81637500
  0
VERTEX
  8
0
 62
7
 10
8.41264063
 20
10.76292188
  0
VERTEX
  8
0
 62
7
 10
8.38400000
 20
10.71200000
  0
VERTEX
  8
0
 62
7
 10
8.34639063
 20
10.66050000
  0
VERTEX
  8
0
 62
7
 10
8.30287500
 20
10.61425000
  0
VERTEX
  8
0
 62
7
 10
8.25392188
 20
10.57362500
  0
VERTEX
  8
0
 62
7
 10
8.20000000
 20
10.53900000
  0
VERTEX
  8
0
 62
7
 10
8.20700000
 20
10.48700000
  0
VERTEX
  8
0
 62
7
 10
8.17876563
 20
10.45087500
  0
VERTEX
  8
0
 62
7
 10
8.14687500
 20
10.41775000
  0
VERTEX
  8
0
 62
7
 10
8.11179688
 20
10.38800000
  0
VERTEX
  8
0
 62
7
 10
8.07400000
 20
10.36200000
  0
VERTEX
  8
0
 62
7
 10
8.03726563
 20
10.34195313
  0
VERTEX
  8
0
 62
7
 10
7.99912500
 20
10.32537500
  0
VERTEX
  8
0
 62
7
 10
7.95967188
 20
10.31235938
  0
VERTEX
  8
0
 62
7
 10
7.91900000
 20
10.30300000
  0
VERTEX
  8
0
 62
7
 10
7.92700000
 20
10.22900000
  0
VERTEX
  8
0
 62
7
 10
7.86550000
 20
10.20362500
  0
VERTEX
  8
0
 62
7
 10
7.80100000
 20
10.18500000
  0
VERTEX
  8
0
 62
7
 10
7.75551563
 20
10.17610938
  0
VERTEX
  8
0
 62
7
 10
7.70937500
 20
10.17087500
  0
VERTEX
  8
0
 62
7
 10
7.66304688
 20
10.16995313
  0
VERTEX
  8
0
 62
7
 10
7.61700000
 20
10.17400000
  0
VERTEX
  8
0
 62
7
 10
7.53900000
 20
10.19300000
  0
VERTEX
  8
0
 62
7
 10
7.47837500
 20
10.20625000
  0
VERTEX
  8
0
 62
7
 10
7.41700000
 20
10.21500000
  0
VERTEX
  8
0
 62
7
 10
7.39376563
 20
10.21654688
  0
VERTEX
  8
0
 62
7
 10
7.37062500
 20
10.21762500
  0
VERTEX
  8
0
 62
7
 10
7.34767188
 20
10.21739063
  0
VERTEX
  8
0
 62
7
 10
7.32500000
 20
10.21500000
  0
VERTEX
  8
0
 62
7
 10
7.28925000
 20
10.20662500
  0
VERTEX
  8
0
 62
7
 10
7.25500000
 20
10.19300000
  0
VERTEX
  8
0
 62
7
 10
7.23345313
 20
10.18270313
  0
VERTEX
  8
0
 62
7
 10
7.21237500
 20
10.17137500
  0
VERTEX
  8
0
 62
7
 10
7.19410938
 20
10.15685938
  0
VERTEX
  8
0
 62
7
 10
7.18100000
 20
10.13700000
  0
VERTEX
  8
0
 62
7
 10
7.17525000
 20
10.12287500
  0
VERTEX
  8
0
 62
7
 10
7.17400000
 20
10.10800000
  0
VERTEX
  8
0
 62
7
 10
7.17800000
 20
10.09775000
  0
VERTEX
  8
0
 62
7
 10
7.18500000
 20
10.08900000
  0
VERTEX
  8
0
 62
7
 10
7.19725000
 20
10.08250000
  0
VERTEX
  8
0
 62
7
 10
7.21100000
 20
10.08200000
  0
VERTEX
  8
0
 62
7
 10
7.22075000
 20
10.08837500
  0
VERTEX
  8
0
 62
7
 10
7.22900000
 20
10.09700000
  0
VERTEX
  8
0
 62
7
 10
7.25500000
 20
10.12300000
  0
VERTEX
  8
0
 62
7
 10
7.27779688
 20
10.13906250
  0
VERTEX
  8
0
 62
7
 10
7.30237500
 20
10.15175000
  0
VERTEX
  8
0
 62
7
 10
7.32826563
 20
10.16181250
  0
VERTEX
  8
0
 62
7
 10
7.35500000
 20
10.17000000
  0
VERTEX
  8
0
 62
7
 10
7.38637305
 20
10.17759375
  0
VERTEX
  8
0
 62
7
 10
7.41810938
 20
10.18237500
  0
VERTEX
  8
0
 62
7
 10
7.45000977
 20
10.18434375
  0
VERTEX
  8
0
 62
7
 10
7.48187500
 20
10.18350000
  0
VERTEX
  8
0
 62
7
 10
7.51350586
 20
10.17984375
  0
VERTEX
  8
0
 62
7
 10
7.54470313
 20
10.17337500
  0
VERTEX
  8
0
 62
7
 10
7.57526758
 20
10.16409375
  0
VERTEX
  8
0
 62
7
 10
7.60500000
 20
10.15200000
  0
VERTEX
  8
0
 62
7
 10
7.59400000
 20
10.09300000
  0
VERTEX
  8
0
 62
7
 10
7.61442188
 20
10.08810938
  0
VERTEX
  8
0
 62
7
 10
7.63512500
 20
10.08537500
  0
VERTEX
  8
0
 62
7
 10
7.65601563
 20
10.08470313
  0
VERTEX
  8
0
 62
7
 10
7.67700000
 20
10.08600000
  0
VERTEX
  8
0
 62
7
 10
7.70135938
 20
10.09031250
  0
VERTEX
  8
0
 62
7
 10
7.72487500
 20
10.09725000
  0
VERTEX
  8
0
 62
7
 10
7.74745313
 20
10.10681250
  0
VERTEX
  8
0
 62
7
 10
7.76900000
 20
10.11900000
  0
VERTEX
  8
0
 62
7
 10
7.77648438
 20
10.07204688
  0
VERTEX
  8
0
 62
7
 10
7.77787500
 20
10.02462500
  0
VERTEX
  8
0
 62
7
 10
7.77307813
 20
9.97739063
  0
VERTEX
  8
0
 62
7
 10
7.76200000
 20
9.93100000
  0
VERTEX
  8
0
 62
7
 10
7.75188867
 20
9.90298828
  0
VERTEX
  8
0
 62
7
 10
7.73960938
 20
9.87603125
  0
VERTEX
  8
0
 62
7
 10
7.72524414
 20
9.85024609
  0
VERTEX
  8
0
 62
7
 10
7.70887500
 20
9.82575000
  0
VERTEX
  8
0
 62
7
 10
7.69058398
 20
9.80266016
  0
VERTEX
  8
0
 62
7
 10
7.67045313
 20
9.78109375
  0
VERTEX
  8
0
 62
7
 10
7.64856445
 20
9.76116797
  0
VERTEX
  8
0
 62
7
 10
7.62500000
 20
9.74300000
  0
VERTEX
  8
0
 62
7
 10
7.66900000
 20
9.71000000
  0
VERTEX
  8
0
 62
7
 10
7.65362500
 20
9.67742188
  0
VERTEX
  8
0
 62
7
 10
7.63450000
 20
9.64737500
  0
VERTEX
  8
0
 62
7
 10
7.61162500
 20
9.62014062
  0
VERTEX
  8
0
 62
7
 10
7.58500000
 20
9.59600000
  0
VERTEX
  8
0
 62
7
 10
7.55175000
 20
9.57314063
  0
VERTEX
  8
0
 62
7
 10
7.51550000
 20
9.55562500
  0
VERTEX
  8
0
 62
7
 10
7.47700000
 20
9.54354688
  0
VERTEX
  8
0
 62
7
 10
7.43700000
 20
9.53700000
  0
VERTEX
  8
0
 62
7
 10
7.44800000
 20
9.47800000
  0
VERTEX
  8
0
 62
7
 10
7.41375000
 20
9.46162500
  0
VERTEX
  8
0
 62
7
 10
7.37800000
 20
9.44900000
  0
VERTEX
  8
0
 62
7
 10
7.34692188
 20
9.44159375
  0
VERTEX
  8
0
 62
7
 10
7.31537500
 20
9.43700000
  0
VERTEX
  8
0
 62
7
 10
7.28364063
 20
9.43465625
  0
VERTEX
  8
0
 62
7
 10
7.25200000
 20
9.43400000
  0
VERTEX
  8
0
 62
7
 10
7.21767188
 20
9.43521875
  0
VERTEX
  8
0
 62
7
 10
7.18362500
 20
9.43850000
  0
VERTEX
  8
0
 62
7
 10
7.14976563
 20
9.44328125
  0
VERTEX
  8
0
 62
7
 10
7.11600000
 20
9.44900000
  0
VERTEX
  8
0
 62
7
 10
7.07207813
 20
9.45826562
  0
VERTEX
  8
0
 62
7
 10
7.02862500
 20
9.46987500
  0
VERTEX
  8
0
 62
7
 10
6.98535938
 20
9.48204688
  0
VERTEX
  8
0
 62
7
 10
6.94200000
 20
9.49300000
  0
VERTEX
  8
0
 62
7
 10
6.92800000
 20
9.49600000
  0
VERTEX
  8
0
 62
7
 10
6.91350000
 20
9.49350000
  0
VERTEX
  8
0
 62
7
 10
6.90200000
 20
9.48500000
  0
VERTEX
  8
0
 62
7
 10
6.89828125
 20
9.47850000
  0
VERTEX
  8
0
 62
7
 10
6.89625000
 20
9.47125000
  0
VERTEX
  8
0
 62
7
 10
6.89609375
 20
9.46362500
  0
VERTEX
  8
0
 62
7
 10
6.89800000
 20
9.45600000
  0
VERTEX
  8
0
 62
7
 10
6.90325000
 20
9.44882813
  0
VERTEX
  8
0
 62
7
 10
6.91075000
 20
9.44437500
  0
VERTEX
  8
0
 62
7
 10
6.91937500
 20
9.44123438
  0
VERTEX
  8
0
 62
7
 10
6.92800000
 20
9.43800000
  0
VERTEX
  8
0
 62
7
 10
6.95512500
 20
9.43062500
  0
VERTEX
  8
0
 62
7
 10
6.98300000
 20
9.42700000
  0
VERTEX
  8
0
 62
7
 10
7.02237500
 20
9.42162500
  0
VERTEX
  8
0
 62
7
 10
7.06100000
 20
9.41400000
  0
VERTEX
  8
0
 62
7
 10
7.08543750
 20
9.40610938
  0
VERTEX
  8
0
 62
7
 10
7.10800000
 20
9.39662500
  0
VERTEX
  8
0
 62
7
 10
7.12906250
 20
9.38432813
  0
VERTEX
  8
0
 62
7
 10
7.14900000
 20
9.36800000
  0
VERTEX
  8
0
 62
7
 10
7.17087500
 20
9.34239063
  0
VERTEX
  8
0
 62
7
 10
7.18825000
 20
9.31387500
  0
VERTEX
  8
0
 62
7
 10
7.20075000
 20
9.28292188
  0
VERTEX
  8
0
 62
7
 10
7.20800000
 20
9.25000000
  0
VERTEX
  8
0
 62
7
 10
7.12700000
 20
9.20900000
  0
VERTEX
  8
0
 62
7
 10
7.13100000
 20
9.13600000
  0
VERTEX
  8
0
 62
7
 10
7.13400000
 20
9.06200000
  0
VERTEX
  8
0
 62
7
 10
7.13762500
 20
9.04164062
  0
VERTEX
  8
0
 62
7
 10
7.14425000
 20
9.02287500
  0
VERTEX
  8
0
 62
7
 10
7.15425000
 20
9.00617188
  0
VERTEX
  8
0
 62
7
 10
7.16800000
 20
8.99200000
  0
VERTEX
  8
0
 62
7
 10
7.18525000
 20
8.98075000
  0
VERTEX
  8
0
 62
7
 10
7.20400000
 20
8.97400000
  0
VERTEX
  8
0
 62
7
 10
7.19898438
 20
8.95926563
  0
VERTEX
  8
0
 62
7
 10
7.19162500
 20
8.94537500
  0
VERTEX
  8
0
 62
7
 10
7.18220313
 20
8.93279687
  0
VERTEX
  8
0
 62
7
 10
7.17100000
 20
8.92200000
  0
VERTEX
  8
0
 62
7
 10
7.15667188
 20
8.91335938
  0
VERTEX
  8
0
 62
7
 10
7.14112500
 20
8.90762500
  0
VERTEX
  8
0
 62
7
 10
7.12501563
 20
8.90357812
  0
VERTEX
  8
0
 62
7
 10
7.10900000
 20
8.90000000
  0
VERTEX
  8
0
 62
7
 10
7.08332813
 20
8.89553125
  0
VERTEX
  8
0
 62
7
 10
7.05737500
 20
8.89350000
  0
VERTEX
  8
0
 62
7
 10
7.03123438
 20
8.89296875
  0
VERTEX
  8
0
 62
7
 10
7.00500000
 20
8.89300000
  0
VERTEX
  8
0
 62
7
 10
6.94212500
 20
8.89700000
  0
VERTEX
  8
0
 62
7
 10
6.88000000
 20
8.90700000
  0
VERTEX
  8
0
 62
7
 10
6.83112500
 20
8.92064063
  0
VERTEX
  8
0
 62
7
 10
6.78375000
 20
8.93887500
  0
VERTEX
  8
0
 62
7
 10
6.73825000
 20
8.96142187
  0
VERTEX
  8
0
 62
7
 10
6.69500000
 20
8.98800000
  0
VERTEX
  8
0
 62
7
 10
6.65800000
 20
8.92900000
  0
VERTEX
  8
0
 62
7
 10
6.62840625
 20
8.94432813
  0
VERTEX
  8
0
 62
7
 10
6.60125000
 20
8.96312500
  0
VERTEX
  8
0
 62
7
 10
6.57671875
 20
8.98510938
  0
VERTEX
  8
0
 62
7
 10
6.55500000
 20
9.01000000
  0
VERTEX
  8
0
 62
7
 10
6.53464063
 20
9.04125000
  0
VERTEX
  8
0
 62
7
 10
6.51887500
 20
9.07475000
  0
VERTEX
  8
0
 62
7
 10
6.50817188
 20
9.11012500
  0
VERTEX
  8
0
 62
7
 10
6.50300000
 20
9.14700000
  0
VERTEX
  8
0
 62
7
 10
6.50278125
 20
9.17828125
  0
VERTEX
  8
0
 62
7
 10
6.50650000
 20
9.20900000
  0
VERTEX
  8
0
 62
7
 10
6.51396875
 20
9.23896875
  0
VERTEX
  8
0
 62
7
 10
6.52500000
 20
9.26800000
  0
VERTEX
  8
0
 62
7
 10
6.52725000
 20
9.27350000
  0
VERTEX
  8
0
 62
7
 10
6.52500000
 20
9.27900000
  0
VERTEX
  8
0
 62
7
 10
6.51950000
 20
9.28125000
  0
VERTEX
  8
0
 62
7
 10
6.51400000
 20
9.27900000
  0
VERTEX
  8
0
 62
7
 10
6.49526563
 20
9.23701563
  0
VERTEX
  8
0
 62
7
 10
6.47362500
 20
9.19662500
  0
VERTEX
  8
0
 62
7
 10
6.44917188
 20
9.15792188
  0
VERTEX
  8
0
 62
7
 10
6.42200000
 20
9.12100000
  0
VERTEX
  8
0
 62
7
 10
6.38004688
 20
9.07270313
  0
VERTEX
  8
0
 62
7
 10
6.33387500
 20
9.02862500
  0
VERTEX
  8
0
 62
7
 10
6.28376563
 20
8.98923438
  0
VERTEX
  8
0
 62
7
 10
6.23000000
 20
8.95500000
  0
VERTEX
  8
0
 62
7
 10
6.26700000
 20
8.95350000
  0
VERTEX
  8
0
 62
7
 10
6.30400000
 20
8.95500000
  0
VERTEX
  8
0
 62
7
 10
6.34137500
 20
8.96025000
  0
VERTEX
  8
0
 62
7
 10
6.37800000
 20
8.97000000
  0
VERTEX
  8
0
 62
7
 10
6.40906250
 20
8.98179688
  0
VERTEX
  8
0
 62
7
 10
6.43900000
 20
8.99612500
  0
VERTEX
  8
0
 62
7
 10
6.46743750
 20
9.01289063
  0
VERTEX
  8
0
 62
7
 10
6.49400000
 20
9.03200000
  0
VERTEX
  8
0
 62
7
 10
6.51600000
 20
8.98900000
  0
VERTEX
  8
0
 62
7
 10
6.53700000
 20
8.96100000
  0
SEQEND
  0
POLYLINE
  8
0
 62
7
 66
1
 70
1
  0
VERTEX
  8
0
 62
7
 10
8.49300000
 20
9.37500000
  0
VERTEX
  8
0
 62
7
 10
8.49162500
 20
9.38937500
  0
VERTEX
  8
0
 62
7
 10
8.48800000
 20
9.40300000
  0
VERTEX
  8
0
 62
7
 10
8.48300000
 20
9.41300000
  0
VERTEX
  8
0
 62
7
 10
8.47600000
 20
9.42800000
  0
VERTEX
  8
0
 62
7
 10
8.47600000
 20
9.43000000
  0
VERTEX
  8
0
 62
7
 10
8.47300000
 20
9.44500000
  0
VERTEX
  8
0
 62
7
 10
8.47400000
 20
9.45300000
  0
VERTEX
  8
0
 62
7
 10
8.48125000
 20
9.46600000
  0
VERTEX
  8
0
 62
7
 10
8.49300000
 20
9.47600000
  0
VERTEX
  8
0
 62
7
 10
8.50800000
 20
9.48000000
  0
VERTEX
  8
0
 62
7
 10
8.52300000
 20
9.47600000
  0
VERTEX
  8
0
 62
7
 10
8.53475000
 20
9.46600000
  0
VERTEX
  8
0
 62
7
 10
8.54200000
 20
9.45300000
  0
VERTEX
  8
0
 62
7
 10
8.54300000
 20
9.44500000
  0
VERTEX
  8
0
 62
7
 10
8.54000000
 20
9.43000000
  0
VERTEX
  8
0
 62
7
 10
8.54000000
 20
9.42800000
  0
VERTEX
  8
0
 62
7
 10
8.53300000
 20
9.41300000
  0
VERTEX
  8
0
 62
7
 10
8.52800000
 20
9.40300000
  0
VERTEX
  8
0
 62
7
 10
8.52437500
 20
9.38937500
  0
VERTEX
  8
0
 62
7
 10
8.52300000
 20
9.37500000
  0
VERTEX
  8
0
 62
7
 10
8.52171094
 20
9.36843750
  0
VERTEX
  8
0
 62
7
 10
8.51831250
 20
9.36375000
  0
VERTEX
  8
0
 62
7
 10
8.51350781
 20
9.36093750
  0
VERTEX
  8
0
 62
7
 10
8.50800000
 20
9.36000000
  0
VERTEX
  8
0
 62
7
 10
8.50249219
 20
9.36093750
  0
VERTEX
  8
0
 62
7
 10
8.49768750
 20
9.36375000
  0
VERTEX
  8
0
 62
7
 10
8.49428906
 20
9.36843750
  0
VERTEX
  8
0
 62
7
 10
8.49300000
 20
9.37500000
  0
SEQEND
  0
POLYLINE
  8
0
 62
7
 66
1
 70
1
  0
VERTEX
  8
0
 62
7
 10
8.49300000
 20
9.56500000
  0
VERTEX
  8
0
 62
7
 10
8.49162500
 20
9.57937500
  0
VERTEX
  8
0
 62
7
 10
8.48800000
 20
9.59300000
  0
VERTEX
  8
0
 62
7
 10
8.48300000
 20
9.60300000
  0
VERTEX
  8
0
 62
7
 10
8.47600000
 20
9.61800000
  0
VERTEX
  8
0
 62
7
 10
8.47600000
 20
9.62000000
  0
VERTEX
  8
0
 62
7
 10
8.47300000
 20
9.63500000
  0
VERTEX
  8
0
 62
7
 10
8.47400000
 20
9.64300000
  0
VERTEX
  8
0
 62
7
 10
8.48125000
 20
9.65600000
  0
VERTEX
  8
0
 62
7
 10
8.49300000
 20
9.66600000
  0
VERTEX
  8
0
 62
7
 10
8.50800000
 20
9.67000000
  0
VERTEX
  8
0
 62
7
 10
8.52300000
 20
9.66600000
  0
VERTEX
  8
0
 62
7
 10
8.53475000
 20
9.65600000
  0
VERTEX
  8
0
 62
7
 10
8.54200000
 20
9.64300000
  0
VERTEX
  8
0
 62
7
 10
8.54300000
 20
9.63500000
  0
VERTEX
  8
0
 62
7
 10
8.54000000
 20
9.62000000
  0
VERTEX
  8
0
 62
7
 10
8.54000000
 20
9.61800000
  0
VERTEX
  8
0
 62
7
 10
8.53300000
 20
9.60300000
  0
VERTEX
  8
0
 62
7
 10
8.52800000
 20
9.59300000
  0
VERTEX
  8
0
 62
7
 10
8.52437500
 20
9.57937500
  0
VERTEX
  8
0
 62
7
 10
8.52300000
 20
9.56500000
  0
VERTEX
  8
0
 62
7
 10
8.52171094
 20
9.55843750
  0
VERTEX
  8
0
 62
7
 10
8.51831250
 20
9.55375000
  0
VERTEX
  8
0
 62
7
 10
8.51350781
 20
9.55093750
  0
VERTEX
  8
0
 62
7
 10
8.50800000
 20
9.55000000
  0
VERTEX
  8
0
 62
7
 10
8.50249219
 20
9.55093750
  0
VERTEX
  8
0
 62
7
 10
8.49768750
 20
9.55375000
  0
VERTEX
  8
0
 62
7
 10
8.49428906
 20
9.55843750
  0
VERTEX
  8
0
 62
7
 10
8.49300000
 20
9.56500000
  0
SEQEND
  0
POLYLINE
  8
0
 62
7
 66
1
 70
1
  0
VERTEX
  8
0
 62
7
 10
8.49300000
 20
9.75500000
  0
VERTEX
  8
0
 62
7
 10
8.49162500
 20
9.76937500
  0
VERTEX
  8
0
 62
7
 10
8.48800000
 20
9.78300000
  0
VERTEX
  8
0
 62
7
 10
8.48300000
 20
9.79300000
  0
VERTEX
  8
0
 62
7
 10
8.47600000
 20
9.80800000
  0
VERTEX
  8
0
 62
7
 10
8.47600000
 20
9.81000000
  0
VERTEX
  8
0
 62
7
 10
8.47300000
 20
9.82500000
  0
VERTEX
  8
0
 62
7
 10
8.47400000
 20
9.83300000
  0
VERTEX
  8
0
 62
7
 10
8.48125000
 20
9.84600000
  0
VERTEX
  8
0
 62
7
 10
8.49300000
 20
9.85600000
  0
VERTEX
  8
0
 62
7
 10
8.50800000
 20
9.86000000
  0
VERTEX
  8
0
 62
7
 10
8.52300000
 20
9.85600000
  0
VERTEX
  8
0
 62
7
 10
8.53475000
 20
9.84600000
  0
VERTEX
  8
0
 62
7
 10
8.54200000
 20
9.83300000
  0
VERTEX
  8
0
 62
7
 10
8.54300000
 20
9.82500000
  0
VERTEX
  8
0
 62
7
 10
8.54000000
 20
9.81000000
  0
VERTEX
  8
0
 62
7
 10
8.54000000
 20
9.80800000
  0
VERTEX
  8
0
 62
7
 10
8.53300000
 20
9.79300000
  0
VERTEX
  8
0
 62
7
 10
8.52800000
 20
9.78300000
  0
VERTEX
  8
0
 62
7
 10
8.52437500
 20
9.76937500
  0
VERTEX
  8
0
 62
7
 10
8.52300000
 20
9.75500000
  0
VERTEX
  8
0
 62
7
 10
8.52171094
 20
9.74843750
  0
VERTEX
  8
0
 62
7
 10
8.51831250
 20
9.74375000
  0
VERTEX
  8
0
 62
7
 10
8.51350781
 20
9.74093750
  0
VERTEX
  8
0
 62
7
 10
8.50800000
 20
9.74000000
  0
VERTEX
  8
0
 62
7
 10
8.50249219
 20
9.74093750
  0
VERTEX
  8
0
 62
7
 10
8.49768750
 20
9.74375000
  0
VERTEX
  8
0
 62
7
 10
8.49428906
 20
9.74843750
  0
VERTEX
  8
0
 62
7
 10
8.49300000
 20
9.75500000
  0
SEQEND
  0
POLYLINE
  8
0
 62
7
 66
1
 70
1
  0
VERTEX
  8
0
 62
7
 10
8.62600000
 20
9.65600000
  0
VERTEX
  8
0
 62
7
 10
8.62462500
 20
9.67037500
  0
VERTEX
  8
0
 62
7
 10
8.62100000
 20
9.68400000
  0
VERTEX
  8
0
 62
7
 10
8.61600000
 20
9.69400000
  0
VERTEX
  8
0
 62
7
 10
8.60900000
 20
9.70900000
  0
VERTEX
  8
0
 62
7
 10
8.60900000
 20
9.71100000
  0
VERTEX
  8
0
 62
7
 10
8.60600000
 20
9.72600000
  0
VERTEX
  8
0
 62
7
 10
8.60700000
 20
9.73400000
  0
VERTEX
  8
0
 62
7
 10
8.61425000
 20
9.74700000
  0
VERTEX
  8
0
 62
7
 10
8.62600000
 20
9.75700000
  0
VERTEX
  8
0
 62
7
 10
8.64100000
 20
9.76100000
  0
VERTEX
  8
0
 62
7
 10
8.65600000
 20
9.75700000
  0
VERTEX
  8
0
 62
7
 10
8.66775000
 20
9.74700000
  0
VERTEX
  8
0
 62
7
 10
8.67500000
 20
9.73400000
  0
VERTEX
  8
0
 62
7
 10
8.67600000
 20
9.72600000
  0
VERTEX
  8
0
 62
7
 10
8.67300000
 20
9.71100000
  0
VERTEX
  8
0
 62
7
 10
8.67300000
 20
9.70900000
  0
VERTEX
  8
0
 62
7
 10
8.66600000
 20
9.69400000
  0
VERTEX
  8
0
 62
7
 10
8.66100000
 20
9.68400000
  0
VERTEX
  8
0
 62
7
 10
8.65737500
 20
9.67037500
  0
VERTEX
  8
0
 62
7
 10
8.65600000
 20
9.65600000
  0
VERTEX
  8
0
 62
7
 10
8.65471094
 20
9.64943750
  0
VERTEX
  8
0
 62
7
 10
8.65131250
 20
9.64475000
  0
VERTEX
  8
0
 62
7
 10
8.64650781
 20
9.64193750
  0
VERTEX
  8
0
 62
7
 10
8.64100000
 20
9.64100000
  0
VERTEX
  8
0
 62
7
 10
8.63549219
 20
9.64193750
  0
VERTEX
  8
0
 62
7
 10
8.63068750
 20
9.64475000
  0
VERTEX
  8
0
 62
7
 10
8.62728906
 20
9.64943750
  0
VERTEX
  8
0
 62
7
 10
8.62600000
 20
9.65600000
  0
SEQEND
  0
POLYLINE
  8
0
 62
7
 66
1
 70
1
  0
VERTEX
  8
0
 62
7
 10
8.62600000
 20
9.47100000
  0
VERTEX
  8
0
 62
7
 10
8.62462500
 20
9.48537500
  0
VERTEX
  8
0
 62
7
 10
8.62100000
 20
9.49900000
  0
VERTEX
  8
0
 62
7
 10
8.61600000
 20
9.50900000
  0
VERTEX
  8
0
 62
7
 10
8.60900000
 20
9.52400000
  0
VERTEX
  8
0
 62
7
 10
8.60900000
 20
9.52600000
  0
VERTEX
  8
0
 62
7
 10
8.60600000
 20
9.54100000
  0
VERTEX
  8
0
 62
7
 10
8.60700000
 20
9.54900000
  0
VERTEX
  8
0
 62
7
 10
8.61425000
 20
9.56200000
  0
VERTEX
  8
0
 62
7
 10
8.62600000
 20
9.57200000
  0
VERTEX
  8
0
 62
7
 10
8.64100000
 20
9.57600000
  0
VERTEX
  8
0
 62
7
 10
8.65600000
 20
9.57200000
  0
VERTEX
  8
0
 62
7
 10
8.66775000
 20
9.56200000
  0
VERTEX
  8
0
 62
7
 10
8.67500000
 20
9.54900000
  0
VERTEX
  8
0
 62
7
 10
8.67600000
 20
9.54100000
  0
VERTEX
  8
0
 62
7
 10
8.67300000
 20
9.52600000
  0
VERTEX
  8
0
 62
7
 10
8.67300000
 20
9.52400000
  0
VERTEX
  8
0
 62
7
 10
8.66600000
 20
9.50900000
  0
VERTEX
  8
0
 62
7
 10
8.66100000
 20
9.49900000
  0
VERTEX
  8
0
 62
7
 10
8.65737500
 20
9.48537500
  0
VERTEX
  8
0
 62
7
 10
8.65600000
 20
9.47100000
  0
VERTEX
  8
0
 62
7
 10
8.65471094
 20
9.46443750
  0
VERTEX
  8
0
 62
7
 10
8.65131250
 20
9.45975000
  0
VERTEX
  8
0
 62
7
 10
8.64650781
 20
9.45693750
  0
VERTEX
  8
0
 62
7
 10
8.64100000
 20
9.45600000
  0
VERTEX
  8
0
 62
7
 10
8.63549219
 20
9.45693750
  0
VERTEX
  8
0
 62
7
 10
8.63068750
 20
9.45975000
  0
VERTEX
  8
0
 62
7
 10
8.62728906
 20
9.46443750
  0
VERTEX
  8
0
 62
7
 10
8.62600000
 20
9.47100000
  0
SEQEND
  0
POLYLINE
  8
0
 62
7
 66
1
 70
1
  0
VERTEX
  8
0
 62
7
 10
8.39200000
 20
9.65600000
  0
VERTEX
  8
0
 62
7
 10
8.39337500
 20
9.67037500
  0
VERTEX
  8
0
 62
7
 10
8.39700000
 20
9.68400000
  0
VERTEX
  8
0
 62
7
 10
8.40200000
 20
9.69400000
  0
VERTEX
  8
0
 62
7
 10
8.40900000
 20
9.70900000
  0
VERTEX
  8
0
 62
7
 10
8.40900000
 20
9.71100000
  0
VERTEX
  8
0
 62
7
 10
8.41200000
 20
9.72600000
  0
VERTEX
  8
0
 62
7
 10
8.41100000
 20
9.73400000
  0
VERTEX
  8
0
 62
7
 10
8.40375000
 20
9.74700000
  0
VERTEX
  8
0
 62
7
 10
8.39200000
 20
9.75700000
  0
VERTEX
  8
0
 62
7
 10
8.37700000
 20
9.76100000
  0
VERTEX
  8
0
 62
7
 10
8.36200000
 20
9.75700000
  0
VERTEX
  8
0
 62
7
 10
8.35025000
 20
9.74700000
  0
VERTEX
  8
0
 62
7
 10
8.34300000
 20
9.73400000
  0
VERTEX
  8
0
 62
7
 10
8.34200000
 20
9.72600000
  0
VERTEX
  8
0
 62
7
 10
8.34500000
 20
9.71100000
  0
VERTEX
  8
0
 62
7
 10
8.34500000
 20
9.70900000
  0
VERTEX
  8
0
 62
7
 10
8.35200000
 20
9.69400000
  0
VERTEX
  8
0
 62
7
 10
8.35700000
 20
9.68400000
  0
VERTEX
  8
0
 62
7
 10
8.36062500
 20
9.67037500
  0
VERTEX
  8
0
 62
7
 10
8.36200000
 20
9.65600000
  0
VERTEX
  8
0
 62
7
 10
8.36328906
 20
9.64943750
  0
VERTEX
  8
0
 62
7
 10
8.36668750
 20
9.64475000
  0
VERTEX
  8
0
 62
7
 10
8.37149219
 20
9.64193750
  0
VERTEX
  8
0
 62
7
 10
8.37700000
 20
9.64100000
  0
VERTEX
  8
0
 62
7
 10
8.38250781
 20
9.64193750
  0
VERTEX
  8
0
 62
7
 10
8.38731250
 20
9.64475000
  0
VERTEX
  8
0
 62
7
 10
8.39071094
 20
9.64943750
  0
VERTEX
  8
0
 62
7
 10
8.39200000
 20
9.65600000
  0
SEQEND
  0
POLYLINE
  8
0
 62
7
 66
1
 70
1
  0
VERTEX
  8
0
 62
7
 10
8.39200000
 20
9.47100000
  0
VERTEX
  8
0
 62
7
 10
8.39337500
 20
9.48537500
  0
VERTEX
  8
0
 62
7
 10
8.39700000
 20
9.49900000
  0
VERTEX
  8
0
 62
7
 10
8.40200000
 20
9.50900000
  0
VERTEX
  8
0
 62
7
 10
8.40900000
 20
9.52400000
  0
VERTEX
  8
0
 62
7
 10
8.40900000
 20
9.52600000
  0
VERTEX
  8
0
 62
7
 10
8.41200000
 20
9.54100000
  0
VERTEX
  8
0
 62
7
 10
8.41100000
 20
9.54900000
  0
VERTEX
  8
0
 62
7
 10
8.40375000
 20
9.56200000
  0
VERTEX
  8
0
 62
7
 10
8.39200000
 20
9.57200000
  0
VERTEX
  8
0
 62
7
 10
8.37700000
 20
9.57600000
  0
VERTEX
  8
0
 62
7
 10
8.36200000
 20
9.57200000
  0
VERTEX
  8
0
 62
7
 10
8.35025000
 20
9.56200000
  0
VERTEX
  8
0
 62
7
 10
8.34300000
 20
9.54900000
  0
VERTEX
  8
0
 62
7
 10
8.34200000
 20
9.54100000
  0
VERTEX
  8
0
 62
7
 10
8.34500000
 20
9.52600000
  0
VERTEX
  8
0
 62
7
 10
8.34500000
 20
9.52400000
  0
VERTEX
  8
0
 62
7
 10
8.35200000
 20
9.50900000
  0
VERTEX
  8
0
 62
7
 10
8.35700000
 20
9.49900000
  0
VERTEX
  8
0
 62
7
 10
8.36062500
 20
9.48537500
  0
VERTEX
  8
0
 62
7
 10
8.36200000
 20
9.47100000
  0
VERTEX
  8
0
 62
7
 10
8.36328906
 20
9.46443750
  0
VERTEX
  8
0
 62
7
 10
8.36668750
 20
9.45975000
  0
VERTEX
  8
0
 62
7
 10
8.37149219
 20
9.45693750
  0
VERTEX
  8
0
 62
7
 10
8.37700000
 20
9.45600000
  0
VERTEX
  8
0
 62
7
 10
8.38250781
 20
9.45693750
  0
VERTEX
  8
0
 62
7
 10
8.38731250
 20
9.45975000
  0
VERTEX
  8
0
 62
7
 10
8.39071094
 20
9.46443750
  0
VERTEX
  8
0
 62
7
 10
8.39200000
 20
9.47100000
  0
SEQEND
  0
ENDSEC
  0
EOF
