  0
SECTION
  2
ENTITIES
  0
POLYLINE
  8
B-1465A.PLT
 62
7
 66
1
 70
1
  0
VERTEX
  8
B-1465A.PLT
 62
7
 10
15.99900000
 20
16.50000000
  0
VERTEX
  8
B-1465A.PLT
 62
7
 10
15.73986133
 20
16.50288379
  0
VERTEX
  8
B-1465A.PLT
 62
7
 10
15.48251563
 20
16.51153906
  0
VERTEX
  8
B-1465A.PLT
 62
7
 10
15.22688086
 20
16.52597168
  0
VERTEX
  8
B-1465A.PLT
 62
7
 10
14.97287500
 20
16.54618750
  0
VERTEX
  8
B-1465A.PLT
 62
7
 10
14.72041602
 20
16.57219238
  0
VERTEX
  8
B-1465A.PLT
 62
7
 10
14.46942188
 20
16.60399219
  0
VERTEX
  8
B-1465A.PLT
 62
7
 10
14.21981055
 20
16.64159277
  0
VERTEX
  8
B-1465A.PLT
 62
7
 10
13.97150000
 20
16.68500000
  0
VERTEX
  8
B-1465A.PLT
 62
7
 10
13.72440820
 20
16.73421973
  0
VERTEX
  8
B-1465A.PLT
 62
7
 10
13.47845313
 20
16.78925781
  0
VERTEX
  8
B-1465A.PLT
 62
7
 10
13.23355273
 20
16.85012012
  0
VERTEX
  8
B-1465A.PLT
 62
7
 10
12.98962500
 20
16.91681250
  0
VERTEX
  8
B-1465A.PLT
 62
7
 10
12.74658789
 20
16.98934082
  0
VERTEX
  8
B-1465A.PLT
 62
7
 10
12.50435938
 20
17.06771094
  0
VERTEX
  8
B-1465A.PLT
 62
7
 10
12.26285742
 20
17.15192871
  0
VERTEX
  8
B-1465A.PLT
 62
7
 10
12.02200000
 20
17.24200000
  0
VERTEX
  8
B-1465A.PLT
 62
7
 10
11.78046143
 20
17.33225098
  0
VERTEX
  8
B-1465A.PLT
 62
7
 10
11.53737891
 20
17.41697656
  0
VERTEX
  8
B-1465A.PLT
 62
7
 10
11.29280225
 20
17.49613574
  0
VERTEX
  8
B-1465A.PLT
 62
7
 10
11.04678125
 20
17.56968750
  0
VERTEX
  8
B-1465A.PLT
 62
7
 10
10.79936572
 20
17.63759082
  0
VERTEX
  8
B-1465A.PLT
 62
7
 10
10.55060547
 20
17.69980469
  0
VERTEX
  8
B-1465A.PLT
 62
7
 10
10.30055029
 20
17.75628809
  0
VERTEX
  8
B-1465A.PLT
 62
7
 10
10.04925000
 20
17.80700000
  0
VERTEX
  8
B-1465A.PLT
 62
7
 10
9.79675439
 20
17.85189941
  0
VERTEX
  8
B-1465A.PLT
 62
7
 10
9.54311328
 20
17.89094531
  0
VERTEX
  8
B-1465A.PLT
 62
7
 10
9.28837646
 20
17.92409668
  0
VERTEX
  8
B-1465A.PLT
 62
7
 10
9.03259375
 20
17.95131250
  0
VERTEX
  8
B-1465A.PLT
 62
7
 10
8.77581494
 20
17.97255176
  0
VERTEX
  8
B-1465A.PLT
 62
7
 10
8.51808984
 20
17.98777344
  0
VERTEX
  8
B-1465A.PLT
 62
7
 10
8.25946826
 20
17.99693652
  0
VERTEX
  8
B-1465A.PLT
 62
7
 10
8.00000000
 20
18.00000000
  0
VERTEX
  8
B-1465A.PLT
 62
7
 10
7.74220459
 20
17.99690454
  0
VERTEX
  8
B-1465A.PLT
 62
7
 10
7.48488672
 20
17.98765820
  0
VERTEX
  8
B-1465A.PLT
 62
7
 10
7.22814893
 20
17.97232104
  0
VERTEX
  8
B-1465A.PLT
 62
7
 10
6.97209375
 20
17.95095313
  0
VERTEX
  8
B-1465A.PLT
 62
7
 10
6.71682373
 20
17.92361450
  0
VERTEX
  8
B-1465A.PLT
 62
7
 10
6.46244141
 20
17.89036523
  0
VERTEX
  8
B-1465A.PLT
 62
7
 10
6.20904932
 20
17.85126538
  0
VERTEX
  8
B-1465A.PLT
 62
7
 10
5.95675000
 20
17.80637500
  0
VERTEX
  8
B-1465A.PLT
 62
7
 10
5.70564600
 20
17.75575415
  0
VERTEX
  8
B-1465A.PLT
 62
7
 10
5.45583984
 20
17.69946289
  0
VERTEX
  8
B-1465A.PLT
 62
7
 10
5.20743408
 20
17.63756128
  0
VERTEX
  8
B-1465A.PLT
 62
7
 10
4.96053125
 20
17.57010938
  0
VERTEX
  8
B-1465A.PLT
 62
7
 10
4.71523389
 20
17.49716724
  0
VERTEX
  8
B-1465A.PLT
 62
7
 10
4.47164453
 20
17.41879492
  0
VERTEX
  8
B-1465A.PLT
 62
7
 10
4.22986572
 20
17.33505249
  0
VERTEX
  8
B-1465A.PLT
 62
7
 10
3.99000000
 20
17.24600000
  0
VERTEX
  8
B-1465A.PLT
 62
7
 10
3.75052393
 20
17.15703735
  0
VERTEX
  8
B-1465A.PLT
 62
7
 10
3.50950391
 20
17.07354883
  0
VERTEX
  8
B-1465A.PLT
 62
7
 10
3.26698975
 20
16.99557104
  0
VERTEX
  8
B-1465A.PLT
 62
7
 10
3.02303125
 20
16.92314062
  0
VERTEX
  8
B-1465A.PLT
 62
7
 10
2.77767822
 20
16.85629419
  0
VERTEX
  8
B-1465A.PLT
 62
7
 10
2.53098047
 20
16.79506836
  0
VERTEX
  8
B-1465A.PLT
 62
7
 10
2.28298779
 20
16.73949976
  0
VERTEX
  8
B-1465A.PLT
 62
7
 10
2.03375000
 20
16.68962500
  0
VERTEX
  8
B-1465A.PLT
 62
7
 10
1.78331689
 20
16.64548071
  0
VERTEX
  8
B-1465A.PLT
 62
7
 10
1.53173828
 20
16.60710352
  0
VERTEX
  8
B-1465A.PLT
 62
7
 10
1.27906396
 20
16.57453003
  0
VERTEX
  8
B-1465A.PLT
 62
7
 10
1.02534375
 20
16.54779688
  0
VERTEX
  8
B-1465A.PLT
 62
7
 10
0.77062744
 20
16.52694067
  0
VERTEX
  8
B-1465A.PLT
 62
7
 10
0.51496484
 20
16.51199805
  0
VERTEX
  8
B-1465A.PLT
 62
7
 10
0.25840576
 20
16.50300562
  0
VERTEX
  8
B-1465A.PLT
 62
7
 10
.00100000
 20
16.50000000
  0
VERTEX
  8
B-1465A.PLT
 62
7
 10
.00400000
 20
0.00000000
  0
VERTEX
  8
B-1465A.PLT
 62
7
 10
16.00200000
 20
0.00000000
  0
SEQEND
  0
POLYLINE
  8
B-1465A.PLT
 62
7
 66
1
 70
1
  0
VERTEX
  8
B-1465A.PLT
 62
7
 10
14.89900000
 20
3.71600000
  0
VERTEX
  8
B-1465A.PLT
 62
7
 10
14.91287500
 20
3.69825000
  0
VERTEX
  8
B-1465A.PLT
 62
7
 10
14.92300000
 20
3.67900000
  0
VERTEX
  8
B-1465A.PLT
 62
7
 10
14.92300000
 20
3.67800000
  0
VERTEX
  8
B-1465A.PLT
 62
7
 10
14.95535938
 20
3.61989063
  0
VERTEX
  8
B-1465A.PLT
 62
7
 10
14.98162500
 20
3.55662500
  0
VERTEX
  8
B-1465A.PLT
 62
7
 10
15.00132813
 20
3.49054688
  0
VERTEX
  8
B-1465A.PLT
 62
7
 10
15.01400000
 20
3.42400000
  0
VERTEX
  8
B-1465A.PLT
 62
7
 10
14.94300000
 20
3.42700000
  0
VERTEX
  8
B-1465A.PLT
 62
7
 10
14.94548437
 20
3.41398438
  0
VERTEX
  8
B-1465A.PLT
 62
7
 10
14.94487500
 20
3.40162500
  0
VERTEX
  8
B-1465A.PLT
 62
7
 10
14.94257813
 20
3.38945313
  0
VERTEX
  8
B-1465A.PLT
 62
7
 10
14.94000000
 20
3.37700000
  0
VERTEX
  8
B-1465A.PLT
 62
7
 10
14.92700000
 20
3.32000000
  0
VERTEX
  8
B-1465A.PLT
 62
7
 10
14.92289063
 20
3.29145312
  0
VERTEX
  8
B-1465A.PLT
 62
7
 10
14.92262500
 20
3.27162500
  0
VERTEX
  8
B-1465A.PLT
 62
7
 10
14.92404688
 20
3.25798437
  0
VERTEX
  8
B-1465A.PLT
 62
7
 10
14.92500000
 20
3.24800000
  0
VERTEX
  8
B-1465A.PLT
 62
7
 10
14.92729688
 20
3.21463867
  0
VERTEX
  8
B-1465A.PLT
 62
7
 10
14.93400000
 20
3.18417188
  0
VERTEX
  8
B-1465A.PLT
 62
7
 10
14.94482813
 20
3.15640039
  0
VERTEX
  8
B-1465A.PLT
 62
7
 10
14.95950000
 20
3.13112500
  0
VERTEX
  8
B-1465A.PLT
 62
7
 10
14.97773438
 20
3.10814648
  0
VERTEX
  8
B-1465A.PLT
 62
7
 10
14.99925000
 20
3.08726563
  0
VERTEX
  8
B-1465A.PLT
 62
7
 10
15.02376562
 20
3.06828320
  0
VERTEX
  8
B-1465A.PLT
 62
7
 10
15.05100000
 20
3.05100000
  0
VERTEX
  8
B-1465A.PLT
 62
7
 10
15.09237500
 20
3.02262500
  0
VERTEX
  8
B-1465A.PLT
 62
7
 10
15.13000000
 20
2.98900000
  0
VERTEX
  8
B-1465A.PLT
 62
7
 10
15.12900000
 20
2.98900000
  0
VERTEX
  8
B-1465A.PLT
 62
7
 10
15.11050000
 20
2.96264063
  0
VERTEX
  8
B-1465A.PLT
 62
7
 10
15.08825000
 20
2.93937500
  0
VERTEX
  8
B-1465A.PLT
 62
7
 10
15.06262500
 20
2.91967188
  0
VERTEX
  8
B-1465A.PLT
 62
7
 10
15.03400000
 20
2.90400000
  0
VERTEX
  8
B-1465A.PLT
 62
7
 10
15.03400000
 20
2.90400000
  0
VERTEX
  8
B-1465A.PLT
 62
7
 10
14.95589063
 20
2.88153125
  0
VERTEX
  8
B-1465A.PLT
 62
7
 10
14.87487500
 20
2.86525000
  0
VERTEX
  8
B-1465A.PLT
 62
7
 10
14.79142187
 20
2.85534375
  0
VERTEX
  8
B-1465A.PLT
 62
7
 10
14.70600000
 20
2.85200000
  0
VERTEX
  8
B-1465A.PLT
 62
7
 10
14.64343750
 20
2.85385937
  0
VERTEX
  8
B-1465A.PLT
 62
7
 10
14.58200000
 20
2.85937500
  0
VERTEX
  8
B-1465A.PLT
 62
7
 10
14.52206250
 20
2.86845312
  0
VERTEX
  8
B-1465A.PLT
 62
7
 10
14.46400000
 20
2.88100000
  0
VERTEX
  8
B-1465A.PLT
 62
7
 10
14.47700000
 20
2.79600000
  0
VERTEX
  8
B-1465A.PLT
 62
7
 10
14.42279102
 20
2.80197656
  0
VERTEX
  8
B-1465A.PLT
 62
7
 10
14.36339062
 20
2.81325000
  0
VERTEX
  8
B-1465A.PLT
 62
7
 10
14.30063867
 20
2.82996094
  0
VERTEX
  8
B-1465A.PLT
 62
7
 10
14.23637500
 20
2.85225000
  0
VERTEX
  8
B-1465A.PLT
 62
7
 10
14.17243945
 20
2.88025781
  0
VERTEX
  8
B-1465A.PLT
 62
7
 10
14.11067188
 20
2.91412500
  0
VERTEX
  8
B-1465A.PLT
 62
7
 10
14.05291211
 20
2.95399219
  0
VERTEX
  8
B-1465A.PLT
 62
7
 10
14.00100000
 20
3.00000000
  0
VERTEX
  8
B-1465A.PLT
 62
7
 10
12.71300000
 20
3.00000000
  0
VERTEX
  8
B-1465A.PLT
 62
7
 10
12.69811694
 20
2.95866943
  0
VERTEX
  8
B-1465A.PLT
 62
7
 10
12.67920117
 20
2.91873047
  0
VERTEX
  8
B-1465A.PLT
 62
7
 10
12.65660278
 20
2.88026221
  0
VERTEX
  8
B-1465A.PLT
 62
7
 10
12.63067188
 20
2.84334375
  0
VERTEX
  8
B-1465A.PLT
 62
7
 10
12.60175854
 20
2.80805420
  0
VERTEX
  8
B-1465A.PLT
 62
7
 10
12.57021289
 20
2.77447266
  0
VERTEX
  8
B-1465A.PLT
 62
7
 10
12.53638501
 20
2.74267822
  0
VERTEX
  8
B-1465A.PLT
 62
7
 10
12.50062500
 20
2.71275000
  0
VERTEX
  8
B-1465A.PLT
 62
7
 10
12.46328296
 20
2.68476709
  0
VERTEX
  8
B-1465A.PLT
 62
7
 10
12.42470898
 20
2.65880859
  0
VERTEX
  8
B-1465A.PLT
 62
7
 10
12.38525317
 20
2.63495361
  0
VERTEX
  8
B-1465A.PLT
 62
7
 10
12.34526563
 20
2.61328125
  0
VERTEX
  8
B-1465A.PLT
 62
7
 10
12.30509644
 20
2.59387061
  0
VERTEX
  8
B-1465A.PLT
 62
7
 10
12.26509570
 20
2.57680078
  0
VERTEX
  8
B-1465A.PLT
 62
7
 10
12.22561353
 20
2.56215088
  0
VERTEX
  8
B-1465A.PLT
 62
7
 10
12.18700000
 20
2.55000000
  0
VERTEX
  8
B-1465A.PLT
 62
7
 10
12.19100000
 20
2.67000000
  0
VERTEX
  8
B-1465A.PLT
 62
7
 10
12.19000000
 20
2.67000000
  0
VERTEX
  8
B-1465A.PLT
 62
7
 10
12.12609375
 20
2.65501562
  0
VERTEX
  8
B-1465A.PLT
 62
7
 10
12.06050000
 20
2.64312500
  0
VERTEX
  8
B-1465A.PLT
 62
7
 10
11.99340625
 20
2.63442188
  0
VERTEX
  8
B-1465A.PLT
 62
7
 10
11.92500000
 20
2.62900000
  0
VERTEX
  8
B-1465A.PLT
 62
7
 10
11.90539063
 20
2.61777930
  0
VERTEX
  8
B-1465A.PLT
 62
7
 10
11.88718750
 20
2.60448438
  0
VERTEX
  8
B-1465A.PLT
 62
7
 10
11.87057813
 20
2.58929102
  0
VERTEX
  8
B-1465A.PLT
 62
7
 10
11.85575000
 20
2.57237500
  0
VERTEX
  8
B-1465A.PLT
 62
7
 10
11.84289063
 20
2.55391211
  0
VERTEX
  8
B-1465A.PLT
 62
7
 10
11.83218750
 20
2.53407813
  0
VERTEX
  8
B-1465A.PLT
 62
7
 10
11.82382813
 20
2.51304883
  0
VERTEX
  8
B-1465A.PLT
 62
7
 10
11.81800000
 20
2.49100000
  0
VERTEX
  8
B-1465A.PLT
 62
7
 10
11.77800000
 20
2.40300000
  0
VERTEX
  8
B-1465A.PLT
 62
7
 10
11.67400000
 20
2.45700000
  0
VERTEX
  8
B-1465A.PLT
 62
7
 10
11.67400000
 20
2.45800000
  0
VERTEX
  8
B-1465A.PLT
 62
7
 10
11.64553125
 20
2.49931250
  0
VERTEX
  8
B-1465A.PLT
 62
7
 10
11.62025000
 20
2.54287500
  0
VERTEX
  8
B-1465A.PLT
 62
7
 10
11.59834375
 20
2.58850000
  0
VERTEX
  8
B-1465A.PLT
 62
7
 10
11.58000000
 20
2.63600000
  0
VERTEX
  8
B-1465A.PLT
 62
7
 10
11.56540625
 20
2.68518750
  0
VERTEX
  8
B-1465A.PLT
 62
7
 10
11.55475000
 20
2.73587500
  0
VERTEX
  8
B-1465A.PLT
 62
7
 10
11.54821875
 20
2.78787500
  0
VERTEX
  8
B-1465A.PLT
 62
7
 10
11.54600000
 20
2.84100000
  0
VERTEX
  8
B-1465A.PLT
 62
7
 10
11.54825000
 20
2.89425000
  0
VERTEX
  8
B-1465A.PLT
 62
7
 10
11.55500000
 20
2.94600000
  0
VERTEX
  8
B-1465A.PLT
 62
7
 10
11.55400000
 20
2.94500000
  0
VERTEX
  8
B-1465A.PLT
 62
7
 10
11.49314063
 20
2.91748437
  0
VERTEX
  8
B-1465A.PLT
 62
7
 10
11.42937500
 20
2.89512500
  0
VERTEX
  8
B-1465A.PLT
 62
7
 10
11.36317188
 20
2.87820313
  0
VERTEX
  8
B-1465A.PLT
 62
7
 10
11.29500000
 20
2.86700000
  0
VERTEX
  8
B-1465A.PLT
 62
7
 10
11.30500000
 20
2.95400000
  0
VERTEX
  8
B-1465A.PLT
 62
7
 10
11.29150000
 20
2.95220313
  0
VERTEX
  8
B-1465A.PLT
 62
7
 10
11.25700000
 20
2.94862500
  0
VERTEX
  8
B-1465A.PLT
 62
7
 10
11.21050000
 20
2.94598438
  0
VERTEX
  8
B-1465A.PLT
 62
7
 10
11.16100000
 20
2.94700000
  0
VERTEX
  8
B-1465A.PLT
 62
7
 10
11.11498438
 20
2.95143750
  0
VERTEX
  8
B-1465A.PLT
 62
7
 10
11.06737500
 20
2.95925000
  0
VERTEX
  8
B-1465A.PLT
 62
7
 10
11.01882813
 20
2.97118750
  0
VERTEX
  8
B-1465A.PLT
 62
7
 10
10.97000000
 20
2.98800000
  0
VERTEX
  8
B-1465A.PLT
 62
7
 10
10.94300000
 20
3.00000000
  0
VERTEX
  8
B-1465A.PLT
 62
7
 10
1.40400000
 20
3.00100000
  0
VERTEX
  8
B-1465A.PLT
 62
7
 10
1.38400000
 20
3.01600000
  0
VERTEX
  8
B-1465A.PLT
 62
7
 10
1.36780078
 20
3.03210352
  0
VERTEX
  8
B-1465A.PLT
 62
7
 10
1.35303125
 20
3.04957813
  0
VERTEX
  8
B-1465A.PLT
 62
7
 10
1.33980859
 20
3.06829492
  0
VERTEX
  8
B-1465A.PLT
 62
7
 10
1.32825000
 20
3.08812500
  0
VERTEX
  8
B-1465A.PLT
 62
7
 10
1.31847266
 20
3.10893945
  0
VERTEX
  8
B-1465A.PLT
 62
7
 10
1.31059375
 20
3.13060938
  0
VERTEX
  8
B-1465A.PLT
 62
7
 10
1.30473047
 20
3.15300586
  0
VERTEX
  8
B-1465A.PLT
 62
7
 10
1.30100000
 20
3.17600000
  0
VERTEX
  8
B-1465A.PLT
 62
7
 10
1.30100000
 20
3.17700000
  0
VERTEX
  8
B-1465A.PLT
 62
7
 10
1.28350000
 20
3.22700000
  0
VERTEX
  8
B-1465A.PLT
 62
7
 10
1.27050000
 20
3.27925000
  0
VERTEX
  8
B-1465A.PLT
 62
7
 10
1.26275000
 20
3.33337500
  0
VERTEX
  8
B-1465A.PLT
 62
7
 10
1.26100000
 20
3.38900000
  0
VERTEX
  8
B-1465A.PLT
 62
7
 10
1.26400000
 20
3.43337500
  0
VERTEX
  8
B-1465A.PLT
 62
7
 10
1.27000000
 20
3.47700000
  0
VERTEX
  8
B-1465A.PLT
 62
7
 10
1.24771875
 20
3.54335938
  0
VERTEX
  8
B-1465A.PLT
 62
7
 10
1.23200000
 20
3.61187500
  0
VERTEX
  8
B-1465A.PLT
 62
7
 10
1.22303125
 20
3.68245312
  0
VERTEX
  8
B-1465A.PLT
 62
7
 10
1.22100000
 20
3.75500000
  0
VERTEX
  8
B-1465A.PLT
 62
7
 10
1.22414063
 20
3.81439063
  0
VERTEX
  8
B-1465A.PLT
 62
7
 10
1.23187500
 20
3.87237500
  0
VERTEX
  8
B-1465A.PLT
 62
7
 10
1.24392188
 20
3.92867188
  0
VERTEX
  8
B-1465A.PLT
 62
7
 10
1.26000000
 20
3.98300000
  0
VERTEX
  8
B-1465A.PLT
 62
7
 10
1.26000000
 20
3.98400000
  0
VERTEX
  8
B-1465A.PLT
 62
7
 10
1.24207812
 20
4.04973437
  0
VERTEX
  8
B-1465A.PLT
 62
7
 10
1.22912500
 20
4.11762500
  0
VERTEX
  8
B-1465A.PLT
 62
7
 10
1.22160938
 20
4.18720312
  0
VERTEX
  8
B-1465A.PLT
 62
7
 10
1.22000000
 20
4.25800000
  0
VERTEX
  8
B-1465A.PLT
 62
7
 10
1.22288867
 20
4.31376367
  0
VERTEX
  8
B-1465A.PLT
 62
7
 10
1.22923438
 20
4.36848438
  0
VERTEX
  8
B-1465A.PLT
 62
7
 10
1.23893164
 20
4.42205664
  0
VERTEX
  8
B-1465A.PLT
 62
7
 10
1.25187500
 20
4.47437500
  0
VERTEX
  8
B-1465A.PLT
 62
7
 10
1.26795898
 20
4.52533398
  0
VERTEX
  8
B-1465A.PLT
 62
7
 10
1.28707813
 20
4.57482812
  0
VERTEX
  8
B-1465A.PLT
 62
7
 10
1.30912695
 20
4.62275195
  0
VERTEX
  8
B-1465A.PLT
 62
7
 10
1.33400000
 20
4.66900000
  0
VERTEX
  8
B-1465A.PLT
 62
7
 10
1.33300000
 20
4.67200000
  0
VERTEX
  8
B-1465A.PLT
 62
7
 10
1.31334375
 20
4.76009375
  0
VERTEX
  8
B-1465A.PLT
 62
7
 10
1.29950000
 20
4.85025000
  0
VERTEX
  8
B-1465A.PLT
 62
7
 10
1.29165625
 20
4.94228125
  0
VERTEX
  8
B-1465A.PLT
 62
7
 10
1.29000000
 20
5.03600000
  0
VERTEX
  8
B-1465A.PLT
 62
7
 10
1.29278125
 20
5.10728125
  0
VERTEX
  8
B-1465A.PLT
 62
7
 10
1.29950000
 20
5.17725000
  0
VERTEX
  8
B-1465A.PLT
 62
7
 10
1.30996875
 20
5.24609375
  0
VERTEX
  8
B-1465A.PLT
 62
7
 10
1.32400000
 20
5.31400000
  0
VERTEX
  8
B-1465A.PLT
 62
7
 10
1.32400000
 20
5.31200000
  0
VERTEX
  8
B-1465A.PLT
 62
7
 10
1.32087500
 20
5.34412500
  0
VERTEX
  8
B-1465A.PLT
 62
7
 10
1.32000000
 20
5.37700000
  0
VERTEX
  8
B-1465A.PLT
 62
7
 10
1.32158325
 20
5.40860669
  0
VERTEX
  8
B-1465A.PLT
 62
7
 10
1.32516602
 20
5.43963477
  0
VERTEX
  8
B-1465A.PLT
 62
7
 10
1.33068530
 20
5.47002124
  0
VERTEX
  8
B-1465A.PLT
 62
7
 10
1.33807813
 20
5.49970312
  0
VERTEX
  8
B-1465A.PLT
 62
7
 10
1.34728149
 20
5.52861743
  0
VERTEX
  8
B-1465A.PLT
 62
7
 10
1.35823242
 20
5.55670117
  0
VERTEX
  8
B-1465A.PLT
 62
7
 10
1.37086792
 20
5.58389136
  0
VERTEX
  8
B-1465A.PLT
 62
7
 10
1.38512500
 20
5.61012500
  0
VERTEX
  8
B-1465A.PLT
 62
7
 10
1.40094067
 20
5.63533911
  0
VERTEX
  8
B-1465A.PLT
 62
7
 10
1.41825195
 20
5.65947070
  0
VERTEX
  8
B-1465A.PLT
 62
7
 10
1.43699585
 20
5.68245679
  0
VERTEX
  8
B-1465A.PLT
 62
7
 10
1.45710937
 20
5.70423438
  0
VERTEX
  8
B-1465A.PLT
 62
7
 10
1.47852954
 20
5.72474048
  0
VERTEX
  8
B-1465A.PLT
 62
7
 10
1.50119336
 20
5.74391211
  0
VERTEX
  8
B-1465A.PLT
 62
7
 10
1.52503784
 20
5.76168628
  0
VERTEX
  8
B-1465A.PLT
 62
7
 10
1.55000000
 20
5.77800000
  0
VERTEX
  8
B-1465A.PLT
 62
7
 10
1.54900000
 20
5.77800000
  0
VERTEX
  8
B-1465A.PLT
 62
7
 10
1.56117969
 20
5.82500586
  0
VERTEX
  8
B-1465A.PLT
 62
7
 10
1.58006250
 20
5.86885938
  0
VERTEX
  8
B-1465A.PLT
 62
7
 10
1.60503906
 20
5.90893945
  0
VERTEX
  8
B-1465A.PLT
 62
7
 10
1.63550000
 20
5.94462500
  0
VERTEX
  8
B-1465A.PLT
 62
7
 10
1.67083594
 20
5.97529492
  0
VERTEX
  8
B-1465A.PLT
 62
7
 10
1.71043750
 20
6.00032813
  0
VERTEX
  8
B-1465A.PLT
 62
7
 10
1.75369531
 20
6.01910352
  0
VERTEX
  8
B-1465A.PLT
 62
7
 10
1.80000000
 20
6.03100000
  0
VERTEX
  8
B-1465A.PLT
 62
7
 10
1.80000000
 20
6.03100000
  0
VERTEX
  8
B-1465A.PLT
 62
7
 10
1.81506250
 20
6.02078125
  0
VERTEX
  8
B-1465A.PLT
 62
7
 10
1.82675000
 20
6.00700000
  0
VERTEX
  8
B-1465A.PLT
 62
7
 10
1.83431250
 20
5.99021875
  0
VERTEX
  8
B-1465A.PLT
 62
7
 10
1.83700000
 20
5.97100000
  0
VERTEX
  8
B-1465A.PLT
 62
7
 10
1.83187500
 20
5.94712500
  0
VERTEX
  8
B-1465A.PLT
 62
7
 10
1.82000000
 20
5.92700000
  0
VERTEX
  8
B-1465A.PLT
 62
7
 10
1.78550391
 20
5.91734180
  0
VERTEX
  8
B-1465A.PLT
 62
7
 10
1.75365625
 20
5.90223437
  0
VERTEX
  8
B-1465A.PLT
 62
7
 10
1.72504297
 20
5.88222852
  0
VERTEX
  8
B-1465A.PLT
 62
7
 10
1.70025000
 20
5.85787500
  0
VERTEX
  8
B-1465A.PLT
 62
7
 10
1.67986328
 20
5.82972461
  0
VERTEX
  8
B-1465A.PLT
 62
7
 10
1.66446875
 20
5.79832813
  0
VERTEX
  8
B-1465A.PLT
 62
7
 10
1.65465234
 20
5.76423633
  0
VERTEX
  8
B-1465A.PLT
 62
7
 10
1.65100000
 20
5.72800000
  0
VERTEX
  8
B-1465A.PLT
 62
7
 10
1.65100000
 20
5.71300000
  0
VERTEX
  8
B-1465A.PLT
 62
7
 10
1.62708301
 20
5.70130493
  0
VERTEX
  8
B-1465A.PLT
 62
7
 10
1.60413281
 20
5.68801758
  0
VERTEX
  8
B-1465A.PLT
 62
7
 10
1.58222559
 20
5.67320972
  0
VERTEX
  8
B-1465A.PLT
 62
7
 10
1.56143750
 20
5.65695313
  0
VERTEX
  8
B-1465A.PLT
 62
7
 10
1.54184473
 20
5.63931958
  0
VERTEX
  8
B-1465A.PLT
 62
7
 10
1.52352344
 20
5.62038086
  0
VERTEX
  8
B-1465A.PLT
 62
7
 10
1.50654980
 20
5.60020874
  0
VERTEX
  8
B-1465A.PLT
 62
7
 10
1.49100000
 20
5.57887500
  0
VERTEX
  8
B-1465A.PLT
 62
7
 10
1.47695020
 20
5.55645142
  0
VERTEX
  8
B-1465A.PLT
 62
7
 10
1.46447656
 20
5.53300977
  0
VERTEX
  8
B-1465A.PLT
 62
7
 10
1.45365527
 20
5.50862183
  0
VERTEX
  8
B-1465A.PLT
 62
7
 10
1.44456250
 20
5.48335938
  0
VERTEX
  8
B-1465A.PLT
 62
7
 10
1.43727441
 20
5.45729419
  0
VERTEX
  8
B-1465A.PLT
 62
7
 10
1.43186719
 20
5.43049805
  0
VERTEX
  8
B-1465A.PLT
 62
7
 10
1.42841699
 20
5.40304272
  0
VERTEX
  8
B-1465A.PLT
 62
7
 10
1.42700000
 20
5.37500000
  0
VERTEX
  8
B-1465A.PLT
 62
7
 10
1.42800000
 20
5.34125000
  0
VERTEX
  8
B-1465A.PLT
 62
7
 10
1.43200000
 20
5.30900000
  0
VERTEX
  8
B-1465A.PLT
 62
7
 10
1.41779688
 20
5.24226562
  0
VERTEX
  8
B-1465A.PLT
 62
7
 10
1.40687500
 20
5.17412500
  0
VERTEX
  8
B-1465A.PLT
 62
7
 10
1.39951563
 20
5.10467188
  0
VERTEX
  8
B-1465A.PLT
 62
7
 10
1.39600000
 20
5.03400000
  0
VERTEX
  8
B-1465A.PLT
 62
7
 10
1.39825000
 20
4.93596875
  0
VERTEX
  8
B-1465A.PLT
 62
7
 10
1.40800000
 20
4.84000000
  0
VERTEX
  8
B-1465A.PLT
 62
7
 10
1.42525000
 20
4.74628125
  0
VERTEX
  8
B-1465A.PLT
 62
7
 10
1.45000000
 20
4.65500000
  0
VERTEX
  8
B-1465A.PLT
 62
7
 10
1.42268750
 20
4.61091016
  0
VERTEX
  8
B-1465A.PLT
 62
7
 10
1.39856250
 20
4.56496875
  0
VERTEX
  8
B-1465A.PLT
 62
7
 10
1.37771875
 20
4.51729297
  0
VERTEX
  8
B-1465A.PLT
 62
7
 10
1.36025000
 20
4.46800000
  0
VERTEX
  8
B-1465A.PLT
 62
7
 10
1.34625000
 20
4.41720703
  0
VERTEX
  8
B-1465A.PLT
 62
7
 10
1.33581250
 20
4.36503125
  0
VERTEX
  8
B-1465A.PLT
 62
7
 10
1.32903125
 20
4.31158984
  0
VERTEX
  8
B-1465A.PLT
 62
7
 10
1.32600000
 20
4.25700000
  0
VERTEX
  8
B-1465A.PLT
 62
7
 10
1.32815625
 20
4.18521875
  0
VERTEX
  8
B-1465A.PLT
 62
7
 10
1.33725000
 20
4.11550000
  0
VERTEX
  8
B-1465A.PLT
 62
7
 10
1.35271875
 20
4.04803125
  0
VERTEX
  8
B-1465A.PLT
 62
7
 10
1.37400000
 20
3.98300000
  0
VERTEX
  8
B-1465A.PLT
 62
7
 10
1.35428125
 20
3.92850000
  0
VERTEX
  8
B-1465A.PLT
 62
7
 10
1.34000000
 20
3.87175000
  0
VERTEX
  8
B-1465A.PLT
 62
7
 10
1.33096875
 20
3.81312500
  0
VERTEX
  8
B-1465A.PLT
 62
7
 10
1.32700000
 20
3.75300000
  0
VERTEX
  8
B-1465A.PLT
 62
7
 10
1.32979688
 20
3.68329687
  0
VERTEX
  8
B-1465A.PLT
 62
7
 10
1.33962500
 20
3.61537500
  0
VERTEX
  8
B-1465A.PLT
 62
7
 10
1.35639063
 20
3.54951563
  0
VERTEX
  8
B-1465A.PLT
 62
7
 10
1.38000000
 20
3.48600000
  0
VERTEX
  8
B-1465A.PLT
 62
7
 10
1.37137500
 20
3.43725000
  0
VERTEX
  8
B-1465A.PLT
 62
7
 10
1.36800000
 20
3.38700000
  0
VERTEX
  8
B-1465A.PLT
 62
7
 10
1.36912500
 20
3.34540625
  0
VERTEX
  8
B-1465A.PLT
 62
7
 10
1.37400000
 20
3.30475000
  0
VERTEX
  8
B-1465A.PLT
 62
7
 10
1.38262500
 20
3.26521875
  0
VERTEX
  8
B-1465A.PLT
 62
7
 10
1.39500000
 20
3.22700000
  0
VERTEX
  8
B-1465A.PLT
 62
7
 10
1.41714063
 20
3.23560938
  0
VERTEX
  8
B-1465A.PLT
 62
7
 10
1.44012500
 20
3.24187500
  0
VERTEX
  8
B-1465A.PLT
 62
7
 10
1.46404688
 20
3.24570312
  0
VERTEX
  8
B-1465A.PLT
 62
7
 10
1.48900000
 20
3.24700000
  0
VERTEX
  8
B-1465A.PLT
 62
7
 10
1.52640625
 20
3.24293750
  0
VERTEX
  8
B-1465A.PLT
 62
7
 10
1.56175000
 20
3.23250000
  0
VERTEX
  8
B-1465A.PLT
 62
7
 10
1.59446875
 20
3.21606250
  0
VERTEX
  8
B-1465A.PLT
 62
7
 10
1.62400000
 20
3.19400000
  0
VERTEX
  8
B-1465A.PLT
 62
7
 10
1.62400000
 20
3.19500000
  0
VERTEX
  8
B-1465A.PLT
 62
7
 10
1.63112500
 20
3.21450586
  0
VERTEX
  8
B-1465A.PLT
 62
7
 10
1.64106250
 20
3.23235938
  0
VERTEX
  8
B-1465A.PLT
 62
7
 10
1.65353125
 20
3.24831445
  0
VERTEX
  8
B-1465A.PLT
 62
7
 10
1.66825000
 20
3.26212500
  0
VERTEX
  8
B-1465A.PLT
 62
7
 10
1.68493750
 20
3.27354492
  0
VERTEX
  8
B-1465A.PLT
 62
7
 10
1.70331250
 20
3.28232812
  0
VERTEX
  8
B-1465A.PLT
 62
7
 10
1.72309375
 20
3.28822852
  0
VERTEX
  8
B-1465A.PLT
 62
7
 10
1.74400000
 20
3.29100000
  0
VERTEX
  8
B-1465A.PLT
 62
7
 10
1.75587500
 20
3.34825000
  0
VERTEX
  8
B-1465A.PLT
 62
7
 10
1.76100000
 20
3.40700000
  0
VERTEX
  8
B-1465A.PLT
 62
7
 10
1.75966211
 20
3.44789062
  0
VERTEX
  8
B-1465A.PLT
 62
7
 10
1.75498438
 20
3.48793750
  0
VERTEX
  8
B-1465A.PLT
 62
7
 10
1.74709570
 20
3.52695312
  0
VERTEX
  8
B-1465A.PLT
 62
7
 10
1.73612500
 20
3.56475000
  0
VERTEX
  8
B-1465A.PLT
 62
7
 10
1.72220117
 20
3.60114063
  0
VERTEX
  8
B-1465A.PLT
 62
7
 10
1.70545313
 20
3.63593750
  0
VERTEX
  8
B-1465A.PLT
 62
7
 10
1.68600977
 20
3.66895312
  0
VERTEX
  8
B-1465A.PLT
 62
7
 10
1.66400000
 20
3.70000000
  0
VERTEX
  8
B-1465A.PLT
 62
7
 10
1.68688867
 20
3.72035742
  0
VERTEX
  8
B-1465A.PLT
 62
7
 10
1.70742188
 20
3.74304688
  0
VERTEX
  8
B-1465A.PLT
 62
7
 10
1.72540039
 20
3.76786914
  0
VERTEX
  8
B-1465A.PLT
 62
7
 10
1.74062500
 20
3.79462500
  0
VERTEX
  8
B-1465A.PLT
 62
7
 10
1.75289648
 20
3.82311523
  0
VERTEX
  8
B-1465A.PLT
 62
7
 10
1.76201563
 20
3.85314063
  0
VERTEX
  8
B-1465A.PLT
 62
7
 10
1.76778320
 20
3.88450195
  0
VERTEX
  8
B-1465A.PLT
 62
7
 10
1.77000000
 20
3.91700000
  0
VERTEX
  8
B-1465A.PLT
 62
7
 10
1.76740625
 20
3.96173437
  0
VERTEX
  8
B-1465A.PLT
 62
7
 10
1.75825000
 20
4.00412500
  0
VERTEX
  8
B-1465A.PLT
 62
7
 10
1.74271875
 20
4.04370313
  0
VERTEX
  8
B-1465A.PLT
 62
7
 10
1.72100000
 20
4.08000000
  0
VERTEX
  8
B-1465A.PLT
 62
7
 10
1.75787305
 20
4.10314844
  0
VERTEX
  8
B-1465A.PLT
 62
7
 10
1.79173438
 20
4.13037500
  0
VERTEX
  8
B-1465A.PLT
 62
7
 10
1.82219727
 20
4.16135156
  0
VERTEX
  8
B-1465A.PLT
 62
7
 10
1.84887500
 20
4.19575000
  0
VERTEX
  8
B-1465A.PLT
 62
7
 10
1.87138086
 20
4.23324219
  0
VERTEX
  8
B-1465A.PLT
 62
7
 10
1.88932813
 20
4.27350000
  0
VERTEX
  8
B-1465A.PLT
 62
7
 10
1.90233008
 20
4.31619531
  0
VERTEX
  8
B-1465A.PLT
 62
7
 10
1.91000000
 20
4.36100000
  0
VERTEX
  8
B-1465A.PLT
 62
7
 10
1.95622974
 20
4.37199146
  0
VERTEX
  8
B-1465A.PLT
 62
7
 10
2.00149414
 20
4.38541602
  0
VERTEX
  8
B-1465A.PLT
 62
7
 10
2.04571851
 20
4.40119897
  0
VERTEX
  8
B-1465A.PLT
 62
7
 10
2.08882813
 20
4.41926563
  0
VERTEX
  8
B-1465A.PLT
 62
7
 10
2.13074829
 20
4.43954126
  0
VERTEX
  8
B-1465A.PLT
 62
7
 10
2.17140430
 20
4.46195117
  0
VERTEX
  8
B-1465A.PLT
 62
7
 10
2.21072144
 20
4.48642065
  0
VERTEX
  8
B-1465A.PLT
 62
7
 10
2.24862500
 20
4.51287500
  0
VERTEX
  8
B-1465A.PLT
 62
7
 10
2.28504028
 20
4.54123950
  0
VERTEX
  8
B-1465A.PLT
 62
7
 10
2.31989258
 20
4.57143945
  0
VERTEX
  8
B-1465A.PLT
 62
7
 10
2.35310718
 20
4.60340015
  0
VERTEX
  8
B-1465A.PLT
 62
7
 10
2.38460938
 20
4.63704688
  0
VERTEX
  8
B-1465A.PLT
 62
7
 10
2.41432446
 20
4.67230493
  0
VERTEX
  8
B-1465A.PLT
 62
7
 10
2.44217773
 20
4.70909961
  0
VERTEX
  8
B-1465A.PLT
 62
7
 10
2.46809448
 20
4.74735620
  0
VERTEX
  8
B-1465A.PLT
 62
7
 10
2.49200000
 20
4.78700000
  0
VERTEX
  8
B-1465A.PLT
 62
7
 10
2.51624658
 20
4.80273975
  0
VERTEX
  8
B-1465A.PLT
 62
7
 10
2.53944141
 20
4.81991797
  0
VERTEX
  8
B-1465A.PLT
 62
7
 10
2.56151709
 20
4.83847314
  0
VERTEX
  8
B-1465A.PLT
 62
7
 10
2.58240625
 20
4.85834375
  0
VERTEX
  8
B-1465A.PLT
 62
7
 10
2.60204150
 20
4.87946826
  0
VERTEX
  8
B-1465A.PLT
 62
7
 10
2.62035547
 20
4.90178516
  0
VERTEX
  8
B-1465A.PLT
 62
7
 10
2.63728076
 20
4.92523291
  0
VERTEX
  8
B-1465A.PLT
 62
7
 10
2.65275000
 20
4.94975000
  0
VERTEX
  8
B-1465A.PLT
 62
7
 10
2.66669580
 20
4.97527490
  0
VERTEX
  8
B-1465A.PLT
 62
7
 10
2.67905078
 20
5.00174609
  0
VERTEX
  8
B-1465A.PLT
 62
7
 10
2.68974756
 20
5.02910205
  0
VERTEX
  8
B-1465A.PLT
 62
7
 10
2.69871875
 20
5.05728125
  0
VERTEX
  8
B-1465A.PLT
 62
7
 10
2.70589697
 20
5.08622217
  0
VERTEX
  8
B-1465A.PLT
 62
7
 10
2.71121484
 20
5.11586328
  0
VERTEX
  8
B-1465A.PLT
 62
7
 10
2.71460498
 20
5.14614307
  0
VERTEX
  8
B-1465A.PLT
 62
7
 10
2.71600000
 20
5.17700000
  0
VERTEX
  8
B-1465A.PLT
 62
7
 10
2.71362500
 20
5.23631250
  0
VERTEX
  8
B-1465A.PLT
 62
7
 10
2.70375000
 20
5.29375000
  0
VERTEX
  8
B-1465A.PLT
 62
7
 10
2.68675000
 20
5.34856250
  0
VERTEX
  8
B-1465A.PLT
 62
7
 10
2.66300000
 20
5.40000000
  0
VERTEX
  8
B-1465A.PLT
 62
7
 10
2.66087500
 20
5.40900000
  0
VERTEX
  8
B-1465A.PLT
 62
7
 10
2.66100000
 20
5.41800000
  0
VERTEX
  8
B-1465A.PLT
 62
7
 10
2.66213086
 20
5.42893359
  0
VERTEX
  8
B-1465A.PLT
 62
7
 10
2.66535938
 20
5.43909375
  0
VERTEX
  8
B-1465A.PLT
 62
7
 10
2.67043945
 20
5.44826953
  0
VERTEX
  8
B-1465A.PLT
 62
7
 10
2.67712500
 20
5.45625000
  0
VERTEX
  8
B-1465A.PLT
 62
7
 10
2.68516992
 20
5.46282422
  0
VERTEX
  8
B-1465A.PLT
 62
7
 10
2.69432813
 20
5.46778125
  0
VERTEX
  8
B-1465A.PLT
 62
7
 10
2.70435352
 20
5.47091016
  0
VERTEX
  8
B-1465A.PLT
 62
7
 10
2.71500000
 20
5.47200000
  0
VERTEX
  8
B-1465A.PLT
 62
7
 10
2.72790625
 20
5.47025000
  0
VERTEX
  8
B-1465A.PLT
 62
7
 10
2.73950000
 20
5.46550000
  0
VERTEX
  8
B-1465A.PLT
 62
7
 10
2.74959375
 20
5.45850000
  0
VERTEX
  8
B-1465A.PLT
 62
7
 10
2.75800000
 20
5.45000000
  0
VERTEX
  8
B-1465A.PLT
 62
7
 10
2.75800000
 20
5.44900000
  0
VERTEX
  8
B-1465A.PLT
 62
7
 10
2.77322070
 20
5.41774414
  0
VERTEX
  8
B-1465A.PLT
 62
7
 10
2.78657813
 20
5.38551563
  0
VERTEX
  8
B-1465A.PLT
 62
7
 10
2.79799023
 20
5.35237305
  0
VERTEX
  8
B-1465A.PLT
 62
7
 10
2.80737500
 20
5.31837500
  0
VERTEX
  8
B-1465A.PLT
 62
7
 10
2.81465039
 20
5.28358008
  0
VERTEX
  8
B-1465A.PLT
 62
7
 10
2.81973437
 20
5.24804688
  0
VERTEX
  8
B-1465A.PLT
 62
7
 10
2.82254492
 20
5.21183398
  0
VERTEX
  8
B-1465A.PLT
 62
7
 10
2.82300000
 20
5.17500000
  0
VERTEX
  8
B-1465A.PLT
 62
7
 10
2.82114746
 20
5.13909326
  0
VERTEX
  8
B-1465A.PLT
 62
7
 10
2.81713281
 20
5.10379297
  0
VERTEX
  8
B-1465A.PLT
 62
7
 10
2.81102051
 20
5.06916650
  0
VERTEX
  8
B-1465A.PLT
 62
7
 10
2.80287500
 20
5.03528125
  0
VERTEX
  8
B-1465A.PLT
 62
7
 10
2.79276074
 20
5.00220459
  0
VERTEX
  8
B-1465A.PLT
 62
7
 10
2.78074219
 20
4.97000391
  0
VERTEX
  8
B-1465A.PLT
 62
7
 10
2.76688379
 20
4.93874658
  0
VERTEX
  8
B-1465A.PLT
 62
7
 10
2.75125000
 20
4.90850000
  0
VERTEX
  8
B-1465A.PLT
 62
7
 10
2.73390527
 20
4.87933154
  0
VERTEX
  8
B-1465A.PLT
 62
7
 10
2.71491406
 20
4.85130859
  0
VERTEX
  8
B-1465A.PLT
 62
7
 10
2.69434082
 20
4.82449854
  0
VERTEX
  8
B-1465A.PLT
 62
7
 10
2.67225000
 20
4.79896875
  0
VERTEX
  8
B-1465A.PLT
 62
7
 10
2.64870605
 20
4.77478662
  0
VERTEX
  8
B-1465A.PLT
 62
7
 10
2.62377344
 20
4.75201953
  0
VERTEX
  8
B-1465A.PLT
 62
7
 10
2.59751660
 20
4.73073486
  0
VERTEX
  8
B-1465A.PLT
 62
7
 10
2.57000000
 20
4.71100000
  0
VERTEX
  8
B-1465A.PLT
 62
7
 10
2.55000000
 20
4.67900000
  0
VERTEX
  8
B-1465A.PLT
 62
7
 10
2.58856250
 20
4.65515625
  0
VERTEX
  8
B-1465A.PLT
 62
7
 10
2.63050000
 20
4.63675000
  0
VERTEX
  8
B-1465A.PLT
 62
7
 10
2.67543750
 20
4.62471875
  0
VERTEX
  8
B-1465A.PLT
 62
7
 10
2.72300000
 20
4.62000000
  0
VERTEX
  8
B-1465A.PLT
 62
7
 10
2.75185938
 20
4.62114062
  0
VERTEX
  8
B-1465A.PLT
 62
7
 10
2.77987500
 20
4.62462500
  0
VERTEX
  8
B-1465A.PLT
 62
7
 10
2.80695313
 20
4.63054688
  0
VERTEX
  8
B-1465A.PLT
 62
7
 10
2.83300000
 20
4.63900000
  0
VERTEX
  8
B-1465A.PLT
 62
7
 10
2.84588867
 20
4.61523438
  0
VERTEX
  8
B-1465A.PLT
 62
7
 10
2.86185937
 20
4.59362500
  0
VERTEX
  8
B-1465A.PLT
 62
7
 10
2.88061914
 20
4.57445312
  0
VERTEX
  8
B-1465A.PLT
 62
7
 10
2.90187500
 20
4.55800000
  0
VERTEX
  8
B-1465A.PLT
 62
7
 10
2.92533398
 20
4.54454688
  0
VERTEX
  8
B-1465A.PLT
 62
7
 10
2.95070313
 20
4.53437500
  0
VERTEX
  8
B-1465A.PLT
 62
7
 10
2.97768945
 20
4.52776562
  0
VERTEX
  8
B-1465A.PLT
 62
7
 10
3.00600000
 20
4.52500000
  0
VERTEX
  8
B-1465A.PLT
 62
7
 10
3.03671875
 20
4.52721875
  0
VERTEX
  8
B-1465A.PLT
 62
7
 10
3.06575000
 20
4.53375000
  0
VERTEX
  8
B-1465A.PLT
 62
7
 10
3.09290625
 20
4.54440625
  0
VERTEX
  8
B-1465A.PLT
 62
7
 10
3.11800000
 20
4.55900000
  0
VERTEX
  8
B-1465A.PLT
 62
7
 10
3.14460937
 20
4.55671680
  0
VERTEX
  8
B-1465A.PLT
 62
7
 10
3.17037500
 20
4.55217188
  0
VERTEX
  8
B-1465A.PLT
 62
7
 10
3.19520312
 20
4.54544727
  0
VERTEX
  8
B-1465A.PLT
 62
7
 10
3.21900000
 20
4.53662500
  0
VERTEX
  8
B-1465A.PLT
 62
7
 10
3.24167188
 20
4.52578711
  0
VERTEX
  8
B-1465A.PLT
 62
7
 10
3.26312500
 20
4.51301563
  0
VERTEX
  8
B-1465A.PLT
 62
7
 10
3.28326562
 20
4.49839258
  0
VERTEX
  8
B-1465A.PLT
 62
7
 10
3.30200000
 20
4.48200000
  0
VERTEX
  8
B-1465A.PLT
 62
7
 10
3.30300000
 20
4.48200000
  0
VERTEX
  8
B-1465A.PLT
 62
7
 10
3.30200000
 20
4.53200000
  0
VERTEX
  8
B-1465A.PLT
 62
7
 10
3.30516797
 20
4.59375391
  0
VERTEX
  8
B-1465A.PLT
 62
7
 10
3.31234375
 20
4.65440625
  0
VERTEX
  8
B-1465A.PLT
 62
7
 10
3.32341016
 20
4.71379297
  0
VERTEX
  8
B-1465A.PLT
 62
7
 10
3.33825000
 20
4.77175000
  0
VERTEX
  8
B-1465A.PLT
 62
7
 10
3.35674609
 20
4.82811328
  0
VERTEX
  8
B-1465A.PLT
 62
7
 10
3.37878125
 20
4.88271875
  0
VERTEX
  8
B-1465A.PLT
 62
7
 10
3.40423828
 20
4.93540234
  0
VERTEX
  8
B-1465A.PLT
 62
7
 10
3.43300000
 20
4.98600000
  0
VERTEX
  8
B-1465A.PLT
 62
7
 10
3.45012500
 20
4.99512500
  0
VERTEX
  8
B-1465A.PLT
 62
7
 10
3.47100000
 20
4.99900000
  0
VERTEX
  8
B-1465A.PLT
 62
7
 10
3.48226172
 20
4.99749219
  0
VERTEX
  8
B-1465A.PLT
 62
7
 10
3.49265625
 20
4.99387500
  0
VERTEX
  8
B-1465A.PLT
 62
7
 10
3.50197266
 20
4.98838281
  0
VERTEX
  8
B-1465A.PLT
 62
7
 10
3.51000000
 20
4.98125000
  0
VERTEX
  8
B-1465A.PLT
 62
7
 10
3.51652734
 20
4.97271094
  0
VERTEX
  8
B-1465A.PLT
 62
7
 10
3.52134375
 20
4.96300000
  0
VERTEX
  8
B-1465A.PLT
 62
7
 10
3.52423828
 20
4.95235156
  0
VERTEX
  8
B-1465A.PLT
 62
7
 10
3.52500000
 20
4.94100000
  0
VERTEX
  8
B-1465A.PLT
 62
7
 10
3.52500000
 20
4.93100000
  0
VERTEX
  8
B-1465A.PLT
 62
7
 10
3.49942578
 20
4.88620703
  0
VERTEX
  8
B-1465A.PLT
 62
7
 10
3.47678125
 20
4.83965625
  0
VERTEX
  8
B-1465A.PLT
 62
7
 10
3.45718359
 20
4.79146484
  0
VERTEX
  8
B-1465A.PLT
 62
7
 10
3.44075000
 20
4.74175000
  0
VERTEX
  8
B-1465A.PLT
 62
7
 10
3.42759766
 20
4.69062891
  0
VERTEX
  8
B-1465A.PLT
 62
7
 10
3.41784375
 20
4.63821875
  0
VERTEX
  8
B-1465A.PLT
 62
7
 10
3.41160547
 20
4.58463672
  0
VERTEX
  8
B-1465A.PLT
 62
7
 10
3.40900000
 20
4.53000000
  0
VERTEX
  8
B-1465A.PLT
 62
7
 10
3.41104687
 20
4.45298437
  0
VERTEX
  8
B-1465A.PLT
 62
7
 10
3.42012500
 20
4.37812500
  0
VERTEX
  8
B-1465A.PLT
 62
7
 10
3.43614063
 20
4.30570313
  0
VERTEX
  8
B-1465A.PLT
 62
7
 10
3.45900000
 20
4.23600000
  0
VERTEX
  8
B-1465A.PLT
 62
7
 10
3.44195117
 20
4.20948437
  0
VERTEX
  8
B-1465A.PLT
 62
7
 10
3.42685937
 20
4.18175000
  0
VERTEX
  8
B-1465A.PLT
 62
7
 10
3.41380664
 20
4.15289063
  0
VERTEX
  8
B-1465A.PLT
 62
7
 10
3.40287500
 20
4.12300000
  0
VERTEX
  8
B-1465A.PLT
 62
7
 10
3.39414648
 20
4.09217188
  0
VERTEX
  8
B-1465A.PLT
 62
7
 10
3.38770312
 20
4.06050000
  0
VERTEX
  8
B-1465A.PLT
 62
7
 10
3.38362695
 20
4.02807813
  0
VERTEX
  8
B-1465A.PLT
 62
7
 10
3.38200000
 20
3.99500000
  0
VERTEX
  8
B-1465A.PLT
 62
7
 10
3.38297070
 20
3.95971680
  0
VERTEX
  8
B-1465A.PLT
 62
7
 10
3.38657813
 20
3.92517188
  0
VERTEX
  8
B-1465A.PLT
 62
7
 10
3.39274023
 20
3.89144727
  0
VERTEX
  8
B-1465A.PLT
 62
7
 10
3.40137500
 20
3.85862500
  0
VERTEX
  8
B-1465A.PLT
 62
7
 10
3.41240039
 20
3.82678711
  0
VERTEX
  8
B-1465A.PLT
 62
7
 10
3.42573438
 20
3.79601562
  0
VERTEX
  8
B-1465A.PLT
 62
7
 10
3.44129492
 20
3.76639258
  0
VERTEX
  8
B-1465A.PLT
 62
7
 10
3.45900000
 20
3.73800000
  0
VERTEX
  8
B-1465A.PLT
 62
7
 10
3.43912500
 20
3.68648438
  0
VERTEX
  8
B-1465A.PLT
 62
7
 10
3.42450000
 20
3.63262500
  0
VERTEX
  8
B-1465A.PLT
 62
7
 10
3.41512500
 20
3.57670312
  0
VERTEX
  8
B-1465A.PLT
 62
7
 10
3.41100000
 20
3.51900000
  0
VERTEX
  8
B-1465A.PLT
 62
7
 10
3.41187109
 20
3.47547656
  0
VERTEX
  8
B-1465A.PLT
 62
7
 10
3.41590625
 20
3.43275000
  0
VERTEX
  8
B-1465A.PLT
 62
7
 10
3.42298828
 20
3.39096094
  0
VERTEX
  8
B-1465A.PLT
 62
7
 10
3.43300000
 20
3.35025000
  0
VERTEX
  8
B-1465A.PLT
 62
7
 10
3.44582422
 20
3.31075781
  0
VERTEX
  8
B-1465A.PLT
 62
7
 10
3.46134375
 20
3.27262500
  0
VERTEX
  8
B-1465A.PLT
 62
7
 10
3.47944141
 20
3.23599219
  0
VERTEX
  8
B-1465A.PLT
 62
7
 10
3.50000000
 20
3.20100000
  0
VERTEX
  8
B-1465A.PLT
 62
7
 10
3.51105078
 20
3.22264844
  0
VERTEX
  8
B-1465A.PLT
 62
7
 10
3.52521875
 20
3.24237500
  0
VERTEX
  8
B-1465A.PLT
 62
7
 10
3.54215234
 20
3.25985156
  0
VERTEX
  8
B-1465A.PLT
 62
7
 10
3.56150000
 20
3.27475000
  0
VERTEX
  8
B-1465A.PLT
 62
7
 10
3.58291016
 20
3.28674219
  0
VERTEX
  8
B-1465A.PLT
 62
7
 10
3.60603125
 20
3.29550000
  0
VERTEX
  8
B-1465A.PLT
 62
7
 10
3.63051172
 20
3.30069531
  0
VERTEX
  8
B-1465A.PLT
 62
7
 10
3.65600000
 20
3.30200000
  0
VERTEX
  8
B-1465A.PLT
 62
7
 10
3.68032813
 20
3.29957813
  0
VERTEX
  8
B-1465A.PLT
 62
7
 10
3.70362500
 20
3.29387500
  0
VERTEX
  8
B-1465A.PLT
 62
7
 10
3.72560937
 20
3.28498438
  0
VERTEX
  8
B-1465A.PLT
 62
7
 10
3.74600000
 20
3.27300000
  0
VERTEX
  8
B-1465A.PLT
 62
7
 10
3.75465234
 20
3.28695313
  0
VERTEX
  8
B-1465A.PLT
 62
7
 10
3.76478125
 20
3.29950000
  0
VERTEX
  8
B-1465A.PLT
 62
7
 10
3.77626953
 20
3.31054688
  0
VERTEX
  8
B-1465A.PLT
 62
7
 10
3.78900000
 20
3.32000000
  0
VERTEX
  8
B-1465A.PLT
 62
7
 10
3.80285547
 20
3.32776563
  0
VERTEX
  8
B-1465A.PLT
 62
7
 10
3.81771875
 20
3.33375000
  0
VERTEX
  8
B-1465A.PLT
 62
7
 10
3.83347266
 20
3.33785937
  0
VERTEX
  8
B-1465A.PLT
 62
7
 10
3.85000000
 20
3.34000000
  0
VERTEX
  8
B-1465A.PLT
 62
7
 10
3.85962500
 20
3.38675000
  0
VERTEX
  8
B-1465A.PLT
 62
7
 10
3.86400000
 20
3.43500000
  0
VERTEX
  8
B-1465A.PLT
 62
7
 10
3.86125000
 20
3.48623438
  0
VERTEX
  8
B-1465A.PLT
 62
7
 10
3.85175000
 20
3.53587500
  0
VERTEX
  8
B-1465A.PLT
 62
7
 10
3.83587500
 20
3.58307813
  0
VERTEX
  8
B-1465A.PLT
 62
7
 10
3.81400000
 20
3.62700000
  0
VERTEX
  8
B-1465A.PLT
 62
7
 10
3.82860938
 20
3.65966602
  0
VERTEX
  8
B-1465A.PLT
 62
7
 10
3.84162500
 20
3.69314062
  0
VERTEX
  8
B-1465A.PLT
 62
7
 10
3.85295313
 20
3.72738867
  0
VERTEX
  8
B-1465A.PLT
 62
7
 10
3.86250000
 20
3.76237500
  0
VERTEX
  8
B-1465A.PLT
 62
7
 10
3.87017188
 20
3.79806445
  0
VERTEX
  8
B-1465A.PLT
 62
7
 10
3.87587500
 20
3.83442187
  0
VERTEX
  8
B-1465A.PLT
 62
7
 10
3.87951562
 20
3.87141211
  0
VERTEX
  8
B-1465A.PLT
 62
7
 10
3.88100000
 20
3.90900000
  0
VERTEX
  8
B-1465A.PLT
 62
7
 10
3.88070313
 20
3.95301562
  0
VERTEX
  8
B-1465A.PLT
 62
7
 10
3.87712500
 20
3.99637500
  0
VERTEX
  8
B-1465A.PLT
 62
7
 10
3.87073438
 20
4.03879688
  0
VERTEX
  8
B-1465A.PLT
 62
7
 10
3.86200000
 20
4.08000000
  0
VERTEX
  8
B-1465A.PLT
 62
7
 10
3.89896875
 20
4.10731445
  0
VERTEX
  8
B-1465A.PLT
 62
7
 10
3.93237500
 20
4.13876562
  0
VERTEX
  8
B-1465A.PLT
 62
7
 10
3.96184375
 20
4.17399023
  0
VERTEX
  8
B-1465A.PLT
 62
7
 10
3.98700000
 20
4.21262500
  0
VERTEX
  8
B-1465A.PLT
 62
7
 10
4.00746875
 20
4.25430664
  0
VERTEX
  8
B-1465A.PLT
 62
7
 10
4.02287500
 20
4.29867188
  0
VERTEX
  8
B-1465A.PLT
 62
7
 10
4.03284375
 20
4.34535742
  0
VERTEX
  8
B-1465A.PLT
 62
7
 10
4.03700000
 20
4.39400000
  0
VERTEX
  8
B-1465A.PLT
 62
7
 10
4.03568750
 20
4.42795313
  0
VERTEX
  8
B-1465A.PLT
 62
7
 10
4.03175000
 20
4.46087500
  0
VERTEX
  8
B-1465A.PLT
 62
7
 10
4.02518750
 20
4.49285938
  0
VERTEX
  8
B-1465A.PLT
 62
7
 10
4.01600000
 20
4.52400000
  0
VERTEX
  8
B-1465A.PLT
 62
7
 10
4.05698242
 20
4.56648828
  0
VERTEX
  8
B-1465A.PLT
 62
7
 10
4.09429688
 20
4.61209375
  0
VERTEX
  8
B-1465A.PLT
 62
7
 10
4.12774414
 20
4.66065234
  0
VERTEX
  8
B-1465A.PLT
 62
7
 10
4.15712500
 20
4.71200000
  0
VERTEX
  8
B-1465A.PLT
 62
7
 10
4.18224023
 20
4.76597266
  0
VERTEX
  8
B-1465A.PLT
 62
7
 10
4.20289063
 20
4.82240625
  0
VERTEX
  8
B-1465A.PLT
 62
7
 10
4.21887695
 20
4.88113672
  0
VERTEX
  8
B-1465A.PLT
 62
7
 10
4.23000000
 20
4.94200000
  0
VERTEX
  8
B-1465A.PLT
 62
7
 10
4.24062500
 20
4.95164062
  0
VERTEX
  8
B-1465A.PLT
 62
7
 10
4.25275000
 20
4.95912500
  0
VERTEX
  8
B-1465A.PLT
 62
7
 10
4.26600000
 20
4.96379687
  0
VERTEX
  8
B-1465A.PLT
 62
7
 10
4.28000000
 20
4.96500000
  0
VERTEX
  8
B-1465A.PLT
 62
7
 10
4.29817188
 20
4.96215625
  0
VERTEX
  8
B-1465A.PLT
 62
7
 10
4.31437500
 20
4.95425000
  0
VERTEX
  8
B-1465A.PLT
 62
7
 10
4.32739062
 20
4.94221875
  0
VERTEX
  8
B-1465A.PLT
 62
7
 10
4.33600000
 20
4.92700000
  0
VERTEX
  8
B-1465A.PLT
 62
7
 10
4.33600000
 20
4.92700000
  0
VERTEX
  8
B-1465A.PLT
 62
7
 10
4.32524219
 20
4.86698242
  0
VERTEX
  8
B-1465A.PLT
 62
7
 10
4.31031250
 20
4.80854688
  0
VERTEX
  8
B-1465A.PLT
 62
7
 10
4.29135156
 20
4.75186914
  0
VERTEX
  8
B-1465A.PLT
 62
7
 10
4.26850000
 20
4.69712500
  0
VERTEX
  8
B-1465A.PLT
 62
7
 10
4.24189844
 20
4.64449023
  0
VERTEX
  8
B-1465A.PLT
 62
7
 10
4.21168750
 20
4.59414062
  0
VERTEX
  8
B-1465A.PLT
 62
7
 10
4.17800781
 20
4.54625195
  0
VERTEX
  8
B-1465A.PLT
 62
7
 10
4.14100000
 20
4.50100000
  0
VERTEX
  8
B-1465A.PLT
 62
7
 10
4.19921045
 20
4.53559766
  0
VERTEX
  8
B-1465A.PLT
 62
7
 10
4.25526172
 20
4.57331250
  0
VERTEX
  8
B-1465A.PLT
 62
7
 10
4.30903369
 20
4.61402734
  0
VERTEX
  8
B-1465A.PLT
 62
7
 10
4.36040625
 20
4.65762500
  0
VERTEX
  8
B-1465A.PLT
 62
7
 10
4.40925928
 20
4.70398828
  0
VERTEX
  8
B-1465A.PLT
 62
7
 10
4.45547266
 20
4.75300000
  0
VERTEX
  8
B-1465A.PLT
 62
7
 10
4.49892627
 20
4.80454297
  0
VERTEX
  8
B-1465A.PLT
 62
7
 10
4.53950000
 20
4.85850000
  0
VERTEX
  8
B-1465A.PLT
 62
7
 10
4.57707373
 20
4.91475391
  0
VERTEX
  8
B-1465A.PLT
 62
7
 10
4.61152734
 20
4.97318750
  0
VERTEX
  8
B-1465A.PLT
 62
7
 10
4.64274072
 20
5.03368359
  0
VERTEX
  8
B-1465A.PLT
 62
7
 10
4.67059375
 20
5.09612500
  0
VERTEX
  8
B-1465A.PLT
 62
7
 10
4.69496631
 20
5.16039453
  0
VERTEX
  8
B-1465A.PLT
 62
7
 10
4.71573828
 20
5.22637500
  0
VERTEX
  8
B-1465A.PLT
 62
7
 10
4.73278955
 20
5.29394922
  0
VERTEX
  8
B-1465A.PLT
 62
7
 10
4.74600000
 20
5.36300000
  0
VERTEX
  8
B-1465A.PLT
 62
7
 10
4.76412891
 20
5.40213672
  0
VERTEX
  8
B-1465A.PLT
 62
7
 10
4.78021875
 20
5.44228125
  0
VERTEX
  8
B-1465A.PLT
 62
7
 10
4.79419922
 20
5.48341016
  0
VERTEX
  8
B-1465A.PLT
 62
7
 10
4.80600000
 20
5.52550000
  0
VERTEX
  8
B-1465A.PLT
 62
7
 10
4.81555078
 20
5.56852734
  0
VERTEX
  8
B-1465A.PLT
 62
7
 10
4.82278125
 20
5.61246875
  0
VERTEX
  8
B-1465A.PLT
 62
7
 10
4.82762109
 20
5.65730078
  0
VERTEX
  8
B-1465A.PLT
 62
7
 10
4.83000000
 20
5.70300000
  0
VERTEX
  8
B-1465A.PLT
 62
7
 10
4.83000000
 20
5.74200000
  0
VERTEX
  8
B-1465A.PLT
 62
7
 10
4.86350000
 20
5.80100000
  0
VERTEX
  8
B-1465A.PLT
 62
7
 10
4.89175000
 20
5.86375000
  0
VERTEX
  8
B-1465A.PLT
 62
7
 10
4.91437500
 20
5.92987500
  0
VERTEX
  8
B-1465A.PLT
 62
7
 10
4.93100000
 20
5.99900000
  0
VERTEX
  8
B-1465A.PLT
 62
7
 10
4.90925000
 20
6.01612500
  0
VERTEX
  8
B-1465A.PLT
 62
7
 10
4.88900000
 20
6.03700000
  0
VERTEX
  8
B-1465A.PLT
 62
7
 10
4.85856836
 20
6.04756445
  0
VERTEX
  8
B-1465A.PLT
 62
7
 10
4.82967187
 20
6.06114063
  0
VERTEX
  8
B-1465A.PLT
 62
7
 10
4.80253320
 20
6.07755273
  0
VERTEX
  8
B-1465A.PLT
 62
7
 10
4.77737500
 20
6.09662500
  0
VERTEX
  8
B-1465A.PLT
 62
7
 10
4.75441992
 20
6.11818164
  0
VERTEX
  8
B-1465A.PLT
 62
7
 10
4.73389062
 20
6.14204688
  0
VERTEX
  8
B-1465A.PLT
 62
7
 10
4.71600977
 20
6.16804492
  0
VERTEX
  8
B-1465A.PLT
 62
7
 10
4.70100000
 20
6.19600000
  0
VERTEX
  8
B-1465A.PLT
 62
7
 10
4.67711792
 20
6.20806982
  0
VERTEX
  8
B-1465A.PLT
 62
7
 10
4.65427148
 20
6.22173047
  0
VERTEX
  8
B-1465A.PLT
 62
7
 10
4.63253540
 20
6.23690869
  0
VERTEX
  8
B-1465A.PLT
 62
7
 10
4.61198437
 20
6.25353125
  0
VERTEX
  8
B-1465A.PLT
 62
7
 10
4.59269312
 20
6.27152490
  0
VERTEX
  8
B-1465A.PLT
 62
7
 10
4.57473633
 20
6.29081641
  0
VERTEX
  8
B-1465A.PLT
 62
7
 10
4.55818872
 20
6.31133252
  0
VERTEX
  8
B-1465A.PLT
 62
7
 10
4.54312500
 20
6.33300000
  0
VERTEX
  8
B-1465A.PLT
 62
7
 10
4.52961987
 20
6.35574561
  0
VERTEX
  8
B-1465A.PLT
 62
7
 10
4.51774805
 20
6.37949609
  0
VERTEX
  8
B-1465A.PLT
 62
7
 10
4.50758423
 20
6.40417822
  0
VERTEX
  8
B-1465A.PLT
 62
7
 10
4.49920313
 20
6.42971875
  0
VERTEX
  8
B-1465A.PLT
 62
7
 10
4.49267944
 20
6.45604443
  0
VERTEX
  8
B-1465A.PLT
 62
7
 10
4.48808789
 20
6.48308203
  0
VERTEX
  8
B-1465A.PLT
 62
7
 10
4.48550317
 20
6.51075830
  0
VERTEX
  8
B-1465A.PLT
 62
7
 10
4.48500000
 20
6.53900000
  0
VERTEX
  8
B-1465A.PLT
 62
7
 10
4.48910938
 20
6.58603125
  0
VERTEX
  8
B-1465A.PLT
 62
7
 10
4.49837500
 20
6.63100000
  0
VERTEX
  8
B-1465A.PLT
 62
7
 10
4.51270312
 20
6.67371875
  0
VERTEX
  8
B-1465A.PLT
 62
7
 10
4.53200000
 20
6.71400000
  0
VERTEX
  8
B-1465A.PLT
 62
7
 10
4.54712500
 20
6.71900000
  0
VERTEX
  8
B-1465A.PLT
 62
7
 10
4.56300000
 20
6.72100000
  0
VERTEX
  8
B-1465A.PLT
 62
7
 10
4.57505664
 20
6.71949023
  0
VERTEX
  8
B-1465A.PLT
 62
7
 10
4.58632812
 20
6.71585938
  0
VERTEX
  8
B-1465A.PLT
 62
7
 10
4.59659180
 20
6.71033008
  0
VERTEX
  8
B-1465A.PLT
 62
7
 10
4.60562500
 20
6.70312500
  0
VERTEX
  8
B-1465A.PLT
 62
7
 10
4.61320508
 20
6.69446680
  0
VERTEX
  8
B-1465A.PLT
 62
7
 10
4.61910937
 20
6.68457812
  0
VERTEX
  8
B-1465A.PLT
 62
7
 10
4.62311523
 20
6.67368164
  0
VERTEX
  8
B-1465A.PLT
 62
7
 10
4.62500000
 20
6.66200000
  0
VERTEX
  8
B-1465A.PLT
 62
7
 10
4.61154688
 20
6.63376562
  0
VERTEX
  8
B-1465A.PLT
 62
7
 10
4.60137500
 20
6.60337500
  0
VERTEX
  8
B-1465A.PLT
 62
7
 10
4.59476563
 20
6.57129687
  0
VERTEX
  8
B-1465A.PLT
 62
7
 10
4.59200000
 20
6.53800000
  0
VERTEX
  8
B-1465A.PLT
 62
7
 10
4.59508203
 20
6.49282617
  0
VERTEX
  8
B-1465A.PLT
 62
7
 10
4.60540625
 20
6.44998437
  0
VERTEX
  8
B-1465A.PLT
 62
7
 10
4.62233984
 20
6.41011914
  0
VERTEX
  8
B-1465A.PLT
 62
7
 10
4.64525000
 20
6.37387500
  0
VERTEX
  8
B-1465A.PLT
 62
7
 10
4.67350391
 20
6.34189648
  0
VERTEX
  8
B-1465A.PLT
 62
7
 10
4.70646875
 20
6.31482813
  0
VERTEX
  8
B-1465A.PLT
 62
7
 10
4.74351172
 20
6.29331445
  0
VERTEX
  8
B-1465A.PLT
 62
7
 10
4.78400000
 20
6.27800000
  0
VERTEX
  8
B-1465A.PLT
 62
7
 10
4.79298047
 20
6.24995117
  0
VERTEX
  8
B-1465A.PLT
 62
7
 10
4.80615625
 20
6.22385938
  0
VERTEX
  8
B-1465A.PLT
 62
7
 10
4.82312891
 20
6.20018164
  0
VERTEX
  8
B-1465A.PLT
 62
7
 10
4.84350000
 20
6.17937500
  0
VERTEX
  8
B-1465A.PLT
 62
7
 10
4.86687109
 20
6.16189648
  0
VERTEX
  8
B-1465A.PLT
 62
7
 10
4.89284375
 20
6.14820313
  0
VERTEX
  8
B-1465A.PLT
 62
7
 10
4.92101953
 20
6.13875195
  0
VERTEX
  8
B-1465A.PLT
 62
7
 10
4.95100000
 20
6.13400000
  0
VERTEX
  8
B-1465A.PLT
 62
7
 10
4.96230664
 20
6.11607617
  0
VERTEX
  8
B-1465A.PLT
 62
7
 10
4.97582812
 20
6.09992187
  0
VERTEX
  8
B-1465A.PLT
 62
7
 10
4.99134180
 20
6.08571289
  0
VERTEX
  8
B-1465A.PLT
 62
7
 10
5.00862500
 20
6.07362500
  0
VERTEX
  8
B-1465A.PLT
 62
7
 10
5.02745508
 20
6.06383398
  0
VERTEX
  8
B-1465A.PLT
 62
7
 10
5.04760938
 20
6.05651563
  0
VERTEX
  8
B-1465A.PLT
 62
7
 10
5.06886523
 20
6.05184570
  0
VERTEX
  8
B-1465A.PLT
 62
7
 10
5.09100000
 20
6.05000000
  0
VERTEX
  8
B-1465A.PLT
 62
7
 10
5.11903125
 20
6.05220313
  0
VERTEX
  8
B-1465A.PLT
 62
7
 10
5.14575000
 20
6.05862500
  0
VERTEX
  8
B-1465A.PLT
 62
7
 10
5.17059375
 20
6.06898438
  0
VERTEX
  8
B-1465A.PLT
 62
7
 10
5.19300000
 20
6.08300000
  0
VERTEX
  8
B-1465A.PLT
 62
7
 10
5.19300000
 20
6.08000000
  0
VERTEX
  8
B-1465A.PLT
 62
7
 10
5.19513477
 20
6.05808984
  0
VERTEX
  8
B-1465A.PLT
 62
7
 10
5.20126562
 20
6.03765625
  0
VERTEX
  8
B-1465A.PLT
 62
7
 10
5.21098242
 20
6.01914453
  0
VERTEX
  8
B-1465A.PLT
 62
7
 10
5.22387500
 20
6.00300000
  0
VERTEX
  8
B-1465A.PLT
 62
7
 10
5.23953320
 20
5.98966797
  0
VERTEX
  8
B-1465A.PLT
 62
7
 10
5.25754688
 20
5.97959375
  0
VERTEX
  8
B-1465A.PLT
 62
7
 10
5.27750586
 20
5.97322266
  0
VERTEX
  8
B-1465A.PLT
 62
7
 10
5.29900000
 20
5.97100000
  0
VERTEX
  8
B-1465A.PLT
 62
7
 10
5.31587500
 20
5.97100000
  0
VERTEX
  8
B-1465A.PLT
 62
7
 10
5.33200000
 20
5.97400000
  0
VERTEX
  8
B-1465A.PLT
 62
7
 10
5.35287500
 20
5.97887500
  0
VERTEX
  8
B-1465A.PLT
 62
7
 10
5.37300000
 20
5.98600000
  0
VERTEX
  8
B-1465A.PLT
 62
7
 10
5.35764844
 20
5.99853516
  0
VERTEX
  8
B-1465A.PLT
 62
7
 10
5.34393750
 20
6.01278125
  0
VERTEX
  8
B-1465A.PLT
 62
7
 10
5.33200781
 20
6.02857422
  0
VERTEX
  8
B-1465A.PLT
 62
7
 10
5.32200000
 20
6.04575000
  0
VERTEX
  8
B-1465A.PLT
 62
7
 10
5.31405469
 20
6.06414453
  0
VERTEX
  8
B-1465A.PLT
 62
7
 10
5.30831250
 20
6.08359375
  0
VERTEX
  8
B-1465A.PLT
 62
7
 10
5.30491406
 20
6.10393359
  0
VERTEX
  8
B-1465A.PLT
 62
7
 10
5.30400000
 20
6.12500000
  0
VERTEX
  8
B-1465A.PLT
 62
7
 10
5.30675000
 20
6.15237500
  0
VERTEX
  8
B-1465A.PLT
 62
7
 10
5.31400000
 20
6.17900000
  0
VERTEX
  8
B-1465A.PLT
 62
7
 10
5.31906250
 20
6.19354688
  0
VERTEX
  8
B-1465A.PLT
 62
7
 10
5.32675000
 20
6.20687500
  0
VERTEX
  8
B-1465A.PLT
 62
7
 10
5.33706250
 20
6.21851563
  0
VERTEX
  8
B-1465A.PLT
 62
7
 10
5.35000000
 20
6.22800000
  0
VERTEX
  8
B-1465A.PLT
 62
7
 10
5.36475000
 20
6.23562500
  0
VERTEX
  8
B-1465A.PLT
 62
7
 10
5.38100000
 20
6.23800000
  0
VERTEX
  8
B-1465A.PLT
 62
7
 10
5.39551562
 20
6.23618750
  0
VERTEX
  8
B-1465A.PLT
 62
7
 10
5.40862500
 20
6.23100000
  0
VERTEX
  8
B-1465A.PLT
 62
7
 10
5.41967187
 20
6.22281250
  0
VERTEX
  8
B-1465A.PLT
 62
7
 10
5.42800000
 20
6.21200000
  0
VERTEX
  8
B-1465A.PLT
 62
7
 10
5.41089063
 20
6.19581250
  0
VERTEX
  8
B-1465A.PLT
 62
7
 10
5.39762500
 20
6.17625000
  0
VERTEX
  8
B-1465A.PLT
 62
7
 10
5.38904688
 20
6.15406250
  0
VERTEX
  8
B-1465A.PLT
 62
7
 10
5.38600000
 20
6.13000000
  0
VERTEX
  8
B-1465A.PLT
 62
7
 10
5.38686133
 20
6.11381055
  0
VERTEX
  8
B-1465A.PLT
 62
7
 10
5.39007812
 20
6.09835938
  0
VERTEX
  8
B-1465A.PLT
 62
7
 10
5.39547461
 20
6.08382227
  0
VERTEX
  8
B-1465A.PLT
 62
7
 10
5.40287500
 20
6.07037500
  0
VERTEX
  8
B-1465A.PLT
 62
7
 10
5.41210352
 20
6.05819336
  0
VERTEX
  8
B-1465A.PLT
 62
7
 10
5.42298438
 20
6.04745312
  0
VERTEX
  8
B-1465A.PLT
 62
7
 10
5.43534180
 20
6.03833008
  0
VERTEX
  8
B-1465A.PLT
 62
7
 10
5.44900000
 20
6.03100000
  0
VERTEX
  8
B-1465A.PLT
 62
7
 10
5.46812500
 20
6.04868750
  0
VERTEX
  8
B-1465A.PLT
 62
7
 10
5.48500000
 20
6.06750000
  0
VERTEX
  8
B-1465A.PLT
 62
7
 10
5.49962500
 20
6.08781250
  0
VERTEX
  8
B-1465A.PLT
 62
7
 10
5.51200000
 20
6.11000000
  0
VERTEX
  8
B-1465A.PLT
 62
7
 10
5.52835156
 20
6.18536914
  0
VERTEX
  8
B-1465A.PLT
 62
7
 10
5.54287500
 20
6.26145313
  0
VERTEX
  8
B-1465A.PLT
 62
7
 10
5.55552344
 20
6.33821680
  0
VERTEX
  8
B-1465A.PLT
 62
7
 10
5.56625000
 20
6.41562500
  0
VERTEX
  8
B-1465A.PLT
 62
7
 10
5.57500781
 20
6.49364258
  0
VERTEX
  8
B-1465A.PLT
 62
7
 10
5.58175000
 20
6.57223437
  0
VERTEX
  8
B-1465A.PLT
 62
7
 10
5.58642969
 20
6.65136523
  0
VERTEX
  8
B-1465A.PLT
 62
7
 10
5.58900000
 20
6.73100000
  0
VERTEX
  8
B-1465A.PLT
 62
7
 10
5.58875000
 20
6.83400000
  0
VERTEX
  8
B-1465A.PLT
 62
7
 10
5.58400000
 20
6.93700000
  0
VERTEX
  8
B-1465A.PLT
 62
7
 10
5.54543359
 20
6.94486328
  0
VERTEX
  8
B-1465A.PLT
 62
7
 10
5.50778125
 20
6.95490625
  0
VERTEX
  8
B-1465A.PLT
 62
7
 10
5.47111328
 20
6.96705859
  0
VERTEX
  8
B-1465A.PLT
 62
7
 10
5.43550000
 20
6.98125000
  0
VERTEX
  8
B-1465A.PLT
 62
7
 10
5.40101172
 20
6.99741016
  0
VERTEX
  8
B-1465A.PLT
 62
7
 10
5.36771875
 20
7.01546875
  0
VERTEX
  8
B-1465A.PLT
 62
7
 10
5.33569141
 20
7.03535547
  0
VERTEX
  8
B-1465A.PLT
 62
7
 10
5.30500000
 20
7.05700000
  0
VERTEX
  8
B-1465A.PLT
 62
7
 10
5.30500000
 20
7.05600000
  0
VERTEX
  8
B-1465A.PLT
 62
7
 10
5.26998437
 20
7.03862500
  0
VERTEX
  8
B-1465A.PLT
 62
7
 10
5.23262500
 20
7.02575000
  0
VERTEX
  8
B-1465A.PLT
 62
7
 10
5.19320313
 20
7.01775000
  0
VERTEX
  8
B-1465A.PLT
 62
7
 10
5.15200000
 20
7.01500000
  0
VERTEX
  8
B-1465A.PLT
 62
7
 10
5.12075000
 20
7.01740625
  0
VERTEX
  8
B-1465A.PLT
 62
7
 10
5.09025000
 20
7.02300000
  0
VERTEX
  8
B-1465A.PLT
 62
7
 10
5.06087500
 20
7.03159375
  0
VERTEX
  8
B-1465A.PLT
 62
7
 10
5.03300000
 20
7.04300000
  0
VERTEX
  8
B-1465A.PLT
 62
7
 10
5.00337500
 20
7.03556250
  0
VERTEX
  8
B-1465A.PLT
 62
7
 10
4.97300000
 20
7.03000000
  0
VERTEX
  8
B-1465A.PLT
 62
7
 10
4.94187500
 20
7.02668750
  0
VERTEX
  8
B-1465A.PLT
 62
7
 10
4.91000000
 20
7.02600000
  0
VERTEX
  8
B-1465A.PLT
 62
7
 10
4.86934375
 20
7.02878125
  0
VERTEX
  8
B-1465A.PLT
 62
7
 10
4.83000000
 20
7.03550000
  0
VERTEX
  8
B-1465A.PLT
 62
7
 10
4.79215625
 20
7.04596875
  0
VERTEX
  8
B-1465A.PLT
 62
7
 10
4.75600000
 20
7.06000000
  0
VERTEX
  8
B-1465A.PLT
 62
7
 10
4.75700000
 20
7.06000000
  0
VERTEX
  8
B-1465A.PLT
 62
7
 10
4.75025000
 20
7.07550000
  0
VERTEX
  8
B-1465A.PLT
 62
7
 10
4.74800000
 20
7.09400000
  0
VERTEX
  8
B-1465A.PLT
 62
7
 10
4.75189062
 20
7.11607812
  0
VERTEX
  8
B-1465A.PLT
 62
7
 10
4.76262500
 20
7.13487500
  0
VERTEX
  8
B-1465A.PLT
 62
7
 10
4.77879688
 20
7.14898438
  0
VERTEX
  8
B-1465A.PLT
 62
7
 10
4.79900000
 20
7.15700000
  0
VERTEX
  8
B-1465A.PLT
 62
7
 10
4.82523438
 20
7.14692188
  0
VERTEX
  8
B-1465A.PLT
 62
7
 10
4.85287500
 20
7.13937500
  0
VERTEX
  8
B-1465A.PLT
 62
7
 10
4.88182813
 20
7.13464063
  0
VERTEX
  8
B-1465A.PLT
 62
7
 10
4.91200000
 20
7.13300000
  0
VERTEX
  8
B-1465A.PLT
 62
7
 10
4.94682812
 20
7.13428125
  0
VERTEX
  8
B-1465A.PLT
 62
7
 10
4.98062500
 20
7.13950000
  0
VERTEX
  8
B-1465A.PLT
 62
7
 10
5.01310938
 20
7.14846875
  0
VERTEX
  8
B-1465A.PLT
 62
7
 10
5.04400000
 20
7.16100000
  0
VERTEX
  8
B-1465A.PLT
 62
7
 10
5.06793750
 20
7.14492187
  0
VERTEX
  8
B-1465A.PLT
 62
7
 10
5.09450000
 20
7.13287500
  0
VERTEX
  8
B-1465A.PLT
 62
7
 10
5.12331250
 20
7.12514063
  0
VERTEX
  8
B-1465A.PLT
 62
7
 10
5.15400000
 20
7.12200000
  0
VERTEX
  8
B-1465A.PLT
 62
7
 10
5.17685156
 20
7.12304883
  0
VERTEX
  8
B-1465A.PLT
 62
7
 10
5.19881250
 20
7.12682813
  0
VERTEX
  8
B-1465A.PLT
 62
7
 10
5.21974219
 20
7.13316211
  0
VERTEX
  8
B-1465A.PLT
 62
7
 10
5.23950000
 20
7.14187500
  0
VERTEX
  8
B-1465A.PLT
 62
7
 10
5.25794531
 20
7.15279102
  0
VERTEX
  8
B-1465A.PLT
 62
7
 10
5.27493750
 20
7.16573438
  0
VERTEX
  8
B-1465A.PLT
 62
7
 10
5.29033594
 20
7.18052930
  0
VERTEX
  8
B-1465A.PLT
 62
7
 10
5.30400000
 20
7.19700000
  0
VERTEX
  8
B-1465A.PLT
 62
7
 10
5.34248437
 20
7.16165234
  0
VERTEX
  8
B-1465A.PLT
 62
7
 10
5.38425000
 20
7.13003125
  0
VERTEX
  8
B-1465A.PLT
 62
7
 10
5.42901562
 20
7.10239453
  0
VERTEX
  8
B-1465A.PLT
 62
7
 10
5.47650000
 20
7.07900000
  0
VERTEX
  8
B-1465A.PLT
 62
7
 10
5.52642187
 20
7.06010547
  0
VERTEX
  8
B-1465A.PLT
 62
7
 10
5.57850000
 20
7.04596875
  0
VERTEX
  8
B-1465A.PLT
 62
7
 10
5.63245312
 20
7.03684766
  0
VERTEX
  8
B-1465A.PLT
 62
7
 10
5.68800000
 20
7.03300000
  0
VERTEX
  8
B-1465A.PLT
 62
7
 10
5.73125000
 20
7.03434375
  0
VERTEX
  8
B-1465A.PLT
 62
7
 10
5.77375000
 20
7.03850000
  0
VERTEX
  8
B-1465A.PLT
 62
7
 10
5.81512500
 20
7.04565625
  0
VERTEX
  8
B-1465A.PLT
 62
7
 10
5.85500000
 20
7.05600000
  0
VERTEX
  8
B-1465A.PLT
 62
7
 10
5.82783789
 20
7.09474609
  0
VERTEX
  8
B-1465A.PLT
 62
7
 10
5.79614062
 20
7.12971875
  0
VERTEX
  8
B-1465A.PLT
 62
7
 10
5.76034180
 20
7.16051953
  0
VERTEX
  8
B-1465A.PLT
 62
7
 10
5.72087500
 20
7.18675000
  0
VERTEX
  8
B-1465A.PLT
 62
7
 10
5.67817383
 20
7.20801172
  0
VERTEX
  8
B-1465A.PLT
 62
7
 10
5.63267187
 20
7.22390625
  0
VERTEX
  8
B-1465A.PLT
 62
7
 10
5.58480273
 20
7.23403516
  0
VERTEX
  8
B-1465A.PLT
 62
7
 10
5.53500000
 20
7.23800000
  0
VERTEX
  8
B-1465A.PLT
 62
7
 10
5.48475000
 20
7.23637500
  0
VERTEX
  8
B-1465A.PLT
 62
7
 10
5.43600000
 20
7.22800000
  0
VERTEX
  8
B-1465A.PLT
 62
7
 10
5.43400000
 20
7.24900000
  0
VERTEX
  8
B-1465A.PLT
 62
7
 10
5.43600977
 20
7.26539844
  0
VERTEX
  8
B-1465A.PLT
 62
7
 10
5.44107812
 20
7.28062500
  0
VERTEX
  8
B-1465A.PLT
 62
7
 10
5.44888867
 20
7.29435156
  0
VERTEX
  8
B-1465A.PLT
 62
7
 10
5.45912500
 20
7.30625000
  0
VERTEX
  8
B-1465A.PLT
 62
7
 10
5.47147070
 20
7.31599219
  0
VERTEX
  8
B-1465A.PLT
 62
7
 10
5.48560938
 20
7.32325000
  0
VERTEX
  8
B-1465A.PLT
 62
7
 10
5.50122461
 20
7.32769531
  0
VERTEX
  8
B-1465A.PLT
 62
7
 10
5.51800000
 20
7.32900000
  0
VERTEX
  8
B-1465A.PLT
 62
7
 10
5.52000000
 20
7.32900000
  0
VERTEX
  8
B-1465A.PLT
 62
7
 10
5.48184375
 20
7.34971875
  0
VERTEX
  8
B-1465A.PLT
 62
7
 10
5.44125000
 20
7.36650000
  0
VERTEX
  8
B-1465A.PLT
 62
7
 10
5.39878125
 20
7.37878125
  0
VERTEX
  8
B-1465A.PLT
 62
7
 10
5.35500000
 20
7.38600000
  0
VERTEX
  8
B-1465A.PLT
 62
7
 10
5.30349023
 20
7.40600977
  0
VERTEX
  8
B-1465A.PLT
 62
7
 10
5.25098437
 20
7.42401563
  0
VERTEX
  8
B-1465A.PLT
 62
7
 10
5.19751758
 20
7.43998242
  0
VERTEX
  8
B-1465A.PLT
 62
7
 10
5.14312500
 20
7.45387500
  0
VERTEX
  8
B-1465A.PLT
 62
7
 10
5.08784180
 20
7.46565820
  0
VERTEX
  8
B-1465A.PLT
 62
7
 10
5.03170312
 20
7.47529687
  0
VERTEX
  8
B-1465A.PLT
 62
7
 10
4.97474414
 20
7.48275586
  0
VERTEX
  8
B-1465A.PLT
 62
7
 10
4.91700000
 20
7.48800000
  0
VERTEX
  8
B-1465A.PLT
 62
7
 10
4.89200000
 20
7.48900000
  0
VERTEX
  8
B-1465A.PLT
 62
7
 10
4.83516602
 20
7.48644922
  0
VERTEX
  8
B-1465A.PLT
 62
7
 10
4.78045313
 20
7.47684375
  0
VERTEX
  8
B-1465A.PLT
 62
7
 10
4.72829492
 20
7.46062891
  0
VERTEX
  8
B-1465A.PLT
 62
7
 10
4.67912500
 20
7.43825000
  0
VERTEX
  8
B-1465A.PLT
 62
7
 10
4.63337695
 20
7.41015234
  0
VERTEX
  8
B-1465A.PLT
 62
7
 10
4.59148438
 20
7.37678125
  0
VERTEX
  8
B-1465A.PLT
 62
7
 10
4.55388086
 20
7.33858203
  0
VERTEX
  8
B-1465A.PLT
 62
7
 10
4.52100000
 20
7.29600000
  0
VERTEX
  8
B-1465A.PLT
 62
7
 10
4.55279688
 20
7.27301563
  0
VERTEX
  8
B-1465A.PLT
 62
7
 10
4.58787500
 20
7.25537500
  0
VERTEX
  8
B-1465A.PLT
 62
7
 10
4.62576562
 20
7.24354687
  0
VERTEX
  8
B-1465A.PLT
 62
7
 10
4.66600000
 20
7.23800000
  0
VERTEX
  8
B-1465A.PLT
 62
7
 10
4.64576758
 20
7.22165820
  0
VERTEX
  8
B-1465A.PLT
 62
7
 10
4.62414062
 20
7.20720313
  0
VERTEX
  8
B-1465A.PLT
 62
7
 10
4.60122461
 20
7.19474023
  0
VERTEX
  8
B-1465A.PLT
 62
7
 10
4.57712500
 20
7.18437500
  0
VERTEX
  8
B-1465A.PLT
 62
7
 10
4.55194727
 20
7.17621289
  0
VERTEX
  8
B-1465A.PLT
 62
7
 10
4.52579688
 20
7.17035938
  0
VERTEX
  8
B-1465A.PLT
 62
7
 10
4.49877930
 20
7.16691992
  0
VERTEX
  8
B-1465A.PLT
 62
7
 10
4.47100000
 20
7.16600000
  0
VERTEX
  8
B-1465A.PLT
 62
7
 10
4.46900000
 20
7.16600000
  0
VERTEX
  8
B-1465A.PLT
 62
7
 10
4.44187500
 20
7.16912500
  0
VERTEX
  8
B-1465A.PLT
 62
7
 10
4.41400000
 20
7.17000000
  0
VERTEX
  8
B-1465A.PLT
 62
7
 10
4.35553125
 20
7.16778125
  0
VERTEX
  8
B-1465A.PLT
 62
7
 10
4.29875000
 20
7.15975000
  0
VERTEX
  8
B-1465A.PLT
 62
7
 10
4.24384375
 20
7.14609375
  0
VERTEX
  8
B-1465A.PLT
 62
7
 10
4.19100000
 20
7.12700000
  0
VERTEX
  8
B-1465A.PLT
 62
7
 10
4.16205078
 20
7.10835742
  0
VERTEX
  8
B-1465A.PLT
 62
7
 10
4.13453125
 20
7.08773438
  0
VERTEX
  8
B-1465A.PLT
 62
7
 10
4.10855859
 20
7.06521289
  0
VERTEX
  8
B-1465A.PLT
 62
7
 10
4.08425000
 20
7.04087500
  0
VERTEX
  8
B-1465A.PLT
 62
7
 10
4.06172266
 20
7.01480273
  0
VERTEX
  8
B-1465A.PLT
 62
7
 10
4.04109375
 20
6.98707813
  0
VERTEX
  8
B-1465A.PLT
 62
7
 10
4.02248047
 20
6.95778320
  0
VERTEX
  8
B-1465A.PLT
 62
7
 10
4.00600000
 20
6.92700000
  0
VERTEX
  8
B-1465A.PLT
 62
7
 10
4.02050391
 20
6.90903320
  0
VERTEX
  8
B-1465A.PLT
 62
7
 10
4.03690625
 20
6.89276563
  0
VERTEX
  8
B-1465A.PLT
 62
7
 10
4.05504297
 20
6.87839648
  0
VERTEX
  8
B-1465A.PLT
 62
7
 10
4.07475000
 20
6.86612500
  0
VERTEX
  8
B-1465A.PLT
 62
7
 10
4.09586328
 20
6.85615039
  0
VERTEX
  8
B-1465A.PLT
 62
7
 10
4.11821875
 20
6.84867188
  0
VERTEX
  8
B-1465A.PLT
 62
7
 10
4.14165234
 20
6.84388867
  0
VERTEX
  8
B-1465A.PLT
 62
7
 10
4.16600000
 20
6.84200000
  0
VERTEX
  8
B-1465A.PLT
 62
7
 10
4.20412500
 20
6.84500000
  0
VERTEX
  8
B-1465A.PLT
 62
7
 10
4.24000000
 20
6.85400000
  0
VERTEX
  8
B-1465A.PLT
 62
7
 10
4.31150000
 20
6.84262500
  0
VERTEX
  8
B-1465A.PLT
 62
7
 10
4.38600000
 20
6.83800000
  0
VERTEX
  8
B-1465A.PLT
 62
7
 10
4.45976563
 20
6.84059375
  0
VERTEX
  8
B-1465A.PLT
 62
7
 10
4.53212500
 20
6.84975000
  0
VERTEX
  8
B-1465A.PLT
 62
7
 10
4.60242188
 20
6.86528125
  0
VERTEX
  8
B-1465A.PLT
 62
7
 10
4.67000000
 20
6.88700000
  0
VERTEX
  8
B-1465A.PLT
 62
7
 10
4.68945313
 20
6.87784375
  0
VERTEX
  8
B-1465A.PLT
 62
7
 10
4.70487500
 20
6.86325000
  0
VERTEX
  8
B-1465A.PLT
 62
7
 10
4.71485937
 20
6.84453125
  0
VERTEX
  8
B-1465A.PLT
 62
7
 10
4.71800000
 20
6.82300000
  0
VERTEX
  8
B-1465A.PLT
 62
7
 10
4.71512500
 20
6.80437500
  0
VERTEX
  8
B-1465A.PLT
 62
7
 10
4.70700000
 20
6.78800000
  0
VERTEX
  8
B-1465A.PLT
 62
7
 10
4.66908789
 20
6.77456055
  0
VERTEX
  8
B-1465A.PLT
 62
7
 10
4.63039063
 20
6.76279688
  0
VERTEX
  8
B-1465A.PLT
 62
7
 10
4.59096680
 20
6.75279102
  0
VERTEX
  8
B-1465A.PLT
 62
7
 10
4.55087500
 20
6.74462500
  0
VERTEX
  8
B-1465A.PLT
 62
7
 10
4.51017383
 20
6.73838086
  0
VERTEX
  8
B-1465A.PLT
 62
7
 10
4.46892188
 20
6.73414063
  0
VERTEX
  8
B-1465A.PLT
 62
7
 10
4.42717773
 20
6.73198633
  0
VERTEX
  8
B-1465A.PLT
 62
7
 10
4.38500000
 20
6.73200000
  0
VERTEX
  8
B-1465A.PLT
 62
7
 10
4.33550000
 20
6.73400000
  0
VERTEX
  8
B-1465A.PLT
 62
7
 10
4.28900000
 20
6.73900000
  0
VERTEX
  8
B-1465A.PLT
 62
7
 10
4.26668750
 20
6.70789063
  0
VERTEX
  8
B-1465A.PLT
 62
7
 10
4.24775000
 20
6.67462500
  0
VERTEX
  8
B-1465A.PLT
 62
7
 10
4.23218750
 20
6.63929688
  0
VERTEX
  8
B-1465A.PLT
 62
7
 10
4.22000000
 20
6.60200000
  0
VERTEX
  8
B-1465A.PLT
 62
7
 10
4.17961914
 20
6.59481250
  0
VERTEX
  8
B-1465A.PLT
 62
7
 10
4.14220313
 20
6.58050000
  0
VERTEX
  8
B-1465A.PLT
 62
7
 10
4.10846680
 20
6.55981250
  0
VERTEX
  8
B-1465A.PLT
 62
7
 10
4.07912500
 20
6.53350000
  0
VERTEX
  8
B-1465A.PLT
 62
7
 10
4.05489258
 20
6.50231250
  0
VERTEX
  8
B-1465A.PLT
 62
7
 10
4.03648437
 20
6.46700000
  0
VERTEX
  8
B-1465A.PLT
 62
7
 10
4.02461523
 20
6.42831250
  0
VERTEX
  8
B-1465A.PLT
 62
7
 10
4.02000000
 20
6.38700000
  0
VERTEX
  8
B-1465A.PLT
 62
7
 10
4.02000000
 20
6.37900000
  0
VERTEX
  8
B-1465A.PLT
 62
7
 10
3.99278125
 20
6.38745313
  0
VERTEX
  8
B-1465A.PLT
 62
7
 10
3.96500000
 20
6.39337500
  0
VERTEX
  8
B-1465A.PLT
 62
7
 10
3.93646875
 20
6.39685938
  0
VERTEX
  8
B-1465A.PLT
 62
7
 10
3.90700000
 20
6.39800000
  0
VERTEX
  8
B-1465A.PLT
 62
7
 10
3.86551172
 20
6.39657812
  0
VERTEX
  8
B-1465A.PLT
 62
7
 10
3.82521875
 20
6.39093750
  0
VERTEX
  8
B-1465A.PLT
 62
7
 10
3.78637891
 20
6.38126563
  0
VERTEX
  8
B-1465A.PLT
 62
7
 10
3.74925000
 20
6.36775000
  0
VERTEX
  8
B-1465A.PLT
 62
7
 10
3.71408984
 20
6.35057813
  0
VERTEX
  8
B-1465A.PLT
 62
7
 10
3.68115625
 20
6.32993750
  0
VERTEX
  8
B-1465A.PLT
 62
7
 10
3.65070703
 20
6.30601562
  0
VERTEX
  8
B-1465A.PLT
 62
7
 10
3.62300000
 20
6.27900000
  0
VERTEX
  8
B-1465A.PLT
 62
7
 10
3.58650000
 20
6.29637500
  0
VERTEX
  8
B-1465A.PLT
 62
7
 10
3.54775000
 20
6.30925000
  0
VERTEX
  8
B-1465A.PLT
 62
7
 10
3.50712500
 20
6.31725000
  0
VERTEX
  8
B-1465A.PLT
 62
7
 10
3.46500000
 20
6.32000000
  0
VERTEX
  8
B-1465A.PLT
 62
7
 10
3.42505859
 20
6.31873438
  0
VERTEX
  8
B-1465A.PLT
 62
7
 10
3.38640625
 20
6.31287500
  0
VERTEX
  8
B-1465A.PLT
 62
7
 10
3.34930078
 20
6.30270312
  0
VERTEX
  8
B-1465A.PLT
 62
7
 10
3.31400000
 20
6.28850000
  0
VERTEX
  8
B-1465A.PLT
 62
7
 10
3.28076172
 20
6.27054688
  0
VERTEX
  8
B-1465A.PLT
 62
7
 10
3.24984375
 20
6.24912500
  0
VERTEX
  8
B-1465A.PLT
 62
7
 10
3.22150391
 20
6.22451563
  0
VERTEX
  8
B-1465A.PLT
 62
7
 10
3.19600000
 20
6.19700000
  0
VERTEX
  8
B-1465A.PLT
 62
7
 10
3.16583203
 20
6.21939063
  0
VERTEX
  8
B-1465A.PLT
 62
7
 10
3.13390625
 20
6.23925000
  0
VERTEX
  8
B-1465A.PLT
 62
7
 10
3.10033984
 20
6.25648438
  0
VERTEX
  8
B-1465A.PLT
 62
7
 10
3.06525000
 20
6.27100000
  0
VERTEX
  8
B-1465A.PLT
 62
7
 10
3.02875391
 20
6.28270313
  0
VERTEX
  8
B-1465A.PLT
 62
7
 10
2.99096875
 20
6.29150000
  0
VERTEX
  8
B-1465A.PLT
 62
7
 10
2.95201172
 20
6.29729687
  0
VERTEX
  8
B-1465A.PLT
 62
7
 10
2.91200000
 20
6.30000000
  0
VERTEX
  8
B-1465A.PLT
 62
7
 10
2.85639063
 20
6.29701563
  0
VERTEX
  8
B-1465A.PLT
 62
7
 10
2.80237500
 20
6.28812500
  0
VERTEX
  8
B-1465A.PLT
 62
7
 10
2.75042187
 20
6.27342188
  0
VERTEX
  8
B-1465A.PLT
 62
7
 10
2.70100000
 20
6.25300000
  0
VERTEX
  8
B-1465A.PLT
 62
7
 10
2.66338867
 20
6.28151758
  0
VERTEX
  8
B-1465A.PLT
 62
7
 10
2.62342188
 20
6.30695312
  0
VERTEX
  8
B-1465A.PLT
 62
7
 10
2.58127539
 20
6.32913086
  0
VERTEX
  8
B-1465A.PLT
 62
7
 10
2.53712500
 20
6.34787500
  0
VERTEX
  8
B-1465A.PLT
 62
7
 10
2.49114648
 20
6.36300977
  0
VERTEX
  8
B-1465A.PLT
 62
7
 10
2.44351562
 20
6.37435938
  0
VERTEX
  8
B-1465A.PLT
 62
7
 10
2.39440820
 20
6.38174805
  0
VERTEX
  8
B-1465A.PLT
 62
7
 10
2.34400000
 20
6.38500000
  0
VERTEX
  8
B-1465A.PLT
 62
7
 10
2.29490625
 20
6.38356250
  0
VERTEX
  8
B-1465A.PLT
 62
7
 10
2.24675000
 20
6.37800000
  0
VERTEX
  8
B-1465A.PLT
 62
7
 10
2.19971875
 20
6.36868750
  0
VERTEX
  8
B-1465A.PLT
 62
7
 10
2.15400000
 20
6.35600000
  0
VERTEX
  8
B-1465A.PLT
 62
7
 10
2.14200000
 20
6.35600000
  0
VERTEX
  8
B-1465A.PLT
 62
7
 10
2.10888379
 20
6.35542627
  0
VERTEX
  8
B-1465A.PLT
 62
7
 10
2.07633594
 20
6.35262891
  0
VERTEX
  8
B-1465A.PLT
 62
7
 10
2.04443262
 20
6.34768115
  0
VERTEX
  8
B-1465A.PLT
 62
7
 10
2.01325000
 20
6.34065625
  0
VERTEX
  8
B-1465A.PLT
 62
7
 10
1.98286426
 20
6.33162744
  0
VERTEX
  8
B-1465A.PLT
 62
7
 10
1.95335156
 20
6.32066797
  0
VERTEX
  8
B-1465A.PLT
 62
7
 10
1.92478809
 20
6.30785107
  0
VERTEX
  8
B-1465A.PLT
 62
7
 10
1.89725000
 20
6.29325000
  0
VERTEX
  8
B-1465A.PLT
 62
7
 10
1.87081348
 20
6.27693799
  0
VERTEX
  8
B-1465A.PLT
 62
7
 10
1.84555469
 20
6.25898828
  0
VERTEX
  8
B-1465A.PLT
 62
7
 10
1.82154980
 20
6.23947412
  0
VERTEX
  8
B-1465A.PLT
 62
7
 10
1.79887500
 20
6.21846875
  0
VERTEX
  8
B-1465A.PLT
 62
7
 10
1.77760645
 20
6.19604541
  0
VERTEX
  8
B-1465A.PLT
 62
7
 10
1.75782031
 20
6.17227734
  0
VERTEX
  8
B-1465A.PLT
 62
7
 10
1.73959277
 20
6.14723779
  0
VERTEX
  8
B-1465A.PLT
 62
7
 10
1.72300000
 20
6.12100000
  0
VERTEX
  8
B-1465A.PLT
 62
7
 10
1.67563086
 20
6.10124219
  0
VERTEX
  8
B-1465A.PLT
 62
7
 10
1.63035938
 20
6.07806250
  0
VERTEX
  8
B-1465A.PLT
 62
7
 10
1.58731445
 20
6.05160156
  0
VERTEX
  8
B-1465A.PLT
 62
7
 10
1.54662500
 20
6.02200000
  0
VERTEX
  8
B-1465A.PLT
 62
7
 10
1.50841992
 20
5.98939844
  0
VERTEX
  8
B-1465A.PLT
 62
7
 10
1.47282812
 20
5.95393750
  0
VERTEX
  8
B-1465A.PLT
 62
7
 10
1.43997852
 20
5.91575781
  0
VERTEX
  8
B-1465A.PLT
 62
7
 10
1.41000000
 20
5.87500000
  0
VERTEX
  8
B-1465A.PLT
 62
7
 10
1.36338867
 20
5.83560547
  0
VERTEX
  8
B-1465A.PLT
 62
7
 10
1.32135937
 20
5.79121875
  0
VERTEX
  8
B-1465A.PLT
 62
7
 10
1.28436914
 20
5.74228516
  0
VERTEX
  8
B-1465A.PLT
 62
7
 10
1.25287500
 20
5.68925000
  0
VERTEX
  8
B-1465A.PLT
 62
7
 10
1.22733398
 20
5.63255859
  0
VERTEX
  8
B-1465A.PLT
 62
7
 10
1.20820313
 20
5.57265625
  0
VERTEX
  8
B-1465A.PLT
 62
7
 10
1.19593945
 20
5.50998828
  0
VERTEX
  8
B-1465A.PLT
 62
7
 10
1.19100000
 20
5.44500000
  0
VERTEX
  8
B-1465A.PLT
 62
7
 10
1.19281250
 20
5.39248438
  0
VERTEX
  8
B-1465A.PLT
 62
7
 10
1.19950000
 20
5.34137500
  0
VERTEX
  8
B-1465A.PLT
 62
7
 10
1.21068750
 20
5.29157813
  0
VERTEX
  8
B-1465A.PLT
 62
7
 10
1.22600000
 20
5.24300000
  0
VERTEX
  8
B-1465A.PLT
 62
7
 10
1.21892187
 20
5.22484375
  0
VERTEX
  8
B-1465A.PLT
 62
7
 10
1.20612500
 20
5.21025000
  0
VERTEX
  8
B-1465A.PLT
 62
7
 10
1.18901562
 20
5.20053125
  0
VERTEX
  8
B-1465A.PLT
 62
7
 10
1.16900000
 20
5.19700000
  0
VERTEX
  8
B-1465A.PLT
 62
7
 10
1.14843750
 20
5.20085938
  0
VERTEX
  8
B-1465A.PLT
 62
7
 10
1.13125000
 20
5.21137500
  0
VERTEX
  8
B-1465A.PLT
 62
7
 10
1.11893750
 20
5.22695312
  0
VERTEX
  8
B-1465A.PLT
 62
7
 10
1.11300000
 20
5.24600000
  0
VERTEX
  8
B-1465A.PLT
 62
7
 10
1.10046875
 20
5.29456250
  0
VERTEX
  8
B-1465A.PLT
 62
7
 10
1.09150000
 20
5.34425000
  0
VERTEX
  8
B-1465A.PLT
 62
7
 10
1.08628125
 20
5.39506250
  0
VERTEX
  8
B-1465A.PLT
 62
7
 10
1.08500000
 20
5.44700000
  0
VERTEX
  8
B-1465A.PLT
 62
7
 10
1.08692432
 20
5.48275146
  0
VERTEX
  8
B-1465A.PLT
 62
7
 10
1.09111328
 20
5.51799609
  0
VERTEX
  8
B-1465A.PLT
 62
7
 10
1.09744092
 20
5.55271924
  0
VERTEX
  8
B-1465A.PLT
 62
7
 10
1.10578125
 20
5.58690625
  0
VERTEX
  8
B-1465A.PLT
 62
7
 10
1.11600830
 20
5.62054248
  0
VERTEX
  8
B-1465A.PLT
 62
7
 10
1.12799609
 20
5.65361328
  0
VERTEX
  8
B-1465A.PLT
 62
7
 10
1.14161865
 20
5.68610400
  0
VERTEX
  8
B-1465A.PLT
 62
7
 10
1.15675000
 20
5.71800000
  0
VERTEX
  8
B-1465A.PLT
 62
7
 10
1.17326416
 20
5.74928662
  0
VERTEX
  8
B-1465A.PLT
 62
7
 10
1.19103516
 20
5.77994922
  0
VERTEX
  8
B-1465A.PLT
 62
7
 10
1.20993701
 20
5.80997314
  0
VERTEX
  8
B-1465A.PLT
 62
7
 10
1.22984375
 20
5.83934375
  0
VERTEX
  8
B-1465A.PLT
 62
7
 10
1.25062939
 20
5.86804639
  0
VERTEX
  8
B-1465A.PLT
 62
7
 10
1.27216797
 20
5.89606641
  0
VERTEX
  8
B-1465A.PLT
 62
7
 10
1.29433350
 20
5.92338916
  0
VERTEX
  8
B-1465A.PLT
 62
7
 10
1.31700000
 20
5.95000000
  0
VERTEX
  8
B-1465A.PLT
 62
7
 10
1.36096875
 20
5.99792188
  0
VERTEX
  8
B-1465A.PLT
 62
7
 10
1.41150000
 20
6.04837500
  0
VERTEX
  8
B-1465A.PLT
 62
7
 10
1.46128125
 20
6.09414062
  0
VERTEX
  8
B-1465A.PLT
 62
7
 10
1.50300000
 20
6.12800000
  0
VERTEX
  8
B-1465A.PLT
 62
7
 10
1.50100000
 20
15.09000000
  0
VERTEX
  8
B-1465A.PLT
 62
7
 10
1.69534009
 20
15.11513452
  0
VERTEX
  8
B-1465A.PLT
 62
7
 10
1.88909570
 20
15.14327930
  0
VERTEX
  8
B-1465A.PLT
 62
7
 10
2.08224487
 20
15.17442114
  0
VERTEX
  8
B-1465A.PLT
 62
7
 10
2.27476563
 20
15.20854688
  0
VERTEX
  8
B-1465A.PLT
 62
7
 10
2.46663599
 20
15.24564331
  0
VERTEX
  8
B-1465A.PLT
 62
7
 10
2.65783398
 20
15.28569727
  0
VERTEX
  8
B-1465A.PLT
 62
7
 10
2.84833765
 20
15.32869556
  0
VERTEX
  8
B-1465A.PLT
 62
7
 10
3.03812500
 20
15.37462500
  0
VERTEX
  8
B-1465A.PLT
 62
7
 10
3.22717407
 20
15.42347241
  0
VERTEX
  8
B-1465A.PLT
 62
7
 10
3.41546289
 20
15.47522461
  0
VERTEX
  8
B-1465A.PLT
 62
7
 10
3.60296948
 20
15.52986841
  0
VERTEX
  8
B-1465A.PLT
 62
7
 10
3.78967187
 20
15.58739062
  0
VERTEX
  8
B-1465A.PLT
 62
7
 10
3.97554810
 20
15.64777808
  0
VERTEX
  8
B-1465A.PLT
 62
7
 10
4.16057617
 20
15.71101758
  0
VERTEX
  8
B-1465A.PLT
 62
7
 10
4.34473413
 20
15.77709595
  0
VERTEX
  8
B-1465A.PLT
 62
7
 10
4.52800000
 20
15.84600000
  0
VERTEX
  8
B-1465A.PLT
 62
7
 10
4.73691772
 20
15.92354736
  0
VERTEX
  8
B-1465A.PLT
 62
7
 10
4.94735742
 20
15.99641016
  0
VERTEX
  8
B-1465A.PLT
 62
7
 10
5.15922388
 20
16.06454443
  0
VERTEX
  8
B-1465A.PLT
 62
7
 10
5.37242187
 20
16.12790625
  0
VERTEX
  8
B-1465A.PLT
 62
7
 10
5.58685620
 20
16.18645166
  0
VERTEX
  8
B-1465A.PLT
 62
7
 10
5.80243164
 20
16.24013672
  0
VERTEX
  8
B-1465A.PLT
 62
7
 10
6.01905298
 20
16.28891748
  0
VERTEX
  8
B-1465A.PLT
 62
7
 10
6.23662500
 20
16.33275000
  0
VERTEX
  8
B-1465A.PLT
 62
7
 10
6.45505249
 20
16.37159033
  0
VERTEX
  8
B-1465A.PLT
 62
7
 10
6.67424023
 20
16.40539453
  0
VERTEX
  8
B-1465A.PLT
 62
7
 10
6.89409302
 20
16.43411865
  0
VERTEX
  8
B-1465A.PLT
 62
7
 10
7.11451563
 20
16.45771875
  0
VERTEX
  8
B-1465A.PLT
 62
7
 10
7.33541284
 20
16.47615088
  0
VERTEX
  8
B-1465A.PLT
 62
7
 10
7.55668945
 20
16.48937109
  0
VERTEX
  8
B-1465A.PLT
 62
7
 10
7.77825024
 20
16.49733545
  0
VERTEX
  8
B-1465A.PLT
 62
7
 10
8.00000000
 20
16.50000000
  0
VERTEX
  8
B-1465A.PLT
 62
7
 10
8.22375146
 20
16.49736768
  0
VERTEX
  8
B-1465A.PLT
 62
7
 10
8.44685547
 20
16.48948828
  0
VERTEX
  8
B-1465A.PLT
 62
7
 10
8.66927393
 20
16.47638818
  0
VERTEX
  8
B-1465A.PLT
 62
7
 10
8.89096875
 20
16.45809375
  0
VERTEX
  8
B-1465A.PLT
 62
7
 10
9.11190186
 20
16.43463135
  0
VERTEX
  8
B-1465A.PLT
 62
7
 10
9.33203516
 20
16.40602734
  0
VERTEX
  8
B-1465A.PLT
 62
7
 10
9.55133057
 20
16.37230811
  0
VERTEX
  8
B-1465A.PLT
 62
7
 10
9.76975000
 20
16.33350000
  0
VERTEX
  8
B-1465A.PLT
 62
7
 10
9.98725537
 20
16.28962939
  0
VERTEX
  8
B-1465A.PLT
 62
7
 10
10.20380859
 20
16.24072266
  0
VERTEX
  8
B-1465A.PLT
 62
7
 10
10.41937158
 20
16.18680615
  0
VERTEX
  8
B-1465A.PLT
 62
7
 10
10.63390625
 20
16.12790625
  0
VERTEX
  8
B-1465A.PLT
 62
7
 10
10.84737451
 20
16.06404932
  0
VERTEX
  8
B-1465A.PLT
 62
7
 10
11.05973828
 20
15.99526172
  0
VERTEX
  8
B-1465A.PLT
 62
7
 10
11.27095947
 20
15.92156982
  0
VERTEX
  8
B-1465A.PLT
 62
7
 10
11.48100000
 20
15.84300000
  0
VERTEX
  8
B-1465A.PLT
 62
7
 10
11.66587866
 20
15.77308545
  0
VERTEX
  8
B-1465A.PLT
 62
7
 10
11.85115430
 20
15.70621484
  0
VERTEX
  8
B-1465A.PLT
 62
7
 10
12.03684888
 20
15.64238525
  0
VERTEX
  8
B-1465A.PLT
 62
7
 10
12.22298437
 20
15.58159375
  0
VERTEX
  8
B-1465A.PLT
 62
7
 10
12.40958276
 20
15.52383740
  0
VERTEX
  8
B-1465A.PLT
 62
7
 10
12.59666602
 20
15.46911328
  0
VERTEX
  8
B-1465A.PLT
 62
7
 10
12.78425610
 20
15.41741846
  0
VERTEX
  8
B-1465A.PLT
 62
7
 10
12.97237500
 20
15.36875000
  0
VERTEX
  8
B-1465A.PLT
 62
7
 10
13.16104468
 20
15.32310498
  0
VERTEX
  8
B-1465A.PLT
 62
7
 10
13.35028711
 20
15.28048047
  0
VERTEX
  8
B-1465A.PLT
 62
7
 10
13.54012427
 20
15.24087354
  0
VERTEX
  8
B-1465A.PLT
 62
7
 10
13.73057812
 20
15.20428125
  0
VERTEX
  8
B-1465A.PLT
 62
7
 10
13.92167065
 20
15.17070068
  0
VERTEX
  8
B-1465A.PLT
 62
7
 10
14.11342383
 20
15.14012891
  0
VERTEX
  8
B-1465A.PLT
 62
7
 10
14.30585962
 20
15.11256299
  0
VERTEX
  8
B-1465A.PLT
 62
7
 10
14.49900000
 20
15.08800000
  0
VERTEX
  8
B-1465A.PLT
 62
7
 10
14.50000000
 20
6.11200000
  0
VERTEX
  8
B-1465A.PLT
 62
7
 10
14.52589063
 20
6.06910938
  0
VERTEX
  8
B-1465A.PLT
 62
7
 10
14.55787500
 20
6.03062500
  0
VERTEX
  8
B-1465A.PLT
 62
7
 10
14.59492188
 20
5.99682813
  0
VERTEX
  8
B-1465A.PLT
 62
7
 10
14.63600000
 20
5.96800000
  0
VERTEX
  8
B-1465A.PLT
 62
7
 10
14.66175000
 20
5.93850000
  0
VERTEX
  8
B-1465A.PLT
 62
7
 10
14.68300000
 20
5.90600000
  0
VERTEX
  8
B-1465A.PLT
 62
7
 10
14.77200000
 20
5.97900000
  0
VERTEX
  8
B-1465A.PLT
 62
7
 10
14.78527344
 20
5.93726758
  0
VERTEX
  8
B-1465A.PLT
 62
7
 10
14.79662500
 20
5.89339063
  0
VERTEX
  8
B-1465A.PLT
 62
7
 10
14.80610156
 20
5.84784961
  0
VERTEX
  8
B-1465A.PLT
 62
7
 10
14.81375000
 20
5.80112500
  0
VERTEX
  8
B-1465A.PLT
 62
7
 10
14.81961719
 20
5.75369727
  0
VERTEX
  8
B-1465A.PLT
 62
7
 10
14.82375000
 20
5.70604688
  0
VERTEX
  8
B-1465A.PLT
 62
7
 10
14.82619531
 20
5.65865430
  0
VERTEX
  8
B-1465A.PLT
 62
7
 10
14.82700000
 20
5.61200000
  0
VERTEX
  8
B-1465A.PLT
 62
7
 10
14.82495117
 20
5.54207812
  0
VERTEX
  8
B-1465A.PLT
 62
7
 10
14.81885938
 20
5.47337500
  0
VERTEX
  8
B-1465A.PLT
 62
7
 10
14.80880664
 20
5.40598438
  0
VERTEX
  8
B-1465A.PLT
 62
7
 10
14.79487500
 20
5.34000000
  0
VERTEX
  8
B-1465A.PLT
 62
7
 10
14.77714648
 20
5.27551562
  0
VERTEX
  8
B-1465A.PLT
 62
7
 10
14.75570313
 20
5.21262500
  0
VERTEX
  8
B-1465A.PLT
 62
7
 10
14.73062695
 20
5.15142187
  0
VERTEX
  8
B-1465A.PLT
 62
7
 10
14.70200000
 20
5.09200000
  0
VERTEX
  8
B-1465A.PLT
 62
7
 10
14.71429688
 20
5.08154687
  0
VERTEX
  8
B-1465A.PLT
 62
7
 10
14.72612500
 20
5.07512500
  0
VERTEX
  8
B-1465A.PLT
 62
7
 10
14.73814063
 20
5.07189063
  0
VERTEX
  8
B-1465A.PLT
 62
7
 10
14.75100000
 20
5.07100000
  0
VERTEX
  8
B-1465A.PLT
 62
7
 10
14.76762500
 20
5.07300000
  0
VERTEX
  8
B-1465A.PLT
 62
7
 10
14.78200000
 20
5.07800000
  0
VERTEX
  8
B-1465A.PLT
 62
7
 10
14.79640625
 20
5.08362500
  0
VERTEX
  8
B-1465A.PLT
 62
7
 10
14.80875000
 20
5.08625000
  0
VERTEX
  8
B-1465A.PLT
 62
7
 10
14.81771875
 20
5.08700000
  0
VERTEX
  8
B-1465A.PLT
 62
7
 10
14.82200000
 20
5.08700000
  0
VERTEX
  8
B-1465A.PLT
 62
7
 10
14.83829102
 20
5.08548633
  0
VERTEX
  8
B-1465A.PLT
 62
7
 10
14.85389063
 20
5.08107813
  0
VERTEX
  8
B-1465A.PLT
 62
7
 10
14.86838867
 20
5.07397461
  0
VERTEX
  8
B-1465A.PLT
 62
7
 10
14.88137500
 20
5.06437500
  0
VERTEX
  8
B-1465A.PLT
 62
7
 10
14.89243945
 20
5.05247852
  0
VERTEX
  8
B-1465A.PLT
 62
7
 10
14.90117187
 20
5.03848438
  0
VERTEX
  8
B-1465A.PLT
 62
7
 10
14.90716211
 20
5.02259180
  0
VERTEX
  8
B-1465A.PLT
 62
7
 10
14.91000000
 20
5.00500000
  0
VERTEX
  8
B-1465A.PLT
 62
7
 10
14.91537109
 20
4.96610547
  0
VERTEX
  8
B-1465A.PLT
 62
7
 10
14.92596875
 20
4.92915625
  0
VERTEX
  8
B-1465A.PLT
 62
7
 10
14.94139453
 20
4.89450391
  0
VERTEX
  8
B-1465A.PLT
 62
7
 10
14.96125000
 20
4.86250000
  0
VERTEX
  8
B-1465A.PLT
 62
7
 10
14.98513672
 20
4.83349609
  0
VERTEX
  8
B-1465A.PLT
 62
7
 10
15.01265625
 20
4.80784375
  0
VERTEX
  8
B-1465A.PLT
 62
7
 10
15.04341016
 20
4.78589453
  0
VERTEX
  8
B-1465A.PLT
 62
7
 10
15.07700000
 20
4.76800000
  0
VERTEX
  8
B-1465A.PLT
 62
7
 10
15.10031250
 20
4.75295313
  0
VERTEX
  8
B-1465A.PLT
 62
7
 10
15.11650000
 20
4.73312500
  0
VERTEX
  8
B-1465A.PLT
 62
7
 10
15.12593750
 20
4.71048438
  0
VERTEX
  8
B-1465A.PLT
 62
7
 10
15.12900000
 20
4.68700000
  0
VERTEX
  8
B-1465A.PLT
 62
7
 10
15.12787500
 20
4.67262500
  0
VERTEX
  8
B-1465A.PLT
 62
7
 10
15.12375000
 20
4.65600000
  0
VERTEX
  8
B-1465A.PLT
 62
7
 10
15.11550000
 20
4.63862500
  0
VERTEX
  8
B-1465A.PLT
 62
7
 10
15.10200000
 20
4.62200000
  0
VERTEX
  8
B-1465A.PLT
 62
7
 10
15.09265625
 20
4.61137500
  0
VERTEX
  8
B-1465A.PLT
 62
7
 10
15.08575000
 20
4.59925000
  0
VERTEX
  8
B-1465A.PLT
 62
7
 10
15.08146875
 20
4.58600000
  0
VERTEX
  8
B-1465A.PLT
 62
7
 10
15.08000000
 20
4.57200000
  0
VERTEX
  8
B-1465A.PLT
 62
7
 10
15.08187500
 20
4.55637500
  0
VERTEX
  8
B-1465A.PLT
 62
7
 10
15.08900000
 20
4.53700000
  0
VERTEX
  8
B-1465A.PLT
 62
7
 10
15.09751563
 20
4.51551562
  0
VERTEX
  8
B-1465A.PLT
 62
7
 10
15.10162500
 20
4.49562500
  0
VERTEX
  8
B-1465A.PLT
 62
7
 10
15.10292188
 20
4.47892188
  0
VERTEX
  8
B-1465A.PLT
 62
7
 10
15.10300000
 20
4.46700000
  0
VERTEX
  8
B-1465A.PLT
 62
7
 10
15.10194141
 20
4.44737695
  0
VERTEX
  8
B-1465A.PLT
 62
7
 10
15.09884375
 20
4.42832813
  0
VERTEX
  8
B-1465A.PLT
 62
7
 10
15.09382422
 20
4.40995898
  0
VERTEX
  8
B-1465A.PLT
 62
7
 10
15.08700000
 20
4.39237500
  0
VERTEX
  8
B-1465A.PLT
 62
7
 10
15.07848828
 20
4.37568164
  0
VERTEX
  8
B-1465A.PLT
 62
7
 10
15.06840625
 20
4.35998437
  0
VERTEX
  8
B-1465A.PLT
 62
7
 10
15.05687109
 20
4.34538867
  0
VERTEX
  8
B-1465A.PLT
 62
7
 10
15.04400000
 20
4.33200000
  0
VERTEX
  8
B-1465A.PLT
 62
7
 10
15.06651562
 20
4.30478125
  0
VERTEX
  8
B-1465A.PLT
 62
7
 10
15.08387500
 20
4.27325000
  0
VERTEX
  8
B-1465A.PLT
 62
7
 10
15.09504688
 20
4.23834375
  0
VERTEX
  8
B-1465A.PLT
 62
7
 10
15.09900000
 20
4.20100000
  0
VERTEX
  8
B-1465A.PLT
 62
7
 10
15.09612500
 20
4.16737500
  0
VERTEX
  8
B-1465A.PLT
 62
7
 10
15.08800000
 20
4.13600000
  0
VERTEX
  8
B-1465A.PLT
 62
7
 10
15.08500000
 20
4.12900000
  0
VERTEX
  8
B-1465A.PLT
 62
7
 10
15.08100000
 20
4.12200000
  0
VERTEX
  8
B-1465A.PLT
 62
7
 10
15.07462500
 20
4.10612500
  0
VERTEX
  8
B-1465A.PLT
 62
7
 10
15.07200000
 20
4.08800000
  0
VERTEX
  8
B-1465A.PLT
 62
7
 10
15.07345313
 20
4.07415625
  0
VERTEX
  8
B-1465A.PLT
 62
7
 10
15.07762500
 20
4.06125000
  0
VERTEX
  8
B-1465A.PLT
 62
7
 10
15.08423437
 20
4.04946875
  0
VERTEX
  8
B-1465A.PLT
 62
7
 10
15.09300000
 20
4.03900000
  0
VERTEX
  8
B-1465A.PLT
 62
7
 10
15.10239063
 20
4.02734375
  0
VERTEX
  8
B-1465A.PLT
 62
7
 10
15.11037500
 20
4.01325000
  0
VERTEX
  8
B-1465A.PLT
 62
7
 10
15.11592188
 20
3.99653125
  0
VERTEX
  8
B-1465A.PLT
 62
7
 10
15.11800000
 20
3.97700000
  0
VERTEX
  8
B-1465A.PLT
 62
7
 10
15.11431250
 20
3.95221875
  0
VERTEX
  8
B-1465A.PLT
 62
7
 10
15.10350000
 20
3.92875000
  0
VERTEX
  8
B-1465A.PLT
 62
7
 10
15.08593750
 20
3.90865625
  0
VERTEX
  8
B-1465A.PLT
 62
7
 10
15.06200000
 20
3.89400000
  0
VERTEX
  8
B-1465A.PLT
 62
7
 10
15.03358594
 20
3.88073242
  0
VERTEX
  8
B-1465A.PLT
 62
7
 10
15.00700000
 20
3.86435937
  0
VERTEX
  8
B-1465A.PLT
 62
7
 10
14.98247656
 20
3.84515039
  0
VERTEX
  8
B-1465A.PLT
 62
7
 10
14.96025000
 20
3.82337500
  0
VERTEX
  8
B-1465A.PLT
 62
7
 10
14.94055469
 20
3.79930273
  0
VERTEX
  8
B-1465A.PLT
 62
7
 10
14.92362500
 20
3.77320313
  0
VERTEX
  8
B-1465A.PLT
 62
7
 10
14.90969531
 20
3.74534570
  0
SEQEND
  0
POLYLINE
  8
B-1465A.PLT
 62
7
 66
1
 70
1
  0
VERTEX
  8
B-1465A.PLT
 62
7
 10
14.41000000
 20
6.42000000
  0
VERTEX
  8
B-1465A.PLT
 62
7
 10
14.40900000
 20
15.00800000
  0
VERTEX
  8
B-1465A.PLT
 62
7
 10
14.21959814
 20
15.03341895
  0
VERTEX
  8
B-1465A.PLT
 62
7
 10
14.03087891
 20
15.06167969
  0
VERTEX
  8
B-1465A.PLT
 62
7
 10
13.84282178
 20
15.09278809
  0
VERTEX
  8
B-1465A.PLT
 62
7
 10
13.65540625
 20
15.12675000
  0
VERTEX
  8
B-1465A.PLT
 62
7
 10
13.46861182
 20
15.16357129
  0
VERTEX
  8
B-1465A.PLT
 62
7
 10
13.28241797
 20
15.20325781
  0
VERTEX
  8
B-1465A.PLT
 62
7
 10
13.09680420
 20
15.24581543
  0
VERTEX
  8
B-1465A.PLT
 62
7
 10
12.91175000
 20
15.29125000
  0
VERTEX
  8
B-1465A.PLT
 62
7
 10
12.72723486
 20
15.33956738
  0
VERTEX
  8
B-1465A.PLT
 62
7
 10
12.54323828
 20
15.39077344
  0
VERTEX
  8
B-1465A.PLT
 62
7
 10
12.35973975
 20
15.44487402
  0
VERTEX
  8
B-1465A.PLT
 62
7
 10
12.17671875
 20
15.50187500
  0
VERTEX
  8
B-1465A.PLT
 62
7
 10
11.99415479
 20
15.56178223
  0
VERTEX
  8
B-1465A.PLT
 62
7
 10
11.81202734
 20
15.62460156
  0
VERTEX
  8
B-1465A.PLT
 62
7
 10
11.63031592
 20
15.69033887
  0
VERTEX
  8
B-1465A.PLT
 62
7
 10
11.44900000
 20
15.75900000
  0
VERTEX
  8
B-1465A.PLT
 62
7
 10
11.24084595
 20
15.83684326
  0
VERTEX
  8
B-1465A.PLT
 62
7
 10
11.03153320
 20
15.90985547
  0
VERTEX
  8
B-1465A.PLT
 62
7
 10
10.82109839
 20
15.97801025
  0
VERTEX
  8
B-1465A.PLT
 62
7
 10
10.60957813
 20
16.04128125
  0
VERTEX
  8
B-1465A.PLT
 62
7
 10
10.39700903
 20
16.09964209
  0
VERTEX
  8
B-1465A.PLT
 62
7
 10
10.18342773
 20
16.15306641
  0
VERTEX
  8
B-1465A.PLT
 62
7
 10
9.96887085
 20
16.20152783
  0
VERTEX
  8
B-1465A.PLT
 62
7
 10
9.75337500
 20
16.24500000
  0
VERTEX
  8
B-1465A.PLT
 62
7
 10
9.53697681
 20
16.28345654
  0
VERTEX
  8
B-1465A.PLT
 62
7
 10
9.31971289
 20
16.31687109
  0
VERTEX
  8
B-1465A.PLT
 62
7
 10
9.10161987
 20
16.34521729
  0
VERTEX
  8
B-1465A.PLT
 62
7
 10
8.88273438
 20
16.36846875
  0
VERTEX
  8
B-1465A.PLT
 62
7
 10
8.66309302
 20
16.38659912
  0
VERTEX
  8
B-1465A.PLT
 62
7
 10
8.44273242
 20
16.39958203
  0
VERTEX
  8
B-1465A.PLT
 62
7
 10
8.22168921
 20
16.40739111
  0
VERTEX
  8
B-1465A.PLT
 62
7
 10
8.00000000
 20
16.41000000
  0
VERTEX
  8
B-1465A.PLT
 62
7
 10
7.78047729
 20
16.40736987
  0
VERTEX
  8
B-1465A.PLT
 62
7
 10
7.56109961
 20
16.39950586
  0
VERTEX
  8
B-1465A.PLT
 62
7
 10
7.34196509
 20
16.38644751
  0
VERTEX
  8
B-1465A.PLT
 62
7
 10
7.12317187
 20
16.36823438
  0
VERTEX
  8
B-1465A.PLT
 62
7
 10
6.90481812
 20
16.34490601
  0
VERTEX
  8
B-1465A.PLT
 62
7
 10
6.68700195
 20
16.31650195
  0
VERTEX
  8
B-1465A.PLT
 62
7
 10
6.46982153
 20
16.28306177
  0
VERTEX
  8
B-1465A.PLT
 62
7
 10
6.25337500
 20
16.24462500
  0
VERTEX
  8
B-1465A.PLT
 62
7
 10
6.03776050
 20
16.20123120
  0
VERTEX
  8
B-1465A.PLT
 62
7
 10
5.82307617
 20
16.15291992
  0
VERTEX
  8
B-1465A.PLT
 62
7
 10
5.60942017
 20
16.09973071
  0
VERTEX
  8
B-1465A.PLT
 62
7
 10
5.39689063
 20
16.04170313
  0
VERTEX
  8
B-1465A.PLT
 62
7
 10
5.18558569
 20
15.97887671
  0
VERTEX
  8
B-1465A.PLT
 62
7
 10
4.97560352
 20
15.91129102
  0
VERTEX
  8
B-1465A.PLT
 62
7
 10
4.76704224
 20
15.83898560
  0
VERTEX
  8
B-1465A.PLT
 62
7
 10
4.56000000
 20
15.76200000
  0
VERTEX
  8
B-1465A.PLT
 62
7
 10
4.38013208
 20
15.69434961
  0
VERTEX
  8
B-1465A.PLT
 62
7
 10
4.19941602
 20
15.62940625
  0
VERTEX
  8
B-1465A.PLT
 62
7
 10
4.01787085
 20
15.56718164
  0
VERTEX
  8
B-1465A.PLT
 62
7
 10
3.83551563
 20
15.50768750
  0
VERTEX
  8
B-1465A.PLT
 62
7
 10
3.65236938
 20
15.45093555
  0
VERTEX
  8
B-1465A.PLT
 62
7
 10
3.46845117
 20
15.39693750
  0
VERTEX
  8
B-1465A.PLT
 62
7
 10
3.28378003
 20
15.34570508
  0
VERTEX
  8
B-1465A.PLT
 62
7
 10
3.09837500
 20
15.29725000
  0
VERTEX
  8
B-1465A.PLT
 62
7
 10
2.91225513
 20
15.25158398
  0
VERTEX
  8
B-1465A.PLT
 62
7
 10
2.72543945
 20
15.20871875
  0
VERTEX
  8
B-1465A.PLT
 62
7
 10
2.53794702
 20
15.16866602
  0
VERTEX
  8
B-1465A.PLT
 62
7
 10
2.34979688
 20
15.13143750
  0
VERTEX
  8
B-1465A.PLT
 62
7
 10
2.16100806
 20
15.09704492
  0
VERTEX
  8
B-1465A.PLT
 62
7
 10
1.97159961
 20
15.06550000
  0
VERTEX
  8
B-1465A.PLT
 62
7
 10
1.78159058
 20
15.03681445
  0
VERTEX
  8
B-1465A.PLT
 62
7
 10
1.59100000
 20
15.01100000
  0
VERTEX
  8
B-1465A.PLT
 62
7
 10
1.59300000
 20
6.18100000
  0
VERTEX
  8
B-1465A.PLT
 62
7
 10
1.63254688
 20
6.22148438
  0
VERTEX
  8
B-1465A.PLT
 62
7
 10
1.68887500
 20
6.27012500
  0
VERTEX
  8
B-1465A.PLT
 62
7
 10
1.74726563
 20
6.31670313
  0
VERTEX
  8
B-1465A.PLT
 62
7
 10
1.79300000
 20
6.35100000
  0
VERTEX
  8
B-1465A.PLT
 62
7
 10
1.79100000
 20
14.83600000
  0
VERTEX
  8
B-1465A.PLT
 62
7
 10
1.97317676
 20
14.86317383
  0
VERTEX
  8
B-1465A.PLT
 62
7
 10
2.15482031
 20
14.89293750
  0
VERTEX
  8
B-1465A.PLT
 62
7
 10
2.33591309
 20
14.92527930
  0
VERTEX
  8
B-1465A.PLT
 62
7
 10
2.51643750
 20
14.96018750
  0
VERTEX
  8
B-1465A.PLT
 62
7
 10
2.69637598
 20
14.99765039
  0
VERTEX
  8
B-1465A.PLT
 62
7
 10
2.87571094
 20
15.03765625
  0
VERTEX
  8
B-1465A.PLT
 62
7
 10
3.05442480
 20
15.08019336
  0
VERTEX
  8
B-1465A.PLT
 62
7
 10
3.23250000
 20
15.12525000
  0
VERTEX
  8
B-1465A.PLT
 62
7
 10
3.40991895
 20
15.17281445
  0
VERTEX
  8
B-1465A.PLT
 62
7
 10
3.58666406
 20
15.22287500
  0
VERTEX
  8
B-1465A.PLT
 62
7
 10
3.76271777
 20
15.27541992
  0
VERTEX
  8
B-1465A.PLT
 62
7
 10
3.93806250
 20
15.33043750
  0
VERTEX
  8
B-1465A.PLT
 62
7
 10
4.11268066
 20
15.38791602
  0
VERTEX
  8
B-1465A.PLT
 62
7
 10
4.28655469
 20
15.44784375
  0
VERTEX
  8
B-1465A.PLT
 62
7
 10
4.45966699
 20
15.51020898
  0
VERTEX
  8
B-1465A.PLT
 62
7
 10
4.63200000
 20
15.57500000
  0
VERTEX
  8
B-1465A.PLT
 62
7
 10
4.83489380
 20
15.65052124
  0
VERTEX
  8
B-1465A.PLT
 62
7
 10
5.03925977
 20
15.72143555
  0
VERTEX
  8
B-1465A.PLT
 62
7
 10
5.24499976
 20
15.78770630
  0
VERTEX
  8
B-1465A.PLT
 62
7
 10
5.45201562
 20
15.84929688
  0
VERTEX
  8
B-1465A.PLT
 62
7
 10
5.66020923
 20
15.90617065
  0
VERTEX
  8
B-1465A.PLT
 62
7
 10
5.86948242
 20
15.95829102
  0
VERTEX
  8
B-1465A.PLT
 62
7
 10
6.07973706
 20
16.00562134
  0
VERTEX
  8
B-1465A.PLT
 62
7
 10
6.29087500
 20
16.04812500
  0
VERTEX
  8
B-1465A.PLT
 62
7
 10
6.50279810
 20
16.08576538
  0
VERTEX
  8
B-1465A.PLT
 62
7
 10
6.71540820
 20
16.11850586
  0
VERTEX
  8
B-1465A.PLT
 62
7
 10
6.92860718
 20
16.14630981
  0
VERTEX
  8
B-1465A.PLT
 62
7
 10
7.14229688
 20
16.16914063
  0
VERTEX
  8
B-1465A.PLT
 62
7
 10
7.35637915
 20
16.18696167
  0
VERTEX
  8
B-1465A.PLT
 62
7
 10
7.57075586
 20
16.19973633
  0
VERTEX
  8
B-1465A.PLT
 62
7
 10
7.78532886
 20
16.20742798
  0
VERTEX
  8
B-1465A.PLT
 62
7
 10
8.00000000
 20
16.21000000
  0
VERTEX
  8
B-1465A.PLT
 62
7
 10
8.21700244
 20
16.20744922
  0
VERTEX
  8
B-1465A.PLT
 62
7
 10
8.43336328
 20
16.19981250
  0
VERTEX
  8
B-1465A.PLT
 62
7
 10
8.64905029
 20
16.18711328
  0
VERTEX
  8
B-1465A.PLT
 62
7
 10
8.86403125
 20
16.16937500
  0
VERTEX
  8
B-1465A.PLT
 62
7
 10
9.07827393
 20
16.14662109
  0
VERTEX
  8
B-1465A.PLT
 62
7
 10
9.29174609
 20
16.11887500
  0
VERTEX
  8
B-1465A.PLT
 62
7
 10
9.50441553
 20
16.08616016
  0
VERTEX
  8
B-1465A.PLT
 62
7
 10
9.71625000
 20
16.04850000
  0
VERTEX
  8
B-1465A.PLT
 62
7
 10
9.92721729
 20
16.00591797
  0
VERTEX
  8
B-1465A.PLT
 62
7
 10
10.13728516
 20
15.95843750
  0
VERTEX
  8
B-1465A.PLT
 62
7
 10
10.34642139
 20
15.90608203
  0
VERTEX
  8
B-1465A.PLT
 62
7
 10
10.55459375
 20
15.84887500
  0
VERTEX
  8
B-1465A.PLT
 62
7
 10
10.76177002
 20
15.78683984
  0
VERTEX
  8
B-1465A.PLT
 62
7
 10
10.96791797
 20
15.72000000
  0
VERTEX
  8
B-1465A.PLT
 62
7
 10
11.17300537
 20
15.64837891
  0
VERTEX
  8
B-1465A.PLT
 62
7
 10
11.37700000
 20
15.57200000
  0
VERTEX
  8
B-1465A.PLT
 62
7
 10
11.55061621
 20
15.50619824
  0
VERTEX
  8
B-1465A.PLT
 62
7
 10
11.72460156
 20
15.44303906
  0
VERTEX
  8
B-1465A.PLT
 62
7
 10
11.89897363
 20
15.38251660
  0
VERTEX
  8
B-1465A.PLT
 62
7
 10
12.07375000
 20
15.32462500
  0
VERTEX
  8
B-1465A.PLT
 62
7
 10
12.24894824
 20
15.26935840
  0
VERTEX
  8
B-1465A.PLT
 62
7
 10
12.42458594
 20
15.21671094
  0
VERTEX
  8
B-1465A.PLT
 62
7
 10
12.60068066
 20
15.16667676
  0
VERTEX
  8
B-1465A.PLT
 62
7
 10
12.77725000
 20
15.11925000
  0
VERTEX
  8
B-1465A.PLT
 62
7
 10
12.95431152
 20
15.07442480
  0
VERTEX
  8
B-1465A.PLT
 62
7
 10
13.13188281
 20
15.03219531
  0
VERTEX
  8
B-1465A.PLT
 62
7
 10
13.30998145
 20
14.99255566
  0
VERTEX
  8
B-1465A.PLT
 62
7
 10
13.48862500
 20
14.95550000
  0
VERTEX
  8
B-1465A.PLT
 62
7
 10
13.66783105
 20
14.92102246
  0
VERTEX
  8
B-1465A.PLT
 62
7
 10
13.84761719
 20
14.88911719
  0
VERTEX
  8
B-1465A.PLT
 62
7
 10
14.02800098
 20
14.85977832
  0
VERTEX
  8
B-1465A.PLT
 62
7
 10
14.20900000
 20
14.83300000
  0
VERTEX
  8
B-1465A.PLT
 62
7
 10
14.21000000
 20
6.29400000
  0
VERTEX
  8
B-1465A.PLT
 62
7
 10
14.25671875
 20
6.33042187
  0
VERTEX
  8
B-1465A.PLT
 62
7
 10
14.30550000
 20
6.36412500
  0
VERTEX
  8
B-1465A.PLT
 62
7
 10
14.35653125
 20
6.39426563
  0
SEQEND
  0
POLYLINE
  8
B-1465A.PLT
 62
7
 66
1
 70
1
  0
VERTEX
  8
B-1465A.PLT
 62
7
 10
14.12000000
 20
6.21000000
  0
VERTEX
  8
B-1465A.PLT
 62
7
 10
14.11900000
 20
14.75500000
  0
VERTEX
  8
B-1465A.PLT
 62
7
 10
13.94173950
 20
14.78228198
  0
VERTEX
  8
B-1465A.PLT
 62
7
 10
13.76507227
 20
14.81200586
  0
VERTEX
  8
B-1465A.PLT
 62
7
 10
13.58898218
 20
14.84417603
  0
VERTEX
  8
B-1465A.PLT
 62
7
 10
13.41345313
 20
14.87879688
  0
VERTEX
  8
B-1465A.PLT
 62
7
 10
13.23846899
 20
14.91587280
  0
VERTEX
  8
B-1465A.PLT
 62
7
 10
13.06401367
 20
14.95540820
  0
VERTEX
  8
B-1465A.PLT
 62
7
 10
12.89007104
 20
14.99740747
  0
VERTEX
  8
B-1465A.PLT
 62
7
 10
12.71662500
 20
15.04187500
  0
VERTEX
  8
B-1465A.PLT
 62
7
 10
12.54365942
 20
15.08881519
  0
VERTEX
  8
B-1465A.PLT
 62
7
 10
12.37115820
 20
15.13823242
  0
VERTEX
  8
B-1465A.PLT
 62
7
 10
12.19910522
 20
15.19013110
  0
VERTEX
  8
B-1465A.PLT
 62
7
 10
12.02748438
 20
15.24451563
  0
VERTEX
  8
B-1465A.PLT
 62
7
 10
11.85627954
 20
15.30139038
  0
VERTEX
  8
B-1465A.PLT
 62
7
 10
11.68547461
 20
15.36075977
  0
VERTEX
  8
B-1465A.PLT
 62
7
 10
11.51505347
 20
15.42262817
  0
VERTEX
  8
B-1465A.PLT
 62
7
 10
11.34500000
 20
15.48700000
  0
VERTEX
  8
B-1465A.PLT
 62
7
 10
11.14289185
 20
15.56282837
  0
VERTEX
  8
B-1465A.PLT
 62
7
 10
10.93971289
 20
15.63392383
  0
VERTEX
  8
B-1465A.PLT
 62
7
 10
10.73549390
 20
15.70026440
  0
VERTEX
  8
B-1465A.PLT
 62
7
 10
10.53026563
 20
15.76182812
  0
VERTEX
  8
B-1465A.PLT
 62
7
 10
10.32405884
 20
15.81859302
  0
VERTEX
  8
B-1465A.PLT
 62
7
 10
10.11690430
 20
15.87053711
  0
VERTEX
  8
B-1465A.PLT
 62
7
 10
9.90883276
 20
15.91763843
  0
VERTEX
  8
B-1465A.PLT
 62
7
 10
9.69987500
 20
15.95987500
  0
VERTEX
  8
B-1465A.PLT
 62
7
 10
9.49006177
 20
15.99722485
  0
VERTEX
  8
B-1465A.PLT
 62
7
 10
9.27942383
 20
16.02966602
  0
VERTEX
  8
B-1465A.PLT
 62
7
 10
9.06799194
 20
16.05717651
  0
VERTEX
  8
B-1465A.PLT
 62
7
 10
8.85579687
 20
16.07973438
  0
VERTEX
  8
B-1465A.PLT
 62
7
 10
8.64286938
 20
16.09731763
  0
VERTEX
  8
B-1465A.PLT
 62
7
 10
8.42924023
 20
16.10990430
  0
VERTEX
  8
B-1465A.PLT
 62
7
 10
8.21494019
 20
16.11747241
  0
VERTEX
  8
B-1465A.PLT
 62
7
 10
8.00000000
 20
16.12000000
  0
VERTEX
  8
B-1465A.PLT
 62
7
 10
7.78756689
 20
16.11745142
  0
VERTEX
  8
B-1465A.PLT
 62
7
 10
7.57520703
 20
16.10983008
  0
VERTEX
  8
B-1465A.PLT
 62
7
 10
7.36301709
 20
16.09717261
  0
VERTEX
  8
B-1465A.PLT
 62
7
 10
7.15109375
 20
16.07951562
  0
VERTEX
  8
B-1465A.PLT
 62
7
 10
6.93953369
 20
16.05689575
  0
VERTEX
  8
B-1465A.PLT
 62
7
 10
6.72843359
 20
16.02934961
  0
VERTEX
  8
B-1465A.PLT
 62
7
 10
6.51789014
 20
15.99691382
  0
VERTEX
  8
B-1465A.PLT
 62
7
 10
6.30800000
 20
15.95962500
  0
VERTEX
  8
B-1465A.PLT
 62
7
 10
6.09885986
 20
15.91751978
  0
VERTEX
  8
B-1465A.PLT
 62
7
 10
5.89056641
 20
15.87063477
  0
VERTEX
  8
B-1465A.PLT
 62
7
 10
5.68321631
 20
15.81900659
  0
VERTEX
  8
B-1465A.PLT
 62
7
 10
5.47690625
 20
15.76267188
  0
VERTEX
  8
B-1465A.PLT
 62
7
 10
5.27173291
 20
15.70166724
  0
VERTEX
  8
B-1465A.PLT
 62
7
 10
5.06779297
 20
15.63602930
  0
VERTEX
  8
B-1465A.PLT
 62
7
 10
4.86518311
 20
15.56579468
  0
VERTEX
  8
B-1465A.PLT
 62
7
 10
4.66400000
 20
15.49100000
  0
VERTEX
  8
B-1465A.PLT
 62
7
 10
4.49522974
 20
15.42729810
  0
VERTEX
  8
B-1465A.PLT
 62
7
 10
4.32568164
 20
15.36594727
  0
VERTEX
  8
B-1465A.PLT
 62
7
 10
4.15537476
 20
15.30695483
  0
VERTEX
  8
B-1465A.PLT
 62
7
 10
3.98432813
 20
15.25032812
  0
VERTEX
  8
B-1465A.PLT
 62
7
 10
3.81256079
 20
15.19607446
  0
VERTEX
  8
B-1465A.PLT
 62
7
 10
3.64009180
 20
15.14420117
  0
VERTEX
  8
B-1465A.PLT
 62
7
 10
3.46694019
 20
15.09471558
  0
VERTEX
  8
B-1465A.PLT
 62
7
 10
3.29312500
 20
15.04762500
  0
VERTEX
  8
B-1465A.PLT
 62
7
 10
3.11866528
 20
15.00293677
  0
VERTEX
  8
B-1465A.PLT
 62
7
 10
2.94358008
 20
14.96065820
  0
VERTEX
  8
B-1465A.PLT
 62
7
 10
2.76788843
 20
14.92079663
  0
VERTEX
  8
B-1465A.PLT
 62
7
 10
2.59160938
 20
14.88335938
  0
VERTEX
  8
B-1465A.PLT
 62
7
 10
2.41476196
 20
14.84835376
  0
VERTEX
  8
B-1465A.PLT
 62
7
 10
2.23736523
 20
14.81578711
  0
VERTEX
  8
B-1465A.PLT
 62
7
 10
2.05943823
 20
14.78566675
  0
VERTEX
  8
B-1465A.PLT
 62
7
 10
1.88100000
 20
14.75800000
  0
VERTEX
  8
B-1465A.PLT
 62
7
 10
1.88400000
 20
6.39200000
  0
VERTEX
  8
B-1465A.PLT
 62
7
 10
1.91316992
 20
6.40476953
  0
VERTEX
  8
B-1465A.PLT
 62
7
 10
1.94354688
 20
6.41728125
  0
VERTEX
  8
B-1465A.PLT
 62
7
 10
1.97493164
 20
6.42908984
  0
VERTEX
  8
B-1465A.PLT
 62
7
 10
2.00712500
 20
6.43975000
  0
VERTEX
  8
B-1465A.PLT
 62
7
 10
2.03992773
 20
6.44881641
  0
VERTEX
  8
B-1465A.PLT
 62
7
 10
2.07314063
 20
6.45584375
  0
VERTEX
  8
B-1465A.PLT
 62
7
 10
2.10656445
 20
6.46038672
  0
VERTEX
  8
B-1465A.PLT
 62
7
 10
2.14000000
 20
6.46200000
  0
VERTEX
  8
B-1465A.PLT
 62
7
 10
2.18906250
 20
6.47509375
  0
VERTEX
  8
B-1465A.PLT
 62
7
 10
2.24000000
 20
6.48425000
  0
VERTEX
  8
B-1465A.PLT
 62
7
 10
2.29243750
 20
6.48928125
  0
VERTEX
  8
B-1465A.PLT
 62
7
 10
2.34600000
 20
6.49000000
  0
VERTEX
  8
B-1465A.PLT
 62
7
 10
2.39688477
 20
6.48735352
  0
VERTEX
  8
B-1465A.PLT
 62
7
 10
2.44670313
 20
6.48101563
  0
VERTEX
  8
B-1465A.PLT
 62
7
 10
2.49532617
 20
6.47113867
  0
VERTEX
  8
B-1465A.PLT
 62
7
 10
2.54262500
 20
6.45787500
  0
VERTEX
  8
B-1465A.PLT
 62
7
 10
2.58847070
 20
6.44137695
  0
VERTEX
  8
B-1465A.PLT
 62
7
 10
2.63273438
 20
6.42179688
  0
VERTEX
  8
B-1465A.PLT
 62
7
 10
2.67528711
 20
6.39928711
  0
VERTEX
  8
B-1465A.PLT
 62
7
 10
2.71600000
 20
6.37400000
  0
VERTEX
  8
B-1465A.PLT
 62
7
 10
2.76340625
 20
6.38742188
  0
VERTEX
  8
B-1465A.PLT
 62
7
 10
2.81250000
 20
6.39737500
  0
VERTEX
  8
B-1465A.PLT
 62
7
 10
2.86309375
 20
6.40339063
  0
VERTEX
  8
B-1465A.PLT
 62
7
 10
2.91500000
 20
6.40500000
  0
VERTEX
  8
B-1465A.PLT
 62
7
 10
2.95116992
 20
6.40284961
  0
VERTEX
  8
B-1465A.PLT
 62
7
 10
2.98685937
 20
6.39867187
  0
VERTEX
  8
B-1465A.PLT
 62
7
 10
3.02196289
 20
6.39250195
  0
VERTEX
  8
B-1465A.PLT
 62
7
 10
3.05637500
 20
6.38437500
  0
VERTEX
  8
B-1465A.PLT
 62
7
 10
3.08999023
 20
6.37432617
  0
VERTEX
  8
B-1465A.PLT
 62
7
 10
3.12270313
 20
6.36239062
  0
VERTEX
  8
B-1465A.PLT
 62
7
 10
3.15440820
 20
6.34860352
  0
VERTEX
  8
B-1465A.PLT
 62
7
 10
3.18500000
 20
6.33300000
  0
VERTEX
  8
B-1465A.PLT
 62
7
 10
3.18400000
 20
6.33300000
  0
VERTEX
  8
B-1465A.PLT
 62
7
 10
3.21416406
 20
6.35430664
  0
VERTEX
  8
B-1465A.PLT
 62
7
 10
3.24606250
 20
6.37314062
  0
VERTEX
  8
B-1465A.PLT
 62
7
 10
3.27955469
 20
6.38937305
  0
VERTEX
  8
B-1465A.PLT
 62
7
 10
3.31450000
 20
6.40287500
  0
VERTEX
  8
B-1465A.PLT
 62
7
 10
3.35075781
 20
6.41351758
  0
VERTEX
  8
B-1465A.PLT
 62
7
 10
3.38818750
 20
6.42117187
  0
VERTEX
  8
B-1465A.PLT
 62
7
 10
3.42664844
 20
6.42570898
  0
VERTEX
  8
B-1465A.PLT
 62
7
 10
3.46600000
 20
6.42700000
  0
VERTEX
  8
B-1465A.PLT
 62
7
 10
3.50159375
 20
6.42492187
  0
VERTEX
  8
B-1465A.PLT
 62
7
 10
3.53625000
 20
6.42012500
  0
VERTEX
  8
B-1465A.PLT
 62
7
 10
3.56978125
 20
6.41251563
  0
VERTEX
  8
B-1465A.PLT
 62
7
 10
3.60200000
 20
6.40200000
  0
VERTEX
  8
B-1465A.PLT
 62
7
 10
3.60200000
 20
6.40400000
  0
VERTEX
  8
B-1465A.PLT
 62
7
 10
3.63483594
 20
6.42708398
  0
VERTEX
  8
B-1465A.PLT
 62
7
 10
3.66950000
 20
6.44748438
  0
VERTEX
  8
B-1465A.PLT
 62
7
 10
3.70585156
 20
6.46504883
  0
VERTEX
  8
B-1465A.PLT
 62
7
 10
3.74375000
 20
6.47962500
  0
VERTEX
  8
B-1465A.PLT
 62
7
 10
3.78305469
 20
6.49106055
  0
VERTEX
  8
B-1465A.PLT
 62
7
 10
3.82362500
 20
6.49920313
  0
VERTEX
  8
B-1465A.PLT
 62
7
 10
3.86532031
 20
6.50390039
  0
VERTEX
  8
B-1465A.PLT
 62
7
 10
3.90800000
 20
6.50500000
  0
VERTEX
  8
B-1465A.PLT
 62
7
 10
3.93700000
 20
6.50400000
  0
VERTEX
  8
B-1465A.PLT
 62
7
 10
3.95224414
 20
6.53640234
  0
VERTEX
  8
B-1465A.PLT
 62
7
 10
3.97082813
 20
6.56671875
  0
VERTEX
  8
B-1465A.PLT
 62
7
 10
3.99252930
 20
6.59473828
  0
VERTEX
  8
B-1465A.PLT
 62
7
 10
4.01712500
 20
6.62025000
  0
VERTEX
  8
B-1465A.PLT
 62
7
 10
4.04439258
 20
6.64304297
  0
VERTEX
  8
B-1465A.PLT
 62
7
 10
4.07410937
 20
6.66290625
  0
VERTEX
  8
B-1465A.PLT
 62
7
 10
4.10605273
 20
6.67962891
  0
VERTEX
  8
B-1465A.PLT
 62
7
 10
4.14000000
 20
6.69300000
  0
VERTEX
  8
B-1465A.PLT
 62
7
 10
4.14000000
 20
6.69400000
  0
VERTEX
  8
B-1465A.PLT
 62
7
 10
4.14887500
 20
6.71575000
  0
VERTEX
  8
B-1465A.PLT
 62
7
 10
4.16000000
 20
6.73600000
  0
VERTEX
  8
B-1465A.PLT
 62
7
 10
4.11484375
 20
6.74083594
  0
VERTEX
  8
B-1465A.PLT
 62
7
 10
4.07193750
 20
6.75200000
  0
VERTEX
  8
B-1465A.PLT
 62
7
 10
4.03175000
 20
6.76897656
  0
VERTEX
  8
B-1465A.PLT
 62
7
 10
3.99475000
 20
6.79125000
  0
VERTEX
  8
B-1465A.PLT
 62
7
 10
3.96140625
 20
6.81830469
  0
VERTEX
  8
B-1465A.PLT
 62
7
 10
3.93218750
 20
6.84962500
  0
VERTEX
  8
B-1465A.PLT
 62
7
 10
3.90756250
 20
6.88469531
  0
VERTEX
  8
B-1465A.PLT
 62
7
 10
3.88800000
 20
6.92300000
  0
VERTEX
  8
B-1465A.PLT
 62
7
 10
3.88800000
 20
6.92400000
  0
VERTEX
  8
B-1465A.PLT
 62
7
 10
3.90831250
 20
6.97051953
  0
VERTEX
  8
B-1465A.PLT
 62
7
 10
3.93237500
 20
7.01471875
  0
VERTEX
  8
B-1465A.PLT
 62
7
 10
3.96000000
 20
7.05643359
  0
VERTEX
  8
B-1465A.PLT
 62
7
 10
3.99100000
 20
7.09550000
  0
VERTEX
  8
B-1465A.PLT
 62
7
 10
4.02518750
 20
7.13175391
  0
VERTEX
  8
B-1465A.PLT
 62
7
 10
4.06237500
 20
7.16503125
  0
VERTEX
  8
B-1465A.PLT
 62
7
 10
4.10237500
 20
7.19516797
  0
VERTEX
  8
B-1465A.PLT
 62
7
 10
4.14500000
 20
7.22200000
  0
VERTEX
  8
B-1465A.PLT
 62
7
 10
4.14400000
 20
7.22200000
  0
VERTEX
  8
B-1465A.PLT
 62
7
 10
4.20170312
 20
7.24409375
  0
VERTEX
  8
B-1465A.PLT
 62
7
 10
4.26212500
 20
7.26075000
  0
VERTEX
  8
B-1465A.PLT
 62
7
 10
4.32498437
 20
7.27178125
  0
VERTEX
  8
B-1465A.PLT
 62
7
 10
4.39000000
 20
7.27700000
  0
VERTEX
  8
B-1465A.PLT
 62
7
 10
4.39000000
 20
7.27700000
  0
VERTEX
  8
B-1465A.PLT
 62
7
 10
4.40753638
 20
7.31175049
  0
VERTEX
  8
B-1465A.PLT
 62
7
 10
4.42744727
 20
7.34505078
  0
VERTEX
  8
B-1465A.PLT
 62
7
 10
4.44962280
 20
7.37678662
  0
VERTEX
  8
B-1465A.PLT
 62
7
 10
4.47395313
 20
7.40684375
  0
VERTEX
  8
B-1465A.PLT
 62
7
 10
4.50032837
 20
7.43510791
  0
VERTEX
  8
B-1465A.PLT
 62
7
 10
4.52863867
 20
7.46146484
  0
VERTEX
  8
B-1465A.PLT
 62
7
 10
4.55877417
 20
7.48580029
  0
VERTEX
  8
B-1465A.PLT
 62
7
 10
4.59062500
 20
7.50800000
  0
VERTEX
  8
B-1465A.PLT
 62
7
 10
4.62408130
 20
7.52794971
  0
VERTEX
  8
B-1465A.PLT
 62
7
 10
4.65903320
 20
7.54553516
  0
VERTEX
  8
B-1465A.PLT
 62
7
 10
4.69537085
 20
7.56064209
  0
VERTEX
  8
B-1465A.PLT
 62
7
 10
4.73298438
 20
7.57315625
  0
VERTEX
  8
B-1465A.PLT
 62
7
 10
4.77176392
 20
7.58296338
  0
VERTEX
  8
B-1465A.PLT
 62
7
 10
4.81159961
 20
7.58994922
  0
VERTEX
  8
B-1465A.PLT
 62
7
 10
4.85238159
 20
7.59399951
  0
VERTEX
  8
B-1465A.PLT
 62
7
 10
4.89400000
 20
7.59500000
  0
VERTEX
  8
B-1465A.PLT
 62
7
 10
4.92400000
 20
7.59300000
  0
VERTEX
  8
B-1465A.PLT
 62
7
 10
4.92500000
 20
7.59300000
  0
VERTEX
  8
B-1465A.PLT
 62
7
 10
4.98499219
 20
7.58804102
  0
VERTEX
  8
B-1465A.PLT
 62
7
 10
5.04418750
 20
7.58070313
  0
VERTEX
  8
B-1465A.PLT
 62
7
 10
5.10253906
 20
7.57104492
  0
VERTEX
  8
B-1465A.PLT
 62
7
 10
5.16000000
 20
7.55912500
  0
VERTEX
  8
B-1465A.PLT
 62
7
 10
5.21652344
 20
7.54500195
  0
VERTEX
  8
B-1465A.PLT
 62
7
 10
5.27206250
 20
7.52873438
  0
VERTEX
  8
B-1465A.PLT
 62
7
 10
5.32657031
 20
7.51038086
  0
VERTEX
  8
B-1465A.PLT
 62
7
 10
5.38000000
 20
7.49000000
  0
VERTEX
  8
B-1465A.PLT
 62
7
 10
5.42717383
 20
7.48104297
  0
VERTEX
  8
B-1465A.PLT
 62
7
 10
5.47257813
 20
7.46784375
  0
VERTEX
  8
B-1465A.PLT
 62
7
 10
5.51603711
 20
7.45066016
  0
VERTEX
  8
B-1465A.PLT
 62
7
 10
5.55737500
 20
7.42975000
  0
VERTEX
  8
B-1465A.PLT
 62
7
 10
5.59641602
 20
7.40537109
  0
VERTEX
  8
B-1465A.PLT
 62
7
 10
5.63298438
 20
7.37778125
  0
VERTEX
  8
B-1465A.PLT
 62
7
 10
5.66690430
 20
7.34723828
  0
VERTEX
  8
B-1465A.PLT
 62
7
 10
5.69800000
 20
7.31400000
  0
VERTEX
  8
B-1465A.PLT
 62
7
 10
5.75034570
 20
7.29119336
  0
VERTEX
  8
B-1465A.PLT
 62
7
 10
5.79914062
 20
7.26279688
  0
VERTEX
  8
B-1465A.PLT
 62
7
 10
5.84402148
 20
7.22922070
  0
VERTEX
  8
B-1465A.PLT
 62
7
 10
5.88462500
 20
7.19087500
  0
VERTEX
  8
B-1465A.PLT
 62
7
 10
5.92058789
 20
7.14816992
  0
VERTEX
  8
B-1465A.PLT
 62
7
 10
5.95154688
 20
7.10151563
  0
VERTEX
  8
B-1465A.PLT
 62
7
 10
5.97713867
 20
7.05132227
  0
VERTEX
  8
B-1465A.PLT
 62
7
 10
5.99700000
 20
6.99800000
  0
VERTEX
  8
B-1465A.PLT
 62
7
 10
5.96194922
 20
6.98145508
  0
VERTEX
  8
B-1465A.PLT
 62
7
 10
5.92584375
 20
6.96707812
  0
VERTEX
  8
B-1465A.PLT
 62
7
 10
5.88875391
 20
6.95488086
  0
VERTEX
  8
B-1465A.PLT
 62
7
 10
5.85075000
 20
6.94487500
  0
VERTEX
  8
B-1465A.PLT
 62
7
 10
5.81190234
 20
6.93707227
  0
VERTEX
  8
B-1465A.PLT
 62
7
 10
5.77228125
 20
6.93148438
  0
VERTEX
  8
B-1465A.PLT
 62
7
 10
5.73195703
 20
6.92812305
  0
VERTEX
  8
B-1465A.PLT
 62
7
 10
5.69100000
 20
6.92700000
  0
VERTEX
  8
B-1465A.PLT
 62
7
 10
5.69200000
 20
6.92500000
  0
VERTEX
  8
B-1465A.PLT
 62
7
 10
5.69500000
 20
6.82700000
  0
VERTEX
  8
B-1465A.PLT
 62
7
 10
5.69500000
 20
6.72900000
  0
VERTEX
  8
B-1465A.PLT
 62
7
 10
5.69237891
 20
6.64566211
  0
VERTEX
  8
B-1465A.PLT
 62
7
 10
5.68753125
 20
6.56292187
  0
VERTEX
  8
B-1465A.PLT
 62
7
 10
5.68048047
 20
6.48081445
  0
VERTEX
  8
B-1465A.PLT
 62
7
 10
5.67125000
 20
6.39937500
  0
VERTEX
  8
B-1465A.PLT
 62
7
 10
5.65986328
 20
6.31863867
  0
VERTEX
  8
B-1465A.PLT
 62
7
 10
5.64634375
 20
6.23864063
  0
VERTEX
  8
B-1465A.PLT
 62
7
 10
5.63071484
 20
6.15941602
  0
VERTEX
  8
B-1465A.PLT
 62
7
 10
5.61300000
 20
6.08100000
  0
VERTEX
  8
B-1465A.PLT
 62
7
 10
5.59408008
 20
6.04191016
  0
VERTEX
  8
B-1465A.PLT
 62
7
 10
5.57057812
 20
6.00584375
  0
VERTEX
  8
B-1465A.PLT
 62
7
 10
5.54288086
 20
5.97310547
  0
VERTEX
  8
B-1465A.PLT
 62
7
 10
5.51137500
 20
5.94400000
  0
VERTEX
  8
B-1465A.PLT
 62
7
 10
5.47644727
 20
5.91883203
  0
VERTEX
  8
B-1465A.PLT
 62
7
 10
5.43848437
 20
5.89790625
  0
VERTEX
  8
B-1465A.PLT
 62
7
 10
5.39787305
 20
5.88152734
  0
VERTEX
  8
B-1465A.PLT
 62
7
 10
5.35500000
 20
5.87000000
  0
VERTEX
  8
B-1465A.PLT
 62
7
 10
5.35600000
 20
5.87000000
  0
VERTEX
  8
B-1465A.PLT
 62
7
 10
5.32737500
 20
5.86475000
  0
VERTEX
  8
B-1465A.PLT
 62
7
 10
5.29800000
 20
5.86400000
  0
VERTEX
  8
B-1465A.PLT
 62
7
 10
5.27294336
 20
5.86576172
  0
VERTEX
  8
B-1465A.PLT
 62
7
 10
5.24885938
 20
5.87021875
  0
VERTEX
  8
B-1465A.PLT
 62
7
 10
5.22587695
 20
5.87725391
  0
VERTEX
  8
B-1465A.PLT
 62
7
 10
5.20412500
 20
5.88675000
  0
VERTEX
  8
B-1465A.PLT
 62
7
 10
5.18373242
 20
5.89858984
  0
VERTEX
  8
B-1465A.PLT
 62
7
 10
5.16482812
 20
5.91265625
  0
VERTEX
  8
B-1465A.PLT
 62
7
 10
5.14754102
 20
5.92883203
  0
VERTEX
  8
B-1465A.PLT
 62
7
 10
5.13200000
 20
5.94700000
  0
VERTEX
  8
B-1465A.PLT
 62
7
 10
5.09000000
 20
5.94300000
  0
VERTEX
  8
B-1465A.PLT
 62
7
 10
5.05937500
 20
5.94550000
  0
VERTEX
  8
B-1465A.PLT
 62
7
 10
5.03100000
 20
5.95100000
  0
VERTEX
  8
B-1465A.PLT
 62
7
 10
5.01454687
 20
5.89101562
  0
VERTEX
  8
B-1465A.PLT
 62
7
 10
4.99387500
 20
5.83262500
  0
VERTEX
  8
B-1465A.PLT
 62
7
 10
4.96926563
 20
5.77592187
  0
VERTEX
  8
B-1465A.PLT
 62
7
 10
4.94100000
 20
5.72100000
  0
VERTEX
  8
B-1465A.PLT
 62
7
 10
4.94100000
 20
5.72200000
  0
VERTEX
  8
B-1465A.PLT
 62
7
 10
4.94625000
 20
5.67637500
  0
VERTEX
  8
B-1465A.PLT
 62
7
 10
4.94700000
 20
5.63000000
  0
VERTEX
  8
B-1465A.PLT
 62
7
 10
4.94463086
 20
5.58723047
  0
VERTEX
  8
B-1465A.PLT
 62
7
 10
4.93910938
 20
5.54528125
  0
VERTEX
  8
B-1465A.PLT
 62
7
 10
4.93056445
 20
5.50431641
  0
VERTEX
  8
B-1465A.PLT
 62
7
 10
4.91912500
 20
5.46450000
  0
VERTEX
  8
B-1465A.PLT
 62
7
 10
4.90491992
 20
5.42599609
  0
VERTEX
  8
B-1465A.PLT
 62
7
 10
4.88807812
 20
5.38896875
  0
VERTEX
  8
B-1465A.PLT
 62
7
 10
4.86872852
 20
5.35358203
  0
VERTEX
  8
B-1465A.PLT
 62
7
 10
4.84700000
 20
5.32000000
  0
VERTEX
  8
B-1465A.PLT
 62
7
 10
4.82800195
 20
5.23260938
  0
VERTEX
  8
B-1465A.PLT
 62
7
 10
4.80339062
 20
5.14756250
  0
VERTEX
  8
B-1465A.PLT
 62
7
 10
4.77336523
 20
5.06504688
  0
VERTEX
  8
B-1465A.PLT
 62
7
 10
4.73812500
 20
4.98525000
  0
VERTEX
  8
B-1465A.PLT
 62
7
 10
4.69786914
 20
4.90835937
  0
VERTEX
  8
B-1465A.PLT
 62
7
 10
4.65279687
 20
4.83456250
  0
VERTEX
  8
B-1465A.PLT
 62
7
 10
4.60310742
 20
4.76404688
  0
VERTEX
  8
B-1465A.PLT
 62
7
 10
4.54900000
 20
4.69700000
  0
VERTEX
  8
B-1465A.PLT
 62
7
 10
4.54900000
 20
4.69700000
  0
VERTEX
  8
B-1465A.PLT
 62
7
 10
4.56809375
 20
4.61942187
  0
VERTEX
  8
B-1465A.PLT
 62
7
 10
4.58175000
 20
4.53987500
  0
VERTEX
  8
B-1465A.PLT
 62
7
 10
4.58978125
 20
4.45864063
  0
VERTEX
  8
B-1465A.PLT
 62
7
 10
4.59200000
 20
4.37600000
  0
VERTEX
  8
B-1465A.PLT
 62
7
 10
4.58787500
 20
4.30487500
  0
VERTEX
  8
B-1465A.PLT
 62
7
 10
4.58000000
 20
4.23600000
  0
VERTEX
  8
B-1465A.PLT
 62
7
 10
4.58000000
 20
4.23800000
  0
VERTEX
  8
B-1465A.PLT
 62
7
 10
4.61132031
 20
4.20232617
  0
VERTEX
  8
B-1465A.PLT
 62
7
 10
4.63912500
 20
4.16373437
  0
VERTEX
  8
B-1465A.PLT
 62
7
 10
4.66317969
 20
4.12249414
  0
VERTEX
  8
B-1465A.PLT
 62
7
 10
4.68325000
 20
4.07887500
  0
VERTEX
  8
B-1465A.PLT
 62
7
 10
4.69910156
 20
4.03314648
  0
VERTEX
  8
B-1465A.PLT
 62
7
 10
4.71050000
 20
3.98557813
  0
VERTEX
  8
B-1465A.PLT
 62
7
 10
4.71721094
 20
3.93643945
  0
VERTEX
  8
B-1465A.PLT
 62
7
 10
4.71900000
 20
3.88600000
  0
VERTEX
  8
B-1465A.PLT
 62
7
 10
4.71600000
 20
3.84287500
  0
VERTEX
  8
B-1465A.PLT
 62
7
 10
4.71000000
 20
3.80200000
  0
VERTEX
  8
B-1465A.PLT
 62
7
 10
4.71431250
 20
3.75064063
  0
VERTEX
  8
B-1465A.PLT
 62
7
 10
4.72125000
 20
3.70012500
  0
VERTEX
  8
B-1465A.PLT
 62
7
 10
4.73081250
 20
3.65054687
  0
VERTEX
  8
B-1465A.PLT
 62
7
 10
4.74300000
 20
3.60200000
  0
VERTEX
  8
B-1465A.PLT
 62
7
 10
4.77217187
 20
3.57393750
  0
VERTEX
  8
B-1465A.PLT
 62
7
 10
4.79787500
 20
3.54250000
  0
VERTEX
  8
B-1465A.PLT
 62
7
 10
4.81964062
 20
3.50806250
  0
VERTEX
  8
B-1465A.PLT
 62
7
 10
4.83700000
 20
3.47100000
  0
VERTEX
  8
B-1465A.PLT
 62
7
 10
4.83800000
 20
3.47100000
  0
VERTEX
  8
B-1465A.PLT
 62
7
 10
4.86398047
 20
3.43310937
  0
VERTEX
  8
B-1465A.PLT
 62
7
 10
4.88703125
 20
3.39306250
  0
VERTEX
  8
B-1465A.PLT
 62
7
 10
4.90694141
 20
3.35104688
  0
VERTEX
  8
B-1465A.PLT
 62
7
 10
4.92350000
 20
3.30725000
  0
VERTEX
  8
B-1465A.PLT
 62
7
 10
4.93649609
 20
3.26185937
  0
VERTEX
  8
B-1465A.PLT
 62
7
 10
4.94571875
 20
3.21506250
  0
VERTEX
  8
B-1465A.PLT
 62
7
 10
4.95095703
 20
3.16704688
  0
VERTEX
  8
B-1465A.PLT
 62
7
 10
4.95200000
 20
3.11800000
  0
VERTEX
  8
B-1465A.PLT
 62
7
 10
4.95100000
 20
3.09200000
  0
VERTEX
  8
B-1465A.PLT
 62
7
 10
9.66400000
 20
3.09100000
  0
VERTEX
  8
B-1465A.PLT
 62
7
 10
9.65481250
 20
3.11243750
  0
VERTEX
  8
B-1465A.PLT
 62
7
 10
9.64825000
 20
3.13575000
  0
VERTEX
  8
B-1465A.PLT
 62
7
 10
9.64431250
 20
3.16018750
  0
VERTEX
  8
B-1465A.PLT
 62
7
 10
9.64300000
 20
3.18500000
  0
VERTEX
  8
B-1465A.PLT
 62
7
 10
9.64415430
 20
3.20607227
  0
VERTEX
  8
B-1465A.PLT
 62
7
 10
9.64754687
 20
3.22645312
  0
VERTEX
  8
B-1465A.PLT
 62
7
 10
9.65307227
 20
3.24601367
  0
VERTEX
  8
B-1465A.PLT
 62
7
 10
9.66062500
 20
3.26462500
  0
VERTEX
  8
B-1465A.PLT
 62
7
 10
9.67009961
 20
3.28215820
  0
VERTEX
  8
B-1465A.PLT
 62
7
 10
9.68139063
 20
3.29848438
  0
VERTEX
  8
B-1465A.PLT
 62
7
 10
9.69439258
 20
3.31347461
  0
VERTEX
  8
B-1465A.PLT
 62
7
 10
9.70900000
 20
3.32700000
  0
VERTEX
  8
B-1465A.PLT
 62
7
 10
9.74379687
 20
3.35601562
  0
VERTEX
  8
B-1465A.PLT
 62
7
 10
9.78187500
 20
3.38137500
  0
VERTEX
  8
B-1465A.PLT
 62
7
 10
9.82276563
 20
3.40279687
  0
VERTEX
  8
B-1465A.PLT
 62
7
 10
9.86600000
 20
3.42000000
  0
VERTEX
  8
B-1465A.PLT
 62
7
 10
9.89970313
 20
3.42918750
  0
VERTEX
  8
B-1465A.PLT
 62
7
 10
9.93462500
 20
3.43575000
  0
VERTEX
  8
B-1465A.PLT
 62
7
 10
9.97048437
 20
3.43968750
  0
VERTEX
  8
B-1465A.PLT
 62
7
 10
10.00700000
 20
3.44100000
  0
VERTEX
  8
B-1465A.PLT
 62
7
 10
10.05862500
 20
3.43812500
  0
VERTEX
  8
B-1465A.PLT
 62
7
 10
10.10800000
 20
3.43000000
  0
VERTEX
  8
B-1465A.PLT
 62
7
 10
10.10700000
 20
3.43300000
  0
VERTEX
  8
B-1465A.PLT
 62
7
 10
10.10948828
 20
3.48110352
  0
VERTEX
  8
B-1465A.PLT
 62
7
 10
10.11678125
 20
3.52776562
  0
VERTEX
  8
B-1465A.PLT
 62
7
 10
10.12862109
 20
3.57276367
  0
VERTEX
  8
B-1465A.PLT
 62
7
 10
10.14475000
 20
3.61587500
  0
VERTEX
  8
B-1465A.PLT
 62
7
 10
10.16491016
 20
3.65687695
  0
VERTEX
  8
B-1465A.PLT
 62
7
 10
10.18884375
 20
3.69554687
  0
VERTEX
  8
B-1465A.PLT
 62
7
 10
10.21629297
 20
3.73166211
  0
VERTEX
  8
B-1465A.PLT
 62
7
 10
10.24700000
 20
3.76500000
  0
VERTEX
  8
B-1465A.PLT
 62
7
 10
10.26822266
 20
3.77890430
  0
VERTEX
  8
B-1465A.PLT
 62
7
 10
10.29059375
 20
3.79129688
  0
VERTEX
  8
B-1465A.PLT
 62
7
 10
10.31404297
 20
3.80207227
  0
VERTEX
  8
B-1465A.PLT
 62
7
 10
10.33850000
 20
3.81112500
  0
VERTEX
  8
B-1465A.PLT
 62
7
 10
10.36389453
 20
3.81834961
  0
VERTEX
  8
B-1465A.PLT
 62
7
 10
10.39015625
 20
3.82364062
  0
VERTEX
  8
B-1465A.PLT
 62
7
 10
10.41721484
 20
3.82689258
  0
VERTEX
  8
B-1465A.PLT
 62
7
 10
10.44500000
 20
3.82800000
  0
VERTEX
  8
B-1465A.PLT
 62
7
 10
10.47681445
 20
3.82656641
  0
VERTEX
  8
B-1465A.PLT
 62
7
 10
10.50770313
 20
3.82234375
  0
VERTEX
  8
B-1465A.PLT
 62
7
 10
10.53758398
 20
3.81544922
  0
VERTEX
  8
B-1465A.PLT
 62
7
 10
10.56637500
 20
3.80600000
  0
VERTEX
  8
B-1465A.PLT
 62
7
 10
10.59399414
 20
3.79411328
  0
VERTEX
  8
B-1465A.PLT
 62
7
 10
10.62035938
 20
3.77990625
  0
VERTEX
  8
B-1465A.PLT
 62
7
 10
10.64538867
 20
3.76349609
  0
VERTEX
  8
B-1465A.PLT
 62
7
 10
10.66900000
 20
3.74500000
  0
VERTEX
  8
B-1465A.PLT
 62
7
 10
10.68799805
 20
3.72923828
  0
VERTEX
  8
B-1465A.PLT
 62
7
 10
10.70510937
 20
3.71134375
  0
VERTEX
  8
B-1465A.PLT
 62
7
 10
10.72013477
 20
3.69152734
  0
VERTEX
  8
B-1465A.PLT
 62
7
 10
10.73287500
 20
3.67000000
  0
VERTEX
  8
B-1465A.PLT
 62
7
 10
10.74313086
 20
3.64697266
  0
VERTEX
  8
B-1465A.PLT
 62
7
 10
10.75070312
 20
3.62265625
  0
VERTEX
  8
B-1465A.PLT
 62
7
 10
10.75539258
 20
3.59726172
  0
VERTEX
  8
B-1465A.PLT
 62
7
 10
10.75700000
 20
3.57100000
  0
VERTEX
  8
B-1465A.PLT
 62
7
 10
10.75487500
 20
3.54312500
  0
VERTEX
  8
B-1465A.PLT
 62
7
 10
10.74900000
 20
3.51600000
  0
VERTEX
  8
B-1465A.PLT
 62
7
 10
10.80400000
 20
3.54000000
  0
VERTEX
  8
B-1465A.PLT
 62
7
 10
10.80200000
 20
3.54000000
  0
VERTEX
  8
B-1465A.PLT
 62
7
 10
10.85150000
 20
3.56137500
  0
VERTEX
  8
B-1465A.PLT
 62
7
 10
10.89800000
 20
3.58500000
  0
VERTEX
  8
B-1465A.PLT
 62
7
 10
10.91093750
 20
3.61707812
  0
VERTEX
  8
B-1465A.PLT
 62
7
 10
10.92575000
 20
3.64737500
  0
VERTEX
  8
B-1465A.PLT
 62
7
 10
10.94243750
 20
3.67598438
  0
VERTEX
  8
B-1465A.PLT
 62
7
 10
10.96100000
 20
3.70300000
  0
VERTEX
  8
B-1465A.PLT
 62
7
 10
10.89700000
 20
3.73500000
  0
VERTEX
  8
B-1465A.PLT
 62
7
 10
10.90909424
 20
3.76095679
  0
VERTEX
  8
B-1465A.PLT
 62
7
 10
10.92283203
 20
3.78590430
  0
VERTEX
  8
B-1465A.PLT
 62
7
 10
10.93814600
 20
3.80977075
  0
VERTEX
  8
B-1465A.PLT
 62
7
 10
10.95496875
 20
3.83248437
  0
VERTEX
  8
B-1465A.PLT
 62
7
 10
10.97323291
 20
3.85397339
  0
VERTEX
  8
B-1465A.PLT
 62
7
 10
10.99287109
 20
3.87416602
  0
VERTEX
  8
B-1465A.PLT
 62
7
 10
11.01381592
 20
3.89299048
  0
VERTEX
  8
B-1465A.PLT
 62
7
 10
11.03600000
 20
3.91037500
  0
VERTEX
  8
B-1465A.PLT
 62
7
 10
11.05935596
 20
3.92624780
  0
VERTEX
  8
B-1465A.PLT
 62
7
 10
11.08381641
 20
3.94053711
  0
VERTEX
  8
B-1465A.PLT
 62
7
 10
11.10931396
 20
3.95317114
  0
VERTEX
  8
B-1465A.PLT
 62
7
 10
11.13578125
 20
3.96407812
  0
VERTEX
  8
B-1465A.PLT
 62
7
 10
11.16315088
 20
3.97318628
  0
VERTEX
  8
B-1465A.PLT
 62
7
 10
11.19135547
 20
3.98042383
  0
VERTEX
  8
B-1465A.PLT
 62
7
 10
11.22032764
 20
3.98571899
  0
VERTEX
  8
B-1465A.PLT
 62
7
 10
11.25000000
 20
3.98900000
  0
VERTEX
  8
B-1465A.PLT
 62
7
 10
11.24325000
 20
4.04262500
  0
VERTEX
  8
B-1465A.PLT
 62
7
 10
11.24100000
 20
4.09700000
  0
VERTEX
  8
B-1465A.PLT
 62
7
 10
11.24368359
 20
4.15860156
  0
VERTEX
  8
B-1465A.PLT
 62
7
 10
11.25159375
 20
4.21875000
  0
VERTEX
  8
B-1465A.PLT
 62
7
 10
11.26451953
 20
4.27721094
  0
VERTEX
  8
B-1465A.PLT
 62
7
 10
11.28225000
 20
4.33375000
  0
VERTEX
  8
B-1465A.PLT
 62
7
 10
11.30457422
 20
4.38813281
  0
VERTEX
  8
B-1465A.PLT
 62
7
 10
11.33128125
 20
4.44012500
  0
VERTEX
  8
B-1465A.PLT
 62
7
 10
11.36216016
 20
4.48949219
  0
VERTEX
  8
B-1465A.PLT
 62
7
 10
11.39700000
 20
4.53600000
  0
VERTEX
  8
B-1465A.PLT
 62
7
 10
11.41950977
 20
4.49206250
  0
VERTEX
  8
B-1465A.PLT
 62
7
 10
11.44564062
 20
4.45037500
  0
VERTEX
  8
B-1465A.PLT
 62
7
 10
11.47516992
 20
4.41112500
  0
VERTEX
  8
B-1465A.PLT
 62
7
 10
11.50787500
 20
4.37450000
  0
VERTEX
  8
B-1465A.PLT
 62
7
 10
11.54353320
 20
4.34068750
  0
VERTEX
  8
B-1465A.PLT
 62
7
 10
11.58192188
 20
4.30987500
  0
VERTEX
  8
B-1465A.PLT
 62
7
 10
11.62281836
 20
4.28225000
  0
VERTEX
  8
B-1465A.PLT
 62
7
 10
11.66600000
 20
4.25800000
  0
VERTEX
  8
B-1465A.PLT
 62
7
 10
11.66500000
 20
4.25800000
  0
VERTEX
  8
B-1465A.PLT
 62
7
 10
11.81000000
 20
4.28400000
  0
VERTEX
  8
B-1465A.PLT
 62
7
 10
11.84240625
 20
4.28764062
  0
VERTEX
  8
B-1465A.PLT
 62
7
 10
11.86600000
 20
4.28837500
  0
VERTEX
  8
B-1465A.PLT
 62
7
 10
11.88284375
 20
4.28667187
  0
VERTEX
  8
B-1465A.PLT
 62
7
 10
11.89500000
 20
4.28300000
  0
VERTEX
  8
B-1465A.PLT
 62
7
 10
11.92100000
 20
4.41100000
  0
VERTEX
  8
B-1465A.PLT
 62
7
 10
11.96262500
 20
4.38462500
  0
VERTEX
  8
B-1465A.PLT
 62
7
 10
12.00200000
 20
4.35600000
  0
VERTEX
  8
B-1465A.PLT
 62
7
 10
12.01000000
 20
4.36900000
  0
VERTEX
  8
B-1465A.PLT
 62
7
 10
12.01729688
 20
4.37587500
  0
VERTEX
  8
B-1465A.PLT
 62
7
 10
12.02262500
 20
4.38425000
  0
VERTEX
  8
B-1465A.PLT
 62
7
 10
12.02589063
 20
4.39375000
  0
VERTEX
  8
B-1465A.PLT
 62
7
 10
12.02700000
 20
4.40400000
  0
VERTEX
  8
B-1465A.PLT
 62
7
 10
12.02562500
 20
4.41575000
  0
VERTEX
  8
B-1465A.PLT
 62
7
 10
12.02200000
 20
4.42600000
  0
VERTEX
  8
B-1465A.PLT
 62
7
 10
12.01525000
 20
4.44537500
  0
VERTEX
  8
B-1465A.PLT
 62
7
 10
12.01300000
 20
4.46700000
  0
VERTEX
  8
B-1465A.PLT
 62
7
 10
12.01459375
 20
4.48382422
  0
VERTEX
  8
B-1465A.PLT
 62
7
 10
12.01918750
 20
4.49959375
  0
VERTEX
  8
B-1465A.PLT
 62
7
 10
12.02650000
 20
4.51400391
  0
VERTEX
  8
B-1465A.PLT
 62
7
 10
12.03625000
 20
4.52675000
  0
VERTEX
  8
B-1465A.PLT
 62
7
 10
12.04815625
 20
4.53752734
  0
VERTEX
  8
B-1465A.PLT
 62
7
 10
12.06193750
 20
4.54603125
  0
VERTEX
  8
B-1465A.PLT
 62
7
 10
12.07731250
 20
4.55195703
  0
VERTEX
  8
B-1465A.PLT
 62
7
 10
12.09400000
 20
4.55500000
  0
VERTEX
  8
B-1465A.PLT
 62
7
 10
12.12483984
 20
4.55977734
  0
VERTEX
  8
B-1465A.PLT
 62
7
 10
12.15415625
 20
4.56865625
  0
VERTEX
  8
B-1465A.PLT
 62
7
 10
12.18164453
 20
4.58133203
  0
VERTEX
  8
B-1465A.PLT
 62
7
 10
12.20700000
 20
4.59750000
  0
VERTEX
  8
B-1465A.PLT
 62
7
 10
12.22991797
 20
4.61685547
  0
VERTEX
  8
B-1465A.PLT
 62
7
 10
12.25009375
 20
4.63909375
  0
VERTEX
  8
B-1465A.PLT
 62
7
 10
12.26722266
 20
4.66391016
  0
VERTEX
  8
B-1465A.PLT
 62
7
 10
12.28100000
 20
4.69100000
  0
VERTEX
  8
B-1465A.PLT
 62
7
 10
12.28669531
 20
4.70222070
  0
VERTEX
  8
B-1465A.PLT
 62
7
 10
12.29393750
 20
4.71251563
  0
VERTEX
  8
B-1465A.PLT
 62
7
 10
12.30258594
 20
4.72170898
  0
VERTEX
  8
B-1465A.PLT
 62
7
 10
12.31250000
 20
4.72962500
  0
VERTEX
  8
B-1465A.PLT
 62
7
 10
12.32353906
 20
4.73608789
  0
VERTEX
  8
B-1465A.PLT
 62
7
 10
12.33556250
 20
4.74092187
  0
VERTEX
  8
B-1465A.PLT
 62
7
 10
12.34842969
 20
4.74395117
  0
VERTEX
  8
B-1465A.PLT
 62
7
 10
12.36200000
 20
4.74500000
  0
VERTEX
  8
B-1465A.PLT
 62
7
 10
12.38014062
 20
4.74317187
  0
VERTEX
  8
B-1465A.PLT
 62
7
 10
12.39687500
 20
4.73787500
  0
VERTEX
  8
B-1465A.PLT
 62
7
 10
12.41192188
 20
4.72939062
  0
VERTEX
  8
B-1465A.PLT
 62
7
 10
12.42500000
 20
4.71800000
  0
VERTEX
  8
B-1465A.PLT
 62
7
 10
12.44000000
 20
4.70850000
  0
VERTEX
  8
B-1465A.PLT
 62
7
 10
12.45800000
 20
4.70500000
  0
VERTEX
  8
B-1465A.PLT
 62
7
 10
12.47212500
 20
4.70712500
  0
VERTEX
  8
B-1465A.PLT
 62
7
 10
12.48400000
 20
4.71300000
  0
VERTEX
  8
B-1465A.PLT
 62
7
 10
12.51587500
 20
4.72337500
  0
VERTEX
  8
B-1465A.PLT
 62
7
 10
12.55000000
 20
4.72700000
  0
VERTEX
  8
B-1465A.PLT
 62
7
 10
12.57059375
 20
4.72557813
  0
VERTEX
  8
B-1465A.PLT
 62
7
 10
12.59025000
 20
4.72162500
  0
VERTEX
  8
B-1465A.PLT
 62
7
 10
12.60878125
 20
4.71560937
  0
VERTEX
  8
B-1465A.PLT
 62
7
 10
12.62600000
 20
4.70800000
  0
VERTEX
  8
B-1465A.PLT
 62
7
 10
12.60543750
 20
4.74510938
  0
VERTEX
  8
B-1465A.PLT
 62
7
 10
12.58731250
 20
4.78362500
  0
VERTEX
  8
B-1465A.PLT
 62
7
 10
12.57171875
 20
4.82345313
  0
VERTEX
  8
B-1465A.PLT
 62
7
 10
12.55875000
 20
4.86450000
  0
VERTEX
  8
B-1465A.PLT
 62
7
 10
12.54850000
 20
4.90667187
  0
VERTEX
  8
B-1465A.PLT
 62
7
 10
12.54106250
 20
4.94987500
  0
VERTEX
  8
B-1465A.PLT
 62
7
 10
12.53653125
 20
4.99401563
  0
VERTEX
  8
B-1465A.PLT
 62
7
 10
12.53500000
 20
5.03900000
  0
VERTEX
  8
B-1465A.PLT
 62
7
 10
12.53650000
 20
5.08387500
  0
VERTEX
  8
B-1465A.PLT
 62
7
 10
12.54100000
 20
5.12800000
  0
VERTEX
  8
B-1465A.PLT
 62
7
 10
12.63400000
 20
5.08700000
  0
VERTEX
  8
B-1465A.PLT
 62
7
 10
12.63200000
 20
5.13900000
  0
VERTEX
  8
B-1465A.PLT
 62
7
 10
12.63354419
 20
5.19281030
  0
VERTEX
  8
B-1465A.PLT
 62
7
 10
12.63811914
 20
5.24581055
  0
VERTEX
  8
B-1465A.PLT
 62
7
 10
12.64563843
 20
5.29791724
  0
VERTEX
  8
B-1465A.PLT
 62
7
 10
12.65601563
 20
5.34904688
  0
VERTEX
  8
B-1465A.PLT
 62
7
 10
12.66916431
 20
5.39911597
  0
VERTEX
  8
B-1465A.PLT
 62
7
 10
12.68499805
 20
5.44804102
  0
VERTEX
  8
B-1465A.PLT
 62
7
 10
12.70343042
 20
5.49573853
  0
VERTEX
  8
B-1465A.PLT
 62
7
 10
12.72437500
 20
5.54212500
  0
VERTEX
  8
B-1465A.PLT
 62
7
 10
12.74774536
 20
5.58711694
  0
VERTEX
  8
B-1465A.PLT
 62
7
 10
12.77345508
 20
5.63063086
  0
VERTEX
  8
B-1465A.PLT
 62
7
 10
12.80141772
 20
5.67258325
  0
VERTEX
  8
B-1465A.PLT
 62
7
 10
12.83154688
 20
5.71289063
  0
VERTEX
  8
B-1465A.PLT
 62
7
 10
12.86375610
 20
5.75146948
  0
VERTEX
  8
B-1465A.PLT
 62
7
 10
12.89795898
 20
5.78823633
  0
VERTEX
  8
B-1465A.PLT
 62
7
 10
12.93406909
 20
5.82310767
  0
VERTEX
  8
B-1465A.PLT
 62
7
 10
12.97200000
 20
5.85600000
  0
VERTEX
  8
B-1465A.PLT
 62
7
 10
12.97200000
 20
5.85300000
  0
VERTEX
  8
B-1465A.PLT
 62
7
 10
12.97320288
 20
5.82385962
  0
VERTEX
  8
B-1465A.PLT
 62
7
 10
12.97674805
 20
5.79537695
  0
VERTEX
  8
B-1465A.PLT
 62
7
 10
12.98254028
 20
5.76764722
  0
VERTEX
  8
B-1465A.PLT
 62
7
 10
12.99048437
 20
5.74076562
  0
VERTEX
  8
B-1465A.PLT
 62
7
 10
13.00048511
 20
5.71482739
  0
VERTEX
  8
B-1465A.PLT
 62
7
 10
13.01244727
 20
5.68992773
  0
VERTEX
  8
B-1465A.PLT
 62
7
 10
13.02627563
 20
5.66616187
  0
VERTEX
  8
B-1465A.PLT
 62
7
 10
13.04187500
 20
5.64362500
  0
VERTEX
  8
B-1465A.PLT
 62
7
 10
13.05915015
 20
5.62241235
  0
VERTEX
  8
B-1465A.PLT
 62
7
 10
13.07800586
 20
5.60261914
  0
VERTEX
  8
B-1465A.PLT
 62
7
 10
13.09834692
 20
5.58434058
  0
VERTEX
  8
B-1465A.PLT
 62
7
 10
13.12007812
 20
5.56767188
  0
VERTEX
  8
B-1465A.PLT
 62
7
 10
13.14310425
 20
5.55270825
  0
VERTEX
  8
B-1465A.PLT
 62
7
 10
13.16733008
 20
5.53954492
  0
VERTEX
  8
B-1465A.PLT
 62
7
 10
13.19266040
 20
5.52827710
  0
VERTEX
  8
B-1465A.PLT
 62
7
 10
13.21900000
 20
5.51900000
  0
VERTEX
  8
B-1465A.PLT
 62
7
 10
13.24200000
 20
5.52000000
  0
VERTEX
  8
B-1465A.PLT
 62
7
 10
13.27329688
 20
5.51745313
  0
VERTEX
  8
B-1465A.PLT
 62
7
 10
13.30262500
 20
5.51012500
  0
VERTEX
  8
B-1465A.PLT
 62
7
 10
13.32989063
 20
5.49848438
  0
VERTEX
  8
B-1465A.PLT
 62
7
 10
13.35500000
 20
5.48300000
  0
VERTEX
  8
B-1465A.PLT
 62
7
 10
13.40600000
 20
5.53900000
  0
VERTEX
  8
B-1465A.PLT
 62
7
 10
13.45750000
 20
5.50147070
  0
VERTEX
  8
B-1465A.PLT
 62
7
 10
13.50450000
 20
5.45889063
  0
VERTEX
  8
B-1465A.PLT
 62
7
 10
13.54662500
 20
5.41164648
  0
VERTEX
  8
B-1465A.PLT
 62
7
 10
13.58350000
 20
5.36012500
  0
VERTEX
  8
B-1465A.PLT
 62
7
 10
13.61475000
 20
5.30471289
  0
VERTEX
  8
B-1465A.PLT
 62
7
 10
13.64000000
 20
5.24579687
  0
VERTEX
  8
B-1465A.PLT
 62
7
 10
13.65887500
 20
5.18376367
  0
VERTEX
  8
B-1465A.PLT
 62
7
 10
13.67100000
 20
5.11900000
  0
VERTEX
  8
B-1465A.PLT
 62
7
 10
13.67476562
 20
5.10984375
  0
VERTEX
  8
B-1465A.PLT
 62
7
 10
13.68237500
 20
5.10500000
  0
VERTEX
  8
B-1465A.PLT
 62
7
 10
13.69054688
 20
5.10690625
  0
VERTEX
  8
B-1465A.PLT
 62
7
 10
13.69600000
 20
5.11800000
  0
VERTEX
  8
B-1465A.PLT
 62
7
 10
13.69954102
 20
5.13220313
  0
VERTEX
  8
B-1465A.PLT
 62
7
 10
13.70557813
 20
5.14725000
  0
VERTEX
  8
B-1465A.PLT
 62
7
 10
13.71398242
 20
5.16229688
  0
VERTEX
  8
B-1465A.PLT
 62
7
 10
13.72462500
 20
5.17650000
  0
VERTEX
  8
B-1465A.PLT
 62
7
 10
13.73737695
 20
5.18901562
  0
VERTEX
  8
B-1465A.PLT
 62
7
 10
13.75210938
 20
5.19900000
  0
VERTEX
  8
B-1465A.PLT
 62
7
 10
13.76869336
 20
5.20560937
  0
VERTEX
  8
B-1465A.PLT
 62
7
 10
13.78700000
 20
5.20800000
  0
VERTEX
  8
B-1465A.PLT
 62
7
 10
13.80900000
 20
5.20600000
  0
VERTEX
  8
B-1465A.PLT
 62
7
 10
13.84900000
 20
5.19900000
  0
VERTEX
  8
B-1465A.PLT
 62
7
 10
13.82885352
 20
5.25130273
  0
VERTEX
  8
B-1465A.PLT
 62
7
 10
13.81120313
 20
5.30467188
  0
VERTEX
  8
B-1465A.PLT
 62
7
 10
13.79610742
 20
5.35904883
  0
VERTEX
  8
B-1465A.PLT
 62
7
 10
13.78362500
 20
5.41437500
  0
VERTEX
  8
B-1465A.PLT
 62
7
 10
13.77381445
 20
5.47059180
  0
VERTEX
  8
B-1465A.PLT
 62
7
 10
13.76673438
 20
5.52764063
  0
VERTEX
  8
B-1465A.PLT
 62
7
 10
13.76244336
 20
5.58546289
  0
VERTEX
  8
B-1465A.PLT
 62
7
 10
13.76100000
 20
5.64400000
  0
VERTEX
  8
B-1465A.PLT
 62
7
 10
13.76325000
 20
5.72112500
  0
VERTEX
  8
B-1465A.PLT
 62
7
 10
13.77000000
 20
5.79600000
  0
VERTEX
  8
B-1465A.PLT
 62
7
 10
13.90300000
 20
5.72200000
  0
VERTEX
  8
B-1465A.PLT
 62
7
 10
13.91285742
 20
5.79124414
  0
VERTEX
  8
B-1465A.PLT
 62
7
 10
13.92804688
 20
5.85857813
  0
VERTEX
  8
B-1465A.PLT
 62
7
 10
13.94836914
 20
5.92377930
  0
VERTEX
  8
B-1465A.PLT
 62
7
 10
13.97362500
 20
5.98662500
  0
VERTEX
  8
B-1465A.PLT
 62
7
 10
14.00361523
 20
6.04689258
  0
VERTEX
  8
B-1465A.PLT
 62
7
 10
14.03814063
 20
6.10435937
  0
VERTEX
  8
B-1465A.PLT
 62
7
 10
14.07700195
 20
6.15880273
  0
SEQEND
  0
POLYLINE
  8
B-1465A.PLT
 62
7
 66
1
 70
1
  0
VERTEX
  8
B-1465A.PLT
 62
7
 10
14.91700000
 20
3.51400000
  0
VERTEX
  8
B-1465A.PLT
 62
7
 10
14.89362500
 20
3.56562500
  0
VERTEX
  8
B-1465A.PLT
 62
7
 10
14.86800000
 20
3.61500000
  0
VERTEX
  8
B-1465A.PLT
 62
7
 10
14.85384375
 20
3.60256250
  0
VERTEX
  8
B-1465A.PLT
 62
7
 10
14.83725000
 20
3.59275000
  0
VERTEX
  8
B-1465A.PLT
 62
7
 10
14.81878125
 20
3.58631250
  0
VERTEX
  8
B-1465A.PLT
 62
7
 10
14.79900000
 20
3.58400000
  0
VERTEX
  8
B-1465A.PLT
 62
7
 10
14.77637500
 20
3.58687500
  0
VERTEX
  8
B-1465A.PLT
 62
7
 10
14.75600000
 20
3.59500000
  0
VERTEX
  8
B-1465A.PLT
 62
7
 10
14.74037500
 20
3.60125000
  0
VERTEX
  8
B-1465A.PLT
 62
7
 10
14.72400000
 20
3.60300000
  0
VERTEX
  8
B-1465A.PLT
 62
7
 10
14.70826562
 20
3.60137500
  0
VERTEX
  8
B-1465A.PLT
 62
7
 10
14.69412500
 20
3.59675000
  0
VERTEX
  8
B-1465A.PLT
 62
7
 10
14.68167187
 20
3.58950000
  0
VERTEX
  8
B-1465A.PLT
 62
7
 10
14.67100000
 20
3.58000000
  0
VERTEX
  8
B-1465A.PLT
 62
7
 10
14.64523437
 20
3.56146875
  0
VERTEX
  8
B-1465A.PLT
 62
7
 10
14.61637500
 20
3.54800000
  0
VERTEX
  8
B-1465A.PLT
 62
7
 10
14.58507813
 20
3.53978125
  0
VERTEX
  8
B-1465A.PLT
 62
7
 10
14.55200000
 20
3.53700000
  0
VERTEX
  8
B-1465A.PLT
 62
7
 10
14.52796875
 20
3.53846875
  0
VERTEX
  8
B-1465A.PLT
 62
7
 10
14.50525000
 20
3.54275000
  0
VERTEX
  8
B-1465A.PLT
 62
7
 10
14.48365625
 20
3.54965625
  0
VERTEX
  8
B-1465A.PLT
 62
7
 10
14.46300000
 20
3.55900000
  0
VERTEX
  8
B-1465A.PLT
 62
7
 10
14.44137500
 20
3.52637500
  0
VERTEX
  8
B-1465A.PLT
 62
7
 10
14.41300000
 20
3.49900000
  0
VERTEX
  8
B-1465A.PLT
 62
7
 10
14.43290430
 20
3.46371875
  0
VERTEX
  8
B-1465A.PLT
 62
7
 10
14.45504688
 20
3.42993750
  0
VERTEX
  8
B-1465A.PLT
 62
7
 10
14.47932227
 20
3.39775000
  0
VERTEX
  8
B-1465A.PLT
 62
7
 10
14.50562500
 20
3.36725000
  0
VERTEX
  8
B-1465A.PLT
 62
7
 10
14.53384961
 20
3.33853125
  0
VERTEX
  8
B-1465A.PLT
 62
7
 10
14.56389063
 20
3.31168750
  0
VERTEX
  8
B-1465A.PLT
 62
7
 10
14.59564258
 20
3.28681250
  0
VERTEX
  8
B-1465A.PLT
 62
7
 10
14.62900000
 20
3.26400000
  0
VERTEX
  8
B-1465A.PLT
 62
7
 10
14.58557227
 20
3.27841602
  0
VERTEX
  8
B-1465A.PLT
 62
7
 10
14.54389063
 20
3.29607813
  0
VERTEX
  8
B-1465A.PLT
 62
7
 10
14.50410742
 20
3.31685742
  0
VERTEX
  8
B-1465A.PLT
 62
7
 10
14.46637500
 20
3.34062500
  0
VERTEX
  8
B-1465A.PLT
 62
7
 10
14.43084570
 20
3.36725195
  0
VERTEX
  8
B-1465A.PLT
 62
7
 10
14.39767188
 20
3.39660938
  0
VERTEX
  8
B-1465A.PLT
 62
7
 10
14.36700586
 20
3.42856836
  0
VERTEX
  8
B-1465A.PLT
 62
7
 10
14.33900000
 20
3.46300000
  0
VERTEX
  8
B-1465A.PLT
 62
7
 10
14.31887500
 20
3.45937500
  0
VERTEX
  8
B-1465A.PLT
 62
7
 10
14.29800000
 20
3.45800000
  0
VERTEX
  8
B-1465A.PLT
 62
7
 10
14.27900000
 20
3.46000000
  0
VERTEX
  8
B-1465A.PLT
 62
7
 10
14.26100000
 20
3.46200000
  0
VERTEX
  8
B-1465A.PLT
 62
7
 10
14.24176562
 20
3.45931250
  0
VERTEX
  8
B-1465A.PLT
 62
7
 10
14.22487500
 20
3.45175000
  0
VERTEX
  8
B-1465A.PLT
 62
7
 10
14.21079688
 20
3.44006250
  0
VERTEX
  8
B-1465A.PLT
 62
7
 10
14.20000000
 20
3.42500000
  0
VERTEX
  8
B-1465A.PLT
 62
7
 10
14.18609375
 20
3.40510937
  0
VERTEX
  8
B-1465A.PLT
 62
7
 10
14.16750000
 20
3.38962500
  0
VERTEX
  8
B-1465A.PLT
 62
7
 10
14.14515625
 20
3.37957813
  0
VERTEX
  8
B-1465A.PLT
 62
7
 10
14.12000000
 20
3.37600000
  0
VERTEX
  8
B-1465A.PLT
 62
7
 10
14.10021875
 20
3.37834375
  0
VERTEX
  8
B-1465A.PLT
 62
7
 10
14.08175000
 20
3.38500000
  0
VERTEX
  8
B-1465A.PLT
 62
7
 10
14.06515625
 20
3.39540625
  0
VERTEX
  8
B-1465A.PLT
 62
7
 10
14.05100000
 20
3.40900000
  0
VERTEX
  8
B-1465A.PLT
 62
7
 10
14.03488867
 20
3.42637109
  0
VERTEX
  8
B-1465A.PLT
 62
7
 10
14.01735938
 20
3.44240625
  0
VERTEX
  8
B-1465A.PLT
 62
7
 10
13.99849414
 20
3.45698828
  0
VERTEX
  8
B-1465A.PLT
 62
7
 10
13.97837500
 20
3.47000000
  0
VERTEX
  8
B-1465A.PLT
 62
7
 10
13.95708398
 20
3.48132422
  0
VERTEX
  8
B-1465A.PLT
 62
7
 10
13.93470313
 20
3.49084375
  0
VERTEX
  8
B-1465A.PLT
 62
7
 10
13.91131445
 20
3.49844141
  0
VERTEX
  8
B-1465A.PLT
 62
7
 10
13.88700000
 20
3.50400000
  0
VERTEX
  8
B-1465A.PLT
 62
7
 10
13.89062476
 20
3.44910620
  0
VERTEX
  8
B-1465A.PLT
 62
7
 10
13.89874805
 20
3.39555273
  0
VERTEX
  8
B-1465A.PLT
 62
7
 10
13.91118091
 20
3.34353149
  0
VERTEX
  8
B-1465A.PLT
 62
7
 10
13.92773438
 20
3.29323437
  0
VERTEX
  8
B-1465A.PLT
 62
7
 10
13.94821948
 20
3.24485327
  0
VERTEX
  8
B-1465A.PLT
 62
7
 10
13.97244727
 20
3.19858008
  0
VERTEX
  8
B-1465A.PLT
 62
7
 10
14.00022876
 20
3.15460669
  0
VERTEX
  8
B-1465A.PLT
 62
7
 10
14.03137500
 20
3.11312500
  0
VERTEX
  8
B-1465A.PLT
 62
7
 10
14.06569702
 20
3.07432690
  0
VERTEX
  8
B-1465A.PLT
 62
7
 10
14.10300586
 20
3.03840430
  0
VERTEX
  8
B-1465A.PLT
 62
7
 10
14.14311255
 20
3.00554907
  0
VERTEX
  8
B-1465A.PLT
 62
7
 10
14.18582813
 20
2.97595313
  0
VERTEX
  8
B-1465A.PLT
 62
7
 10
14.23096362
 20
2.94980835
  0
VERTEX
  8
B-1465A.PLT
 62
7
 10
14.27833008
 20
2.92730664
  0
VERTEX
  8
B-1465A.PLT
 62
7
 10
14.32773853
 20
2.90863989
  0
VERTEX
  8
B-1465A.PLT
 62
7
 10
14.37900000
 20
2.89400000
  0
VERTEX
  8
B-1465A.PLT
 62
7
 10
14.36300000
 20
2.99600000
  0
VERTEX
  8
B-1465A.PLT
 62
7
 10
14.40321094
 20
2.98185156
  0
VERTEX
  8
B-1465A.PLT
 62
7
 10
14.44431250
 20
2.96943750
  0
VERTEX
  8
B-1465A.PLT
 62
7
 10
14.48625781
 20
2.95880469
  0
VERTEX
  8
B-1465A.PLT
 62
7
 10
14.52900000
 20
2.95000000
  0
VERTEX
  8
B-1465A.PLT
 62
7
 10
14.57249219
 20
2.94307031
  0
VERTEX
  8
B-1465A.PLT
 62
7
 10
14.61668750
 20
2.93806250
  0
VERTEX
  8
B-1465A.PLT
 62
7
 10
14.66153906
 20
2.93502344
  0
VERTEX
  8
B-1465A.PLT
 62
7
 10
14.70700000
 20
2.93400000
  0
VERTEX
  8
B-1465A.PLT
 62
7
 10
14.78512500
 20
2.93714063
  0
VERTEX
  8
B-1465A.PLT
 62
7
 10
14.86175000
 20
2.94637500
  0
VERTEX
  8
B-1465A.PLT
 62
7
 10
14.93650000
 20
2.96142188
  0
VERTEX
  8
B-1465A.PLT
 62
7
 10
15.00900000
 20
2.98200000
  0
VERTEX
  8
B-1465A.PLT
 62
7
 10
14.97381641
 20
3.00635352
  0
VERTEX
  8
B-1465A.PLT
 62
7
 10
14.94203125
 20
3.03489063
  0
VERTEX
  8
B-1465A.PLT
 62
7
 10
14.91404297
 20
3.06720117
  0
VERTEX
  8
B-1465A.PLT
 62
7
 10
14.89025000
 20
3.10287500
  0
VERTEX
  8
B-1465A.PLT
 62
7
 10
14.87105078
 20
3.14150195
  0
VERTEX
  8
B-1465A.PLT
 62
7
 10
14.85684375
 20
3.18267188
  0
VERTEX
  8
B-1465A.PLT
 62
7
 10
14.84802734
 20
3.22597461
  0
VERTEX
  8
B-1465A.PLT
 62
7
 10
14.84500000
 20
3.27100000
  0
VERTEX
  8
B-1465A.PLT
 62
7
 10
14.84487500
 20
3.30000000
  0
VERTEX
  8
B-1465A.PLT
 62
7
 10
14.85000000
 20
3.33200000
  0
VERTEX
  8
B-1465A.PLT
 62
7
 10
14.85600000
 20
3.37700000
  0
VERTEX
  8
B-1465A.PLT
 62
7
 10
14.86187500
 20
3.41012500
  0
VERTEX
  8
B-1465A.PLT
 62
7
 10
14.86400000
 20
3.43500000
  0
VERTEX
  8
B-1465A.PLT
 62
7
 10
14.86289063
 20
3.45950000
  0
VERTEX
  8
B-1465A.PLT
 62
7
 10
14.86337500
 20
3.47350000
  0
VERTEX
  8
B-1465A.PLT
 62
7
 10
14.86217188
 20
3.48675000
  0
VERTEX
  8
B-1465A.PLT
 62
7
 10
14.85600000
 20
3.50900000
  0
SEQEND
  0
POLYLINE
  8
B-1465A.PLT
 62
7
 66
1
 70
1
  0
VERTEX
  8
B-1465A.PLT
 62
7
 10
12.27200000
 20
2.67000000
  0
VERTEX
  8
B-1465A.PLT
 62
7
 10
12.30998950
 20
2.68912256
  0
VERTEX
  8
B-1465A.PLT
 62
7
 10
12.34665039
 20
2.71043359
  0
VERTEX
  8
B-1465A.PLT
 62
7
 10
12.38189624
 20
2.73384814
  0
VERTEX
  8
B-1465A.PLT
 62
7
 10
12.41564063
 20
2.75928125
  0
VERTEX
  8
B-1465A.PLT
 62
7
 10
12.44779712
 20
2.78664795
  0
VERTEX
  8
B-1465A.PLT
 62
7
 10
12.47827930
 20
2.81586328
  0
VERTEX
  8
B-1465A.PLT
 62
7
 10
12.50700073
 20
2.84684229
  0
VERTEX
  8
B-1465A.PLT
 62
7
 10
12.53387500
 20
2.87950000
  0
VERTEX
  8
B-1465A.PLT
 62
7
 10
12.55881567
 20
2.91375146
  0
VERTEX
  8
B-1465A.PLT
 62
7
 10
12.58173633
 20
2.94951172
  0
VERTEX
  8
B-1465A.PLT
 62
7
 10
12.60255054
 20
2.98669580
  0
VERTEX
  8
B-1465A.PLT
 62
7
 10
12.62117188
 20
3.02521875
  0
VERTEX
  8
B-1465A.PLT
 62
7
 10
12.63751392
 20
3.06499561
  0
VERTEX
  8
B-1465A.PLT
 62
7
 10
12.65149023
 20
3.10594141
  0
VERTEX
  8
B-1465A.PLT
 62
7
 10
12.66301440
 20
3.14797119
  0
VERTEX
  8
B-1465A.PLT
 62
7
 10
12.67200000
 20
3.19100000
  0
VERTEX
  8
B-1465A.PLT
 62
7
 10
12.66300000
 20
3.19100000
  0
VERTEX
  8
B-1465A.PLT
 62
7
 10
12.63195313
 20
3.18895312
  0
VERTEX
  8
B-1465A.PLT
 62
7
 10
12.60212500
 20
3.18287500
  0
VERTEX
  8
B-1465A.PLT
 62
7
 10
12.57398438
 20
3.17285937
  0
VERTEX
  8
B-1465A.PLT
 62
7
 10
12.54800000
 20
3.15900000
  0
VERTEX
  8
B-1465A.PLT
 62
7
 10
12.52612500
 20
3.15000000
  0
VERTEX
  8
B-1465A.PLT
 62
7
 10
12.50200000
 20
3.14700000
  0
VERTEX
  8
B-1465A.PLT
 62
7
 10
12.48558594
 20
3.14845898
  0
VERTEX
  8
B-1465A.PLT
 62
7
 10
12.47025000
 20
3.15267187
  0
VERTEX
  8
B-1465A.PLT
 62
7
 10
12.45622656
 20
3.15939258
  0
VERTEX
  8
B-1465A.PLT
 62
7
 10
12.44375000
 20
3.16837500
  0
VERTEX
  8
B-1465A.PLT
 62
7
 10
12.43305469
 20
3.17937305
  0
VERTEX
  8
B-1465A.PLT
 62
7
 10
12.42437500
 20
3.19214063
  0
VERTEX
  8
B-1465A.PLT
 62
7
 10
12.41794531
 20
3.20643164
  0
VERTEX
  8
B-1465A.PLT
 62
7
 10
12.41400000
 20
3.22200000
  0
VERTEX
  8
B-1465A.PLT
 62
7
 10
12.40896875
 20
3.23681250
  0
VERTEX
  8
B-1465A.PLT
 62
7
 10
12.39925000
 20
3.24900000
  0
VERTEX
  8
B-1465A.PLT
 62
7
 10
12.38615625
 20
3.25743750
  0
VERTEX
  8
B-1465A.PLT
 62
7
 10
12.37100000
 20
3.26100000
  0
VERTEX
  8
B-1465A.PLT
 62
7
 10
12.36487500
 20
3.26275000
  0
VERTEX
  8
B-1465A.PLT
 62
7
 10
12.36100000
 20
3.26600000
  0
VERTEX
  8
B-1465A.PLT
 62
7
 10
12.25957813
 20
3.19756250
  0
VERTEX
  8
B-1465A.PLT
 62
7
 10
12.16087500
 20
3.12575000
  0
VERTEX
  8
B-1465A.PLT
 62
7
 10
12.06498438
 20
3.05056250
  0
VERTEX
  8
B-1465A.PLT
 62
7
 10
11.97200000
 20
2.97200000
  0
VERTEX
  8
B-1465A.PLT
 62
7
 10
11.99049805
 20
3.03029297
  0
VERTEX
  8
B-1465A.PLT
 62
7
 10
12.01498437
 20
3.08565625
  0
VERTEX
  8
B-1465A.PLT
 62
7
 10
12.04507227
 20
3.13769141
  0
VERTEX
  8
B-1465A.PLT
 62
7
 10
12.08037500
 20
3.18600000
  0
VERTEX
  8
B-1465A.PLT
 62
7
 10
12.12050586
 20
3.23018359
  0
VERTEX
  8
B-1465A.PLT
 62
7
 10
12.16507813
 20
3.26984375
  0
VERTEX
  8
B-1465A.PLT
 62
7
 10
12.21370508
 20
3.30458203
  0
VERTEX
  8
B-1465A.PLT
 62
7
 10
12.26600000
 20
3.33400000
  0
VERTEX
  8
B-1465A.PLT
 62
7
 10
12.26500000
 20
3.33400000
  0
VERTEX
  8
B-1465A.PLT
 62
7
 10
12.25300000
 20
3.35725000
  0
VERTEX
  8
B-1465A.PLT
 62
7
 10
12.24400000
 20
3.38200000
  0
VERTEX
  8
B-1465A.PLT
 62
7
 10
12.19100000
 20
3.39300000
  0
VERTEX
  8
B-1465A.PLT
 62
7
 10
12.17246875
 20
3.39814062
  0
VERTEX
  8
B-1465A.PLT
 62
7
 10
12.15450000
 20
3.40562500
  0
VERTEX
  8
B-1465A.PLT
 62
7
 10
12.13728125
 20
3.41479688
  0
VERTEX
  8
B-1465A.PLT
 62
7
 10
12.12100000
 20
3.42500000
  0
VERTEX
  8
B-1465A.PLT
 62
7
 10
12.10856250
 20
3.43401562
  0
VERTEX
  8
B-1465A.PLT
 62
7
 10
12.09725000
 20
3.44462500
  0
VERTEX
  8
B-1465A.PLT
 62
7
 10
12.08781250
 20
3.45692187
  0
VERTEX
  8
B-1465A.PLT
 62
7
 10
12.08100000
 20
3.47100000
  0
VERTEX
  8
B-1465A.PLT
 62
7
 10
12.07398438
 20
3.48343750
  0
VERTEX
  8
B-1465A.PLT
 62
7
 10
12.06387500
 20
3.49325000
  0
VERTEX
  8
B-1465A.PLT
 62
7
 10
12.05132813
 20
3.49968750
  0
VERTEX
  8
B-1465A.PLT
 62
7
 10
12.03700000
 20
3.50200000
  0
VERTEX
  8
B-1465A.PLT
 62
7
 10
12.03300000
 20
3.50200000
  0
VERTEX
  8
B-1465A.PLT
 62
7
 10
12.01300000
 20
3.50000000
  0
VERTEX
  8
B-1465A.PLT
 62
7
 10
11.99209375
 20
3.50235938
  0
VERTEX
  8
B-1465A.PLT
 62
7
 10
11.97325000
 20
3.50912500
  0
VERTEX
  8
B-1465A.PLT
 62
7
 10
11.95703125
 20
3.51982813
  0
VERTEX
  8
B-1465A.PLT
 62
7
 10
11.94400000
 20
3.53400000
  0
VERTEX
  8
B-1465A.PLT
 62
7
 10
11.90015820
 20
3.50899805
  0
VERTEX
  8
B-1465A.PLT
 62
7
 10
11.85876563
 20
3.48060937
  0
VERTEX
  8
B-1465A.PLT
 62
7
 10
11.82002148
 20
3.44900977
  0
VERTEX
  8
B-1465A.PLT
 62
7
 10
11.78412500
 20
3.41437500
  0
VERTEX
  8
B-1465A.PLT
 62
7
 10
11.75127539
 20
3.37688086
  0
VERTEX
  8
B-1465A.PLT
 62
7
 10
11.72167188
 20
3.33670313
  0
VERTEX
  8
B-1465A.PLT
 62
7
 10
11.69551367
 20
3.29401758
  0
VERTEX
  8
B-1465A.PLT
 62
7
 10
11.67300000
 20
3.24900000
  0
VERTEX
  8
B-1465A.PLT
 62
7
 10
11.78200000
 20
3.22800000
  0
VERTEX
  8
B-1465A.PLT
 62
7
 10
11.74777734
 20
3.18885547
  0
VERTEX
  8
B-1465A.PLT
 62
7
 10
11.71728125
 20
3.14659375
  0
VERTEX
  8
B-1465A.PLT
 62
7
 10
11.69076953
 20
3.10147266
  0
VERTEX
  8
B-1465A.PLT
 62
7
 10
11.66850000
 20
3.05375000
  0
VERTEX
  8
B-1465A.PLT
 62
7
 10
11.65073047
 20
3.00368359
  0
VERTEX
  8
B-1465A.PLT
 62
7
 10
11.63771875
 20
2.95153125
  0
VERTEX
  8
B-1465A.PLT
 62
7
 10
11.62972266
 20
2.89755078
  0
VERTEX
  8
B-1465A.PLT
 62
7
 10
11.62700000
 20
2.84200000
  0
VERTEX
  8
B-1465A.PLT
 62
7
 10
11.62894141
 20
2.79557227
  0
VERTEX
  8
B-1465A.PLT
 62
7
 10
11.63465625
 20
2.75014062
  0
VERTEX
  8
B-1465A.PLT
 62
7
 10
11.64398047
 20
2.70585742
  0
VERTEX
  8
B-1465A.PLT
 62
7
 10
11.65675000
 20
2.66287500
  0
VERTEX
  8
B-1465A.PLT
 62
7
 10
11.67280078
 20
2.62134570
  0
VERTEX
  8
B-1465A.PLT
 62
7
 10
11.69196875
 20
2.58142188
  0
VERTEX
  8
B-1465A.PLT
 62
7
 10
11.71408984
 20
2.54325586
  0
VERTEX
  8
B-1465A.PLT
 62
7
 10
11.73900000
 20
2.50700000
  0
VERTEX
  8
B-1465A.PLT
 62
7
 10
11.74818750
 20
2.54070117
  0
VERTEX
  8
B-1465A.PLT
 62
7
 10
11.76131250
 20
2.57260937
  0
VERTEX
  8
B-1465A.PLT
 62
7
 10
11.77809375
 20
2.60243164
  0
VERTEX
  8
B-1465A.PLT
 62
7
 10
11.79825000
 20
2.62987500
  0
VERTEX
  8
B-1465A.PLT
 62
7
 10
11.82150000
 20
2.65464648
  0
VERTEX
  8
B-1465A.PLT
 62
7
 10
11.84756250
 20
2.67645313
  0
VERTEX
  8
B-1465A.PLT
 62
7
 10
11.87615625
 20
2.69500195
  0
VERTEX
  8
B-1465A.PLT
 62
7
 10
11.90700000
 20
2.71000000
  0
VERTEX
  8
B-1465A.PLT
 62
7
 10
12.00217188
 20
2.71745313
  0
VERTEX
  8
B-1465A.PLT
 62
7
 10
12.09537500
 20
2.73212500
  0
VERTEX
  8
B-1465A.PLT
 62
7
 10
12.18614063
 20
2.75373438
  0
VERTEX
  8
B-1465A.PLT
 62
7
 10
12.27400000
 20
2.78200000
  0
SEQEND
  0
POLYLINE
  8
B-1465A.PLT
 62
7
 66
1
 70
1
  0
VERTEX
  8
B-1465A.PLT
 62
7
 10
2.81500000
 20
3.09000000
  0
VERTEX
  8
B-1465A.PLT
 62
7
 10
3.48200000
 20
3.09000000
  0
VERTEX
  8
B-1465A.PLT
 62
7
 10
3.44575000
 20
3.11587500
  0
VERTEX
  8
B-1465A.PLT
 62
7
 10
3.41100000
 20
3.14400000
  0
VERTEX
  8
B-1465A.PLT
 62
7
 10
3.38651172
 20
3.18546289
  0
VERTEX
  8
B-1465A.PLT
 62
7
 10
3.36490625
 20
3.22876562
  0
VERTEX
  8
B-1465A.PLT
 62
7
 10
3.34634766
 20
3.27377930
  0
VERTEX
  8
B-1465A.PLT
 62
7
 10
3.33100000
 20
3.32037500
  0
VERTEX
  8
B-1465A.PLT
 62
7
 10
3.31902734
 20
3.36842383
  0
VERTEX
  8
B-1465A.PLT
 62
7
 10
3.31059375
 20
3.41779688
  0
VERTEX
  8
B-1465A.PLT
 62
7
 10
3.30586328
 20
3.46836523
  0
VERTEX
  8
B-1465A.PLT
 62
7
 10
3.30500000
 20
3.52000000
  0
VERTEX
  8
B-1465A.PLT
 62
7
 10
3.30796875
 20
3.57417188
  0
VERTEX
  8
B-1465A.PLT
 62
7
 10
3.31525000
 20
3.62712500
  0
VERTEX
  8
B-1465A.PLT
 62
7
 10
3.32665625
 20
3.67876563
  0
VERTEX
  8
B-1465A.PLT
 62
7
 10
3.34200000
 20
3.72900000
  0
VERTEX
  8
B-1465A.PLT
 62
7
 10
3.34100000
 20
3.72800000
  0
VERTEX
  8
B-1465A.PLT
 62
7
 10
3.32582031
 20
3.75850586
  0
VERTEX
  8
B-1465A.PLT
 62
7
 10
3.31256250
 20
3.78998438
  0
VERTEX
  8
B-1465A.PLT
 62
7
 10
3.30127344
 20
3.82237695
  0
VERTEX
  8
B-1465A.PLT
 62
7
 10
3.29200000
 20
3.85562500
  0
VERTEX
  8
B-1465A.PLT
 62
7
 10
3.28478906
 20
3.88966992
  0
VERTEX
  8
B-1465A.PLT
 62
7
 10
3.27968750
 20
3.92445312
  0
VERTEX
  8
B-1465A.PLT
 62
7
 10
3.27674219
 20
3.95991602
  0
VERTEX
  8
B-1465A.PLT
 62
7
 10
3.27600000
 20
3.99600000
  0
VERTEX
  8
B-1465A.PLT
 62
7
 10
3.27776953
 20
4.03016602
  0
VERTEX
  8
B-1465A.PLT
 62
7
 10
3.28153125
 20
4.06364062
  0
VERTEX
  8
B-1465A.PLT
 62
7
 10
3.28721484
 20
4.09638867
  0
VERTEX
  8
B-1465A.PLT
 62
7
 10
3.29475000
 20
4.12837500
  0
VERTEX
  8
B-1465A.PLT
 62
7
 10
3.30406641
 20
4.15956445
  0
VERTEX
  8
B-1465A.PLT
 62
7
 10
3.31509375
 20
4.18992187
  0
VERTEX
  8
B-1465A.PLT
 62
7
 10
3.32776172
 20
4.21941211
  0
VERTEX
  8
B-1465A.PLT
 62
7
 10
3.34200000
 20
4.24800000
  0
VERTEX
  8
B-1465A.PLT
 62
7
 10
3.34200000
 20
4.24900000
  0
VERTEX
  8
B-1465A.PLT
 62
7
 10
3.32712500
 20
4.30350000
  0
VERTEX
  8
B-1465A.PLT
 62
7
 10
3.31600000
 20
4.35800000
  0
VERTEX
  8
B-1465A.PLT
 62
7
 10
3.27400000
 20
4.38325000
  0
VERTEX
  8
B-1465A.PLT
 62
7
 10
3.22900000
 20
4.40400000
  0
VERTEX
  8
B-1465A.PLT
 62
7
 10
3.21032813
 20
4.42032813
  0
VERTEX
  8
B-1465A.PLT
 62
7
 10
3.18912500
 20
4.43337500
  0
VERTEX
  8
B-1465A.PLT
 62
7
 10
3.16585938
 20
4.44323438
  0
VERTEX
  8
B-1465A.PLT
 62
7
 10
3.14100000
 20
4.45000000
  0
VERTEX
  8
B-1465A.PLT
 62
7
 10
3.10918750
 20
4.43673438
  0
VERTEX
  8
B-1465A.PLT
 62
7
 10
3.07550000
 20
4.42712500
  0
VERTEX
  8
B-1465A.PLT
 62
7
 10
3.04031250
 20
4.42145313
  0
VERTEX
  8
B-1465A.PLT
 62
7
 10
3.00400000
 20
4.42000000
  0
VERTEX
  8
B-1465A.PLT
 62
7
 10
2.97186914
 20
4.42207812
  0
VERTEX
  8
B-1465A.PLT
 62
7
 10
2.94082812
 20
4.42743750
  0
VERTEX
  8
B-1465A.PLT
 62
7
 10
2.91102930
 20
4.43589062
  0
VERTEX
  8
B-1465A.PLT
 62
7
 10
2.88262500
 20
4.44725000
  0
VERTEX
  8
B-1465A.PLT
 62
7
 10
2.85576758
 20
4.46132812
  0
VERTEX
  8
B-1465A.PLT
 62
7
 10
2.83060937
 20
4.47793750
  0
VERTEX
  8
B-1465A.PLT
 62
7
 10
2.80730273
 20
4.49689062
  0
VERTEX
  8
B-1465A.PLT
 62
7
 10
2.78600000
 20
4.51800000
  0
VERTEX
  8
B-1465A.PLT
 62
7
 10
2.75437500
 20
4.51500000
  0
VERTEX
  8
B-1465A.PLT
 62
7
 10
2.72200000
 20
4.51500000
  0
VERTEX
  8
B-1465A.PLT
 62
7
 10
2.66695313
 20
4.51928125
  0
VERTEX
  8
B-1465A.PLT
 62
7
 10
2.61462500
 20
4.53050000
  0
VERTEX
  8
B-1465A.PLT
 62
7
 10
2.56548438
 20
4.54846875
  0
VERTEX
  8
B-1465A.PLT
 62
7
 10
2.52000000
 20
4.57300000
  0
VERTEX
  8
B-1465A.PLT
 62
7
 10
2.50812500
 20
4.50475000
  0
VERTEX
  8
B-1465A.PLT
 62
7
 10
2.50300000
 20
4.43500000
  0
VERTEX
  8
B-1465A.PLT
 62
7
 10
2.50423437
 20
4.37821289
  0
VERTEX
  8
B-1465A.PLT
 62
7
 10
2.51006250
 20
4.32270313
  0
VERTEX
  8
B-1465A.PLT
 62
7
 10
2.52029688
 20
4.26862305
  0
VERTEX
  8
B-1465A.PLT
 62
7
 10
2.53475000
 20
4.21612500
  0
VERTEX
  8
B-1465A.PLT
 62
7
 10
2.55323438
 20
4.16536133
  0
VERTEX
  8
B-1465A.PLT
 62
7
 10
2.57556250
 20
4.11648437
  0
VERTEX
  8
B-1465A.PLT
 62
7
 10
2.60154687
 20
4.06964648
  0
VERTEX
  8
B-1465A.PLT
 62
7
 10
2.63100000
 20
4.02500000
  0
VERTEX
  8
B-1465A.PLT
 62
7
 10
2.62312500
 20
3.99914062
  0
VERTEX
  8
B-1465A.PLT
 62
7
 10
2.61750000
 20
3.97262500
  0
VERTEX
  8
B-1465A.PLT
 62
7
 10
2.61412500
 20
3.94554687
  0
VERTEX
  8
B-1465A.PLT
 62
7
 10
2.61300000
 20
3.91800000
  0
VERTEX
  8
B-1465A.PLT
 62
7
 10
2.61500000
 20
3.87125000
  0
VERTEX
  8
B-1465A.PLT
 62
7
 10
2.62300000
 20
3.82600000
  0
VERTEX
  8
B-1465A.PLT
 62
7
 10
2.64248242
 20
3.78331055
  0
VERTEX
  8
B-1465A.PLT
 62
7
 10
2.65960938
 20
3.73929688
  0
VERTEX
  8
B-1465A.PLT
 62
7
 10
2.67427539
 20
3.69404102
  0
VERTEX
  8
B-1465A.PLT
 62
7
 10
2.68637500
 20
3.64762500
  0
VERTEX
  8
B-1465A.PLT
 62
7
 10
2.69580273
 20
3.60013086
  0
VERTEX
  8
B-1465A.PLT
 62
7
 10
2.70245312
 20
3.55164063
  0
VERTEX
  8
B-1465A.PLT
 62
7
 10
2.70622070
 20
3.50223633
  0
VERTEX
  8
B-1465A.PLT
 62
7
 10
2.70700000
 20
3.45200000
  0
VERTEX
  8
B-1465A.PLT
 62
7
 10
2.70700000
 20
3.43700000
  0
VERTEX
  8
B-1465A.PLT
 62
7
 10
2.73046680
 20
3.39830078
  0
VERTEX
  8
B-1465A.PLT
 62
7
 10
2.75129688
 20
3.35803125
  0
VERTEX
  8
B-1465A.PLT
 62
7
 10
2.76938477
 20
3.31630859
  0
VERTEX
  8
B-1465A.PLT
 62
7
 10
2.78462500
 20
3.27325000
  0
VERTEX
  8
B-1465A.PLT
 62
7
 10
2.79691211
 20
3.22897266
  0
VERTEX
  8
B-1465A.PLT
 62
7
 10
2.80614062
 20
3.18359375
  0
VERTEX
  8
B-1465A.PLT
 62
7
 10
2.81220508
 20
3.13723047
  0
SEQEND
  0
POLYLINE
  8
B-1465A.PLT
 62
7
 66
1
 70
1
  0
VERTEX
  8
B-1465A.PLT
 62
7
 10
13.21500000
 20
5.43600000
  0
VERTEX
  8
B-1465A.PLT
 62
7
 10
13.16594531
 20
5.45167969
  0
VERTEX
  8
B-1465A.PLT
 62
7
 10
13.11956250
 20
5.47293750
  0
VERTEX
  8
B-1465A.PLT
 62
7
 10
13.07627344
 20
5.49935156
  0
VERTEX
  8
B-1465A.PLT
 62
7
 10
13.03650000
 20
5.53050000
  0
VERTEX
  8
B-1465A.PLT
 62
7
 10
13.00066406
 20
5.56596094
  0
VERTEX
  8
B-1465A.PLT
 62
7
 10
12.96918750
 20
5.60531250
  0
VERTEX
  8
B-1465A.PLT
 62
7
 10
12.94249219
 20
5.64813281
  0
VERTEX
  8
B-1465A.PLT
 62
7
 10
12.92100000
 20
5.69400000
  0
VERTEX
  8
B-1465A.PLT
 62
7
 10
12.87473828
 20
5.63639648
  0
VERTEX
  8
B-1465A.PLT
 62
7
 10
12.83365625
 20
5.57479687
  0
VERTEX
  8
B-1465A.PLT
 62
7
 10
12.79805859
 20
5.50951758
  0
VERTEX
  8
B-1465A.PLT
 62
7
 10
12.76825000
 20
5.44087500
  0
VERTEX
  8
B-1465A.PLT
 62
7
 10
12.74453516
 20
5.36918555
  0
VERTEX
  8
B-1465A.PLT
 62
7
 10
12.72721875
 20
5.29476563
  0
VERTEX
  8
B-1465A.PLT
 62
7
 10
12.71660547
 20
5.21793164
  0
VERTEX
  8
B-1465A.PLT
 62
7
 10
12.71300000
 20
5.13900000
  0
VERTEX
  8
B-1465A.PLT
 62
7
 10
12.71415625
 20
5.09196875
  0
VERTEX
  8
B-1465A.PLT
 62
7
 10
12.71775000
 20
5.04550000
  0
VERTEX
  8
B-1465A.PLT
 62
7
 10
12.72396875
 20
4.99978125
  0
VERTEX
  8
B-1465A.PLT
 62
7
 10
12.73300000
 20
4.95500000
  0
VERTEX
  8
B-1465A.PLT
 62
7
 10
12.61700000
 20
5.00500000
  0
VERTEX
  8
B-1465A.PLT
 62
7
 10
12.62064258
 20
4.96526562
  0
VERTEX
  8
B-1465A.PLT
 62
7
 10
12.62701563
 20
4.92637500
  0
VERTEX
  8
B-1465A.PLT
 62
7
 10
12.63603711
 20
4.88842187
  0
VERTEX
  8
B-1465A.PLT
 62
7
 10
12.64762500
 20
4.85150000
  0
VERTEX
  8
B-1465A.PLT
 62
7
 10
12.66169727
 20
4.81570312
  0
VERTEX
  8
B-1465A.PLT
 62
7
 10
12.67817188
 20
4.78112500
  0
VERTEX
  8
B-1465A.PLT
 62
7
 10
12.69696680
 20
4.74785938
  0
VERTEX
  8
B-1465A.PLT
 62
7
 10
12.71800000
 20
4.71600000
  0
VERTEX
  8
B-1465A.PLT
 62
7
 10
12.74625000
 20
4.72412500
  0
VERTEX
  8
B-1465A.PLT
 62
7
 10
12.77600000
 20
4.72700000
  0
VERTEX
  8
B-1465A.PLT
 62
7
 10
12.81050000
 20
4.72300000
  0
VERTEX
  8
B-1465A.PLT
 62
7
 10
12.84200000
 20
4.71300000
  0
VERTEX
  8
B-1465A.PLT
 62
7
 10
12.85462500
 20
4.70712500
  0
VERTEX
  8
B-1465A.PLT
 62
7
 10
12.86800000
 20
4.70500000
  0
VERTEX
  8
B-1465A.PLT
 62
7
 10
12.88637500
 20
4.70900000
  0
VERTEX
  8
B-1465A.PLT
 62
7
 10
12.90100000
 20
4.71900000
  0
VERTEX
  8
B-1465A.PLT
 62
7
 10
12.91421875
 20
4.72981250
  0
VERTEX
  8
B-1465A.PLT
 62
7
 10
12.92950000
 20
4.73800000
  0
VERTEX
  8
B-1465A.PLT
 62
7
 10
12.94628125
 20
4.74318750
  0
VERTEX
  8
B-1465A.PLT
 62
7
 10
12.96400000
 20
4.74500000
  0
VERTEX
  8
B-1465A.PLT
 62
7
 10
12.99003125
 20
4.74106250
  0
VERTEX
  8
B-1465A.PLT
 62
7
 10
13.01325000
 20
4.73000000
  0
VERTEX
  8
B-1465A.PLT
 62
7
 10
13.03234375
 20
4.71293750
  0
VERTEX
  8
B-1465A.PLT
 62
7
 10
13.04600000
 20
4.69100000
  0
VERTEX
  8
B-1465A.PLT
 62
7
 10
13.05916211
 20
4.66419727
  0
VERTEX
  8
B-1465A.PLT
 62
7
 10
13.07592188
 20
4.63951562
  0
VERTEX
  8
B-1465A.PLT
 62
7
 10
13.09593945
 20
4.61729492
  0
VERTEX
  8
B-1465A.PLT
 62
7
 10
13.11887500
 20
4.59787500
  0
VERTEX
  8
B-1465A.PLT
 62
7
 10
13.14438867
 20
4.58159570
  0
VERTEX
  8
B-1465A.PLT
 62
7
 10
13.17214063
 20
4.56879688
  0
VERTEX
  8
B-1465A.PLT
 62
7
 10
13.20179102
 20
4.55981836
  0
VERTEX
  8
B-1465A.PLT
 62
7
 10
13.23300000
 20
4.55500000
  0
VERTEX
  8
B-1465A.PLT
 62
7
 10
13.25262500
 20
4.55137500
  0
VERTEX
  8
B-1465A.PLT
 62
7
 10
13.27000000
 20
4.54400000
  0
VERTEX
  8
B-1465A.PLT
 62
7
 10
13.26900000
 20
4.54400000
  0
VERTEX
  8
B-1465A.PLT
 62
7
 10
13.26900000
 20
4.55200000
  0
VERTEX
  8
B-1465A.PLT
 62
7
 10
13.27262500
 20
4.57662500
  0
VERTEX
  8
B-1465A.PLT
 62
7
 10
13.28300000
 20
4.59900000
  0
VERTEX
  8
B-1465A.PLT
 62
7
 10
13.28100000
 20
4.60000000
  0
VERTEX
  8
B-1465A.PLT
 62
7
 10
13.23052344
 20
4.65295898
  0
VERTEX
  8
B-1465A.PLT
 62
7
 10
13.18506250
 20
4.71035938
  0
VERTEX
  8
B-1465A.PLT
 62
7
 10
13.14494531
 20
4.77186133
  0
VERTEX
  8
B-1465A.PLT
 62
7
 10
13.11050000
 20
4.83712500
  0
VERTEX
  8
B-1465A.PLT
 62
7
 10
13.08205469
 20
4.90581055
  0
VERTEX
  8
B-1465A.PLT
 62
7
 10
13.05993750
 20
4.97757813
  0
VERTEX
  8
B-1465A.PLT
 62
7
 10
13.04447656
 20
5.05208789
  0
VERTEX
  8
B-1465A.PLT
 62
7
 10
13.03600000
 20
5.12900000
  0
VERTEX
  8
B-1465A.PLT
 62
7
 10
13.10101563
 20
5.00059375
  0
VERTEX
  8
B-1465A.PLT
 62
7
 10
13.17287500
 20
4.87650000
  0
VERTEX
  8
B-1465A.PLT
 62
7
 10
13.25129688
 20
4.75690625
  0
VERTEX
  8
B-1465A.PLT
 62
7
 10
13.33600000
 20
4.64200000
  0
VERTEX
  8
B-1465A.PLT
 62
7
 10
13.34200000
 20
4.64000000
  0
VERTEX
  8
B-1465A.PLT
 62
7
 10
13.34800000
 20
4.64100000
  0
VERTEX
  8
B-1465A.PLT
 62
7
 10
13.36987500
 20
4.64787500
  0
VERTEX
  8
B-1465A.PLT
 62
7
 10
13.38800000
 20
4.66150000
  0
VERTEX
  8
B-1465A.PLT
 62
7
 10
13.40087500
 20
4.68037500
  0
VERTEX
  8
B-1465A.PLT
 62
7
 10
13.40700000
 20
4.70300000
  0
VERTEX
  8
B-1465A.PLT
 62
7
 10
13.41575586
 20
4.72984961
  0
VERTEX
  8
B-1465A.PLT
 62
7
 10
13.42829687
 20
4.75467187
  0
VERTEX
  8
B-1465A.PLT
 62
7
 10
13.44428320
 20
4.77712695
  0
VERTEX
  8
B-1465A.PLT
 62
7
 10
13.46337500
 20
4.79687500
  0
VERTEX
  8
B-1465A.PLT
 62
7
 10
13.48523242
 20
4.81357617
  0
VERTEX
  8
B-1465A.PLT
 62
7
 10
13.50951563
 20
4.82689062
  0
VERTEX
  8
B-1465A.PLT
 62
7
 10
13.53588477
 20
4.83647852
  0
VERTEX
  8
B-1465A.PLT
 62
7
 10
13.56400000
 20
4.84200000
  0
VERTEX
  8
B-1465A.PLT
 62
7
 10
13.56300000
 20
4.84300000
  0
VERTEX
  8
B-1465A.PLT
 62
7
 10
13.56100000
 20
4.87000000
  0
VERTEX
  8
B-1465A.PLT
 62
7
 10
13.56284375
 20
4.89640625
  0
VERTEX
  8
B-1465A.PLT
 62
7
 10
13.56825000
 20
4.92150000
  0
VERTEX
  8
B-1465A.PLT
 62
7
 10
13.57703125
 20
4.94509375
  0
VERTEX
  8
B-1465A.PLT
 62
7
 10
13.58900000
 20
4.96700000
  0
VERTEX
  8
B-1465A.PLT
 62
7
 10
13.59312500
 20
5.00512500
  0
VERTEX
  8
B-1465A.PLT
 62
7
 10
13.59500000
 20
5.04400000
  0
VERTEX
  8
B-1465A.PLT
 62
7
 10
13.59182227
 20
5.10127344
  0
VERTEX
  8
B-1465A.PLT
 62
7
 10
13.58251562
 20
5.15662500
  0
VERTEX
  8
B-1465A.PLT
 62
7
 10
13.56741992
 20
5.20972656
  0
VERTEX
  8
B-1465A.PLT
 62
7
 10
13.54687500
 20
5.26025000
  0
VERTEX
  8
B-1465A.PLT
 62
7
 10
13.52122070
 20
5.30786719
  0
VERTEX
  8
B-1465A.PLT
 62
7
 10
13.49079687
 20
5.35225000
  0
VERTEX
  8
B-1465A.PLT
 62
7
 10
13.45594336
 20
5.39307031
  0
VERTEX
  8
B-1465A.PLT
 62
7
 10
13.41700000
 20
5.43000000
  0
VERTEX
  8
B-1465A.PLT
 62
7
 10
13.34700000
 20
5.35400000
  0
VERTEX
  8
B-1465A.PLT
 62
7
 10
13.34142188
 20
5.37172070
  0
VERTEX
  8
B-1465A.PLT
 62
7
 10
13.33312500
 20
5.38795313
  0
VERTEX
  8
B-1465A.PLT
 62
7
 10
13.32239063
 20
5.40242773
  0
VERTEX
  8
B-1465A.PLT
 62
7
 10
13.30950000
 20
5.41487500
  0
VERTEX
  8
B-1465A.PLT
 62
7
 10
13.29473438
 20
5.42502539
  0
VERTEX
  8
B-1465A.PLT
 62
7
 10
13.27837500
 20
5.43260938
  0
VERTEX
  8
B-1465A.PLT
 62
7
 10
13.26070312
 20
5.43735742
  0
VERTEX
  8
B-1465A.PLT
 62
7
 10
13.24200000
 20
5.43900000
  0
SEQEND
  0
POLYLINE
  8
B-1465A.PLT
 62
7
 66
1
 70
1
  0
VERTEX
  8
B-1465A.PLT
 62
7
 10
14.34100000
 20
5.23100000
  0
VERTEX
  8
B-1465A.PLT
 62
7
 10
14.36520313
 20
5.22681445
  0
VERTEX
  8
B-1465A.PLT
 62
7
 10
14.38818750
 20
5.21964063
  0
VERTEX
  8
B-1465A.PLT
 62
7
 10
14.40976563
 20
5.20967773
  0
VERTEX
  8
B-1465A.PLT
 62
7
 10
14.42975000
 20
5.19712500
  0
VERTEX
  8
B-1465A.PLT
 62
7
 10
14.44795313
 20
5.18218164
  0
VERTEX
  8
B-1465A.PLT
 62
7
 10
14.46418750
 20
5.16504687
  0
VERTEX
  8
B-1465A.PLT
 62
7
 10
14.47826563
 20
5.14591992
  0
VERTEX
  8
B-1465A.PLT
 62
7
 10
14.49000000
 20
5.12500000
  0
VERTEX
  8
B-1465A.PLT
 62
7
 10
14.50929688
 20
5.13360937
  0
VERTEX
  8
B-1465A.PLT
 62
7
 10
14.52962500
 20
5.13987500
  0
VERTEX
  8
B-1465A.PLT
 62
7
 10
14.55089062
 20
5.14370313
  0
VERTEX
  8
B-1465A.PLT
 62
7
 10
14.57300000
 20
5.14500000
  0
VERTEX
  8
B-1465A.PLT
 62
7
 10
14.60412500
 20
5.14250000
  0
VERTEX
  8
B-1465A.PLT
 62
7
 10
14.63300000
 20
5.13400000
  0
VERTEX
  8
B-1465A.PLT
 62
7
 10
14.65852734
 20
5.18883008
  0
VERTEX
  8
B-1465A.PLT
 62
7
 10
14.68103125
 20
5.24526563
  0
VERTEX
  8
B-1465A.PLT
 62
7
 10
14.70039453
 20
5.30322461
  0
VERTEX
  8
B-1465A.PLT
 62
7
 10
14.71650000
 20
5.36262500
  0
VERTEX
  8
B-1465A.PLT
 62
7
 10
14.72923047
 20
5.42338477
  0
VERTEX
  8
B-1465A.PLT
 62
7
 10
14.73846875
 20
5.48542188
  0
VERTEX
  8
B-1465A.PLT
 62
7
 10
14.74409766
 20
5.54865430
  0
VERTEX
  8
B-1465A.PLT
 62
7
 10
14.74600000
 20
5.61300000
  0
VERTEX
  8
B-1465A.PLT
 62
7
 10
14.74470312
 20
5.66456250
  0
VERTEX
  8
B-1465A.PLT
 62
7
 10
14.74087500
 20
5.71575000
  0
VERTEX
  8
B-1465A.PLT
 62
7
 10
14.73460938
 20
5.76656250
  0
VERTEX
  8
B-1465A.PLT
 62
7
 10
14.72600000
 20
5.81700000
  0
VERTEX
  8
B-1465A.PLT
 62
7
 10
14.63500000
 20
5.71900000
  0
VERTEX
  8
B-1465A.PLT
 62
7
 10
14.63862500
 20
5.74100000
  0
VERTEX
  8
B-1465A.PLT
 62
7
 10
14.64000000
 20
5.76300000
  0
VERTEX
  8
B-1465A.PLT
 62
7
 10
14.63617188
 20
5.80318750
  0
VERTEX
  8
B-1465A.PLT
 62
7
 10
14.62512500
 20
5.84075000
  0
VERTEX
  8
B-1465A.PLT
 62
7
 10
14.60751563
 20
5.87493750
  0
VERTEX
  8
B-1465A.PLT
 62
7
 10
14.58400000
 20
5.90500000
  0
VERTEX
  8
B-1465A.PLT
 62
7
 10
14.54132617
 20
5.93717578
  0
VERTEX
  8
B-1465A.PLT
 62
7
 10
14.50285938
 20
5.97415625
  0
VERTEX
  8
B-1465A.PLT
 62
7
 10
14.46905664
 20
6.01549609
  0
VERTEX
  8
B-1465A.PLT
 62
7
 10
14.44037500
 20
6.06075000
  0
VERTEX
  8
B-1465A.PLT
 62
7
 10
14.41727148
 20
6.10947266
  0
VERTEX
  8
B-1465A.PLT
 62
7
 10
14.40020313
 20
6.16121875
  0
VERTEX
  8
B-1465A.PLT
 62
7
 10
14.38962695
 20
6.21554297
  0
VERTEX
  8
B-1465A.PLT
 62
7
 10
14.38600000
 20
6.27200000
  0
VERTEX
  8
B-1465A.PLT
 62
7
 10
14.38900000
 20
6.31900000
  0
VERTEX
  8
B-1465A.PLT
 62
7
 10
14.34436157
 20
6.29315869
  0
VERTEX
  8
B-1465A.PLT
 62
7
 10
14.30165820
 20
6.26447266
  0
VERTEX
  8
B-1465A.PLT
 62
7
 10
14.26102026
 20
6.23307373
  0
VERTEX
  8
B-1465A.PLT
 62
7
 10
14.22257813
 20
6.19909375
  0
VERTEX
  8
B-1465A.PLT
 62
7
 10
14.18646216
 20
6.16266455
  0
VERTEX
  8
B-1465A.PLT
 62
7
 10
14.15280273
 20
6.12391797
  0
VERTEX
  8
B-1465A.PLT
 62
7
 10
14.12173022
 20
6.08298584
  0
VERTEX
  8
B-1465A.PLT
 62
7
 10
14.09337500
 20
6.04000000
  0
VERTEX
  8
B-1465A.PLT
 62
7
 10
14.06786743
 20
5.99509229
  0
VERTEX
  8
B-1465A.PLT
 62
7
 10
14.04533789
 20
5.94839453
  0
VERTEX
  8
B-1465A.PLT
 62
7
 10
14.02591675
 20
5.90003857
  0
VERTEX
  8
B-1465A.PLT
 62
7
 10
14.00973438
 20
5.85015625
  0
VERTEX
  8
B-1465A.PLT
 62
7
 10
13.99692114
 20
5.79887939
  0
VERTEX
  8
B-1465A.PLT
 62
7
 10
13.98760742
 20
5.74633984
  0
VERTEX
  8
B-1465A.PLT
 62
7
 10
13.98192358
 20
5.69266943
  0
VERTEX
  8
B-1465A.PLT
 62
7
 10
13.98000000
 20
5.63800000
  0
VERTEX
  8
B-1465A.PLT
 62
7
 10
13.98100000
 20
5.58700000
  0
VERTEX
  8
B-1465A.PLT
 62
7
 10
13.84100000
 20
5.66500000
  0
VERTEX
  8
B-1465A.PLT
 62
7
 10
13.84100000
 20
5.64400000
  0
VERTEX
  8
B-1465A.PLT
 62
7
 10
13.84253711
 20
5.58584180
  0
VERTEX
  8
B-1465A.PLT
 62
7
 10
13.84710938
 20
5.52842188
  0
VERTEX
  8
B-1465A.PLT
 62
7
 10
13.85465820
 20
5.47182227
  0
VERTEX
  8
B-1465A.PLT
 62
7
 10
13.86512500
 20
5.41612500
  0
VERTEX
  8
B-1465A.PLT
 62
7
 10
13.87845117
 20
5.36141211
  0
VERTEX
  8
B-1465A.PLT
 62
7
 10
13.89457813
 20
5.30776563
  0
VERTEX
  8
B-1465A.PLT
 62
7
 10
13.91344727
 20
5.25526758
  0
VERTEX
  8
B-1465A.PLT
 62
7
 10
13.93500000
 20
5.20400000
  0
VERTEX
  8
B-1465A.PLT
 62
7
 10
13.97726562
 20
5.21645313
  0
VERTEX
  8
B-1465A.PLT
 62
7
 10
14.01662500
 20
5.23537500
  0
VERTEX
  8
B-1465A.PLT
 62
7
 10
14.05242188
 20
5.26010937
  0
VERTEX
  8
B-1465A.PLT
 62
7
 10
14.08400000
 20
5.29000000
  0
VERTEX
  8
B-1465A.PLT
 62
7
 10
14.09740625
 20
5.30228125
  0
VERTEX
  8
B-1465A.PLT
 62
7
 10
14.11325000
 20
5.31175000
  0
VERTEX
  8
B-1465A.PLT
 62
7
 10
14.13096875
 20
5.31784375
  0
VERTEX
  8
B-1465A.PLT
 62
7
 10
14.15000000
 20
5.32000000
  0
VERTEX
  8
B-1465A.PLT
 62
7
 10
14.17589062
 20
5.31625000
  0
VERTEX
  8
B-1465A.PLT
 62
7
 10
14.19887500
 20
5.30575000
  0
VERTEX
  8
B-1465A.PLT
 62
7
 10
14.21792188
 20
5.28962500
  0
VERTEX
  8
B-1465A.PLT
 62
7
 10
14.23200000
 20
5.26900000
  0
VERTEX
  8
B-1465A.PLT
 62
7
 10
14.23837500
 20
5.25775000
  0
VERTEX
  8
B-1465A.PLT
 62
7
 10
14.24700000
 20
5.24800000
  0
VERTEX
  8
B-1465A.PLT
 62
7
 10
14.24600000
 20
5.26800000
  0
VERTEX
  8
B-1465A.PLT
 62
7
 10
14.24734570
 20
5.32429102
  0
VERTEX
  8
B-1465A.PLT
 62
7
 10
14.25132813
 20
5.37989062
  0
VERTEX
  8
B-1465A.PLT
 62
7
 10
14.25786523
 20
5.43476367
  0
VERTEX
  8
B-1465A.PLT
 62
7
 10
14.26687500
 20
5.48887500
  0
VERTEX
  8
B-1465A.PLT
 62
7
 10
14.27827539
 20
5.54218945
  0
VERTEX
  8
B-1465A.PLT
 62
7
 10
14.29198438
 20
5.59467188
  0
VERTEX
  8
B-1465A.PLT
 62
7
 10
14.30791992
 20
5.64628711
  0
VERTEX
  8
B-1465A.PLT
 62
7
 10
14.32600000
 20
5.69700000
  0
SEQEND
  0
POLYLINE
  8
B-1465A.PLT
 62
7
 66
1
 70
1
  0
VERTEX
  8
B-1465A.PLT
 62
7
 10
10.97200000
 20
3.42000000
  0
VERTEX
  8
B-1465A.PLT
 62
7
 10
10.94317188
 20
3.35292187
  0
VERTEX
  8
B-1465A.PLT
 62
7
 10
10.90937500
 20
3.28837500
  0
VERTEX
  8
B-1465A.PLT
 62
7
 10
10.87089062
 20
3.22664062
  0
VERTEX
  8
B-1465A.PLT
 62
7
 10
10.82800000
 20
3.16800000
  0
VERTEX
  8
B-1465A.PLT
 62
7
 10
10.86607617
 20
3.13836914
  0
VERTEX
  8
B-1465A.PLT
 62
7
 10
10.90667188
 20
3.11189063
  0
VERTEX
  8
B-1465A.PLT
 62
7
 10
10.94958789
 20
3.08881055
  0
VERTEX
  8
B-1465A.PLT
 62
7
 10
10.99462500
 20
3.06937500
  0
VERTEX
  8
B-1465A.PLT
 62
7
 10
11.04158398
 20
3.05383008
  0
VERTEX
  8
B-1465A.PLT
 62
7
 10
11.09026563
 20
3.04242188
  0
VERTEX
  8
B-1465A.PLT
 62
7
 10
11.14047070
 20
3.03539648
  0
VERTEX
  8
B-1465A.PLT
 62
7
 10
11.19200000
 20
3.03300000
  0
VERTEX
  8
B-1465A.PLT
 62
7
 10
11.25459375
 20
3.03634375
  0
VERTEX
  8
B-1465A.PLT
 62
7
 10
11.31475000
 20
3.04625000
  0
VERTEX
  8
B-1465A.PLT
 62
7
 10
11.37228125
 20
3.06253125
  0
VERTEX
  8
B-1465A.PLT
 62
7
 10
11.42700000
 20
3.08500000
  0
VERTEX
  8
B-1465A.PLT
 62
7
 10
11.40200000
 20
2.97300000
  0
VERTEX
  8
B-1465A.PLT
 62
7
 10
11.40100000
 20
2.97300000
  0
VERTEX
  8
B-1465A.PLT
 62
7
 10
11.44896875
 20
2.98890625
  0
VERTEX
  8
B-1465A.PLT
 62
7
 10
11.49525000
 20
3.00800000
  0
VERTEX
  8
B-1465A.PLT
 62
7
 10
11.53965625
 20
3.03009375
  0
VERTEX
  8
B-1465A.PLT
 62
7
 10
11.58200000
 20
3.05500000
  0
VERTEX
  8
B-1465A.PLT
 62
7
 10
11.60750000
 20
3.11625000
  0
VERTEX
  8
B-1465A.PLT
 62
7
 10
11.63900000
 20
3.17300000
  0
VERTEX
  8
B-1465A.PLT
 62
7
 10
11.56500000
 20
3.18800000
  0
VERTEX
  8
B-1465A.PLT
 62
7
 10
11.58100000
 20
3.23825000
  0
VERTEX
  8
B-1465A.PLT
 62
7
 10
11.60000000
 20
3.28700000
  0
VERTEX
  8
B-1465A.PLT
 62
7
 10
11.55654688
 20
3.32260937
  0
VERTEX
  8
B-1465A.PLT
 62
7
 10
11.51487500
 20
3.36037500
  0
VERTEX
  8
B-1465A.PLT
 62
7
 10
11.47526563
 20
3.40020313
  0
VERTEX
  8
B-1465A.PLT
 62
7
 10
11.43800000
 20
3.44200000
  0
VERTEX
  8
B-1465A.PLT
 62
7
 10
11.35178125
 20
3.41931250
  0
VERTEX
  8
B-1465A.PLT
 62
7
 10
11.26725000
 20
3.39475000
  0
VERTEX
  8
B-1465A.PLT
 62
7
 10
11.18459375
 20
3.36831250
  0
VERTEX
  8
B-1465A.PLT
 62
7
 10
11.10400000
 20
3.34000000
  0
VERTEX
  8
B-1465A.PLT
 62
7
 10
11.15507812
 20
3.40482812
  0
VERTEX
  8
B-1465A.PLT
 62
7
 10
11.21337500
 20
3.46412500
  0
VERTEX
  8
B-1465A.PLT
 62
7
 10
11.27823438
 20
3.51760938
  0
VERTEX
  8
B-1465A.PLT
 62
7
 10
11.34900000
 20
3.56500000
  0
VERTEX
  8
B-1465A.PLT
 62
7
 10
11.31282812
 20
3.62418750
  0
VERTEX
  8
B-1465A.PLT
 62
7
 10
11.28087500
 20
3.68600000
  0
VERTEX
  8
B-1465A.PLT
 62
7
 10
11.25323438
 20
3.75006250
  0
VERTEX
  8
B-1465A.PLT
 62
7
 10
11.23000000
 20
3.81600000
  0
VERTEX
  8
B-1465A.PLT
 62
7
 10
11.30800000
 20
3.80000000
  0
VERTEX
  8
B-1465A.PLT
 62
7
 10
11.28450000
 20
3.85512500
  0
VERTEX
  8
B-1465A.PLT
 62
7
 10
11.26700000
 20
3.91100000
  0
VERTEX
  8
B-1465A.PLT
 62
7
 10
11.22790039
 20
3.90687305
  0
VERTEX
  8
B-1465A.PLT
 62
7
 10
11.19026563
 20
3.89842187
  0
VERTEX
  8
B-1465A.PLT
 62
7
 10
11.15434180
 20
3.88591602
  0
VERTEX
  8
B-1465A.PLT
 62
7
 10
11.12037500
 20
3.86962500
  0
VERTEX
  8
B-1465A.PLT
 62
7
 10
11.08861133
 20
3.84981836
  0
VERTEX
  8
B-1465A.PLT
 62
7
 10
11.05929687
 20
3.82676563
  0
VERTEX
  8
B-1465A.PLT
 62
7
 10
11.03267773
 20
3.80073633
  0
VERTEX
  8
B-1465A.PLT
 62
7
 10
11.00900000
 20
3.77200000
  0
VERTEX
  8
B-1465A.PLT
 62
7
 10
11.00900000
 20
3.77100000
  0
VERTEX
  8
B-1465A.PLT
 62
7
 10
11.10200000
 20
3.72500000
  0
VERTEX
  8
B-1465A.PLT
 62
7
 10
11.07290039
 20
3.70438477
  0
VERTEX
  8
B-1465A.PLT
 62
7
 10
11.04657813
 20
3.68026563
  0
VERTEX
  8
B-1465A.PLT
 62
7
 10
11.02337305
 20
3.65298242
  0
VERTEX
  8
B-1465A.PLT
 62
7
 10
11.00362500
 20
3.62287500
  0
VERTEX
  8
B-1465A.PLT
 62
7
 10
10.98767383
 20
3.59028320
  0
VERTEX
  8
B-1465A.PLT
 62
7
 10
10.97585938
 20
3.55554688
  0
VERTEX
  8
B-1465A.PLT
 62
7
 10
10.96852148
 20
3.51900586
  0
VERTEX
  8
B-1465A.PLT
 62
7
 10
10.96600000
 20
3.48100000
  0
VERTEX
  8
B-1465A.PLT
 62
7
 10
10.96750000
 20
3.45012500
  0
SEQEND
  0
POLYLINE
  8
B-1465A.PLT
 62
7
 66
1
 70
1
  0
VERTEX
  8
B-1465A.PLT
 62
7
 10
14.42700000
 20
5.04100000
  0
VERTEX
  8
B-1465A.PLT
 62
7
 10
14.42700000
 20
5.04600000
  0
VERTEX
  8
B-1465A.PLT
 62
7
 10
14.42486719
 20
5.06716406
  0
VERTEX
  8
B-1465A.PLT
 62
7
 10
14.41875000
 20
5.08687500
  0
VERTEX
  8
B-1465A.PLT
 62
7
 10
14.40907031
 20
5.10471094
  0
VERTEX
  8
B-1465A.PLT
 62
7
 10
14.39625000
 20
5.12025000
  0
VERTEX
  8
B-1465A.PLT
 62
7
 10
14.38071094
 20
5.13307031
  0
VERTEX
  8
B-1465A.PLT
 62
7
 10
14.36287500
 20
5.14275000
  0
VERTEX
  8
B-1465A.PLT
 62
7
 10
14.34316406
 20
5.14886719
  0
VERTEX
  8
B-1465A.PLT
 62
7
 10
14.32200000
 20
5.15100000
  0
VERTEX
  8
B-1465A.PLT
 62
7
 10
14.32000000
 20
5.15100000
  0
VERTEX
  8
B-1465A.PLT
 62
7
 10
14.29400000
 20
5.14900000
  0
VERTEX
  8
B-1465A.PLT
 62
7
 10
14.27224414
 20
5.15056055
  0
VERTEX
  8
B-1465A.PLT
 62
7
 10
14.25139063
 20
5.15510938
  0
VERTEX
  8
B-1465A.PLT
 62
7
 10
14.23168555
 20
5.16244727
  0
VERTEX
  8
B-1465A.PLT
 62
7
 10
14.21337500
 20
5.17237500
  0
VERTEX
  8
B-1465A.PLT
 62
7
 10
14.19670508
 20
5.18469336
  0
VERTEX
  8
B-1465A.PLT
 62
7
 10
14.18192188
 20
5.19920313
  0
VERTEX
  8
B-1465A.PLT
 62
7
 10
14.16927148
 20
5.21570508
  0
VERTEX
  8
B-1465A.PLT
 62
7
 10
14.15900000
 20
5.23400000
  0
VERTEX
  8
B-1465A.PLT
 62
7
 10
14.15612500
 20
5.23762500
  0
VERTEX
  8
B-1465A.PLT
 62
7
 10
14.15100000
 20
5.23900000
  0
VERTEX
  8
B-1465A.PLT
 62
7
 10
14.14400000
 20
5.23600000
  0
VERTEX
  8
B-1465A.PLT
 62
7
 10
14.11821094
 20
5.20959766
  0
VERTEX
  8
B-1465A.PLT
 62
7
 10
14.08975000
 20
5.18603125
  0
VERTEX
  8
B-1465A.PLT
 62
7
 10
14.05885156
 20
5.16551172
  0
VERTEX
  8
B-1465A.PLT
 62
7
 10
14.02575000
 20
5.14825000
  0
VERTEX
  8
B-1465A.PLT
 62
7
 10
13.99067969
 20
5.13445703
  0
VERTEX
  8
B-1465A.PLT
 62
7
 10
13.95387500
 20
5.12434375
  0
VERTEX
  8
B-1465A.PLT
 62
7
 10
13.91557031
 20
5.11812109
  0
VERTEX
  8
B-1465A.PLT
 62
7
 10
13.87600000
 20
5.11600000
  0
VERTEX
  8
B-1465A.PLT
 62
7
 10
13.83175000
 20
5.11900000
  0
VERTEX
  8
B-1465A.PLT
 62
7
 10
13.78900000
 20
5.12800000
  0
VERTEX
  8
B-1465A.PLT
 62
7
 10
13.78700000
 20
5.12800000
  0
VERTEX
  8
B-1465A.PLT
 62
7
 10
13.78012500
 20
5.12537500
  0
VERTEX
  8
B-1465A.PLT
 62
7
 10
13.77700000
 20
5.11900000
  0
VERTEX
  8
B-1465A.PLT
 62
7
 10
13.77800000
 20
5.11700000
  0
VERTEX
  8
B-1465A.PLT
 62
7
 10
13.78000000
 20
5.09500000
  0
VERTEX
  8
B-1465A.PLT
 62
7
 10
13.77830859
 20
5.07287109
  0
VERTEX
  8
B-1465A.PLT
 62
7
 10
13.77340625
 20
5.05165625
  0
VERTEX
  8
B-1465A.PLT
 62
7
 10
13.76555078
 20
5.03161328
  0
VERTEX
  8
B-1465A.PLT
 62
7
 10
13.75500000
 20
5.01300000
  0
VERTEX
  8
B-1465A.PLT
 62
7
 10
13.74201172
 20
4.99607422
  0
VERTEX
  8
B-1465A.PLT
 62
7
 10
13.72684375
 20
4.98109375
  0
VERTEX
  8
B-1465A.PLT
 62
7
 10
13.70975391
 20
4.96831641
  0
VERTEX
  8
B-1465A.PLT
 62
7
 10
13.69100000
 20
4.95800000
  0
VERTEX
  8
B-1465A.PLT
 62
7
 10
13.67126563
 20
4.94185937
  0
VERTEX
  8
B-1465A.PLT
 62
7
 10
13.65612500
 20
4.92112500
  0
VERTEX
  8
B-1465A.PLT
 62
7
 10
13.64642188
 20
4.89682812
  0
VERTEX
  8
B-1465A.PLT
 62
7
 10
13.64300000
 20
4.87000000
  0
VERTEX
  8
B-1465A.PLT
 62
7
 10
13.64589063
 20
4.84521875
  0
VERTEX
  8
B-1465A.PLT
 62
7
 10
13.65412500
 20
4.82250000
  0
VERTEX
  8
B-1465A.PLT
 62
7
 10
13.66704688
 20
4.80278125
  0
VERTEX
  8
B-1465A.PLT
 62
7
 10
13.68400000
 20
4.78700000
  0
VERTEX
  8
B-1465A.PLT
 62
7
 10
14.05400000
 20
4.50800000
  0
VERTEX
  8
B-1465A.PLT
 62
7
 10
14.05900000
 20
4.50700000
  0
VERTEX
  8
B-1465A.PLT
 62
7
 10
14.06600000
 20
4.50900000
  0
VERTEX
  8
B-1465A.PLT
 62
7
 10
14.09575000
 20
4.53312500
  0
VERTEX
  8
B-1465A.PLT
 62
7
 10
14.13000000
 20
4.55200000
  0
VERTEX
  8
B-1465A.PLT
 62
7
 10
14.13362500
 20
4.55575000
  0
VERTEX
  8
B-1465A.PLT
 62
7
 10
14.13500000
 20
4.56100000
  0
VERTEX
  8
B-1465A.PLT
 62
7
 10
14.13500000
 20
4.56300000
  0
VERTEX
  8
B-1465A.PLT
 62
7
 10
14.02000000
 20
4.97900000
  0
VERTEX
  8
B-1465A.PLT
 62
7
 10
14.01900000
 20
4.98100000
  0
VERTEX
  8
B-1465A.PLT
 62
7
 10
14.02162500
 20
4.98737500
  0
VERTEX
  8
B-1465A.PLT
 62
7
 10
14.02800000
 20
4.99000000
  0
VERTEX
  8
B-1465A.PLT
 62
7
 10
14.03362500
 20
4.98850000
  0
VERTEX
  8
B-1465A.PLT
 62
7
 10
14.03700000
 20
4.98400000
  0
VERTEX
  8
B-1465A.PLT
 62
7
 10
14.17300000
 20
4.57500000
  0
VERTEX
  8
B-1465A.PLT
 62
7
 10
14.17675000
 20
4.57050000
  0
VERTEX
  8
B-1465A.PLT
 62
7
 10
14.18200000
 20
4.56900000
  0
VERTEX
  8
B-1465A.PLT
 62
7
 10
14.18400000
 20
4.56900000
  0
VERTEX
  8
B-1465A.PLT
 62
7
 10
14.22200000
 20
4.57200000
  0
VERTEX
  8
B-1465A.PLT
 62
7
 10
14.26100000
 20
4.56900000
  0
VERTEX
  8
B-1465A.PLT
 62
7
 10
14.26300000
 20
4.56900000
  0
VERTEX
  8
B-1465A.PLT
 62
7
 10
14.26812500
 20
4.57050000
  0
VERTEX
  8
B-1465A.PLT
 62
7
 10
14.27100000
 20
4.57500000
  0
VERTEX
  8
B-1465A.PLT
 62
7
 10
14.41300000
 20
4.98800000
  0
VERTEX
  8
B-1465A.PLT
 62
7
 10
14.42387500
 20
5.01000000
  0
VERTEX
  8
B-1465A.PLT
 62
7
 10
14.42800000
 20
5.03500000
  0
SEQEND
  0
POLYLINE
  8
B-1465A.PLT
 62
7
 66
1
 70
1
  0
VERTEX
  8
B-1465A.PLT
 62
7
 10
13.65000000
 20
3.90600000
  0
VERTEX
  8
B-1465A.PLT
 62
7
 10
13.63892187
 20
3.89185938
  0
VERTEX
  8
B-1465A.PLT
 62
7
 10
13.63112500
 20
3.87537500
  0
VERTEX
  8
B-1465A.PLT
 62
7
 10
13.62651563
 20
3.85720312
  0
VERTEX
  8
B-1465A.PLT
 62
7
 10
13.62500000
 20
3.83800000
  0
VERTEX
  8
B-1465A.PLT
 62
7
 10
13.62809375
 20
3.81248437
  0
VERTEX
  8
B-1465A.PLT
 62
7
 10
13.63700000
 20
3.78912500
  0
VERTEX
  8
B-1465A.PLT
 62
7
 10
13.65115625
 20
3.76895312
  0
VERTEX
  8
B-1465A.PLT
 62
7
 10
13.67000000
 20
3.75300000
  0
VERTEX
  8
B-1465A.PLT
 62
7
 10
13.68763477
 20
3.74244141
  0
VERTEX
  8
B-1465A.PLT
 62
7
 10
13.70364063
 20
3.72965625
  0
VERTEX
  8
B-1465A.PLT
 62
7
 10
13.71779492
 20
3.71485547
  0
VERTEX
  8
B-1465A.PLT
 62
7
 10
13.72987500
 20
3.69825000
  0
VERTEX
  8
B-1465A.PLT
 62
7
 10
13.73965820
 20
3.68005078
  0
VERTEX
  8
B-1465A.PLT
 62
7
 10
13.74692188
 20
3.66046875
  0
VERTEX
  8
B-1465A.PLT
 62
7
 10
13.75144336
 20
3.63971484
  0
VERTEX
  8
B-1465A.PLT
 62
7
 10
13.75300000
 20
3.61800000
  0
VERTEX
  8
B-1465A.PLT
 62
7
 10
13.75100000
 20
3.59100000
  0
VERTEX
  8
B-1465A.PLT
 62
7
 10
13.75100000
 20
3.58900000
  0
VERTEX
  8
B-1465A.PLT
 62
7
 10
13.75362500
 20
3.58262500
  0
VERTEX
  8
B-1465A.PLT
 62
7
 10
13.76000000
 20
3.58000000
  0
VERTEX
  8
B-1465A.PLT
 62
7
 10
13.76200000
 20
3.58000000
  0
VERTEX
  8
B-1465A.PLT
 62
7
 10
13.79912500
 20
3.58625000
  0
VERTEX
  8
B-1465A.PLT
 62
7
 10
13.83700000
 20
3.58800000
  0
VERTEX
  8
B-1465A.PLT
 62
7
 10
13.87802148
 20
3.58569922
  0
VERTEX
  8
B-1465A.PLT
 62
7
 10
13.91767188
 20
3.57896875
  0
VERTEX
  8
B-1465A.PLT
 62
7
 10
13.95570508
 20
3.56806641
  0
VERTEX
  8
B-1465A.PLT
 62
7
 10
13.99187500
 20
3.55325000
  0
VERTEX
  8
B-1465A.PLT
 62
7
 10
14.02593555
 20
3.53477734
  0
VERTEX
  8
B-1465A.PLT
 62
7
 10
14.05764062
 20
3.51290625
  0
VERTEX
  8
B-1465A.PLT
 62
7
 10
14.08674414
 20
3.48789453
  0
VERTEX
  8
B-1465A.PLT
 62
7
 10
14.11300000
 20
3.46000000
  0
VERTEX
  8
B-1465A.PLT
 62
7
 10
14.12000000
 20
3.45600000
  0
VERTEX
  8
B-1465A.PLT
 62
7
 10
14.12800000
 20
3.46100000
  0
VERTEX
  8
B-1465A.PLT
 62
7
 10
14.13851367
 20
3.47826172
  0
VERTEX
  8
B-1465A.PLT
 62
7
 10
14.15117187
 20
3.49390625
  0
VERTEX
  8
B-1465A.PLT
 62
7
 10
14.16577539
 20
3.50772266
  0
VERTEX
  8
B-1465A.PLT
 62
7
 10
14.18212500
 20
3.51950000
  0
VERTEX
  8
B-1465A.PLT
 62
7
 10
14.20002148
 20
3.52902734
  0
VERTEX
  8
B-1465A.PLT
 62
7
 10
14.21926563
 20
3.53609375
  0
VERTEX
  8
B-1465A.PLT
 62
7
 10
14.23965820
 20
3.54048828
  0
VERTEX
  8
B-1465A.PLT
 62
7
 10
14.26100000
 20
3.54200000
  0
VERTEX
  8
B-1465A.PLT
 62
7
 10
14.29200000
 20
3.53900000
  0
VERTEX
  8
B-1465A.PLT
 62
7
 10
14.29700000
 20
3.53800000
  0
VERTEX
  8
B-1465A.PLT
 62
7
 10
14.31849414
 20
3.54013281
  0
VERTEX
  8
B-1465A.PLT
 62
7
 10
14.33845312
 20
3.54625000
  0
VERTEX
  8
B-1465A.PLT
 62
7
 10
14.35646680
 20
3.55592969
  0
VERTEX
  8
B-1465A.PLT
 62
7
 10
14.37212500
 20
3.56875000
  0
VERTEX
  8
B-1465A.PLT
 62
7
 10
14.38501758
 20
3.58428906
  0
VERTEX
  8
B-1465A.PLT
 62
7
 10
14.39473438
 20
3.60212500
  0
VERTEX
  8
B-1465A.PLT
 62
7
 10
14.40086523
 20
3.62183594
  0
VERTEX
  8
B-1465A.PLT
 62
7
 10
14.40300000
 20
3.64300000
  0
VERTEX
  8
B-1465A.PLT
 62
7
 10
14.40162500
 20
3.65887500
  0
VERTEX
  8
B-1465A.PLT
 62
7
 10
14.39800000
 20
3.67400000
  0
VERTEX
  8
B-1465A.PLT
 62
7
 10
14.26300000
 20
4.11600000
  0
VERTEX
  8
B-1465A.PLT
 62
7
 10
14.25925000
 20
4.12100000
  0
VERTEX
  8
B-1465A.PLT
 62
7
 10
14.25400000
 20
4.12300000
  0
VERTEX
  8
B-1465A.PLT
 62
7
 10
14.25200000
 20
4.12300000
  0
VERTEX
  8
B-1465A.PLT
 62
7
 10
14.22100000
 20
4.12000000
  0
VERTEX
  8
B-1465A.PLT
 62
7
 10
14.19837500
 20
4.12137500
  0
VERTEX
  8
B-1465A.PLT
 62
7
 10
14.17500000
 20
4.12500000
  0
VERTEX
  8
B-1465A.PLT
 62
7
 10
14.17400000
 20
4.12500000
  0
VERTEX
  8
B-1465A.PLT
 62
7
 10
14.16800000
 20
4.12350000
  0
VERTEX
  8
B-1465A.PLT
 62
7
 10
14.16500000
 20
4.11900000
  0
VERTEX
  8
B-1465A.PLT
 62
7
 10
14.01400000
 20
3.71500000
  0
VERTEX
  8
B-1465A.PLT
 62
7
 10
14.01075000
 20
3.71137500
  0
VERTEX
  8
B-1465A.PLT
 62
7
 10
14.00600000
 20
3.71000000
  0
VERTEX
  8
B-1465A.PLT
 62
7
 10
13.99962500
 20
3.71262500
  0
VERTEX
  8
B-1465A.PLT
 62
7
 10
13.99700000
 20
3.71900000
  0
VERTEX
  8
B-1465A.PLT
 62
7
 10
13.99700000
 20
3.72100000
  0
VERTEX
  8
B-1465A.PLT
 62
7
 10
14.12700000
 20
4.13200000
  0
VERTEX
  8
B-1465A.PLT
 62
7
 10
14.12700000
 20
4.13600000
  0
VERTEX
  8
B-1465A.PLT
 62
7
 10
14.12200000
 20
4.14400000
  0
VERTEX
  8
B-1465A.PLT
 62
7
 10
14.08825000
 20
4.16350000
  0
VERTEX
  8
B-1465A.PLT
 62
7
 10
14.05900000
 20
4.18900000
  0
VERTEX
  8
B-1465A.PLT
 62
7
 10
14.05300000
 20
4.19100000
  0
VERTEX
  8
B-1465A.PLT
 62
7
 10
14.04800000
 20
4.19000000
  0
VERTEX
  8
B-1465A.PLT
 62
7
 10
13.68400000
 20
3.93500000
  0
VERTEX
  8
B-1465A.PLT
 62
7
 10
13.66587500
 20
3.92200000
  0
SEQEND
  0
POLYLINE
  8
B-1465A.PLT
 62
7
 66
1
 70
1
  0
VERTEX
  8
B-1465A.PLT
 62
7
 10
14.94100000
 20
4.36400000
  0
VERTEX
  8
B-1465A.PLT
 62
7
 10
14.95801758
 20
4.36953320
  0
VERTEX
  8
B-1465A.PLT
 62
7
 10
14.97364063
 20
4.37770313
  0
VERTEX
  8
B-1465A.PLT
 62
7
 10
14.98759961
 20
4.38824023
  0
VERTEX
  8
B-1465A.PLT
 62
7
 10
14.99962500
 20
4.40087500
  0
VERTEX
  8
B-1465A.PLT
 62
7
 10
15.00944727
 20
4.41533789
  0
VERTEX
  8
B-1465A.PLT
 62
7
 10
15.01679688
 20
4.43135938
  0
VERTEX
  8
B-1465A.PLT
 62
7
 10
15.02140430
 20
4.44866992
  0
VERTEX
  8
B-1465A.PLT
 62
7
 10
15.02300000
 20
4.46700000
  0
VERTEX
  8
B-1465A.PLT
 62
7
 10
15.02187500
 20
4.48487500
  0
VERTEX
  8
B-1465A.PLT
 62
7
 10
15.01700000
 20
4.50200000
  0
VERTEX
  8
B-1465A.PLT
 62
7
 10
15.00970313
 20
4.51785937
  0
VERTEX
  8
B-1465A.PLT
 62
7
 10
15.00437500
 20
4.53512500
  0
VERTEX
  8
B-1465A.PLT
 62
7
 10
15.00110938
 20
4.55332813
  0
VERTEX
  8
B-1465A.PLT
 62
7
 10
15.00000000
 20
4.57200000
  0
VERTEX
  8
B-1465A.PLT
 62
7
 10
15.00312500
 20
4.60321875
  0
VERTEX
  8
B-1465A.PLT
 62
7
 10
15.01225000
 20
4.63200000
  0
VERTEX
  8
B-1465A.PLT
 62
7
 10
15.02700000
 20
4.65778125
  0
VERTEX
  8
B-1465A.PLT
 62
7
 10
15.04700000
 20
4.68000000
  0
VERTEX
  8
B-1465A.PLT
 62
7
 10
15.04900000
 20
4.68700000
  0
VERTEX
  8
B-1465A.PLT
 62
7
 10
15.04762500
 20
4.69175000
  0
VERTEX
  8
B-1465A.PLT
 62
7
 10
15.04400000
 20
4.69500000
  0
VERTEX
  8
B-1465A.PLT
 62
7
 10
15.00104883
 20
4.71770117
  0
VERTEX
  8
B-1465A.PLT
 62
7
 10
14.96176563
 20
4.74573437
  0
VERTEX
  8
B-1465A.PLT
 62
7
 10
14.92663086
 20
4.77861914
  0
VERTEX
  8
B-1465A.PLT
 62
7
 10
14.89612500
 20
4.81587500
  0
VERTEX
  8
B-1465A.PLT
 62
7
 10
14.87072852
 20
4.85702148
  0
VERTEX
  8
B-1465A.PLT
 62
7
 10
14.85092187
 20
4.90157813
  0
VERTEX
  8
B-1465A.PLT
 62
7
 10
14.83718555
 20
4.94906445
  0
VERTEX
  8
B-1465A.PLT
 62
7
 10
14.83000000
 20
4.99900000
  0
VERTEX
  8
B-1465A.PLT
 62
7
 10
14.82750000
 20
5.00487500
  0
VERTEX
  8
B-1465A.PLT
 62
7
 10
14.82200000
 20
5.00700000
  0
VERTEX
  8
B-1465A.PLT
 62
7
 10
14.81700000
 20
5.00600000
  0
VERTEX
  8
B-1465A.PLT
 62
7
 10
14.80204688
 20
4.99985937
  0
VERTEX
  8
B-1465A.PLT
 62
7
 10
14.78587500
 20
4.99512500
  0
VERTEX
  8
B-1465A.PLT
 62
7
 10
14.76876563
 20
4.99207812
  0
VERTEX
  8
B-1465A.PLT
 62
7
 10
14.75100000
 20
4.99100000
  0
VERTEX
  8
B-1465A.PLT
 62
7
 10
14.71889063
 20
4.99443750
  0
VERTEX
  8
B-1465A.PLT
 62
7
 10
14.68912500
 20
5.00425000
  0
VERTEX
  8
B-1465A.PLT
 62
7
 10
14.66254688
 20
5.01968750
  0
VERTEX
  8
B-1465A.PLT
 62
7
 10
14.64000000
 20
5.04000000
  0
VERTEX
  8
B-1465A.PLT
 62
7
 10
14.62560938
 20
5.05007812
  0
VERTEX
  8
B-1465A.PLT
 62
7
 10
14.60962500
 20
5.05762500
  0
VERTEX
  8
B-1465A.PLT
 62
7
 10
14.59232813
 20
5.06235937
  0
VERTEX
  8
B-1465A.PLT
 62
7
 10
14.57400000
 20
5.06400000
  0
VERTEX
  8
B-1465A.PLT
 62
7
 10
14.55711133
 20
5.06263086
  0
VERTEX
  8
B-1465A.PLT
 62
7
 10
14.54107813
 20
5.05867187
  0
VERTEX
  8
B-1465A.PLT
 62
7
 10
14.52609961
 20
5.05234570
  0
VERTEX
  8
B-1465A.PLT
 62
7
 10
14.51237500
 20
5.04387500
  0
VERTEX
  8
B-1465A.PLT
 62
7
 10
14.50010352
 20
5.03348242
  0
VERTEX
  8
B-1465A.PLT
 62
7
 10
14.48948438
 20
5.02139063
  0
VERTEX
  8
B-1465A.PLT
 62
7
 10
14.48071680
 20
5.00782227
  0
VERTEX
  8
B-1465A.PLT
 62
7
 10
14.47400000
 20
4.99300000
  0
VERTEX
  8
B-1465A.PLT
 62
7
 10
14.32400000
 20
4.55500000
  0
VERTEX
  8
B-1465A.PLT
 62
7
 10
14.32400000
 20
4.55300000
  0
VERTEX
  8
B-1465A.PLT
 62
7
 10
14.32487500
 20
4.54862500
  0
VERTEX
  8
B-1465A.PLT
 62
7
 10
14.32800000
 20
4.54500000
  0
VERTEX
  8
B-1465A.PLT
 62
7
 10
14.36075000
 20
4.52400000
  0
VERTEX
  8
B-1465A.PLT
 62
7
 10
14.38900000
 20
4.49700000
  0
VERTEX
  8
B-1465A.PLT
 62
7
 10
14.39600000
 20
4.49500000
  0
VERTEX
  8
B-1465A.PLT
 62
7
 10
14.40000000
 20
4.49600000
  0
VERTEX
  8
B-1465A.PLT
 62
7
 10
14.76100000
 20
4.73400000
  0
VERTEX
  8
B-1465A.PLT
 62
7
 10
14.76600000
 20
4.73600000
  0
VERTEX
  8
B-1465A.PLT
 62
7
 10
14.77237500
 20
4.73325000
  0
VERTEX
  8
B-1465A.PLT
 62
7
 10
14.77500000
 20
4.72600000
  0
VERTEX
  8
B-1465A.PLT
 62
7
 10
14.77100000
 20
4.71900000
  0
VERTEX
  8
B-1465A.PLT
 62
7
 10
14.42400000
 20
4.46200000
  0
VERTEX
  8
B-1465A.PLT
 62
7
 10
14.42100000
 20
4.45500000
  0
VERTEX
  8
B-1465A.PLT
 62
7
 10
14.42200000
 20
4.45100000
  0
VERTEX
  8
B-1465A.PLT
 62
7
 10
14.43687500
 20
4.41562500
  0
VERTEX
  8
B-1465A.PLT
 62
7
 10
14.44500000
 20
4.37800000
  0
VERTEX
  8
B-1465A.PLT
 62
7
 10
14.44837500
 20
4.37212500
  0
VERTEX
  8
B-1465A.PLT
 62
7
 10
14.45400000
 20
4.37000000
  0
VERTEX
  8
B-1465A.PLT
 62
7
 10
14.89000000
 20
4.36300000
  0
VERTEX
  8
B-1465A.PLT
 62
7
 10
14.90800000
 20
4.36200000
  0
SEQEND
  0
POLYLINE
  8
B-1465A.PLT
 62
7
 66
1
 70
1
  0
VERTEX
  8
B-1465A.PLT
 62
7
 10
14.46400000
 20
3.66400000
  0
VERTEX
  8
B-1465A.PLT
 62
7
 10
14.48071875
 20
3.64426563
  0
VERTEX
  8
B-1465A.PLT
 62
7
 10
14.50175000
 20
3.62912500
  0
VERTEX
  8
B-1465A.PLT
 62
7
 10
14.52615625
 20
3.61942188
  0
VERTEX
  8
B-1465A.PLT
 62
7
 10
14.55300000
 20
3.61600000
  0
VERTEX
  8
B-1465A.PLT
 62
7
 10
14.57059375
 20
3.61745312
  0
VERTEX
  8
B-1465A.PLT
 62
7
 10
14.58725000
 20
3.62162500
  0
VERTEX
  8
B-1465A.PLT
 62
7
 10
14.60278125
 20
3.62823437
  0
VERTEX
  8
B-1465A.PLT
 62
7
 10
14.61700000
 20
3.63700000
  0
VERTEX
  8
B-1465A.PLT
 62
7
 10
14.63920313
 20
3.65642187
  0
VERTEX
  8
B-1465A.PLT
 62
7
 10
14.66487500
 20
3.67087500
  0
VERTEX
  8
B-1465A.PLT
 62
7
 10
14.69335938
 20
3.67989063
  0
VERTEX
  8
B-1465A.PLT
 62
7
 10
14.72400000
 20
3.68300000
  0
VERTEX
  8
B-1465A.PLT
 62
7
 10
14.74312500
 20
3.68173438
  0
VERTEX
  8
B-1465A.PLT
 62
7
 10
14.76150000
 20
3.67812500
  0
VERTEX
  8
B-1465A.PLT
 62
7
 10
14.77912500
 20
3.67245313
  0
VERTEX
  8
B-1465A.PLT
 62
7
 10
14.79600000
 20
3.66500000
  0
VERTEX
  8
B-1465A.PLT
 62
7
 10
14.80000000
 20
3.66400000
  0
VERTEX
  8
B-1465A.PLT
 62
7
 10
14.80600000
 20
3.66612500
  0
VERTEX
  8
B-1465A.PLT
 62
7
 10
14.80900000
 20
3.67200000
  0
VERTEX
  8
B-1465A.PLT
 62
7
 10
14.81735156
 20
3.72150977
  0
VERTEX
  8
B-1465A.PLT
 62
7
 10
14.83231250
 20
3.76845313
  0
VERTEX
  8
B-1465A.PLT
 62
7
 10
14.85336719
 20
3.81232617
  0
VERTEX
  8
B-1465A.PLT
 62
7
 10
14.88000000
 20
3.85262500
  0
VERTEX
  8
B-1465A.PLT
 62
7
 10
14.91169531
 20
3.88884570
  0
VERTEX
  8
B-1465A.PLT
 62
7
 10
14.94793750
 20
3.92048438
  0
VERTEX
  8
B-1465A.PLT
 62
7
 10
14.98821094
 20
3.94703711
  0
VERTEX
  8
B-1465A.PLT
 62
7
 10
15.03200000
 20
3.96800000
  0
VERTEX
  8
B-1465A.PLT
 62
7
 10
15.03612500
 20
3.97175000
  0
VERTEX
  8
B-1465A.PLT
 62
7
 10
15.03800000
 20
3.97700000
  0
VERTEX
  8
B-1465A.PLT
 62
7
 10
15.03500000
 20
3.98300000
  0
VERTEX
  8
B-1465A.PLT
 62
7
 10
15.01731250
 20
4.00545312
  0
VERTEX
  8
B-1465A.PLT
 62
7
 10
15.00375000
 20
4.03062500
  0
VERTEX
  8
B-1465A.PLT
 62
7
 10
14.99506250
 20
4.05823437
  0
VERTEX
  8
B-1465A.PLT
 62
7
 10
14.99200000
 20
4.08800000
  0
VERTEX
  8
B-1465A.PLT
 62
7
 10
14.99345313
 20
4.10843750
  0
VERTEX
  8
B-1465A.PLT
 62
7
 10
14.99762500
 20
4.12775000
  0
VERTEX
  8
B-1465A.PLT
 62
7
 10
15.00423437
 20
4.14593750
  0
VERTEX
  8
B-1465A.PLT
 62
7
 10
15.01300000
 20
4.16300000
  0
VERTEX
  8
B-1465A.PLT
 62
7
 10
15.01750000
 20
4.18087500
  0
VERTEX
  8
B-1465A.PLT
 62
7
 10
15.01900000
 20
4.20100000
  0
VERTEX
  8
B-1465A.PLT
 62
7
 10
15.01695313
 20
4.22179297
  0
VERTEX
  8
B-1465A.PLT
 62
7
 10
15.01106250
 20
4.24115625
  0
VERTEX
  8
B-1465A.PLT
 62
7
 10
15.00170313
 20
4.25869141
  0
VERTEX
  8
B-1465A.PLT
 62
7
 10
14.98925000
 20
4.27400000
  0
VERTEX
  8
B-1465A.PLT
 62
7
 10
14.97407813
 20
4.28668359
  0
VERTEX
  8
B-1465A.PLT
 62
7
 10
14.95656250
 20
4.29634375
  0
VERTEX
  8
B-1465A.PLT
 62
7
 10
14.93707812
 20
4.30258203
  0
VERTEX
  8
B-1465A.PLT
 62
7
 10
14.91600000
 20
4.30500000
  0
VERTEX
  8
B-1465A.PLT
 62
7
 10
14.45400000
 20
4.31300000
  0
VERTEX
  8
B-1465A.PLT
 62
7
 10
14.45400000
 20
4.31300000
  0
VERTEX
  8
B-1465A.PLT
 62
7
 10
14.44800000
 20
4.31100000
  0
VERTEX
  8
B-1465A.PLT
 62
7
 10
14.44500000
 20
4.30600000
  0
VERTEX
  8
B-1465A.PLT
 62
7
 10
14.43450000
 20
4.26850000
  0
VERTEX
  8
B-1465A.PLT
 62
7
 10
14.41800000
 20
4.23400000
  0
VERTEX
  8
B-1465A.PLT
 62
7
 10
14.41700000
 20
4.22900000
  0
VERTEX
  8
B-1465A.PLT
 62
7
 10
14.42100000
 20
4.22200000
  0
VERTEX
  8
B-1465A.PLT
 62
7
 10
14.75800000
 20
3.95400000
  0
VERTEX
  8
B-1465A.PLT
 62
7
 10
14.76200000
 20
3.94700000
  0
VERTEX
  8
B-1465A.PLT
 62
7
 10
14.75900000
 20
3.94062500
  0
VERTEX
  8
B-1465A.PLT
 62
7
 10
14.75300000
 20
3.93800000
  0
VERTEX
  8
B-1465A.PLT
 62
7
 10
14.74800000
 20
3.93900000
  0
VERTEX
  8
B-1465A.PLT
 62
7
 10
14.39600000
 20
4.18900000
  0
VERTEX
  8
B-1465A.PLT
 62
7
 10
14.39100000
 20
4.19100000
  0
VERTEX
  8
B-1465A.PLT
 62
7
 10
14.38400000
 20
4.18900000
  0
VERTEX
  8
B-1465A.PLT
 62
7
 10
14.35487500
 20
4.16337500
  0
VERTEX
  8
B-1465A.PLT
 62
7
 10
14.32200000
 20
4.14300000
  0
VERTEX
  8
B-1465A.PLT
 62
7
 10
14.31837500
 20
4.13975000
  0
VERTEX
  8
B-1465A.PLT
 62
7
 10
14.31700000
 20
4.13500000
  0
VERTEX
  8
B-1465A.PLT
 62
7
 10
14.31800000
 20
4.13200000
  0
VERTEX
  8
B-1465A.PLT
 62
7
 10
14.44700000
 20
3.70700000
  0
VERTEX
  8
B-1465A.PLT
 62
7
 10
14.45400000
 20
3.68475000
  0
SEQEND
  0
POLYLINE
  8
B-1465A.PLT
 62
7
 66
1
 70
1
  0
VERTEX
  8
B-1465A.PLT
 62
7
 10
12.32600000
 20
3.45700000
  0
VERTEX
  8
B-1465A.PLT
 62
7
 10
12.32150000
 20
3.44200000
  0
VERTEX
  8
B-1465A.PLT
 62
7
 10
12.32000000
 20
3.42700000
  0
VERTEX
  8
B-1465A.PLT
 62
7
 10
12.32127539
 20
3.41198437
  0
VERTEX
  8
B-1465A.PLT
 62
7
 10
12.32495313
 20
3.39781250
  0
VERTEX
  8
B-1465A.PLT
 62
7
 10
12.33081055
 20
3.38467188
  0
VERTEX
  8
B-1465A.PLT
 62
7
 10
12.33862500
 20
3.37275000
  0
VERTEX
  8
B-1465A.PLT
 62
7
 10
12.34817383
 20
3.36223437
  0
VERTEX
  8
B-1465A.PLT
 62
7
 10
12.35923438
 20
3.35331250
  0
VERTEX
  8
B-1465A.PLT
 62
7
 10
12.37158398
 20
3.34617188
  0
VERTEX
  8
B-1465A.PLT
 62
7
 10
12.38500000
 20
3.34100000
  0
VERTEX
  8
B-1465A.PLT
 62
7
 10
12.40543555
 20
3.33668945
  0
VERTEX
  8
B-1465A.PLT
 62
7
 10
12.42454688
 20
3.32920312
  0
VERTEX
  8
B-1465A.PLT
 62
7
 10
12.44204102
 20
3.31883398
  0
VERTEX
  8
B-1465A.PLT
 62
7
 10
12.45762500
 20
3.30587500
  0
VERTEX
  8
B-1465A.PLT
 62
7
 10
12.47100586
 20
3.29061914
  0
VERTEX
  8
B-1465A.PLT
 62
7
 10
12.48189063
 20
3.27335938
  0
VERTEX
  8
B-1465A.PLT
 62
7
 10
12.48998633
 20
3.25438867
  0
VERTEX
  8
B-1465A.PLT
 62
7
 10
12.49500000
 20
3.23400000
  0
VERTEX
  8
B-1465A.PLT
 62
7
 10
12.49700000
 20
3.22950000
  0
VERTEX
  8
B-1465A.PLT
 62
7
 10
12.50200000
 20
3.22800000
  0
VERTEX
  8
B-1465A.PLT
 62
7
 10
12.50600000
 20
3.22800000
  0
VERTEX
  8
B-1465A.PLT
 62
7
 10
12.54192188
 20
3.24668750
  0
VERTEX
  8
B-1465A.PLT
 62
7
 10
12.58037500
 20
3.26050000
  0
VERTEX
  8
B-1465A.PLT
 62
7
 10
12.62089062
 20
3.26906250
  0
VERTEX
  8
B-1465A.PLT
 62
7
 10
12.66300000
 20
3.27200000
  0
VERTEX
  8
B-1465A.PLT
 62
7
 10
12.70625000
 20
3.26906250
  0
VERTEX
  8
B-1465A.PLT
 62
7
 10
12.74725000
 20
3.26050000
  0
VERTEX
  8
B-1465A.PLT
 62
7
 10
12.78562500
 20
3.24668750
  0
VERTEX
  8
B-1465A.PLT
 62
7
 10
12.82100000
 20
3.22800000
  0
VERTEX
  8
B-1465A.PLT
 62
7
 10
12.82500000
 20
3.22800000
  0
VERTEX
  8
B-1465A.PLT
 62
7
 10
12.83012500
 20
3.22950000
  0
VERTEX
  8
B-1465A.PLT
 62
7
 10
12.83300000
 20
3.23400000
  0
VERTEX
  8
B-1465A.PLT
 62
7
 10
12.83768555
 20
3.25438867
  0
VERTEX
  8
B-1465A.PLT
 62
7
 10
12.84554688
 20
3.27335938
  0
VERTEX
  8
B-1465A.PLT
 62
7
 10
12.85629102
 20
3.29061914
  0
VERTEX
  8
B-1465A.PLT
 62
7
 10
12.86962500
 20
3.30587500
  0
VERTEX
  8
B-1465A.PLT
 62
7
 10
12.88525586
 20
3.31883398
  0
VERTEX
  8
B-1465A.PLT
 62
7
 10
12.90289063
 20
3.32920312
  0
VERTEX
  8
B-1465A.PLT
 62
7
 10
12.92223633
 20
3.33668945
  0
VERTEX
  8
B-1465A.PLT
 62
7
 10
12.94300000
 20
3.34100000
  0
VERTEX
  8
B-1465A.PLT
 62
7
 10
12.95637305
 20
3.34617188
  0
VERTEX
  8
B-1465A.PLT
 62
7
 10
12.96860938
 20
3.35331250
  0
VERTEX
  8
B-1465A.PLT
 62
7
 10
12.97950977
 20
3.36223437
  0
VERTEX
  8
B-1465A.PLT
 62
7
 10
12.98887500
 20
3.37275000
  0
VERTEX
  8
B-1465A.PLT
 62
7
 10
12.99650586
 20
3.38467188
  0
VERTEX
  8
B-1465A.PLT
 62
7
 10
13.00220312
 20
3.39781250
  0
VERTEX
  8
B-1465A.PLT
 62
7
 10
13.00576758
 20
3.41198437
  0
VERTEX
  8
B-1465A.PLT
 62
7
 10
13.00700000
 20
3.42700000
  0
VERTEX
  8
B-1465A.PLT
 62
7
 10
13.00589062
 20
3.44103125
  0
VERTEX
  8
B-1465A.PLT
 62
7
 10
13.00262500
 20
3.45450000
  0
VERTEX
  8
B-1465A.PLT
 62
7
 10
12.99729688
 20
3.46721875
  0
VERTEX
  8
B-1465A.PLT
 62
7
 10
12.99000000
 20
3.47900000
  0
VERTEX
  8
B-1465A.PLT
 62
7
 10
12.76000000
 20
3.79600000
  0
VERTEX
  8
B-1465A.PLT
 62
7
 10
12.75400000
 20
3.79900000
  0
VERTEX
  8
B-1465A.PLT
 62
7
 10
12.75000000
 20
3.79800000
  0
VERTEX
  8
B-1465A.PLT
 62
7
 10
12.72012500
 20
3.78625000
  0
VERTEX
  8
B-1465A.PLT
 62
7
 10
12.68800000
 20
3.77900000
  0
VERTEX
  8
B-1465A.PLT
 62
7
 10
12.68300000
 20
3.77700000
  0
VERTEX
  8
B-1465A.PLT
 62
7
 10
12.68100000
 20
3.77200000
  0
VERTEX
  8
B-1465A.PLT
 62
7
 10
12.67100000
 20
3.40700000
  0
VERTEX
  8
B-1465A.PLT
 62
7
 10
12.66887500
 20
3.40062500
  0
VERTEX
  8
B-1465A.PLT
 62
7
 10
12.66300000
 20
3.39800000
  0
VERTEX
  8
B-1465A.PLT
 62
7
 10
12.65800000
 20
3.40062500
  0
VERTEX
  8
B-1465A.PLT
 62
7
 10
12.65600000
 20
3.40700000
  0
VERTEX
  8
B-1465A.PLT
 62
7
 10
12.64600000
 20
3.77200000
  0
VERTEX
  8
B-1465A.PLT
 62
7
 10
12.64412500
 20
3.77700000
  0
VERTEX
  8
B-1465A.PLT
 62
7
 10
12.64000000
 20
3.77900000
  0
VERTEX
  8
B-1465A.PLT
 62
7
 10
12.60700000
 20
3.78625000
  0
VERTEX
  8
B-1465A.PLT
 62
7
 10
12.57700000
 20
3.79800000
  0
VERTEX
  8
B-1465A.PLT
 62
7
 10
12.57300000
 20
3.79900000
  0
VERTEX
  8
B-1465A.PLT
 62
7
 10
12.56800000
 20
3.79600000
  0
VERTEX
  8
B-1465A.PLT
 62
7
 10
12.35000000
 20
3.49600000
  0
SEQEND
  0
POLYLINE
  8
B-1465A.PLT
 62
7
 66
1
 70
1
  0
VERTEX
  8
B-1465A.PLT
 62
7
 10
13.48600000
 20
4.68700000
  0
VERTEX
  8
B-1465A.PLT
 62
7
 10
13.48062305
 20
4.66296289
  0
VERTEX
  8
B-1465A.PLT
 62
7
 10
13.47148437
 20
4.64057813
  0
VERTEX
  8
B-1465A.PLT
 62
7
 10
13.45894727
 20
4.62018555
  0
VERTEX
  8
B-1465A.PLT
 62
7
 10
13.44337500
 20
4.60212500
  0
VERTEX
  8
B-1465A.PLT
 62
7
 10
13.42513086
 20
4.58673633
  0
VERTEX
  8
B-1465A.PLT
 62
7
 10
13.40457813
 20
4.57435938
  0
VERTEX
  8
B-1465A.PLT
 62
7
 10
13.38208008
 20
4.56533398
  0
VERTEX
  8
B-1465A.PLT
 62
7
 10
13.35800000
 20
4.56000000
  0
VERTEX
  8
B-1465A.PLT
 62
7
 10
13.35212500
 20
4.55662500
  0
VERTEX
  8
B-1465A.PLT
 62
7
 10
13.35000000
 20
4.55100000
  0
VERTEX
  8
B-1465A.PLT
 62
7
 10
13.35200000
 20
4.54600000
  0
VERTEX
  8
B-1465A.PLT
 62
7
 10
13.37215625
 20
4.50465625
  0
VERTEX
  8
B-1465A.PLT
 62
7
 10
13.38725000
 20
4.46050000
  0
VERTEX
  8
B-1465A.PLT
 62
7
 10
13.39671875
 20
4.41409375
  0
VERTEX
  8
B-1465A.PLT
 62
7
 10
13.40000000
 20
4.36600000
  0
VERTEX
  8
B-1465A.PLT
 62
7
 10
13.39632813
 20
4.31393750
  0
VERTEX
  8
B-1465A.PLT
 62
7
 10
13.38562500
 20
4.26450000
  0
VERTEX
  8
B-1465A.PLT
 62
7
 10
13.36835938
 20
4.21806250
  0
VERTEX
  8
B-1465A.PLT
 62
7
 10
13.34500000
 20
4.17500000
  0
VERTEX
  8
B-1465A.PLT
 62
7
 10
13.34300000
 20
4.17000000
  0
VERTEX
  8
B-1465A.PLT
 62
7
 10
13.34550000
 20
4.16437500
  0
VERTEX
  8
B-1465A.PLT
 62
7
 10
13.35100000
 20
4.16100000
  0
VERTEX
  8
B-1465A.PLT
 62
7
 10
13.37499023
 20
4.15491797
  0
VERTEX
  8
B-1465A.PLT
 62
7
 10
13.39723438
 20
4.14515625
  0
VERTEX
  8
B-1465A.PLT
 62
7
 10
13.41739258
 20
4.13206641
  0
VERTEX
  8
B-1465A.PLT
 62
7
 10
13.43512500
 20
4.11600000
  0
VERTEX
  8
B-1465A.PLT
 62
7
 10
13.45009180
 20
4.09730859
  0
VERTEX
  8
B-1465A.PLT
 62
7
 10
13.46195313
 20
4.07634375
  0
VERTEX
  8
B-1465A.PLT
 62
7
 10
13.47036914
 20
4.05345703
  0
VERTEX
  8
B-1465A.PLT
 62
7
 10
13.47500000
 20
4.02900000
  0
VERTEX
  8
B-1465A.PLT
 62
7
 10
13.47764331
 20
4.01486841
  0
VERTEX
  8
B-1465A.PLT
 62
7
 10
13.48208398
 20
4.00210352
  0
VERTEX
  8
B-1465A.PLT
 62
7
 10
13.48815063
 20
3.99071265
  0
VERTEX
  8
B-1465A.PLT
 62
7
 10
13.49567187
 20
3.98070312
  0
VERTEX
  8
B-1465A.PLT
 62
7
 10
13.50447632
 20
3.97208228
  0
VERTEX
  8
B-1465A.PLT
 62
7
 10
13.51439258
 20
3.96485742
  0
VERTEX
  8
B-1465A.PLT
 62
7
 10
13.52524927
 20
3.95903589
  0
VERTEX
  8
B-1465A.PLT
 62
7
 10
13.53687500
 20
3.95462500
  0
VERTEX
  8
B-1465A.PLT
 62
7
 10
13.54909839
 20
3.95163208
  0
VERTEX
  8
B-1465A.PLT
 62
7
 10
13.56174805
 20
3.95006445
  0
VERTEX
  8
B-1465A.PLT
 62
7
 10
13.57465259
 20
3.94992944
  0
VERTEX
  8
B-1465A.PLT
 62
7
 10
13.58764063
 20
3.95123437
  0
VERTEX
  8
B-1465A.PLT
 62
7
 10
13.60054077
 20
3.95398657
  0
VERTEX
  8
B-1465A.PLT
 62
7
 10
13.61318164
 20
3.95819336
  0
VERTEX
  8
B-1465A.PLT
 62
7
 10
13.62539185
 20
3.96386206
  0
VERTEX
  8
B-1465A.PLT
 62
7
 10
13.63700000
 20
3.97100000
  0
VERTEX
  8
B-1465A.PLT
 62
7
 10
14.01600000
 20
4.23500000
  0
VERTEX
  8
B-1465A.PLT
 62
7
 10
14.02000000
 20
4.24300000
  0
VERTEX
  8
B-1465A.PLT
 62
7
 10
14.01900000
 20
4.24700000
  0
VERTEX
  8
B-1465A.PLT
 62
7
 10
14.00462500
 20
4.28287500
  0
VERTEX
  8
B-1465A.PLT
 62
7
 10
13.99700000
 20
4.32100000
  0
VERTEX
  8
B-1465A.PLT
 62
7
 10
13.99450000
 20
4.32650000
  0
VERTEX
  8
B-1465A.PLT
 62
7
 10
13.98900000
 20
4.32900000
  0
VERTEX
  8
B-1465A.PLT
 62
7
 10
13.55700000
 20
4.34800000
  0
VERTEX
  8
B-1465A.PLT
 62
7
 10
13.55112500
 20
4.35062500
  0
VERTEX
  8
B-1465A.PLT
 62
7
 10
13.54900000
 20
4.35700000
  0
VERTEX
  8
B-1465A.PLT
 62
7
 10
13.55162500
 20
4.36337500
  0
VERTEX
  8
B-1465A.PLT
 62
7
 10
13.55800000
 20
4.36600000
  0
VERTEX
  8
B-1465A.PLT
 62
7
 10
13.98900000
 20
4.37000000
  0
VERTEX
  8
B-1465A.PLT
 62
7
 10
13.99537500
 20
4.37212500
  0
VERTEX
  8
B-1465A.PLT
 62
7
 10
13.99800000
 20
4.37800000
  0
VERTEX
  8
B-1465A.PLT
 62
7
 10
14.00700000
 20
4.41612500
  0
VERTEX
  8
B-1465A.PLT
 62
7
 10
14.02200000
 20
4.45200000
  0
VERTEX
  8
B-1465A.PLT
 62
7
 10
14.02300000
 20
4.45600000
  0
VERTEX
  8
B-1465A.PLT
 62
7
 10
14.02000000
 20
4.46200000
  0
VERTEX
  8
B-1465A.PLT
 62
7
 10
13.67500000
 20
4.72200000
  0
VERTEX
  8
B-1465A.PLT
 62
7
 10
13.65475000
 20
4.74012500
  0
VERTEX
  8
B-1465A.PLT
 62
7
 10
13.63000000
 20
4.75300000
  0
VERTEX
  8
B-1465A.PLT
 62
7
 10
13.60962500
 20
4.75937500
  0
VERTEX
  8
B-1465A.PLT
 62
7
 10
13.58700000
 20
4.76200000
  0
VERTEX
  8
B-1465A.PLT
 62
7
 10
13.56945313
 20
4.76054102
  0
VERTEX
  8
B-1465A.PLT
 62
7
 10
13.55293750
 20
4.75632812
  0
VERTEX
  8
B-1465A.PLT
 62
7
 10
13.53764063
 20
4.74960742
  0
VERTEX
  8
B-1465A.PLT
 62
7
 10
13.52375000
 20
4.74062500
  0
VERTEX
  8
B-1465A.PLT
 62
7
 10
13.51145312
 20
4.72962695
  0
VERTEX
  8
B-1465A.PLT
 62
7
 10
13.50093750
 20
4.71685938
  0
VERTEX
  8
B-1465A.PLT
 62
7
 10
13.49239063
 20
4.70256836
  0
SEQEND
  0
POLYLINE
  8
B-1465A.PLT
 62
7
 66
1
 70
1
  0
VERTEX
  8
B-1465A.PLT
 62
7
 10
4.06500000
 20
4.08300000
  0
VERTEX
  8
B-1465A.PLT
 62
7
 10
4.08278125
 20
4.02448438
  0
VERTEX
  8
B-1465A.PLT
 62
7
 10
4.09550000
 20
3.96437500
  0
VERTEX
  8
B-1465A.PLT
 62
7
 10
4.10296875
 20
3.90257812
  0
VERTEX
  8
B-1465A.PLT
 62
7
 10
4.10500000
 20
3.83900000
  0
VERTEX
  8
B-1465A.PLT
 62
7
 10
4.10400000
 20
3.82800000
  0
VERTEX
  8
B-1465A.PLT
 62
7
 10
4.10786328
 20
3.78415234
  0
VERTEX
  8
B-1465A.PLT
 62
7
 10
4.11765625
 20
3.74215625
  0
VERTEX
  8
B-1465A.PLT
 62
7
 10
4.13293359
 20
3.70245703
  0
VERTEX
  8
B-1465A.PLT
 62
7
 10
4.15325000
 20
3.66550000
  0
VERTEX
  8
B-1465A.PLT
 62
7
 10
4.17816016
 20
3.63173047
  0
VERTEX
  8
B-1465A.PLT
 62
7
 10
4.20721875
 20
3.60159375
  0
VERTEX
  8
B-1465A.PLT
 62
7
 10
4.23998047
 20
3.57553516
  0
VERTEX
  8
B-1465A.PLT
 62
7
 10
4.27600000
 20
3.55400000
  0
VERTEX
  8
B-1465A.PLT
 62
7
 10
4.27700000
 20
3.55500000
  0
VERTEX
  8
B-1465A.PLT
 62
7
 10
4.27500000
 20
3.51700000
  0
VERTEX
  8
B-1465A.PLT
 62
7
 10
4.27509766
 20
3.48612305
  0
VERTEX
  8
B-1465A.PLT
 62
7
 10
4.27690625
 20
3.46067188
  0
VERTEX
  8
B-1465A.PLT
 62
7
 10
4.28044922
 20
3.43904102
  0
VERTEX
  8
B-1465A.PLT
 62
7
 10
4.28575000
 20
3.41962500
  0
VERTEX
  8
B-1465A.PLT
 62
7
 10
4.29283203
 20
3.40081836
  0
VERTEX
  8
B-1465A.PLT
 62
7
 10
4.30171875
 20
3.38101562
  0
VERTEX
  8
B-1465A.PLT
 62
7
 10
4.31243359
 20
3.35861133
  0
VERTEX
  8
B-1465A.PLT
 62
7
 10
4.32500000
 20
3.33200000
  0
VERTEX
  8
B-1465A.PLT
 62
7
 10
4.33343555
 20
3.35056836
  0
VERTEX
  8
B-1465A.PLT
 62
7
 10
4.34617187
 20
3.36635938
  0
VERTEX
  8
B-1465A.PLT
 62
7
 10
4.36235352
 20
3.37912695
  0
VERTEX
  8
B-1465A.PLT
 62
7
 10
4.38112500
 20
3.38862500
  0
VERTEX
  8
B-1465A.PLT
 62
7
 10
4.40163086
 20
3.39460742
  0
VERTEX
  8
B-1465A.PLT
 62
7
 10
4.42301562
 20
3.39682812
  0
VERTEX
  8
B-1465A.PLT
 62
7
 10
4.44442383
 20
3.39504102
  0
VERTEX
  8
B-1465A.PLT
 62
7
 10
4.46500000
 20
3.38900000
  0
VERTEX
  8
B-1465A.PLT
 62
7
 10
4.49348438
 20
3.37512500
  0
VERTEX
  8
B-1465A.PLT
 62
7
 10
4.50912500
 20
3.36350000
  0
VERTEX
  8
B-1465A.PLT
 62
7
 10
4.51970313
 20
3.35187500
  0
VERTEX
  8
B-1465A.PLT
 62
7
 10
4.53300000
 20
3.33800000
  0
VERTEX
  8
B-1465A.PLT
 62
7
 10
4.54014453
 20
3.36318555
  0
VERTEX
  8
B-1465A.PLT
 62
7
 10
4.55153125
 20
3.38479688
  0
VERTEX
  8
B-1465A.PLT
 62
7
 10
4.56671484
 20
3.40291602
  0
VERTEX
  8
B-1465A.PLT
 62
7
 10
4.58525000
 20
3.41762500
  0
VERTEX
  8
B-1465A.PLT
 62
7
 10
4.60669141
 20
3.42900586
  0
VERTEX
  8
B-1465A.PLT
 62
7
 10
4.63059375
 20
3.43714063
  0
VERTEX
  8
B-1465A.PLT
 62
7
 10
4.65651172
 20
3.44211133
  0
VERTEX
  8
B-1465A.PLT
 62
7
 10
4.68400000
 20
3.44400000
  0
VERTEX
  8
B-1465A.PLT
 62
7
 10
4.66760156
 20
3.48720898
  0
VERTEX
  8
B-1465A.PLT
 62
7
 10
4.65293750
 20
3.53129687
  0
VERTEX
  8
B-1465A.PLT
 62
7
 10
4.64005469
 20
3.57620508
  0
VERTEX
  8
B-1465A.PLT
 62
7
 10
4.62900000
 20
3.62187500
  0
VERTEX
  8
B-1465A.PLT
 62
7
 10
4.61982031
 20
3.66824805
  0
VERTEX
  8
B-1465A.PLT
 62
7
 10
4.61256250
 20
3.71526562
  0
VERTEX
  8
B-1465A.PLT
 62
7
 10
4.60727344
 20
3.76286914
  0
VERTEX
  8
B-1465A.PLT
 62
7
 10
4.60400000
 20
3.81100000
  0
VERTEX
  8
B-1465A.PLT
 62
7
 10
4.61037500
 20
3.84837500
  0
VERTEX
  8
B-1465A.PLT
 62
7
 10
4.61300000
 20
3.88800000
  0
VERTEX
  8
B-1465A.PLT
 62
7
 10
4.61127734
 20
3.93425586
  0
VERTEX
  8
B-1465A.PLT
 62
7
 10
4.60409375
 20
3.97904687
  0
VERTEX
  8
B-1465A.PLT
 62
7
 10
4.59180078
 20
4.02203320
  0
VERTEX
  8
B-1465A.PLT
 62
7
 10
4.57475000
 20
4.06287500
  0
VERTEX
  8
B-1465A.PLT
 62
7
 10
4.55329297
 20
4.10123242
  0
VERTEX
  8
B-1465A.PLT
 62
7
 10
4.52778125
 20
4.13676562
  0
VERTEX
  8
B-1465A.PLT
 62
7
 10
4.49856641
 20
4.16913477
  0
VERTEX
  8
B-1465A.PLT
 62
7
 10
4.46600000
 20
4.19800000
  0
VERTEX
  8
B-1465A.PLT
 62
7
 10
4.46600000
 20
4.19700000
  0
VERTEX
  8
B-1465A.PLT
 62
7
 10
4.47346875
 20
4.24103125
  0
VERTEX
  8
B-1465A.PLT
 62
7
 10
4.47925000
 20
4.28600000
  0
VERTEX
  8
B-1465A.PLT
 62
7
 10
4.48315625
 20
4.33171875
  0
VERTEX
  8
B-1465A.PLT
 62
7
 10
4.48500000
 20
4.37800000
  0
VERTEX
  8
B-1465A.PLT
 62
7
 10
4.48465625
 20
4.43626562
  0
VERTEX
  8
B-1465A.PLT
 62
7
 10
4.48075000
 20
4.49387500
  0
VERTEX
  8
B-1465A.PLT
 62
7
 10
4.47346875
 20
4.55054688
  0
VERTEX
  8
B-1465A.PLT
 62
7
 10
4.46300000
 20
4.60600000
  0
VERTEX
  8
B-1465A.PLT
 62
7
 10
4.38950000
 20
4.54159375
  0
VERTEX
  8
B-1465A.PLT
 62
7
 10
4.31150000
 20
4.48225000
  0
VERTEX
  8
B-1465A.PLT
 62
7
 10
4.22900000
 20
4.42853125
  0
VERTEX
  8
B-1465A.PLT
 62
7
 10
4.14200000
 20
4.38100000
  0
VERTEX
  8
B-1465A.PLT
 62
7
 10
4.13948633
 20
4.34422461
  0
VERTEX
  8
B-1465A.PLT
 62
7
 10
4.13426563
 20
4.30823437
  0
VERTEX
  8
B-1465A.PLT
 62
7
 10
4.12644336
 20
4.27315820
  0
VERTEX
  8
B-1465A.PLT
 62
7
 10
4.11612500
 20
4.23912500
  0
VERTEX
  8
B-1465A.PLT
 62
7
 10
4.10341602
 20
4.20626367
  0
VERTEX
  8
B-1465A.PLT
 62
7
 10
4.08842187
 20
4.17470312
  0
VERTEX
  8
B-1465A.PLT
 62
7
 10
4.07124805
 20
4.14457227
  0
VERTEX
  8
B-1465A.PLT
 62
7
 10
4.05200000
 20
4.11600000
  0
VERTEX
  8
B-1465A.PLT
 62
7
 10
4.05962500
 20
4.09987500
  0
SEQEND
  0
POLYLINE
  8
B-1465A.PLT
 62
7
 66
1
 70
1
  0
VERTEX
  8
B-1465A.PLT
 62
7
 10
11.95500000
 20
4.16800000
  0
VERTEX
  8
B-1465A.PLT
 62
7
 10
11.93451563
 20
4.18471875
  0
VERTEX
  8
B-1465A.PLT
 62
7
 10
11.91037500
 20
4.19900000
  0
VERTEX
  8
B-1465A.PLT
 62
7
 10
11.88229688
 20
4.20878125
  0
VERTEX
  8
B-1465A.PLT
 62
7
 10
11.85000000
 20
4.21200000
  0
VERTEX
  8
B-1465A.PLT
 62
7
 10
11.82422266
 20
4.21044922
  0
VERTEX
  8
B-1465A.PLT
 62
7
 10
11.79921875
 20
4.20690625
  0
VERTEX
  8
B-1465A.PLT
 62
7
 10
11.77473047
 20
4.20191016
  0
VERTEX
  8
B-1465A.PLT
 62
7
 10
11.75050000
 20
4.19600000
  0
VERTEX
  8
B-1465A.PLT
 62
7
 10
11.72626953
 20
4.18971484
  0
VERTEX
  8
B-1465A.PLT
 62
7
 10
11.70178125
 20
4.18359375
  0
VERTEX
  8
B-1465A.PLT
 62
7
 10
11.67677734
 20
4.17817578
  0
VERTEX
  8
B-1465A.PLT
 62
7
 10
11.65100000
 20
4.17400000
  0
VERTEX
  8
B-1465A.PLT
 62
7
 10
11.65300000
 20
4.17400000
  0
VERTEX
  8
B-1465A.PLT
 62
7
 10
11.61504883
 20
4.19311523
  0
VERTEX
  8
B-1465A.PLT
 62
7
 10
11.57851563
 20
4.21442188
  0
VERTEX
  8
B-1465A.PLT
 62
7
 10
11.54350586
 20
4.23786133
  0
VERTEX
  8
B-1465A.PLT
 62
7
 10
11.51012500
 20
4.26337500
  0
VERTEX
  8
B-1465A.PLT
 62
7
 10
11.47847852
 20
4.29090430
  0
VERTEX
  8
B-1465A.PLT
 62
7
 10
11.44867188
 20
4.32039062
  0
VERTEX
  8
B-1465A.PLT
 62
7
 10
11.42081055
 20
4.35177539
  0
VERTEX
  8
B-1465A.PLT
 62
7
 10
11.39500000
 20
4.38500000
  0
VERTEX
  8
B-1465A.PLT
 62
7
 10
11.37841211
 20
4.35215820
  0
VERTEX
  8
B-1465A.PLT
 62
7
 10
11.36392188
 20
4.31820313
  0
VERTEX
  8
B-1465A.PLT
 62
7
 10
11.35156445
 20
4.28324023
  0
VERTEX
  8
B-1465A.PLT
 62
7
 10
11.34137500
 20
4.24737500
  0
VERTEX
  8
B-1465A.PLT
 62
7
 10
11.33338867
 20
4.21071289
  0
VERTEX
  8
B-1465A.PLT
 62
7
 10
11.32764063
 20
4.17335938
  0
VERTEX
  8
B-1465A.PLT
 62
7
 10
11.32416602
 20
4.13541992
  0
VERTEX
  8
B-1465A.PLT
 62
7
 10
11.32300000
 20
4.09700000
  0
VERTEX
  8
B-1465A.PLT
 62
7
 10
11.32577539
 20
4.03741211
  0
VERTEX
  8
B-1465A.PLT
 62
7
 10
11.33395313
 20
3.97954688
  0
VERTEX
  8
B-1465A.PLT
 62
7
 10
11.34731055
 20
3.92362695
  0
VERTEX
  8
B-1465A.PLT
 62
7
 10
11.36562500
 20
3.86987500
  0
VERTEX
  8
B-1465A.PLT
 62
7
 10
11.38867383
 20
3.81851367
  0
VERTEX
  8
B-1465A.PLT
 62
7
 10
11.41623438
 20
3.76976562
  0
VERTEX
  8
B-1465A.PLT
 62
7
 10
11.44808398
 20
3.72385352
  0
VERTEX
  8
B-1465A.PLT
 62
7
 10
11.48400000
 20
3.68100000
  0
VERTEX
  8
B-1465A.PLT
 62
7
 10
11.36100000
 20
3.70600000
  0
VERTEX
  8
B-1465A.PLT
 62
7
 10
11.38681250
 20
3.65581250
  0
VERTEX
  8
B-1465A.PLT
 62
7
 10
11.41543750
 20
3.60731250
  0
VERTEX
  8
B-1465A.PLT
 62
7
 10
11.44678125
 20
3.56059375
  0
VERTEX
  8
B-1465A.PLT
 62
7
 10
11.48075000
 20
3.51575000
  0
VERTEX
  8
B-1465A.PLT
 62
7
 10
11.51725000
 20
3.47287500
  0
VERTEX
  8
B-1465A.PLT
 62
7
 10
11.55618750
 20
3.43206250
  0
VERTEX
  8
B-1465A.PLT
 62
7
 10
11.59746875
 20
3.39340625
  0
VERTEX
  8
B-1465A.PLT
 62
7
 10
11.64100000
 20
3.35700000
  0
VERTEX
  8
B-1465A.PLT
 62
7
 10
11.66620508
 20
3.39509180
  0
VERTEX
  8
B-1465A.PLT
 62
7
 10
11.69376562
 20
3.43129688
  0
VERTEX
  8
B-1465A.PLT
 62
7
 10
11.72359961
 20
3.46550977
  0
VERTEX
  8
B-1465A.PLT
 62
7
 10
11.75562500
 20
3.49762500
  0
VERTEX
  8
B-1465A.PLT
 62
7
 10
11.78975977
 20
3.52753711
  0
VERTEX
  8
B-1465A.PLT
 62
7
 10
11.82592188
 20
3.55514062
  0
VERTEX
  8
B-1465A.PLT
 62
7
 10
11.86402930
 20
3.58033008
  0
VERTEX
  8
B-1465A.PLT
 62
7
 10
11.90400000
 20
3.60300000
  0
VERTEX
  8
B-1465A.PLT
 62
7
 10
11.90100000
 20
3.60500000
  0
VERTEX
  8
B-1465A.PLT
 62
7
 10
11.83653125
 20
3.67973437
  0
VERTEX
  8
B-1465A.PLT
 62
7
 10
11.77525000
 20
3.75662500
  0
VERTEX
  8
B-1465A.PLT
 62
7
 10
11.71734375
 20
3.83520313
  0
VERTEX
  8
B-1465A.PLT
 62
7
 10
11.66300000
 20
3.91500000
  0
VERTEX
  8
B-1465A.PLT
 62
7
 10
11.72231250
 20
3.87242188
  0
VERTEX
  8
B-1465A.PLT
 62
7
 10
11.78350000
 20
3.83162500
  0
VERTEX
  8
B-1465A.PLT
 62
7
 10
11.84693750
 20
3.79251563
  0
VERTEX
  8
B-1465A.PLT
 62
7
 10
11.91300000
 20
3.75500000
  0
VERTEX
  8
B-1465A.PLT
 62
7
 10
11.88887500
 20
3.79400000
  0
VERTEX
  8
B-1465A.PLT
 62
7
 10
11.85800000
 20
3.82700000
  0
VERTEX
  8
B-1465A.PLT
 62
7
 10
11.84514063
 20
3.84084375
  0
VERTEX
  8
B-1465A.PLT
 62
7
 10
11.83537500
 20
3.85675000
  0
VERTEX
  8
B-1465A.PLT
 62
7
 10
11.82917188
 20
3.87453125
  0
VERTEX
  8
B-1465A.PLT
 62
7
 10
11.82700000
 20
3.89400000
  0
VERTEX
  8
B-1465A.PLT
 62
7
 10
11.83057813
 20
3.91915625
  0
VERTEX
  8
B-1465A.PLT
 62
7
 10
11.84062500
 20
3.94150000
  0
VERTEX
  8
B-1465A.PLT
 62
7
 10
11.85610938
 20
3.96009375
  0
VERTEX
  8
B-1465A.PLT
 62
7
 10
11.87600000
 20
3.97400000
  0
VERTEX
  8
B-1465A.PLT
 62
7
 10
11.88623438
 20
3.98082812
  0
VERTEX
  8
B-1465A.PLT
 62
7
 10
11.89412500
 20
3.99037500
  0
VERTEX
  8
B-1465A.PLT
 62
7
 10
11.89920313
 20
4.00198438
  0
VERTEX
  8
B-1465A.PLT
 62
7
 10
11.90100000
 20
4.01500000
  0
VERTEX
  8
B-1465A.PLT
 62
7
 10
11.90000000
 20
4.02700000
  0
VERTEX
  8
B-1465A.PLT
 62
7
 10
11.89900000
 20
4.04200000
  0
VERTEX
  8
B-1465A.PLT
 62
7
 10
11.90137500
 20
4.07046875
  0
VERTEX
  8
B-1465A.PLT
 62
7
 10
11.90825000
 20
4.09725000
  0
VERTEX
  8
B-1465A.PLT
 62
7
 10
11.91925000
 20
4.12215625
  0
VERTEX
  8
B-1465A.PLT
 62
7
 10
11.93400000
 20
4.14500000
  0
SEQEND
  0
POLYLINE
  8
B-1465A.PLT
 62
7
 66
1
 70
1
  0
VERTEX
  8
B-1465A.PLT
 62
7
 10
13.04400000
 20
3.48900000
  0
VERTEX
  8
B-1465A.PLT
 62
7
 10
13.05612500
 20
3.48039063
  0
VERTEX
  8
B-1465A.PLT
 62
7
 10
13.06975000
 20
3.47412500
  0
VERTEX
  8
B-1465A.PLT
 62
7
 10
13.08450000
 20
3.47029687
  0
VERTEX
  8
B-1465A.PLT
 62
7
 10
13.10000000
 20
3.46900000
  0
VERTEX
  8
B-1465A.PLT
 62
7
 10
13.12196875
 20
3.47187500
  0
VERTEX
  8
B-1465A.PLT
 62
7
 10
13.14225000
 20
3.48000000
  0
VERTEX
  8
B-1465A.PLT
 62
7
 10
13.15990625
 20
3.49262500
  0
VERTEX
  8
B-1465A.PLT
 62
7
 10
13.17400000
 20
3.50900000
  0
VERTEX
  8
B-1465A.PLT
 62
7
 10
13.18259180
 20
3.52448242
  0
VERTEX
  8
B-1465A.PLT
 62
7
 10
13.19323437
 20
3.53854688
  0
VERTEX
  8
B-1465A.PLT
 62
7
 10
13.20572852
 20
3.55099414
  0
VERTEX
  8
B-1465A.PLT
 62
7
 10
13.21987500
 20
3.56162500
  0
VERTEX
  8
B-1465A.PLT
 62
7
 10
13.23547461
 20
3.57024023
  0
VERTEX
  8
B-1465A.PLT
 62
7
 10
13.25232813
 20
3.57664063
  0
VERTEX
  8
B-1465A.PLT
 62
7
 10
13.27023633
 20
3.58062695
  0
VERTEX
  8
B-1465A.PLT
 62
7
 10
13.28900000
 20
3.58200000
  0
VERTEX
  8
B-1465A.PLT
 62
7
 10
13.30900000
 20
3.58000000
  0
VERTEX
  8
B-1465A.PLT
 62
7
 10
13.31100000
 20
3.58000000
  0
VERTEX
  8
B-1465A.PLT
 62
7
 10
13.31600000
 20
3.58200000
  0
VERTEX
  8
B-1465A.PLT
 62
7
 10
13.31800000
 20
3.58700000
  0
VERTEX
  8
B-1465A.PLT
 62
7
 10
13.31800000
 20
3.58900000
  0
VERTEX
  8
B-1465A.PLT
 62
7
 10
13.31212500
 20
3.62312500
  0
VERTEX
  8
B-1465A.PLT
 62
7
 10
13.31000000
 20
3.65800000
  0
VERTEX
  8
B-1465A.PLT
 62
7
 10
13.31188867
 20
3.69204297
  0
VERTEX
  8
B-1465A.PLT
 62
7
 10
13.31742188
 20
3.72503125
  0
VERTEX
  8
B-1465A.PLT
 62
7
 10
13.32640039
 20
3.75675391
  0
VERTEX
  8
B-1465A.PLT
 62
7
 10
13.33862500
 20
3.78700000
  0
VERTEX
  8
B-1465A.PLT
 62
7
 10
13.35389648
 20
3.81555859
  0
VERTEX
  8
B-1465A.PLT
 62
7
 10
13.37201563
 20
3.84221875
  0
VERTEX
  8
B-1465A.PLT
 62
7
 10
13.39278320
 20
3.86676953
  0
VERTEX
  8
B-1465A.PLT
 62
7
 10
13.41600000
 20
3.88900000
  0
VERTEX
  8
B-1465A.PLT
 62
7
 10
13.41500000
 20
3.88900000
  0
VERTEX
  8
B-1465A.PLT
 62
7
 10
13.42200000
 20
3.89600000
  0
VERTEX
  8
B-1465A.PLT
 62
7
 10
13.41400000
 20
3.90200000
  0
VERTEX
  8
B-1465A.PLT
 62
7
 10
13.39922070
 20
3.91083398
  0
VERTEX
  8
B-1465A.PLT
 62
7
 10
13.38576562
 20
3.92148437
  0
VERTEX
  8
B-1465A.PLT
 62
7
 10
13.37383398
 20
3.93379883
  0
VERTEX
  8
B-1465A.PLT
 62
7
 10
13.36362500
 20
3.94762500
  0
VERTEX
  8
B-1465A.PLT
 62
7
 10
13.35533789
 20
3.96281055
  0
VERTEX
  8
B-1465A.PLT
 62
7
 10
13.34917188
 20
3.97920313
  0
VERTEX
  8
B-1465A.PLT
 62
7
 10
13.34532617
 20
3.99665039
  0
VERTEX
  8
B-1465A.PLT
 62
7
 10
13.34400000
 20
4.01500000
  0
VERTEX
  8
B-1465A.PLT
 62
7
 10
13.34700000
 20
4.03800000
  0
VERTEX
  8
B-1465A.PLT
 62
7
 10
13.34700000
 20
4.04200000
  0
VERTEX
  8
B-1465A.PLT
 62
7
 10
13.34518555
 20
4.05989258
  0
VERTEX
  8
B-1465A.PLT
 62
7
 10
13.33998438
 20
4.07657813
  0
VERTEX
  8
B-1465A.PLT
 62
7
 10
13.33175977
 20
4.09169336
  0
VERTEX
  8
B-1465A.PLT
 62
7
 10
13.32087500
 20
4.10487500
  0
VERTEX
  8
B-1465A.PLT
 62
7
 10
13.30769336
 20
4.11575977
  0
VERTEX
  8
B-1465A.PLT
 62
7
 10
13.29257813
 20
4.12398438
  0
VERTEX
  8
B-1465A.PLT
 62
7
 10
13.27589258
 20
4.12918555
  0
VERTEX
  8
B-1465A.PLT
 62
7
 10
13.25800000
 20
4.13100000
  0
VERTEX
  8
B-1465A.PLT
 62
7
 10
13.24362500
 20
4.13012500
  0
VERTEX
  8
B-1465A.PLT
 62
7
 10
13.23000000
 20
4.12700000
  0
VERTEX
  8
B-1465A.PLT
 62
7
 10
12.85700000
 20
4.00600000
  0
VERTEX
  8
B-1465A.PLT
 62
7
 10
12.85200000
 20
3.99900000
  0
VERTEX
  8
B-1465A.PLT
 62
7
 10
12.85200000
 20
3.99700000
  0
VERTEX
  8
B-1465A.PLT
 62
7
 10
12.85400000
 20
3.96800000
  0
VERTEX
  8
B-1465A.PLT
 62
7
 10
12.85100000
 20
3.93100000
  0
VERTEX
  8
B-1465A.PLT
 62
7
 10
12.85000000
 20
3.93100000
  0
VERTEX
  8
B-1465A.PLT
 62
7
 10
12.85187500
 20
3.92587500
  0
VERTEX
  8
B-1465A.PLT
 62
7
 10
12.85600000
 20
3.92300000
  0
VERTEX
  8
B-1465A.PLT
 62
7
 10
13.20100000
 20
3.80100000
  0
VERTEX
  8
B-1465A.PLT
 62
7
 10
13.20600000
 20
3.79400000
  0
VERTEX
  8
B-1465A.PLT
 62
7
 10
13.20350000
 20
3.78900000
  0
VERTEX
  8
B-1465A.PLT
 62
7
 10
13.19800000
 20
3.78700000
  0
VERTEX
  8
B-1465A.PLT
 62
7
 10
13.19600000
 20
3.78700000
  0
VERTEX
  8
B-1465A.PLT
 62
7
 10
12.84500000
 20
3.89000000
  0
VERTEX
  8
B-1465A.PLT
 62
7
 10
12.84300000
 20
3.89000000
  0
VERTEX
  8
B-1465A.PLT
 62
7
 10
12.83875000
 20
3.88912500
  0
VERTEX
  8
B-1465A.PLT
 62
7
 10
12.83600000
 20
3.88600000
  0
VERTEX
  8
B-1465A.PLT
 62
7
 10
12.81962500
 20
3.85762500
  0
VERTEX
  8
B-1465A.PLT
 62
7
 10
12.79800000
 20
3.83300000
  0
VERTEX
  8
B-1465A.PLT
 62
7
 10
12.79600000
 20
3.82700000
  0
VERTEX
  8
B-1465A.PLT
 62
7
 10
12.79800000
 20
3.82300000
  0
VERTEX
  8
B-1465A.PLT
 62
7
 10
13.01700000
 20
3.52100000
  0
VERTEX
  8
B-1465A.PLT
 62
7
 10
13.02862500
 20
3.50387500
  0
SEQEND
  0
POLYLINE
  8
B-1465A.PLT
 62
7
 66
1
 70
1
  0
VERTEX
  8
B-1465A.PLT
 62
7
 10
11.97900000
 20
4.03900000
  0
VERTEX
  8
B-1465A.PLT
 62
7
 10
11.98100000
 20
4.01500000
  0
VERTEX
  8
B-1465A.PLT
 62
7
 10
11.97971484
 20
3.99660742
  0
VERTEX
  8
B-1465A.PLT
 62
7
 10
11.97596875
 20
3.97904687
  0
VERTEX
  8
B-1465A.PLT
 62
7
 10
11.96992578
 20
3.96249414
  0
VERTEX
  8
B-1465A.PLT
 62
7
 10
11.96175000
 20
3.94712500
  0
VERTEX
  8
B-1465A.PLT
 62
7
 10
11.95160547
 20
3.93311523
  0
VERTEX
  8
B-1465A.PLT
 62
7
 10
11.93965625
 20
3.92064062
  0
VERTEX
  8
B-1465A.PLT
 62
7
 10
11.92606641
 20
3.90987695
  0
VERTEX
  8
B-1465A.PLT
 62
7
 10
11.91100000
 20
3.90100000
  0
VERTEX
  8
B-1465A.PLT
 62
7
 10
11.90700000
 20
3.89400000
  0
VERTEX
  8
B-1465A.PLT
 62
7
 10
11.90900000
 20
3.88800000
  0
VERTEX
  8
B-1465A.PLT
 62
7
 10
11.93221680
 20
3.86609961
  0
VERTEX
  8
B-1465A.PLT
 62
7
 10
11.95298438
 20
3.84179688
  0
VERTEX
  8
B-1465A.PLT
 62
7
 10
11.97110352
 20
3.81531445
  0
VERTEX
  8
B-1465A.PLT
 62
7
 10
11.98637500
 20
3.78687500
  0
VERTEX
  8
B-1465A.PLT
 62
7
 10
11.99859961
 20
3.75670117
  0
VERTEX
  8
B-1465A.PLT
 62
7
 10
12.00757813
 20
3.72501563
  0
VERTEX
  8
B-1465A.PLT
 62
7
 10
12.01311133
 20
3.69204102
  0
VERTEX
  8
B-1465A.PLT
 62
7
 10
12.01500000
 20
3.65800000
  0
VERTEX
  8
B-1465A.PLT
 62
7
 10
12.01287500
 20
3.62275000
  0
VERTEX
  8
B-1465A.PLT
 62
7
 10
12.00700000
 20
3.58900000
  0
VERTEX
  8
B-1465A.PLT
 62
7
 10
12.00600000
 20
3.58600000
  0
VERTEX
  8
B-1465A.PLT
 62
7
 10
12.00787500
 20
3.58100000
  0
VERTEX
  8
B-1465A.PLT
 62
7
 10
12.01200000
 20
3.57900000
  0
VERTEX
  8
B-1465A.PLT
 62
7
 10
12.01600000
 20
3.58000000
  0
VERTEX
  8
B-1465A.PLT
 62
7
 10
12.03600000
 20
3.58200000
  0
VERTEX
  8
B-1465A.PLT
 62
7
 10
12.05505078
 20
3.58062500
  0
VERTEX
  8
B-1465A.PLT
 62
7
 10
12.07309375
 20
3.57662500
  0
VERTEX
  8
B-1465A.PLT
 62
7
 10
12.08996484
 20
3.57018750
  0
VERTEX
  8
B-1465A.PLT
 62
7
 10
12.10550000
 20
3.56150000
  0
VERTEX
  8
B-1465A.PLT
 62
7
 10
12.11953516
 20
3.55075000
  0
VERTEX
  8
B-1465A.PLT
 62
7
 10
12.13190625
 20
3.53812500
  0
VERTEX
  8
B-1465A.PLT
 62
7
 10
12.14244922
 20
3.52381250
  0
VERTEX
  8
B-1465A.PLT
 62
7
 10
12.15100000
 20
3.50800000
  0
VERTEX
  8
B-1465A.PLT
 62
7
 10
12.16412305
 20
3.48801953
  0
VERTEX
  8
B-1465A.PLT
 62
7
 10
12.18098438
 20
3.47434375
  0
VERTEX
  8
B-1465A.PLT
 62
7
 10
12.20044727
 20
3.46662109
  0
VERTEX
  8
B-1465A.PLT
 62
7
 10
12.22137500
 20
3.46450000
  0
VERTEX
  8
B-1465A.PLT
 62
7
 10
12.24263086
 20
3.46762891
  0
VERTEX
  8
B-1465A.PLT
 62
7
 10
12.26307813
 20
3.47565625
  0
VERTEX
  8
B-1465A.PLT
 62
7
 10
12.28158008
 20
3.48823047
  0
VERTEX
  8
B-1465A.PLT
 62
7
 10
12.29700000
 20
3.50500000
  0
VERTEX
  8
B-1465A.PLT
 62
7
 10
12.52800000
 20
3.82300000
  0
VERTEX
  8
B-1465A.PLT
 62
7
 10
12.53000000
 20
3.82700000
  0
VERTEX
  8
B-1465A.PLT
 62
7
 10
12.52700000
 20
3.83300000
  0
VERTEX
  8
B-1465A.PLT
 62
7
 10
12.50612500
 20
3.85762500
  0
VERTEX
  8
B-1465A.PLT
 62
7
 10
12.48900000
 20
3.88600000
  0
VERTEX
  8
B-1465A.PLT
 62
7
 10
12.48300000
 20
3.89000000
  0
VERTEX
  8
B-1465A.PLT
 62
7
 10
12.48000000
 20
3.89000000
  0
VERTEX
  8
B-1465A.PLT
 62
7
 10
12.13000000
 20
3.78600000
  0
VERTEX
  8
B-1465A.PLT
 62
7
 10
12.12700000
 20
3.78600000
  0
VERTEX
  8
B-1465A.PLT
 62
7
 10
12.12200000
 20
3.78850000
  0
VERTEX
  8
B-1465A.PLT
 62
7
 10
12.12000000
 20
3.79400000
  0
VERTEX
  8
B-1465A.PLT
 62
7
 10
12.12137500
 20
3.79825000
  0
VERTEX
  8
B-1465A.PLT
 62
7
 10
12.12500000
 20
3.80100000
  0
VERTEX
  8
B-1465A.PLT
 62
7
 10
12.47000000
 20
3.92300000
  0
VERTEX
  8
B-1465A.PLT
 62
7
 10
12.47362500
 20
3.92587500
  0
VERTEX
  8
B-1465A.PLT
 62
7
 10
12.47500000
 20
3.93100000
  0
VERTEX
  8
B-1465A.PLT
 62
7
 10
12.47500000
 20
3.93200000
  0
VERTEX
  8
B-1465A.PLT
 62
7
 10
12.47187500
 20
3.94962500
  0
VERTEX
  8
B-1465A.PLT
 62
7
 10
12.47100000
 20
3.96800000
  0
VERTEX
  8
B-1465A.PLT
 62
7
 10
12.47400000
 20
3.99700000
  0
VERTEX
  8
B-1465A.PLT
 62
7
 10
12.47400000
 20
3.99900000
  0
VERTEX
  8
B-1465A.PLT
 62
7
 10
12.46800000
 20
4.00600000
  0
VERTEX
  8
B-1465A.PLT
 62
7
 10
12.12200000
 20
4.11800000
  0
VERTEX
  8
B-1465A.PLT
 62
7
 10
12.10650000
 20
4.12700000
  0
VERTEX
  8
B-1465A.PLT
 62
7
 10
12.08800000
 20
4.13000000
  0
VERTEX
  8
B-1465A.PLT
 62
7
 10
12.08100000
 20
4.13000000
  0
VERTEX
  8
B-1465A.PLT
 62
7
 10
12.06800000
 20
4.13100000
  0
VERTEX
  8
B-1465A.PLT
 62
7
 10
12.05010742
 20
4.12918555
  0
VERTEX
  8
B-1465A.PLT
 62
7
 10
12.03342188
 20
4.12398438
  0
VERTEX
  8
B-1465A.PLT
 62
7
 10
12.01830664
 20
4.11575977
  0
VERTEX
  8
B-1465A.PLT
 62
7
 10
12.00512500
 20
4.10487500
  0
VERTEX
  8
B-1465A.PLT
 62
7
 10
11.99424023
 20
4.09169336
  0
VERTEX
  8
B-1465A.PLT
 62
7
 10
11.98601563
 20
4.07657813
  0
VERTEX
  8
B-1465A.PLT
 62
7
 10
11.98081445
 20
4.05989258
  0
VERTEX
  8
B-1465A.PLT
 62
7
 10
11.97900000
 20
4.04200000
  0
SEQEND
  0
POLYLINE
  8
B-1465A.PLT
 62
7
 66
1
 70
1
  0
VERTEX
  8
B-1465A.PLT
 62
7
 10
10.77500000
 20
3.10800000
  0
VERTEX
  8
B-1465A.PLT
 62
7
 10
10.73462500
 20
3.14700000
  0
VERTEX
  8
B-1465A.PLT
 62
7
 10
10.69800000
 20
3.18900000
  0
VERTEX
  8
B-1465A.PLT
 62
7
 10
10.66412500
 20
3.18312500
  0
VERTEX
  8
B-1465A.PLT
 62
7
 10
10.62800000
 20
3.18100000
  0
VERTEX
  8
B-1465A.PLT
 62
7
 10
10.58387500
 20
3.18400000
  0
VERTEX
  8
B-1465A.PLT
 62
7
 10
10.54200000
 20
3.19300000
  0
VERTEX
  8
B-1465A.PLT
 62
7
 10
10.51705737
 20
3.19676709
  0
VERTEX
  8
B-1465A.PLT
 62
7
 10
10.49292773
 20
3.20274609
  0
VERTEX
  8
B-1465A.PLT
 62
7
 10
10.46972095
 20
3.21082861
  0
VERTEX
  8
B-1465A.PLT
 62
7
 10
10.44754688
 20
3.22090625
  0
VERTEX
  8
B-1465A.PLT
 62
7
 10
10.42651538
 20
3.23287061
  0
VERTEX
  8
B-1465A.PLT
 62
7
 10
10.40673633
 20
3.24661328
  0
VERTEX
  8
B-1465A.PLT
 62
7
 10
10.38831958
 20
3.26202588
  0
VERTEX
  8
B-1465A.PLT
 62
7
 10
10.37137500
 20
3.27900000
  0
VERTEX
  8
B-1465A.PLT
 62
7
 10
10.35601245
 20
3.29742725
  0
VERTEX
  8
B-1465A.PLT
 62
7
 10
10.34234180
 20
3.31719922
  0
VERTEX
  8
B-1465A.PLT
 62
7
 10
10.33047290
 20
3.33820752
  0
VERTEX
  8
B-1465A.PLT
 62
7
 10
10.32051563
 20
3.36034375
  0
VERTEX
  8
B-1465A.PLT
 62
7
 10
10.31257983
 20
3.38349951
  0
VERTEX
  8
B-1465A.PLT
 62
7
 10
10.30677539
 20
3.40756641
  0
VERTEX
  8
B-1465A.PLT
 62
7
 10
10.30321216
 20
3.43243604
  0
VERTEX
  8
B-1465A.PLT
 62
7
 10
10.30200000
 20
3.45800000
  0
VERTEX
  8
B-1465A.PLT
 62
7
 10
10.30300000
 20
3.47600000
  0
VERTEX
  8
B-1465A.PLT
 62
7
 10
10.30300000
 20
3.47600000
  0
VERTEX
  8
B-1465A.PLT
 62
7
 10
10.30400000
 20
3.50100000
  0
VERTEX
  8
B-1465A.PLT
 62
7
 10
10.30400000
 20
3.50100000
  0
VERTEX
  8
B-1465A.PLT
 62
7
 10
10.30655664
 20
3.51982227
  0
VERTEX
  8
B-1465A.PLT
 62
7
 10
10.31114063
 20
3.53795313
  0
VERTEX
  8
B-1465A.PLT
 62
7
 10
10.31762305
 20
3.55526367
  0
VERTEX
  8
B-1465A.PLT
 62
7
 10
10.32587500
 20
3.57162500
  0
VERTEX
  8
B-1465A.PLT
 62
7
 10
10.33576758
 20
3.58690820
  0
VERTEX
  8
B-1465A.PLT
 62
7
 10
10.34717188
 20
3.60098437
  0
VERTEX
  8
B-1465A.PLT
 62
7
 10
10.35995898
 20
3.61372461
  0
VERTEX
  8
B-1465A.PLT
 62
7
 10
10.37400000
 20
3.62500000
  0
VERTEX
  8
B-1465A.PLT
 62
7
 10
10.38839063
 20
3.63450000
  0
VERTEX
  8
B-1465A.PLT
 62
7
 10
10.40437500
 20
3.64175000
  0
VERTEX
  8
B-1465A.PLT
 62
7
 10
10.42167187
 20
3.64637500
  0
VERTEX
  8
B-1465A.PLT
 62
7
 10
10.44000000
 20
3.64800000
  0
VERTEX
  8
B-1465A.PLT
 62
7
 10
10.46682812
 20
3.64425000
  0
VERTEX
  8
B-1465A.PLT
 62
7
 10
10.49112500
 20
3.63375000
  0
VERTEX
  8
B-1465A.PLT
 62
7
 10
10.51185938
 20
3.61762500
  0
VERTEX
  8
B-1465A.PLT
 62
7
 10
10.52800000
 20
3.59700000
  0
VERTEX
  8
B-1465A.PLT
 62
7
 10
10.53425000
 20
3.57637500
  0
VERTEX
  8
B-1465A.PLT
 62
7
 10
10.53600000
 20
3.55500000
  0
VERTEX
  8
B-1465A.PLT
 62
7
 10
10.53472070
 20
3.53848047
  0
VERTEX
  8
B-1465A.PLT
 62
7
 10
10.53101563
 20
3.52278125
  0
VERTEX
  8
B-1465A.PLT
 62
7
 10
10.52508398
 20
3.50806641
  0
VERTEX
  8
B-1465A.PLT
 62
7
 10
10.51712500
 20
3.49450000
  0
VERTEX
  8
B-1465A.PLT
 62
7
 10
10.50733789
 20
3.48224609
  0
VERTEX
  8
B-1465A.PLT
 62
7
 10
10.49592188
 20
3.47146875
  0
VERTEX
  8
B-1465A.PLT
 62
7
 10
10.48307617
 20
3.46233203
  0
VERTEX
  8
B-1465A.PLT
 62
7
 10
10.46900000
 20
3.45500000
  0
VERTEX
  8
B-1465A.PLT
 62
7
 10
10.48470312
 20
3.44696875
  0
VERTEX
  8
B-1465A.PLT
 62
7
 10
10.50162500
 20
3.44100000
  0
VERTEX
  8
B-1465A.PLT
 62
7
 10
10.51948437
 20
3.43728125
  0
VERTEX
  8
B-1465A.PLT
 62
7
 10
10.53800000
 20
3.43600000
  0
VERTEX
  8
B-1465A.PLT
 62
7
 10
10.56570703
 20
3.43876953
  0
VERTEX
  8
B-1465A.PLT
 62
7
 10
10.59146875
 20
3.44671875
  0
VERTEX
  8
B-1465A.PLT
 62
7
 10
10.61474609
 20
3.45930859
  0
VERTEX
  8
B-1465A.PLT
 62
7
 10
10.63500000
 20
3.47600000
  0
VERTEX
  8
B-1465A.PLT
 62
7
 10
10.65169141
 20
3.49625391
  0
VERTEX
  8
B-1465A.PLT
 62
7
 10
10.66428125
 20
3.51953125
  0
VERTEX
  8
B-1465A.PLT
 62
7
 10
10.67223047
 20
3.54529297
  0
VERTEX
  8
B-1465A.PLT
 62
7
 10
10.67500000
 20
3.57300000
  0
VERTEX
  8
B-1465A.PLT
 62
7
 10
10.67101563
 20
3.60581250
  0
VERTEX
  8
B-1465A.PLT
 62
7
 10
10.65962500
 20
3.63600000
  0
VERTEX
  8
B-1465A.PLT
 62
7
 10
10.64167188
 20
3.66243750
  0
VERTEX
  8
B-1465A.PLT
 62
7
 10
10.61800000
 20
3.68400000
  0
VERTEX
  8
B-1465A.PLT
 62
7
 10
10.60006641
 20
3.69823438
  0
VERTEX
  8
B-1465A.PLT
 62
7
 10
10.58084375
 20
3.71087500
  0
VERTEX
  8
B-1465A.PLT
 62
7
 10
10.56044922
 20
3.72182813
  0
VERTEX
  8
B-1465A.PLT
 62
7
 10
10.53900000
 20
3.73100000
  0
VERTEX
  8
B-1465A.PLT
 62
7
 10
10.51661328
 20
3.73829688
  0
VERTEX
  8
B-1465A.PLT
 62
7
 10
10.49340625
 20
3.74362500
  0
VERTEX
  8
B-1465A.PLT
 62
7
 10
10.46949609
 20
3.74689062
  0
VERTEX
  8
B-1465A.PLT
 62
7
 10
10.44500000
 20
3.74800000
  0
VERTEX
  8
B-1465A.PLT
 62
7
 10
10.40473438
 20
3.74506250
  0
VERTEX
  8
B-1465A.PLT
 62
7
 10
10.36662500
 20
3.73650000
  0
VERTEX
  8
B-1465A.PLT
 62
7
 10
10.33095313
 20
3.72268750
  0
VERTEX
  8
B-1465A.PLT
 62
7
 10
10.29800000
 20
3.70400000
  0
VERTEX
  8
B-1465A.PLT
 62
7
 10
10.27375000
 20
3.67664844
  0
VERTEX
  8
B-1465A.PLT
 62
7
 10
10.25212500
 20
3.64718750
  0
VERTEX
  8
B-1465A.PLT
 62
7
 10
10.23331250
 20
3.61575781
  0
VERTEX
  8
B-1465A.PLT
 62
7
 10
10.21750000
 20
3.58250000
  0
VERTEX
  8
B-1465A.PLT
 62
7
 10
10.20487500
 20
3.54755469
  0
VERTEX
  8
B-1465A.PLT
 62
7
 10
10.19562500
 20
3.51106250
  0
VERTEX
  8
B-1465A.PLT
 62
7
 10
10.18993750
 20
3.47316406
  0
VERTEX
  8
B-1465A.PLT
 62
7
 10
10.18800000
 20
3.43400000
  0
VERTEX
  8
B-1465A.PLT
 62
7
 10
10.18962500
 20
3.39575000
  0
VERTEX
  8
B-1465A.PLT
 62
7
 10
10.19500000
 20
3.35900000
  0
VERTEX
  8
B-1465A.PLT
 62
7
 10
10.20934961
 20
3.32205859
  0
VERTEX
  8
B-1465A.PLT
 62
7
 10
10.22748438
 20
3.28715625
  0
VERTEX
  8
B-1465A.PLT
 62
7
 10
10.24915820
 20
3.25455078
  0
VERTEX
  8
B-1465A.PLT
 62
7
 10
10.27412500
 20
3.22450000
  0
VERTEX
  8
B-1465A.PLT
 62
7
 10
10.30213867
 20
3.19726172
  0
VERTEX
  8
B-1465A.PLT
 62
7
 10
10.33295313
 20
3.17309375
  0
VERTEX
  8
B-1465A.PLT
 62
7
 10
10.36632227
 20
3.15225391
  0
VERTEX
  8
B-1465A.PLT
 62
7
 10
10.40200000
 20
3.13500000
  0
VERTEX
  8
B-1465A.PLT
 62
7
 10
10.46098438
 20
3.11925000
  0
VERTEX
  8
B-1465A.PLT
 62
7
 10
10.52212500
 20
3.10800000
  0
VERTEX
  8
B-1465A.PLT
 62
7
 10
10.58495313
 20
3.10125000
  0
VERTEX
  8
B-1465A.PLT
 62
7
 10
10.64900000
 20
3.09900000
  0
VERTEX
  8
B-1465A.PLT
 62
7
 10
10.71237500
 20
3.10125000
  0
SEQEND
  0
POLYLINE
  8
B-1465A.PLT
 62
7
 66
1
 70
1
  0
VERTEX
  8
B-1465A.PLT
 62
7
 10
12.63700000
 20
4.57700000
  0
VERTEX
  8
B-1465A.PLT
 62
7
 10
12.63215430
 20
4.59144922
  0
VERTEX
  8
B-1465A.PLT
 62
7
 10
12.62523438
 20
4.60465625
  0
VERTEX
  8
B-1465A.PLT
 62
7
 10
12.61641602
 20
4.61641016
  0
VERTEX
  8
B-1465A.PLT
 62
7
 10
12.60587500
 20
4.62650000
  0
VERTEX
  8
B-1465A.PLT
 62
7
 10
12.59378711
 20
4.63471484
  0
VERTEX
  8
B-1465A.PLT
 62
7
 10
12.58032812
 20
4.64084375
  0
VERTEX
  8
B-1465A.PLT
 62
7
 10
12.56567383
 20
4.64467578
  0
VERTEX
  8
B-1465A.PLT
 62
7
 10
12.55000000
 20
4.64600000
  0
VERTEX
  8
B-1465A.PLT
 62
7
 10
12.53462500
 20
4.64450000
  0
VERTEX
  8
B-1465A.PLT
 62
7
 10
12.52000000
 20
4.64000000
  0
VERTEX
  8
B-1465A.PLT
 62
7
 10
12.50595313
 20
4.63328125
  0
VERTEX
  8
B-1465A.PLT
 62
7
 10
12.49087500
 20
4.62825000
  0
VERTEX
  8
B-1465A.PLT
 62
7
 10
12.47485937
 20
4.62509375
  0
VERTEX
  8
B-1465A.PLT
 62
7
 10
12.45800000
 20
4.62400000
  0
VERTEX
  8
B-1465A.PLT
 62
7
 10
12.43240625
 20
4.62670312
  0
VERTEX
  8
B-1465A.PLT
 62
7
 10
12.40850000
 20
4.63437500
  0
VERTEX
  8
B-1465A.PLT
 62
7
 10
12.38684375
 20
4.64635938
  0
VERTEX
  8
B-1465A.PLT
 62
7
 10
12.36800000
 20
4.66200000
  0
VERTEX
  8
B-1465A.PLT
 62
7
 10
12.36300000
 20
4.66500000
  0
VERTEX
  8
B-1465A.PLT
 62
7
 10
12.35500000
 20
4.66000000
  0
VERTEX
  8
B-1465A.PLT
 62
7
 10
12.33641406
 20
4.62313281
  0
VERTEX
  8
B-1465A.PLT
 62
7
 10
12.31318750
 20
4.58931250
  0
VERTEX
  8
B-1465A.PLT
 62
7
 10
12.28574219
 20
4.55896094
  0
VERTEX
  8
B-1465A.PLT
 62
7
 10
12.25450000
 20
4.53250000
  0
VERTEX
  8
B-1465A.PLT
 62
7
 10
12.21988281
 20
4.51035156
  0
VERTEX
  8
B-1465A.PLT
 62
7
 10
12.18231250
 20
4.49293750
  0
VERTEX
  8
B-1465A.PLT
 62
7
 10
12.14221094
 20
4.48067969
  0
VERTEX
  8
B-1465A.PLT
 62
7
 10
12.10000000
 20
4.47400000
  0
VERTEX
  8
B-1465A.PLT
 62
7
 10
12.09587500
 20
4.47200000
  0
VERTEX
  8
B-1465A.PLT
 62
7
 10
12.09400000
 20
4.46700000
  0
VERTEX
  8
B-1465A.PLT
 62
7
 10
12.09500000
 20
4.46300000
  0
VERTEX
  8
B-1465A.PLT
 62
7
 10
12.10450000
 20
4.43550000
  0
VERTEX
  8
B-1465A.PLT
 62
7
 10
12.10800000
 20
4.40500000
  0
VERTEX
  8
B-1465A.PLT
 62
7
 10
12.10528125
 20
4.37809375
  0
VERTEX
  8
B-1465A.PLT
 62
7
 10
12.09750000
 20
4.35325000
  0
VERTEX
  8
B-1465A.PLT
 62
7
 10
12.08521875
 20
4.33103125
  0
VERTEX
  8
B-1465A.PLT
 62
7
 10
12.06900000
 20
4.31200000
  0
VERTEX
  8
B-1465A.PLT
 62
7
 10
12.06039063
 20
4.30003125
  0
VERTEX
  8
B-1465A.PLT
 62
7
 10
12.05412500
 20
4.28675000
  0
VERTEX
  8
B-1465A.PLT
 62
7
 10
12.05029688
 20
4.27234375
  0
VERTEX
  8
B-1465A.PLT
 62
7
 10
12.04900000
 20
4.25700000
  0
VERTEX
  8
B-1465A.PLT
 62
7
 10
12.05018750
 20
4.24268359
  0
VERTEX
  8
B-1465A.PLT
 62
7
 10
12.05362500
 20
4.22909375
  0
VERTEX
  8
B-1465A.PLT
 62
7
 10
12.05912500
 20
4.21639453
  0
VERTEX
  8
B-1465A.PLT
 62
7
 10
12.06650000
 20
4.20475000
  0
VERTEX
  8
B-1465A.PLT
 62
7
 10
12.07556250
 20
4.19432422
  0
VERTEX
  8
B-1465A.PLT
 62
7
 10
12.08612500
 20
4.18528125
  0
VERTEX
  8
B-1465A.PLT
 62
7
 10
12.09800000
 20
4.17778516
  0
VERTEX
  8
B-1465A.PLT
 62
7
 10
12.11100000
 20
4.17200000
  0
VERTEX
  8
B-1465A.PLT
 62
7
 10
12.48400000
 20
4.05200000
  0
VERTEX
  8
B-1465A.PLT
 62
7
 10
12.48600000
 20
4.05100000
  0
VERTEX
  8
B-1465A.PLT
 62
7
 10
12.49300000
 20
4.05600000
  0
VERTEX
  8
B-1465A.PLT
 62
7
 10
12.51037500
 20
4.08350000
  0
VERTEX
  8
B-1465A.PLT
 62
7
 10
12.53300000
 20
4.10800000
  0
VERTEX
  8
B-1465A.PLT
 62
7
 10
12.53500000
 20
4.11300000
  0
VERTEX
  8
B-1465A.PLT
 62
7
 10
12.53300000
 20
4.11700000
  0
VERTEX
  8
B-1465A.PLT
 62
7
 10
12.32600000
 20
4.41900000
  0
VERTEX
  8
B-1465A.PLT
 62
7
 10
12.32400000
 20
4.42300000
  0
VERTEX
  8
B-1465A.PLT
 62
7
 10
12.32700000
 20
4.42850000
  0
VERTEX
  8
B-1465A.PLT
 62
7
 10
12.33300000
 20
4.43100000
  0
VERTEX
  8
B-1465A.PLT
 62
7
 10
12.33800000
 20
4.42800000
  0
VERTEX
  8
B-1465A.PLT
 62
7
 10
12.56100000
 20
4.13800000
  0
VERTEX
  8
B-1465A.PLT
 62
7
 10
12.56700000
 20
4.13500000
  0
VERTEX
  8
B-1465A.PLT
 62
7
 10
12.57100000
 20
4.13600000
  0
VERTEX
  8
B-1465A.PLT
 62
7
 10
12.60087500
 20
4.14912500
  0
VERTEX
  8
B-1465A.PLT
 62
7
 10
12.63300000
 20
4.15700000
  0
VERTEX
  8
B-1465A.PLT
 62
7
 10
12.63712500
 20
4.15975000
  0
VERTEX
  8
B-1465A.PLT
 62
7
 10
12.63900000
 20
4.16400000
  0
VERTEX
  8
B-1465A.PLT
 62
7
 10
12.63900000
 20
4.53500000
  0
VERTEX
  8
B-1465A.PLT
 62
7
 10
12.64000000
 20
4.55000000
  0
SEQEND
  0
POLYLINE
  8
B-1465A.PLT
 62
7
 66
1
 70
1
  0
VERTEX
  8
B-1465A.PLT
 62
7
 10
13.23200000
 20
4.18000000
  0
VERTEX
  8
B-1465A.PLT
 62
7
 10
13.25057813
 20
4.19373438
  0
VERTEX
  8
B-1465A.PLT
 62
7
 10
13.26512500
 20
4.21187500
  0
VERTEX
  8
B-1465A.PLT
 62
7
 10
13.27460938
 20
4.23357813
  0
VERTEX
  8
B-1465A.PLT
 62
7
 10
13.27800000
 20
4.25800000
  0
VERTEX
  8
B-1465A.PLT
 62
7
 10
13.27670312
 20
4.27320313
  0
VERTEX
  8
B-1465A.PLT
 62
7
 10
13.27287500
 20
4.28737500
  0
VERTEX
  8
B-1465A.PLT
 62
7
 10
13.26660938
 20
4.30060937
  0
VERTEX
  8
B-1465A.PLT
 62
7
 10
13.25800000
 20
4.31300000
  0
VERTEX
  8
B-1465A.PLT
 62
7
 10
13.24120313
 20
4.33201563
  0
VERTEX
  8
B-1465A.PLT
 62
7
 10
13.22862500
 20
4.35412500
  0
VERTEX
  8
B-1465A.PLT
 62
7
 10
13.22073437
 20
4.37867188
  0
VERTEX
  8
B-1465A.PLT
 62
7
 10
13.21800000
 20
4.40500000
  0
VERTEX
  8
B-1465A.PLT
 62
7
 10
13.22200000
 20
4.43562500
  0
VERTEX
  8
B-1465A.PLT
 62
7
 10
13.23200000
 20
4.46400000
  0
VERTEX
  8
B-1465A.PLT
 62
7
 10
13.23300000
 20
4.46700000
  0
VERTEX
  8
B-1465A.PLT
 62
7
 10
13.23100000
 20
4.47250000
  0
VERTEX
  8
B-1465A.PLT
 62
7
 10
13.22600000
 20
4.47500000
  0
VERTEX
  8
B-1465A.PLT
 62
7
 10
13.18379102
 20
4.48167773
  0
VERTEX
  8
B-1465A.PLT
 62
7
 10
13.14370313
 20
4.49392187
  0
VERTEX
  8
B-1465A.PLT
 62
7
 10
13.10616992
 20
4.51129883
  0
VERTEX
  8
B-1465A.PLT
 62
7
 10
13.07162500
 20
4.53337500
  0
VERTEX
  8
B-1465A.PLT
 62
7
 10
13.04050195
 20
4.55971680
  0
VERTEX
  8
B-1465A.PLT
 62
7
 10
13.01323438
 20
4.58989062
  0
VERTEX
  8
B-1465A.PLT
 62
7
 10
12.99025586
 20
4.62346289
  0
VERTEX
  8
B-1465A.PLT
 62
7
 10
12.97200000
 20
4.66000000
  0
VERTEX
  8
B-1465A.PLT
 62
7
 10
12.96400000
 20
4.66500000
  0
VERTEX
  8
B-1465A.PLT
 62
7
 10
12.95900000
 20
4.66200000
  0
VERTEX
  8
B-1465A.PLT
 62
7
 10
12.94014063
 20
4.64635938
  0
VERTEX
  8
B-1465A.PLT
 62
7
 10
12.91837500
 20
4.63437500
  0
VERTEX
  8
B-1465A.PLT
 62
7
 10
12.89417188
 20
4.62670312
  0
VERTEX
  8
B-1465A.PLT
 62
7
 10
12.86800000
 20
4.62400000
  0
VERTEX
  8
B-1465A.PLT
 62
7
 10
12.85171875
 20
4.62510938
  0
VERTEX
  8
B-1465A.PLT
 62
7
 10
12.83600000
 20
4.62837500
  0
VERTEX
  8
B-1465A.PLT
 62
7
 10
12.82103125
 20
4.63370313
  0
VERTEX
  8
B-1465A.PLT
 62
7
 10
12.80700000
 20
4.64100000
  0
VERTEX
  8
B-1465A.PLT
 62
7
 10
12.79237500
 20
4.64462500
  0
VERTEX
  8
B-1465A.PLT
 62
7
 10
12.77700000
 20
4.64600000
  0
VERTEX
  8
B-1465A.PLT
 62
7
 10
12.75882031
 20
4.64418555
  0
VERTEX
  8
B-1465A.PLT
 62
7
 10
12.74200000
 20
4.63898437
  0
VERTEX
  8
B-1465A.PLT
 62
7
 10
12.72686719
 20
4.63075977
  0
VERTEX
  8
B-1465A.PLT
 62
7
 10
12.71375000
 20
4.61987500
  0
VERTEX
  8
B-1465A.PLT
 62
7
 10
12.70297656
 20
4.60669336
  0
VERTEX
  8
B-1465A.PLT
 62
7
 10
12.69487500
 20
4.59157812
  0
VERTEX
  8
B-1465A.PLT
 62
7
 10
12.68977344
 20
4.57489258
  0
VERTEX
  8
B-1465A.PLT
 62
7
 10
12.68800000
 20
4.55700000
  0
VERTEX
  8
B-1465A.PLT
 62
7
 10
12.68800000
 20
4.16500000
  0
VERTEX
  8
B-1465A.PLT
 62
7
 10
12.68800000
 20
4.16500000
  0
VERTEX
  8
B-1465A.PLT
 62
7
 10
12.68950000
 20
4.15987500
  0
VERTEX
  8
B-1465A.PLT
 62
7
 10
12.69400000
 20
4.15700000
  0
VERTEX
  8
B-1465A.PLT
 62
7
 10
12.72650000
 20
4.14950000
  0
VERTEX
  8
B-1465A.PLT
 62
7
 10
12.75600000
 20
4.13600000
  0
VERTEX
  8
B-1465A.PLT
 62
7
 10
12.76000000
 20
4.13500000
  0
VERTEX
  8
B-1465A.PLT
 62
7
 10
12.76500000
 20
4.13800000
  0
VERTEX
  8
B-1465A.PLT
 62
7
 10
12.98800000
 20
4.42800000
  0
VERTEX
  8
B-1465A.PLT
 62
7
 10
12.99400000
 20
4.43100000
  0
VERTEX
  8
B-1465A.PLT
 62
7
 10
12.99950000
 20
4.42900000
  0
VERTEX
  8
B-1465A.PLT
 62
7
 10
13.00200000
 20
4.42400000
  0
VERTEX
  8
B-1465A.PLT
 62
7
 10
13.00100000
 20
4.42000000
  0
VERTEX
  8
B-1465A.PLT
 62
7
 10
12.79400000
 20
4.11800000
  0
VERTEX
  8
B-1465A.PLT
 62
7
 10
12.79200000
 20
4.11400000
  0
VERTEX
  8
B-1465A.PLT
 62
7
 10
12.79500000
 20
4.10800000
  0
VERTEX
  8
B-1465A.PLT
 62
7
 10
12.81675000
 20
4.08312500
  0
VERTEX
  8
B-1465A.PLT
 62
7
 10
12.83400000
 20
4.05600000
  0
VERTEX
  8
B-1465A.PLT
 62
7
 10
12.83675000
 20
4.05237500
  0
VERTEX
  8
B-1465A.PLT
 62
7
 10
12.84100000
 20
4.05100000
  0
VERTEX
  8
B-1465A.PLT
 62
7
 10
12.84300000
 20
4.05200000
  0
VERTEX
  8
B-1465A.PLT
 62
7
 10
13.19800000
 20
4.16700000
  0
VERTEX
  8
B-1465A.PLT
 62
7
 10
13.19900000
 20
4.16800000
  0
SEQEND
  0
POLYLINE
  8
B-1465A.PLT
 62
7
 66
1
 70
1
  0
VERTEX
  8
B-1465A.PLT
 62
7
 10
2.52400000
 20
3.78800000
  0
VERTEX
  8
B-1465A.PLT
 62
7
 10
2.51614062
 20
3.82001562
  0
VERTEX
  8
B-1465A.PLT
 62
7
 10
2.51062500
 20
3.85287500
  0
VERTEX
  8
B-1465A.PLT
 62
7
 10
2.50754688
 20
3.88629688
  0
VERTEX
  8
B-1465A.PLT
 62
7
 10
2.50700000
 20
3.92000000
  0
VERTEX
  8
B-1465A.PLT
 62
7
 10
2.51000000
 20
3.96412500
  0
VERTEX
  8
B-1465A.PLT
 62
7
 10
2.51600000
 20
4.00600000
  0
VERTEX
  8
B-1465A.PLT
 62
7
 10
2.51600000
 20
4.00600000
  0
VERTEX
  8
B-1465A.PLT
 62
7
 10
2.48869727
 20
4.05392773
  0
VERTEX
  8
B-1465A.PLT
 62
7
 10
2.46464062
 20
4.10385937
  0
VERTEX
  8
B-1465A.PLT
 62
7
 10
2.44398242
 20
4.15564258
  0
VERTEX
  8
B-1465A.PLT
 62
7
 10
2.42687500
 20
4.20912500
  0
VERTEX
  8
B-1465A.PLT
 62
7
 10
2.41347070
 20
4.26415430
  0
VERTEX
  8
B-1465A.PLT
 62
7
 10
2.40392188
 20
4.32057812
  0
VERTEX
  8
B-1465A.PLT
 62
7
 10
2.39838086
 20
4.37824414
  0
VERTEX
  8
B-1465A.PLT
 62
7
 10
2.39700000
 20
4.43700000
  0
VERTEX
  8
B-1465A.PLT
 62
7
 10
2.40100000
 20
4.50100000
  0
VERTEX
  8
B-1465A.PLT
 62
7
 10
2.36215625
 20
4.46670313
  0
VERTEX
  8
B-1465A.PLT
 62
7
 10
2.32143750
 20
4.43437500
  0
VERTEX
  8
B-1465A.PLT
 62
7
 10
2.27893750
 20
4.40410938
  0
VERTEX
  8
B-1465A.PLT
 62
7
 10
2.23475000
 20
4.37600000
  0
VERTEX
  8
B-1465A.PLT
 62
7
 10
2.18896875
 20
4.35014062
  0
VERTEX
  8
B-1465A.PLT
 62
7
 10
2.14168750
 20
4.32662500
  0
VERTEX
  8
B-1465A.PLT
 62
7
 10
2.09300000
 20
4.30554688
  0
VERTEX
  8
B-1465A.PLT
 62
7
 10
2.04300000
 20
4.28700000
  0
VERTEX
  8
B-1465A.PLT
 62
7
 10
2.04400000
 20
4.28700000
  0
VERTEX
  8
B-1465A.PLT
 62
7
 10
2.06195313
 20
4.26273438
  0
VERTEX
  8
B-1465A.PLT
 62
7
 10
2.07512500
 20
4.23537500
  0
VERTEX
  8
B-1465A.PLT
 62
7
 10
2.08323438
 20
4.20557812
  0
VERTEX
  8
B-1465A.PLT
 62
7
 10
2.08600000
 20
4.17400000
  0
VERTEX
  8
B-1465A.PLT
 62
7
 10
2.08500000
 20
4.15600000
  0
VERTEX
  8
B-1465A.PLT
 62
7
 10
2.08400000
 20
4.15400000
  0
VERTEX
  8
B-1465A.PLT
 62
7
 10
2.08800000
 20
4.08037500
  0
VERTEX
  8
B-1465A.PLT
 62
7
 10
2.08900000
 20
4.00600000
  0
VERTEX
  8
B-1465A.PLT
 62
7
 10
2.08550000
 20
3.93062500
  0
VERTEX
  8
B-1465A.PLT
 62
7
 10
2.07900000
 20
3.85600000
  0
VERTEX
  8
B-1465A.PLT
 62
7
 10
2.07900000
 20
3.85500000
  0
VERTEX
  8
B-1465A.PLT
 62
7
 10
2.08067773
 20
3.83148242
  0
VERTEX
  8
B-1465A.PLT
 62
7
 10
2.08623438
 20
3.80917188
  0
VERTEX
  8
B-1465A.PLT
 62
7
 10
2.09533008
 20
3.78843164
  0
VERTEX
  8
B-1465A.PLT
 62
7
 10
2.10762500
 20
3.76962500
  0
VERTEX
  8
B-1465A.PLT
 62
7
 10
2.12277930
 20
3.75311523
  0
VERTEX
  8
B-1465A.PLT
 62
7
 10
2.14045313
 20
3.73926562
  0
VERTEX
  8
B-1465A.PLT
 62
7
 10
2.16030664
 20
3.72843945
  0
VERTEX
  8
B-1465A.PLT
 62
7
 10
2.18200000
 20
3.72100000
  0
VERTEX
  8
B-1465A.PLT
 62
7
 10
2.16782813
 20
3.68167188
  0
VERTEX
  8
B-1465A.PLT
 62
7
 10
2.15712500
 20
3.64037500
  0
VERTEX
  8
B-1465A.PLT
 62
7
 10
2.15035937
 20
3.59739063
  0
VERTEX
  8
B-1465A.PLT
 62
7
 10
2.14800000
 20
3.55300000
  0
VERTEX
  8
B-1465A.PLT
 62
7
 10
2.14840820
 20
3.52029102
  0
VERTEX
  8
B-1465A.PLT
 62
7
 10
2.15107813
 20
3.48820313
  0
VERTEX
  8
B-1465A.PLT
 62
7
 10
2.15592773
 20
3.45679492
  0
VERTEX
  8
B-1465A.PLT
 62
7
 10
2.16287500
 20
3.42612500
  0
VERTEX
  8
B-1465A.PLT
 62
7
 10
2.17183789
 20
3.39625195
  0
VERTEX
  8
B-1465A.PLT
 62
7
 10
2.18273437
 20
3.36723437
  0
VERTEX
  8
B-1465A.PLT
 62
7
 10
2.19548242
 20
3.33913086
  0
VERTEX
  8
B-1465A.PLT
 62
7
 10
2.21000000
 20
3.31200000
  0
VERTEX
  8
B-1465A.PLT
 62
7
 10
2.24662500
 20
3.30700000
  0
VERTEX
  8
B-1465A.PLT
 62
7
 10
2.28400000
 20
3.30500000
  0
VERTEX
  8
B-1465A.PLT
 62
7
 10
2.32644531
 20
3.30573438
  0
VERTEX
  8
B-1465A.PLT
 62
7
 10
2.36818750
 20
3.30937500
  0
VERTEX
  8
B-1465A.PLT
 62
7
 10
2.40908594
 20
3.31582812
  0
VERTEX
  8
B-1465A.PLT
 62
7
 10
2.44900000
 20
3.32500000
  0
VERTEX
  8
B-1465A.PLT
 62
7
 10
2.48778906
 20
3.33679688
  0
VERTEX
  8
B-1465A.PLT
 62
7
 10
2.52531250
 20
3.35112500
  0
VERTEX
  8
B-1465A.PLT
 62
7
 10
2.56142969
 20
3.36789062
  0
VERTEX
  8
B-1465A.PLT
 62
7
 10
2.59600000
 20
3.38700000
  0
VERTEX
  8
B-1465A.PLT
 62
7
 10
2.60000000
 20
3.42012500
  0
VERTEX
  8
B-1465A.PLT
 62
7
 10
2.60100000
 20
3.45400000
  0
VERTEX
  8
B-1465A.PLT
 62
7
 10
2.60035742
 20
3.49870313
  0
VERTEX
  8
B-1465A.PLT
 62
7
 10
2.59698437
 20
3.54275000
  0
VERTEX
  8
B-1465A.PLT
 62
7
 10
2.59096289
 20
3.58604688
  0
VERTEX
  8
B-1465A.PLT
 62
7
 10
2.58237500
 20
3.62850000
  0
VERTEX
  8
B-1465A.PLT
 62
7
 10
2.57130273
 20
3.67001563
  0
VERTEX
  8
B-1465A.PLT
 62
7
 10
2.55782812
 20
3.71050000
  0
VERTEX
  8
B-1465A.PLT
 62
7
 10
2.54203320
 20
3.74985938
  0
SEQEND
  0
POLYLINE
  8
B-1465A.PLT
 62
7
 66
1
 70
1
  0
VERTEX
  8
B-1465A.PLT
 62
7
 10
4.18500000
 20
6.94800000
  0
VERTEX
  8
B-1465A.PLT
 62
7
 10
4.17156250
 20
6.97065625
  0
VERTEX
  8
B-1465A.PLT
 62
7
 10
4.16150000
 20
6.99500000
  0
VERTEX
  8
B-1465A.PLT
 62
7
 10
4.15518750
 20
7.02084375
  0
VERTEX
  8
B-1465A.PLT
 62
7
 10
4.15300000
 20
7.04800000
  0
VERTEX
  8
B-1465A.PLT
 62
7
 10
4.15400000
 20
7.05200000
  0
VERTEX
  8
B-1465A.PLT
 62
7
 10
4.18647070
 20
7.06829687
  0
VERTEX
  8
B-1465A.PLT
 62
7
 10
4.22007812
 20
7.08262500
  0
VERTEX
  8
B-1465A.PLT
 62
7
 10
4.25474023
 20
7.09489062
  0
VERTEX
  8
B-1465A.PLT
 62
7
 10
4.29037500
 20
7.10500000
  0
VERTEX
  8
B-1465A.PLT
 62
7
 10
4.32690039
 20
7.11285938
  0
VERTEX
  8
B-1465A.PLT
 62
7
 10
4.36423437
 20
7.11837500
  0
VERTEX
  8
B-1465A.PLT
 62
7
 10
4.40229492
 20
7.12145313
  0
VERTEX
  8
B-1465A.PLT
 62
7
 10
4.44100000
 20
7.12200000
  0
VERTEX
  8
B-1465A.PLT
 62
7
 10
4.49154688
 20
7.11918750
  0
VERTEX
  8
B-1465A.PLT
 62
7
 10
4.54087500
 20
7.11225000
  0
VERTEX
  8
B-1465A.PLT
 62
7
 10
4.58851563
 20
7.10118750
  0
VERTEX
  8
B-1465A.PLT
 62
7
 10
4.63400000
 20
7.08600000
  0
VERTEX
  8
B-1465A.PLT
 62
7
 10
4.63600000
 20
7.06900000
  0
VERTEX
  8
B-1465A.PLT
 62
7
 10
4.63201563
 20
7.04400000
  0
VERTEX
  8
B-1465A.PLT
 62
7
 10
4.62212500
 20
7.02200000
  0
VERTEX
  8
B-1465A.PLT
 62
7
 10
4.60717187
 20
7.00375000
  0
VERTEX
  8
B-1465A.PLT
 62
7
 10
4.58800000
 20
6.99000000
  0
VERTEX
  8
B-1465A.PLT
 62
7
 10
4.55234375
 20
7.00067188
  0
VERTEX
  8
B-1465A.PLT
 62
7
 10
4.51575000
 20
7.00862500
  0
VERTEX
  8
B-1465A.PLT
 62
7
 10
4.47803125
 20
7.01376562
  0
VERTEX
  8
B-1465A.PLT
 62
7
 10
4.43900000
 20
7.01600000
  0
VERTEX
  8
B-1465A.PLT
 62
7
 10
4.40441992
 20
7.01521094
  0
VERTEX
  8
B-1465A.PLT
 62
7
 10
4.37048438
 20
7.01212500
  0
VERTEX
  8
B-1465A.PLT
 62
7
 10
4.33727539
 20
7.00678906
  0
VERTEX
  8
B-1465A.PLT
 62
7
 10
4.30487500
 20
6.99925000
  0
VERTEX
  8
B-1465A.PLT
 62
7
 10
4.27336523
 20
6.98955469
  0
VERTEX
  8
B-1465A.PLT
 62
7
 10
4.24282813
 20
6.97775000
  0
VERTEX
  8
B-1465A.PLT
 62
7
 10
4.21334570
 20
6.96388281
  0
SEQEND
  0
POLYLINE
  8
B-1465A.PLT
 62
7
 66
1
 70
1
  0
VERTEX
  8
B-1465A.PLT
 62
7
 10
4.09800000
 20
3.09000000
  0
VERTEX
  8
B-1465A.PLT
 62
7
 10
4.38800000
 20
3.09000000
  0
VERTEX
  8
B-1465A.PLT
 62
7
 10
4.36045313
 20
3.11001563
  0
VERTEX
  8
B-1465A.PLT
 62
7
 10
4.33487500
 20
3.13237500
  0
VERTEX
  8
B-1465A.PLT
 62
7
 10
4.31135938
 20
3.15679687
  0
VERTEX
  8
B-1465A.PLT
 62
7
 10
4.29000000
 20
3.18300000
  0
VERTEX
  8
B-1465A.PLT
 62
7
 10
4.27230664
 20
3.19304883
  0
VERTEX
  8
B-1465A.PLT
 62
7
 10
4.25607813
 20
3.20507813
  0
VERTEX
  8
B-1465A.PLT
 62
7
 10
4.24146680
 20
3.21891211
  0
VERTEX
  8
B-1465A.PLT
 62
7
 10
4.22862500
 20
3.23437500
  0
VERTEX
  8
B-1465A.PLT
 62
7
 10
4.21770508
 20
3.25129102
  0
VERTEX
  8
B-1465A.PLT
 62
7
 10
4.20885938
 20
3.26948438
  0
VERTEX
  8
B-1465A.PLT
 62
7
 10
4.20224023
 20
3.28877930
  0
VERTEX
  8
B-1465A.PLT
 62
7
 10
4.19800000
 20
3.30900000
  0
VERTEX
  8
B-1465A.PLT
 62
7
 10
4.19800000
 20
3.30900000
  0
VERTEX
  8
B-1465A.PLT
 62
7
 10
4.18557813
 20
3.35454688
  0
VERTEX
  8
B-1465A.PLT
 62
7
 10
4.17662500
 20
3.40112500
  0
VERTEX
  8
B-1465A.PLT
 62
7
 10
4.17085938
 20
3.44864062
  0
VERTEX
  8
B-1465A.PLT
 62
7
 10
4.16800000
 20
3.49700000
  0
VERTEX
  8
B-1465A.PLT
 62
7
 10
4.16800000
 20
3.49600000
  0
VERTEX
  8
B-1465A.PLT
 62
7
 10
4.13116406
 20
3.52659375
  0
VERTEX
  8
B-1465A.PLT
 62
7
 10
4.09812500
 20
3.56112500
  0
VERTEX
  8
B-1465A.PLT
 62
7
 10
4.06921094
 20
3.59921875
  0
VERTEX
  8
B-1465A.PLT
 62
7
 10
4.04475000
 20
3.64050000
  0
VERTEX
  8
B-1465A.PLT
 62
7
 10
4.02507031
 20
3.68459375
  0
VERTEX
  8
B-1465A.PLT
 62
7
 10
4.01050000
 20
3.73112500
  0
VERTEX
  8
B-1465A.PLT
 62
7
 10
4.00136719
 20
3.77971875
  0
VERTEX
  8
B-1465A.PLT
 62
7
 10
3.99800000
 20
3.83000000
  0
VERTEX
  8
B-1465A.PLT
 62
7
 10
3.99800000
 20
3.84100000
  0
VERTEX
  8
B-1465A.PLT
 62
7
 10
3.99575000
 20
3.90837500
  0
VERTEX
  8
B-1465A.PLT
 62
7
 10
3.98600000
 20
3.97200000
  0
VERTEX
  8
B-1465A.PLT
 62
7
 10
3.98700000
 20
3.90700000
  0
VERTEX
  8
B-1465A.PLT
 62
7
 10
3.98275000
 20
3.83432812
  0
VERTEX
  8
B-1465A.PLT
 62
7
 10
3.97175000
 20
3.76362500
  0
VERTEX
  8
B-1465A.PLT
 62
7
 10
3.95437500
 20
3.69535937
  0
VERTEX
  8
B-1465A.PLT
 62
7
 10
3.93100000
 20
3.63000000
  0
VERTEX
  8
B-1465A.PLT
 62
7
 10
3.94820313
 20
3.58359375
  0
VERTEX
  8
B-1465A.PLT
 62
7
 10
3.96062500
 20
3.53475000
  0
VERTEX
  8
B-1465A.PLT
 62
7
 10
3.96798437
 20
3.48403125
  0
VERTEX
  8
B-1465A.PLT
 62
7
 10
3.97000000
 20
3.43200000
  0
VERTEX
  8
B-1465A.PLT
 62
7
 10
3.96862500
 20
3.40500000
  0
VERTEX
  8
B-1465A.PLT
 62
7
 10
3.96500000
 20
3.37800000
  0
VERTEX
  8
B-1465A.PLT
 62
7
 10
3.96600000
 20
3.37800000
  0
VERTEX
  8
B-1465A.PLT
 62
7
 10
3.99086719
 20
3.34716797
  0
VERTEX
  8
B-1465A.PLT
 62
7
 10
4.01362500
 20
3.31471875
  0
VERTEX
  8
B-1465A.PLT
 62
7
 10
4.03413281
 20
3.28072266
  0
VERTEX
  8
B-1465A.PLT
 62
7
 10
4.05225000
 20
3.24525000
  0
VERTEX
  8
B-1465A.PLT
 62
7
 10
4.06783594
 20
3.20837109
  0
VERTEX
  8
B-1465A.PLT
 62
7
 10
4.08075000
 20
3.17015625
  0
VERTEX
  8
B-1465A.PLT
 62
7
 10
4.09085156
 20
3.13067578
  0
SEQEND
  0
POLYLINE
  8
B-1465A.PLT
 62
7
 66
1
 70
1
  0
VERTEX
  8
B-1465A.PLT
 62
7
 10
10.88800000
 20
3.42900000
  0
VERTEX
  8
B-1465A.PLT
 62
7
 10
10.88500000
 20
3.48100000
  0
VERTEX
  8
B-1465A.PLT
 62
7
 10
10.88600000
 20
3.49100000
  0
VERTEX
  8
B-1465A.PLT
 62
7
 10
10.88400000
 20
3.49000000
  0
VERTEX
  8
B-1465A.PLT
 62
7
 10
10.83800000
 20
3.46900000
  0
VERTEX
  8
B-1465A.PLT
 62
7
 10
10.83500000
 20
3.46800000
  0
VERTEX
  8
B-1465A.PLT
 62
7
 10
10.74993750
 20
3.43090625
  0
VERTEX
  8
B-1465A.PLT
 62
7
 10
10.66150000
 20
3.39925000
  0
VERTEX
  8
B-1465A.PLT
 62
7
 10
10.57006250
 20
3.37321875
  0
VERTEX
  8
B-1465A.PLT
 62
7
 10
10.47600000
 20
3.35300000
  0
VERTEX
  8
B-1465A.PLT
 62
7
 10
10.43600000
 20
3.34500000
  0
VERTEX
  8
B-1465A.PLT
 62
7
 10
10.45237500
 20
3.33312500
  0
VERTEX
  8
B-1465A.PLT
 62
7
 10
10.46500000
 20
3.31750000
  0
VERTEX
  8
B-1465A.PLT
 62
7
 10
10.47312500
 20
3.29887500
  0
VERTEX
  8
B-1465A.PLT
 62
7
 10
10.47600000
 20
3.27800000
  0
VERTEX
  8
B-1465A.PLT
 62
7
 10
10.47500000
 20
3.27400000
  0
VERTEX
  8
B-1465A.PLT
 62
7
 10
10.52000000
 20
3.27700000
  0
VERTEX
  8
B-1465A.PLT
 62
7
 10
10.60678125
 20
3.29118750
  0
VERTEX
  8
B-1465A.PLT
 62
7
 10
10.69150000
 20
3.30950000
  0
VERTEX
  8
B-1465A.PLT
 62
7
 10
10.77396875
 20
3.33156250
  0
VERTEX
  8
B-1465A.PLT
 62
7
 10
10.85400000
 20
3.35700000
  0
VERTEX
  8
B-1465A.PLT
 62
7
 10
10.87212500
 20
3.39262500
  0
SEQEND
  0
POLYLINE
  8
B-1465A.PLT
 62
7
 66
1
 70
1
  0
VERTEX
  8
B-1465A.PLT
 62
7
 10
9.89000000
 20
3.25700000
  0
VERTEX
  8
B-1465A.PLT
 62
7
 10
9.91679687
 20
3.26576562
  0
VERTEX
  8
B-1465A.PLT
 62
7
 10
9.94462500
 20
3.27237500
  0
VERTEX
  8
B-1465A.PLT
 62
7
 10
9.97339063
 20
3.27654688
  0
VERTEX
  8
B-1465A.PLT
 62
7
 10
10.00300000
 20
3.27800000
  0
VERTEX
  8
B-1465A.PLT
 62
7
 10
10.03260938
 20
3.27656250
  0
VERTEX
  8
B-1465A.PLT
 62
7
 10
10.06137500
 20
3.27250000
  0
VERTEX
  8
B-1465A.PLT
 62
7
 10
10.08920312
 20
3.26618750
  0
VERTEX
  8
B-1465A.PLT
 62
7
 10
10.11600000
 20
3.25800000
  0
VERTEX
  8
B-1465A.PLT
 62
7
 10
10.15500000
 20
3.25200000
  0
VERTEX
  8
B-1465A.PLT
 62
7
 10
10.15400000
 20
3.25200000
  0
VERTEX
  8
B-1465A.PLT
 62
7
 10
10.13150000
 20
3.29787500
  0
VERTEX
  8
B-1465A.PLT
 62
7
 10
10.11500000
 20
3.34600000
  0
VERTEX
  8
B-1465A.PLT
 62
7
 10
10.06250000
 20
3.35725000
  0
VERTEX
  8
B-1465A.PLT
 62
7
 10
10.00700000
 20
3.36100000
  0
VERTEX
  8
B-1465A.PLT
 62
7
 10
9.97720313
 20
3.35975000
  0
VERTEX
  8
B-1465A.PLT
 62
7
 10
9.94787500
 20
3.35625000
  0
VERTEX
  8
B-1465A.PLT
 62
7
 10
9.91910937
 20
3.35087500
  0
VERTEX
  8
B-1465A.PLT
 62
7
 10
9.89100000
 20
3.34400000
  0
VERTEX
  8
B-1465A.PLT
 62
7
 10
9.85581250
 20
3.32956250
  0
VERTEX
  8
B-1465A.PLT
 62
7
 10
9.82250000
 20
3.31175000
  0
VERTEX
  8
B-1465A.PLT
 62
7
 10
9.79143750
 20
3.29056250
  0
VERTEX
  8
B-1465A.PLT
 62
7
 10
9.76300000
 20
3.26600000
  0
VERTEX
  8
B-1465A.PLT
 62
7
 10
9.74678125
 20
3.25040625
  0
VERTEX
  8
B-1465A.PLT
 62
7
 10
9.73450000
 20
3.23125000
  0
VERTEX
  8
B-1465A.PLT
 62
7
 10
9.72671875
 20
3.20946875
  0
VERTEX
  8
B-1465A.PLT
 62
7
 10
9.72400000
 20
3.18600000
  0
VERTEX
  8
B-1465A.PLT
 62
7
 10
9.72671875
 20
3.16267188
  0
VERTEX
  8
B-1465A.PLT
 62
7
 10
9.73450000
 20
3.14112500
  0
VERTEX
  8
B-1465A.PLT
 62
7
 10
9.74678125
 20
3.12201563
  0
VERTEX
  8
B-1465A.PLT
 62
7
 10
9.76300000
 20
3.10600000
  0
VERTEX
  8
B-1465A.PLT
 62
7
 10
9.78087500
 20
3.09925000
  0
VERTEX
  8
B-1465A.PLT
 62
7
 10
9.80100000
 20
3.09700000
  0
VERTEX
  8
B-1465A.PLT
 62
7
 10
9.80400000
 20
3.09700000
  0
VERTEX
  8
B-1465A.PLT
 62
7
 10
9.80300000
 20
3.11600000
  0
VERTEX
  8
B-1465A.PLT
 62
7
 10
9.80464648
 20
3.13912109
  0
VERTEX
  8
B-1465A.PLT
 62
7
 10
9.80942188
 20
3.16109375
  0
VERTEX
  8
B-1465A.PLT
 62
7
 10
9.81708008
 20
3.18170703
  0
VERTEX
  8
B-1465A.PLT
 62
7
 10
9.82737500
 20
3.20075000
  0
VERTEX
  8
B-1465A.PLT
 62
7
 10
9.84006055
 20
3.21801172
  0
VERTEX
  8
B-1465A.PLT
 62
7
 10
9.85489062
 20
3.23328125
  0
VERTEX
  8
B-1465A.PLT
 62
7
 10
9.87161914
 20
3.24634766
  0
SEQEND
  0
POLYLINE
  8
B-1465A.PLT
 62
7
 66
1
 70
1
  0
VERTEX
  8
B-1465A.PLT
 62
7
 10
1.92300000
 20
3.09000000
  0
VERTEX
  8
B-1465A.PLT
 62
7
 10
2.21900000
 20
3.09000000
  0
VERTEX
  8
B-1465A.PLT
 62
7
 10
2.18462500
 20
3.12462500
  0
VERTEX
  8
B-1465A.PLT
 62
7
 10
2.15400000
 20
3.16300000
  0
VERTEX
  8
B-1465A.PLT
 62
7
 10
2.12840625
 20
3.20851563
  0
VERTEX
  8
B-1465A.PLT
 62
7
 10
2.10600000
 20
3.25637500
  0
VERTEX
  8
B-1465A.PLT
 62
7
 10
2.08734375
 20
3.30629688
  0
VERTEX
  8
B-1465A.PLT
 62
7
 10
2.07300000
 20
3.35800000
  0
VERTEX
  8
B-1465A.PLT
 62
7
 10
2.05857812
 20
3.40523438
  0
VERTEX
  8
B-1465A.PLT
 62
7
 10
2.04837500
 20
3.45387500
  0
VERTEX
  8
B-1465A.PLT
 62
7
 10
2.04248437
 20
3.50382813
  0
VERTEX
  8
B-1465A.PLT
 62
7
 10
2.04100000
 20
3.55500000
  0
VERTEX
  8
B-1465A.PLT
 62
7
 10
2.04537500
 20
3.61387500
  0
VERTEX
  8
B-1465A.PLT
 62
7
 10
2.05500000
 20
3.67200000
  0
VERTEX
  8
B-1465A.PLT
 62
7
 10
2.05500000
 20
3.67100000
  0
VERTEX
  8
B-1465A.PLT
 62
7
 10
2.03646289
 20
3.68887695
  0
VERTEX
  8
B-1465A.PLT
 62
7
 10
2.01995312
 20
3.70864063
  0
VERTEX
  8
B-1465A.PLT
 62
7
 10
2.00562305
 20
3.73011523
  0
VERTEX
  8
B-1465A.PLT
 62
7
 10
1.99362500
 20
3.75312500
  0
VERTEX
  8
B-1465A.PLT
 62
7
 10
1.98411133
 20
3.77749414
  0
VERTEX
  8
B-1465A.PLT
 62
7
 10
1.97723438
 20
3.80304688
  0
VERTEX
  8
B-1465A.PLT
 62
7
 10
1.97314648
 20
3.82960742
  0
VERTEX
  8
B-1465A.PLT
 62
7
 10
1.97200000
 20
3.85700000
  0
VERTEX
  8
B-1465A.PLT
 62
7
 10
1.97200000
 20
3.86100000
  0
VERTEX
  8
B-1465A.PLT
 62
7
 10
1.97837500
 20
3.93375000
  0
VERTEX
  8
B-1465A.PLT
 62
7
 10
1.98100000
 20
4.00800000
  0
VERTEX
  8
B-1465A.PLT
 62
7
 10
1.98087500
 20
4.08525000
  0
VERTEX
  8
B-1465A.PLT
 62
7
 10
1.97700000
 20
4.16100000
  0
VERTEX
  8
B-1465A.PLT
 62
7
 10
1.97900000
 20
4.17600000
  0
VERTEX
  8
B-1465A.PLT
 62
7
 10
1.97837500
 20
4.18850000
  0
VERTEX
  8
B-1465A.PLT
 62
7
 10
1.97400000
 20
4.20100000
  0
VERTEX
  8
B-1465A.PLT
 62
7
 10
1.95021875
 20
4.15735938
  0
VERTEX
  8
B-1465A.PLT
 62
7
 10
1.92250000
 20
4.11662500
  0
VERTEX
  8
B-1465A.PLT
 62
7
 10
1.89103125
 20
4.07907812
  0
VERTEX
  8
B-1465A.PLT
 62
7
 10
1.85600000
 20
4.04500000
  0
VERTEX
  8
B-1465A.PLT
 62
7
 10
1.85700000
 20
4.04600000
  0
VERTEX
  8
B-1465A.PLT
 62
7
 10
1.86560938
 20
4.01414062
  0
VERTEX
  8
B-1465A.PLT
 62
7
 10
1.87187500
 20
3.98162500
  0
VERTEX
  8
B-1465A.PLT
 62
7
 10
1.87570313
 20
3.94854687
  0
VERTEX
  8
B-1465A.PLT
 62
7
 10
1.87700000
 20
3.91500000
  0
VERTEX
  8
B-1465A.PLT
 62
7
 10
1.87499805
 20
3.88313672
  0
VERTEX
  8
B-1465A.PLT
 62
7
 10
1.87054688
 20
3.85209375
  0
VERTEX
  8
B-1465A.PLT
 62
7
 10
1.86372852
 20
3.82194141
  0
VERTEX
  8
B-1465A.PLT
 62
7
 10
1.85462500
 20
3.79275000
  0
VERTEX
  8
B-1465A.PLT
 62
7
 10
1.84331836
 20
3.76458984
  0
VERTEX
  8
B-1465A.PLT
 62
7
 10
1.82989063
 20
3.73753125
  0
VERTEX
  8
B-1465A.PLT
 62
7
 10
1.81442383
 20
3.71164453
  0
VERTEX
  8
B-1465A.PLT
 62
7
 10
1.79700000
 20
3.68700000
  0
VERTEX
  8
B-1465A.PLT
 62
7
 10
1.79800000
 20
3.68700000
  0
VERTEX
  8
B-1465A.PLT
 62
7
 10
1.81425391
 20
3.65523633
  0
VERTEX
  8
B-1465A.PLT
 62
7
 10
1.82846875
 20
3.62226562
  0
VERTEX
  8
B-1465A.PLT
 62
7
 10
1.84057422
 20
3.58819336
  0
VERTEX
  8
B-1465A.PLT
 62
7
 10
1.85050000
 20
3.55312500
  0
VERTEX
  8
B-1465A.PLT
 62
7
 10
1.85817578
 20
3.51716602
  0
VERTEX
  8
B-1465A.PLT
 62
7
 10
1.86353125
 20
3.48042188
  0
VERTEX
  8
B-1465A.PLT
 62
7
 10
1.86649609
 20
3.44299805
  0
VERTEX
  8
B-1465A.PLT
 62
7
 10
1.86700000
 20
3.40500000
  0
VERTEX
  8
B-1465A.PLT
 62
7
 10
1.86700000
 20
3.40400000
  0
VERTEX
  8
B-1465A.PLT
 62
7
 10
1.88628320
 20
3.38499805
  0
VERTEX
  8
B-1465A.PLT
 62
7
 10
1.90351563
 20
3.36410938
  0
VERTEX
  8
B-1465A.PLT
 62
7
 10
1.91852148
 20
3.34150977
  0
VERTEX
  8
B-1465A.PLT
 62
7
 10
1.93112500
 20
3.31737500
  0
VERTEX
  8
B-1465A.PLT
 62
7
 10
1.94115039
 20
3.29188086
  0
VERTEX
  8
B-1465A.PLT
 62
7
 10
1.94842188
 20
3.26520313
  0
VERTEX
  8
B-1465A.PLT
 62
7
 10
1.95276367
 20
3.23751758
  0
VERTEX
  8
B-1465A.PLT
 62
7
 10
1.95400000
 20
3.20900000
  0
VERTEX
  8
B-1465A.PLT
 62
7
 10
1.95154688
 20
3.17718750
  0
VERTEX
  8
B-1465A.PLT
 62
7
 10
1.94562500
 20
3.14650000
  0
VERTEX
  8
B-1465A.PLT
 62
7
 10
1.93614062
 20
3.11731250
  0
SEQEND
  0
POLYLINE
  8
B-1465A.PLT
 62
7
 66
1
 70
1
  0
VERTEX
  8
B-1465A.PLT
 62
7
 10
13.61300000
 20
3.27400000
  0
VERTEX
  8
B-1465A.PLT
 62
7
 10
13.61191553
 20
3.29566187
  0
VERTEX
  8
B-1465A.PLT
 62
7
 10
13.60873047
 20
3.31670117
  0
VERTEX
  8
B-1465A.PLT
 62
7
 10
13.60354736
 20
3.33701099
  0
VERTEX
  8
B-1465A.PLT
 62
7
 10
13.59646875
 20
3.35648438
  0
VERTEX
  8
B-1465A.PLT
 62
7
 10
13.58759717
 20
3.37501440
  0
VERTEX
  8
B-1465A.PLT
 62
7
 10
13.57703516
 20
3.39249414
  0
VERTEX
  8
B-1465A.PLT
 62
7
 10
13.56488525
 20
3.40881665
  0
VERTEX
  8
B-1465A.PLT
 62
7
 10
13.55125000
 20
3.42387500
  0
VERTEX
  8
B-1465A.PLT
 62
7
 10
13.53623193
 20
3.43756226
  0
VERTEX
  8
B-1465A.PLT
 62
7
 10
13.51993359
 20
3.44977148
  0
VERTEX
  8
B-1465A.PLT
 62
7
 10
13.50245752
 20
3.46039575
  0
VERTEX
  8
B-1465A.PLT
 62
7
 10
13.48390625
 20
3.46932813
  0
VERTEX
  8
B-1465A.PLT
 62
7
 10
13.46438232
 20
3.47646167
  0
VERTEX
  8
B-1465A.PLT
 62
7
 10
13.44398828
 20
3.48168945
  0
VERTEX
  8
B-1465A.PLT
 62
7
 10
13.42282666
 20
3.48490454
  0
VERTEX
  8
B-1465A.PLT
 62
7
 10
13.40100000
 20
3.48600000
  0
VERTEX
  8
B-1465A.PLT
 62
7
 10
13.37951416
 20
3.48490454
  0
VERTEX
  8
B-1465A.PLT
 62
7
 10
13.35862891
 20
3.48168945
  0
VERTEX
  8
B-1465A.PLT
 62
7
 10
13.33845264
 20
3.47646167
  0
VERTEX
  8
B-1465A.PLT
 62
7
 10
13.31909375
 20
3.46932813
  0
VERTEX
  8
B-1465A.PLT
 62
7
 10
13.30066064
 20
3.46039575
  0
VERTEX
  8
B-1465A.PLT
 62
7
 10
13.28326172
 20
3.44977148
  0
VERTEX
  8
B-1465A.PLT
 62
7
 10
13.26700537
 20
3.43756226
  0
VERTEX
  8
B-1465A.PLT
 62
7
 10
13.25200000
 20
3.42387500
  0
VERTEX
  8
B-1465A.PLT
 62
7
 10
13.23835400
 20
3.40881665
  0
VERTEX
  8
B-1465A.PLT
 62
7
 10
13.22617578
 20
3.39249414
  0
VERTEX
  8
B-1465A.PLT
 62
7
 10
13.21557373
 20
3.37501440
  0
VERTEX
  8
B-1465A.PLT
 62
7
 10
13.20665625
 20
3.35648438
  0
VERTEX
  8
B-1465A.PLT
 62
7
 10
13.19953174
 20
3.33701099
  0
VERTEX
  8
B-1465A.PLT
 62
7
 10
13.19430859
 20
3.31670117
  0
VERTEX
  8
B-1465A.PLT
 62
7
 10
13.19109521
 20
3.29566187
  0
VERTEX
  8
B-1465A.PLT
 62
7
 10
13.19000000
 20
3.27400000
  0
VERTEX
  8
B-1465A.PLT
 62
7
 10
13.19109521
 20
3.25251416
  0
VERTEX
  8
B-1465A.PLT
 62
7
 10
13.19430859
 20
3.23162891
  0
VERTEX
  8
B-1465A.PLT
 62
7
 10
13.19953174
 20
3.21145264
  0
VERTEX
  8
B-1465A.PLT
 62
7
 10
13.20665625
 20
3.19209375
  0
VERTEX
  8
B-1465A.PLT
 62
7
 10
13.21557373
 20
3.17366064
  0
VERTEX
  8
B-1465A.PLT
 62
7
 10
13.22617578
 20
3.15626172
  0
VERTEX
  8
B-1465A.PLT
 62
7
 10
13.23835400
 20
3.14000537
  0
VERTEX
  8
B-1465A.PLT
 62
7
 10
13.25200000
 20
3.12500000
  0
VERTEX
  8
B-1465A.PLT
 62
7
 10
13.26700537
 20
3.11135400
  0
VERTEX
  8
B-1465A.PLT
 62
7
 10
13.28326172
 20
3.09917578
  0
VERTEX
  8
B-1465A.PLT
 62
7
 10
13.30066064
 20
3.08857373
  0
VERTEX
  8
B-1465A.PLT
 62
7
 10
13.31909375
 20
3.07965625
  0
VERTEX
  8
B-1465A.PLT
 62
7
 10
13.33845264
 20
3.07253174
  0
VERTEX
  8
B-1465A.PLT
 62
7
 10
13.35862891
 20
3.06730859
  0
VERTEX
  8
B-1465A.PLT
 62
7
 10
13.37951416
 20
3.06409521
  0
VERTEX
  8
B-1465A.PLT
 62
7
 10
13.40100000
 20
3.06300000
  0
VERTEX
  8
B-1465A.PLT
 62
7
 10
13.42282666
 20
3.06409521
  0
VERTEX
  8
B-1465A.PLT
 62
7
 10
13.44398828
 20
3.06730859
  0
VERTEX
  8
B-1465A.PLT
 62
7
 10
13.46438232
 20
3.07253174
  0
VERTEX
  8
B-1465A.PLT
 62
7
 10
13.48390625
 20
3.07965625
  0
VERTEX
  8
B-1465A.PLT
 62
7
 10
13.50245752
 20
3.08857373
  0
VERTEX
  8
B-1465A.PLT
 62
7
 10
13.51993359
 20
3.09917578
  0
VERTEX
  8
B-1465A.PLT
 62
7
 10
13.53623193
 20
3.11135400
  0
VERTEX
  8
B-1465A.PLT
 62
7
 10
13.55125000
 20
3.12500000
  0
VERTEX
  8
B-1465A.PLT
 62
7
 10
13.56488525
 20
3.14000537
  0
VERTEX
  8
B-1465A.PLT
 62
7
 10
13.57703516
 20
3.15626172
  0
VERTEX
  8
B-1465A.PLT
 62
7
 10
13.58759717
 20
3.17366064
  0
VERTEX
  8
B-1465A.PLT
 62
7
 10
13.59646875
 20
3.19209375
  0
VERTEX
  8
B-1465A.PLT
 62
7
 10
13.60354736
 20
3.21145264
  0
VERTEX
  8
B-1465A.PLT
 62
7
 10
13.60873047
 20
3.23162891
  0
VERTEX
  8
B-1465A.PLT
 62
7
 10
13.61191553
 20
3.25251416
  0
SEQEND
  0
POLYLINE
  8
B-1465A.PLT
 62
7
 66
1
 70
1
  0
VERTEX
  8
B-1465A.PLT
 62
7
 10
2.13400000
 20
5.98000000
  0
VERTEX
  8
B-1465A.PLT
 62
7
 10
2.13600000
 20
5.98100000
  0
VERTEX
  8
B-1465A.PLT
 62
7
 10
2.14689063
 20
5.97958008
  0
VERTEX
  8
B-1465A.PLT
 62
7
 10
2.15693750
 20
5.97620312
  0
VERTEX
  8
B-1465A.PLT
 62
7
 10
2.16595313
 20
5.97106836
  0
VERTEX
  8
B-1465A.PLT
 62
7
 10
2.17375000
 20
5.96437500
  0
VERTEX
  8
B-1465A.PLT
 62
7
 10
2.18014062
 20
5.95632227
  0
VERTEX
  8
B-1465A.PLT
 62
7
 10
2.18493750
 20
5.94710938
  0
VERTEX
  8
B-1465A.PLT
 62
7
 10
2.18795312
 20
5.93693555
  0
VERTEX
  8
B-1465A.PLT
 62
7
 10
2.18900000
 20
5.92600000
  0
VERTEX
  8
B-1465A.PLT
 62
7
 10
2.18575000
 20
5.90934375
  0
VERTEX
  8
B-1465A.PLT
 62
7
 10
2.17800000
 20
5.89475000
  0
VERTEX
  8
B-1465A.PLT
 62
7
 10
2.16650000
 20
5.88353125
  0
VERTEX
  8
B-1465A.PLT
 62
7
 10
2.15200000
 20
5.87700000
  0
VERTEX
  8
B-1465A.PLT
 62
7
 10
2.13200000
 20
5.87337500
  0
VERTEX
  8
B-1465A.PLT
 62
7
 10
2.11200000
 20
5.87200000
  0
VERTEX
  8
B-1465A.PLT
 62
7
 10
2.09036133
 20
5.87348096
  0
VERTEX
  8
B-1465A.PLT
 62
7
 10
2.06939063
 20
5.87709766
  0
VERTEX
  8
B-1465A.PLT
 62
7
 10
2.04919336
 20
5.88273584
  0
VERTEX
  8
B-1465A.PLT
 62
7
 10
2.02987500
 20
5.89028125
  0
VERTEX
  8
B-1465A.PLT
 62
7
 10
2.01154102
 20
5.89961963
  0
VERTEX
  8
B-1465A.PLT
 62
7
 10
1.99429688
 20
5.91063672
  0
VERTEX
  8
B-1465A.PLT
 62
7
 10
1.97824805
 20
5.92321826
  0
VERTEX
  8
B-1465A.PLT
 62
7
 10
1.96350000
 20
5.93725000
  0
VERTEX
  8
B-1465A.PLT
 62
7
 10
1.95015820
 20
5.95261768
  0
VERTEX
  8
B-1465A.PLT
 62
7
 10
1.93832813
 20
5.96920703
  0
VERTEX
  8
B-1465A.PLT
 62
7
 10
1.92811523
 20
5.98690381
  0
VERTEX
  8
B-1465A.PLT
 62
7
 10
1.91962500
 20
6.00559375
  0
VERTEX
  8
B-1465A.PLT
 62
7
 10
1.91296289
 20
6.02516260
  0
VERTEX
  8
B-1465A.PLT
 62
7
 10
1.90823437
 20
6.04549609
  0
VERTEX
  8
B-1465A.PLT
 62
7
 10
1.90554492
 20
6.06647998
  0
VERTEX
  8
B-1465A.PLT
 62
7
 10
1.90500000
 20
6.08800000
  0
VERTEX
  8
B-1465A.PLT
 62
7
 10
1.90757422
 20
6.11879883
  0
VERTEX
  8
B-1465A.PLT
 62
7
 10
1.91434375
 20
6.14801563
  0
VERTEX
  8
B-1465A.PLT
 62
7
 10
1.92500391
 20
6.17538086
  0
VERTEX
  8
B-1465A.PLT
 62
7
 10
1.93925000
 20
6.20062500
  0
VERTEX
  8
B-1465A.PLT
 62
7
 10
1.95677734
 20
6.22347852
  0
VERTEX
  8
B-1465A.PLT
 62
7
 10
1.97728125
 20
6.24367188
  0
VERTEX
  8
B-1465A.PLT
 62
7
 10
2.00045703
 20
6.26093555
  0
VERTEX
  8
B-1465A.PLT
 62
7
 10
2.02600000
 20
6.27500000
  0
VERTEX
  8
B-1465A.PLT
 62
7
 10
2.03759375
 20
6.27311719
  0
VERTEX
  8
B-1465A.PLT
 62
7
 10
2.04825000
 20
6.26912500
  0
VERTEX
  8
B-1465A.PLT
 62
7
 10
2.05778125
 20
6.26325781
  0
VERTEX
  8
B-1465A.PLT
 62
7
 10
2.06600000
 20
6.25575000
  0
VERTEX
  8
B-1465A.PLT
 62
7
 10
2.07271875
 20
6.24683594
  0
VERTEX
  8
B-1465A.PLT
 62
7
 10
2.07775000
 20
6.23675000
  0
VERTEX
  8
B-1465A.PLT
 62
7
 10
2.08090625
 20
6.22572656
  0
VERTEX
  8
B-1465A.PLT
 62
7
 10
2.08200000
 20
6.21400000
  0
VERTEX
  8
B-1465A.PLT
 62
7
 10
2.07925000
 20
6.19512500
  0
VERTEX
  8
B-1465A.PLT
 62
7
 10
2.07200000
 20
6.18000000
  0
VERTEX
  8
B-1465A.PLT
 62
7
 10
2.05908398
 20
6.17247461
  0
VERTEX
  8
B-1465A.PLT
 62
7
 10
2.04742187
 20
6.16348438
  0
VERTEX
  8
B-1465A.PLT
 62
7
 10
2.03714258
 20
6.15315820
  0
VERTEX
  8
B-1465A.PLT
 62
7
 10
2.02837500
 20
6.14162500
  0
VERTEX
  8
B-1465A.PLT
 62
7
 10
2.02124805
 20
6.12901367
  0
VERTEX
  8
B-1465A.PLT
 62
7
 10
2.01589062
 20
6.11545313
  0
VERTEX
  8
B-1465A.PLT
 62
7
 10
2.01243164
 20
6.10107227
  0
VERTEX
  8
B-1465A.PLT
 62
7
 10
2.01100000
 20
6.08600000
  0
VERTEX
  8
B-1465A.PLT
 62
7
 10
2.01275977
 20
6.06479102
  0
VERTEX
  8
B-1465A.PLT
 62
7
 10
2.01851563
 20
6.04495313
  0
VERTEX
  8
B-1465A.PLT
 62
7
 10
2.02785742
 20
6.02691992
  0
VERTEX
  8
B-1465A.PLT
 62
7
 10
2.04037500
 20
6.01112500
  0
VERTEX
  8
B-1465A.PLT
 62
7
 10
2.05565820
 20
5.99800195
  0
VERTEX
  8
B-1465A.PLT
 62
7
 10
2.07329688
 20
5.98798437
  0
VERTEX
  8
B-1465A.PLT
 62
7
 10
2.09288086
 20
5.98150586
  0
VERTEX
  8
B-1465A.PLT
 62
7
 10
2.11400000
 20
5.97900000
  0
SEQEND
  0
POLYLINE
  8
B-1465A.PLT
 62
7
 66
1
 70
1
  0
VERTEX
  8
B-1465A.PLT
 62
7
 10
14.36300000
 20
4.31500000
  0
VERTEX
  8
B-1465A.PLT
 62
7
 10
14.36600000
 20
4.34600000
  0
VERTEX
  8
B-1465A.PLT
 62
7
 10
14.36305078
 20
4.37519922
  0
VERTEX
  8
B-1465A.PLT
 62
7
 10
14.35459375
 20
4.40240625
  0
VERTEX
  8
B-1465A.PLT
 62
7
 10
14.34121484
 20
4.42703516
  0
VERTEX
  8
B-1465A.PLT
 62
7
 10
14.32350000
 20
4.44850000
  0
VERTEX
  8
B-1465A.PLT
 62
7
 10
14.30203516
 20
4.46621484
  0
VERTEX
  8
B-1465A.PLT
 62
7
 10
14.27740625
 20
4.47959375
  0
VERTEX
  8
B-1465A.PLT
 62
7
 10
14.25019922
 20
4.48805078
  0
VERTEX
  8
B-1465A.PLT
 62
7
 10
14.22100000
 20
4.49100000
  0
VERTEX
  8
B-1465A.PLT
 62
7
 10
14.19213086
 20
4.48805078
  0
VERTEX
  8
B-1465A.PLT
 62
7
 10
14.16517188
 20
4.47959375
  0
VERTEX
  8
B-1465A.PLT
 62
7
 10
14.14072070
 20
4.46621484
  0
VERTEX
  8
B-1465A.PLT
 62
7
 10
14.11937500
 20
4.44850000
  0
VERTEX
  8
B-1465A.PLT
 62
7
 10
14.10173242
 20
4.42703516
  0
VERTEX
  8
B-1465A.PLT
 62
7
 10
14.08839063
 20
4.40240625
  0
VERTEX
  8
B-1465A.PLT
 62
7
 10
14.07994727
 20
4.37519922
  0
VERTEX
  8
B-1465A.PLT
 62
7
 10
14.07700000
 20
4.34600000
  0
VERTEX
  8
B-1465A.PLT
 62
7
 10
14.07994727
 20
4.31680078
  0
VERTEX
  8
B-1465A.PLT
 62
7
 10
14.08839063
 20
4.28959375
  0
VERTEX
  8
B-1465A.PLT
 62
7
 10
14.10173242
 20
4.26496484
  0
VERTEX
  8
B-1465A.PLT
 62
7
 10
14.11937500
 20
4.24350000
  0
VERTEX
  8
B-1465A.PLT
 62
7
 10
14.14072070
 20
4.22578516
  0
VERTEX
  8
B-1465A.PLT
 62
7
 10
14.16517188
 20
4.21240625
  0
VERTEX
  8
B-1465A.PLT
 62
7
 10
14.19213086
 20
4.20394922
  0
VERTEX
  8
B-1465A.PLT
 62
7
 10
14.22100000
 20
4.20100000
  0
VERTEX
  8
B-1465A.PLT
 62
7
 10
14.24809375
 20
4.20353125
  0
VERTEX
  8
B-1465A.PLT
 62
7
 10
14.27350000
 20
4.21075000
  0
VERTEX
  8
B-1465A.PLT
 62
7
 10
14.29665625
 20
4.22209375
  0
VERTEX
  8
B-1465A.PLT
 62
7
 10
14.31700000
 20
4.23700000
  0
VERTEX
  8
B-1465A.PLT
 62
7
 10
14.33473438
 20
4.25185938
  0
VERTEX
  8
B-1465A.PLT
 62
7
 10
14.34862500
 20
4.27037500
  0
VERTEX
  8
B-1465A.PLT
 62
7
 10
14.35820312
 20
4.29170312
  0
SEQEND
  0
POLYLINE
  8
B-1465A.PLT
 62
7
 66
1
 70
1
  0
VERTEX
  8
B-1465A.PLT
 62
7
 10
2.94700000
 20
5.81000000
  0
VERTEX
  8
B-1465A.PLT
 62
7
 10
2.94300000
 20
5.83400000
  0
VERTEX
  8
B-1465A.PLT
 62
7
 10
2.94714062
 20
5.85720312
  0
VERTEX
  8
B-1465A.PLT
 62
7
 10
2.95737500
 20
5.87787500
  0
VERTEX
  8
B-1465A.PLT
 62
7
 10
2.97267188
 20
5.89460937
  0
VERTEX
  8
B-1465A.PLT
 62
7
 10
2.99200000
 20
5.90600000
  0
VERTEX
  8
B-1465A.PLT
 62
7
 10
3.01642163
 20
5.89370825
  0
VERTEX
  8
B-1465A.PLT
 62
7
 10
3.03976367
 20
5.87975977
  0
VERTEX
  8
B-1465A.PLT
 62
7
 10
3.06195435
 20
5.86423218
  0
VERTEX
  8
B-1465A.PLT
 62
7
 10
3.08292187
 20
5.84720313
  0
VERTEX
  8
B-1465A.PLT
 62
7
 10
3.10259448
 20
5.82875024
  0
VERTEX
  8
B-1465A.PLT
 62
7
 10
3.12090039
 20
5.80895117
  0
VERTEX
  8
B-1465A.PLT
 62
7
 10
3.13776782
 20
5.78788354
  0
VERTEX
  8
B-1465A.PLT
 62
7
 10
3.15312500
 20
5.76562500
  0
VERTEX
  8
B-1465A.PLT
 62
7
 10
3.16690015
 20
5.74225317
  0
VERTEX
  8
B-1465A.PLT
 62
7
 10
3.17902148
 20
5.71784570
  0
VERTEX
  8
B-1465A.PLT
 62
7
 10
3.18941724
 20
5.69248022
  0
VERTEX
  8
B-1465A.PLT
 62
7
 10
3.19801563
 20
5.66623438
  0
VERTEX
  8
B-1465A.PLT
 62
7
 10
3.20474487
 20
5.63918579
  0
VERTEX
  8
B-1465A.PLT
 62
7
 10
3.20953320
 20
5.61141211
  0
VERTEX
  8
B-1465A.PLT
 62
7
 10
3.21230884
 20
5.58299097
  0
VERTEX
  8
B-1465A.PLT
 62
7
 10
3.21300000
 20
5.55400000
  0
VERTEX
  8
B-1465A.PLT
 62
7
 10
3.20946875
 20
5.51317188
  0
VERTEX
  8
B-1465A.PLT
 62
7
 10
3.20200000
 20
5.47337500
  0
VERTEX
  8
B-1465A.PLT
 62
7
 10
3.19078125
 20
5.43489063
  0
VERTEX
  8
B-1465A.PLT
 62
7
 10
3.17600000
 20
5.39800000
  0
VERTEX
  8
B-1465A.PLT
 62
7
 10
3.14800000
 20
5.39400000
  0
VERTEX
  8
B-1465A.PLT
 62
7
 10
3.12556250
 20
5.39815625
  0
VERTEX
  8
B-1465A.PLT
 62
7
 10
3.10575000
 20
5.40850000
  0
VERTEX
  8
B-1465A.PLT
 62
7
 10
3.09006250
 20
5.42409375
  0
VERTEX
  8
B-1465A.PLT
 62
7
 10
3.08000000
 20
5.44400000
  0
VERTEX
  8
B-1465A.PLT
 62
7
 10
3.09125000
 20
5.47021875
  0
VERTEX
  8
B-1465A.PLT
 62
7
 10
3.09950000
 20
5.49775000
  0
VERTEX
  8
B-1465A.PLT
 62
7
 10
3.10475000
 20
5.52640625
  0
VERTEX
  8
B-1465A.PLT
 62
7
 10
3.10700000
 20
5.55600000
  0
VERTEX
  8
B-1465A.PLT
 62
7
 10
3.10434961
 20
5.59726563
  0
VERTEX
  8
B-1465A.PLT
 62
7
 10
3.09592188
 20
5.63675000
  0
VERTEX
  8
B-1465A.PLT
 62
7
 10
3.08212695
 20
5.67398437
  0
VERTEX
  8
B-1465A.PLT
 62
7
 10
3.06337500
 20
5.70850000
  0
VERTEX
  8
B-1465A.PLT
 62
7
 10
3.04007617
 20
5.73982812
  0
VERTEX
  8
B-1465A.PLT
 62
7
 10
3.01264063
 20
5.76750000
  0
VERTEX
  8
B-1465A.PLT
 62
7
 10
2.98147852
 20
5.79104688
  0
SEQEND
  0
POLYLINE
  8
B-1465A.PLT
 62
7
 66
1
 70
1
  0
VERTEX
  8
B-1465A.PLT
 62
7
 10
4.62900000
 20
3.13300000
  0
VERTEX
  8
B-1465A.PLT
 62
7
 10
4.59492187
 20
3.16785937
  0
VERTEX
  8
B-1465A.PLT
 62
7
 10
4.56337500
 20
3.20487500
  0
VERTEX
  8
B-1465A.PLT
 62
7
 10
4.53464062
 20
3.24395313
  0
VERTEX
  8
B-1465A.PLT
 62
7
 10
4.50900000
 20
3.28500000
  0
VERTEX
  8
B-1465A.PLT
 62
7
 10
4.47410938
 20
3.27451562
  0
VERTEX
  8
B-1465A.PLT
 62
7
 10
4.43837500
 20
3.26712500
  0
VERTEX
  8
B-1465A.PLT
 62
7
 10
4.40170313
 20
3.26292188
  0
VERTEX
  8
B-1465A.PLT
 62
7
 10
4.36400000
 20
3.26200000
  0
VERTEX
  8
B-1465A.PLT
 62
7
 10
4.38509766
 20
3.23434570
  0
VERTEX
  8
B-1465A.PLT
 62
7
 10
4.40921875
 20
3.20932812
  0
VERTEX
  8
B-1465A.PLT
 62
7
 10
4.43610547
 20
3.18724023
  0
VERTEX
  8
B-1465A.PLT
 62
7
 10
4.46550000
 20
3.16837500
  0
VERTEX
  8
B-1465A.PLT
 62
7
 10
4.49714453
 20
3.15302539
  0
VERTEX
  8
B-1465A.PLT
 62
7
 10
4.53078125
 20
3.14148438
  0
VERTEX
  8
B-1465A.PLT
 62
7
 10
4.56615234
 20
3.13404492
  0
VERTEX
  8
B-1465A.PLT
 62
7
 10
4.60300000
 20
3.13100000
  0
SEQEND
  0
POLYLINE
  8
B-1465A.PLT
 62
7
 66
1
 70
1
  0
VERTEX
  8
B-1465A.PLT
 62
7
 10
4.37600000
 20
6.02500000
  0
VERTEX
  8
B-1465A.PLT
 62
7
 10
4.36520312
 20
6.03375000
  0
VERTEX
  8
B-1465A.PLT
 62
7
 10
4.35712500
 20
6.04475000
  0
VERTEX
  8
B-1465A.PLT
 62
7
 10
4.35223438
 20
6.05762500
  0
VERTEX
  8
B-1465A.PLT
 62
7
 10
4.35100000
 20
6.07200000
  0
VERTEX
  8
B-1465A.PLT
 62
7
 10
4.35241992
 20
6.08260156
  0
VERTEX
  8
B-1465A.PLT
 62
7
 10
4.35579688
 20
6.09250000
  0
VERTEX
  8
B-1465A.PLT
 62
7
 10
4.36093164
 20
6.10146094
  0
VERTEX
  8
B-1465A.PLT
 62
7
 10
4.36762500
 20
6.10925000
  0
VERTEX
  8
B-1465A.PLT
 62
7
 10
4.37567773
 20
6.11563281
  0
VERTEX
  8
B-1465A.PLT
 62
7
 10
4.38489062
 20
6.12037500
  0
VERTEX
  8
B-1465A.PLT
 62
7
 10
4.39506445
 20
6.12324219
  0
VERTEX
  8
B-1465A.PLT
 62
7
 10
4.40600000
 20
6.12400000
  0
VERTEX
  8
B-1465A.PLT
 62
7
 10
4.42000000
 20
6.12200000
  0
VERTEX
  8
B-1465A.PLT
 62
7
 10
4.45274023
 20
6.10426367
  0
VERTEX
  8
B-1465A.PLT
 62
7
 10
4.48242188
 20
6.08210937
  0
VERTEX
  8
B-1465A.PLT
 62
7
 10
4.50861133
 20
6.05599414
  0
VERTEX
  8
B-1465A.PLT
 62
7
 10
4.53087500
 20
6.02637500
  0
VERTEX
  8
B-1465A.PLT
 62
7
 10
4.54877930
 20
5.99370898
  0
VERTEX
  8
B-1465A.PLT
 62
7
 10
4.56189063
 20
5.95845313
  0
VERTEX
  8
B-1465A.PLT
 62
7
 10
4.56977539
 20
5.92106445
  0
VERTEX
  8
B-1465A.PLT
 62
7
 10
4.57200000
 20
5.88200000
  0
VERTEX
  8
B-1465A.PLT
 62
7
 10
4.57070312
 20
5.85629688
  0
VERTEX
  8
B-1465A.PLT
 62
7
 10
4.56687500
 20
5.83162500
  0
VERTEX
  8
B-1465A.PLT
 62
7
 10
4.56060938
 20
5.80789062
  0
VERTEX
  8
B-1465A.PLT
 62
7
 10
4.55200000
 20
5.78500000
  0
VERTEX
  8
B-1465A.PLT
 62
7
 10
4.57314062
 20
5.73675000
  0
VERTEX
  8
B-1465A.PLT
 62
7
 10
4.58837500
 20
5.68550000
  0
VERTEX
  8
B-1465A.PLT
 62
7
 10
4.59742188
 20
5.63200000
  0
VERTEX
  8
B-1465A.PLT
 62
7
 10
4.60000000
 20
5.57700000
  0
VERTEX
  8
B-1465A.PLT
 62
7
 10
4.59589063
 20
5.52679687
  0
VERTEX
  8
B-1465A.PLT
 62
7
 10
4.58662500
 20
5.47837500
  0
VERTEX
  8
B-1465A.PLT
 62
7
 10
4.57229688
 20
5.43201563
  0
VERTEX
  8
B-1465A.PLT
 62
7
 10
4.55300000
 20
5.38800000
  0
VERTEX
  8
B-1465A.PLT
 62
7
 10
4.54548438
 20
5.37426562
  0
VERTEX
  8
B-1465A.PLT
 62
7
 10
4.53412500
 20
5.36362500
  0
VERTEX
  8
B-1465A.PLT
 62
7
 10
4.51995312
 20
5.35692188
  0
VERTEX
  8
B-1465A.PLT
 62
7
 10
4.50400000
 20
5.35500000
  0
VERTEX
  8
B-1465A.PLT
 62
7
 10
4.49310938
 20
5.35608984
  0
VERTEX
  8
B-1465A.PLT
 62
7
 10
4.48306250
 20
5.35921875
  0
VERTEX
  8
B-1465A.PLT
 62
7
 10
4.47404688
 20
5.36417578
  0
VERTEX
  8
B-1465A.PLT
 62
7
 10
4.46625000
 20
5.37075000
  0
VERTEX
  8
B-1465A.PLT
 62
7
 10
4.45985937
 20
5.37873047
  0
VERTEX
  8
B-1465A.PLT
 62
7
 10
4.45506250
 20
5.38790625
  0
VERTEX
  8
B-1465A.PLT
 62
7
 10
4.45204687
 20
5.39806641
  0
VERTEX
  8
B-1465A.PLT
 62
7
 10
4.45100000
 20
5.40900000
  0
VERTEX
  8
B-1465A.PLT
 62
7
 10
4.45262500
 20
5.42225000
  0
VERTEX
  8
B-1465A.PLT
 62
7
 10
4.45800000
 20
5.43400000
  0
VERTEX
  8
B-1465A.PLT
 62
7
 10
4.47260938
 20
5.46790625
  0
VERTEX
  8
B-1465A.PLT
 62
7
 10
4.48337500
 20
5.50350000
  0
VERTEX
  8
B-1465A.PLT
 62
7
 10
4.49020312
 20
5.54059375
  0
VERTEX
  8
B-1465A.PLT
 62
7
 10
4.49300000
 20
5.57900000
  0
VERTEX
  8
B-1465A.PLT
 62
7
 10
4.49225781
 20
5.60762109
  0
VERTEX
  8
B-1465A.PLT
 62
7
 10
4.48931250
 20
5.63565625
  0
VERTEX
  8
B-1465A.PLT
 62
7
 10
4.48421094
 20
5.66298828
  0
VERTEX
  8
B-1465A.PLT
 62
7
 10
4.47700000
 20
5.68950000
  0
VERTEX
  8
B-1465A.PLT
 62
7
 10
4.46772656
 20
5.71507422
  0
VERTEX
  8
B-1465A.PLT
 62
7
 10
4.45643750
 20
5.73959375
  0
VERTEX
  8
B-1465A.PLT
 62
7
 10
4.44317969
 20
5.76294141
  0
VERTEX
  8
B-1465A.PLT
 62
7
 10
4.42800000
 20
5.78500000
  0
VERTEX
  8
B-1465A.PLT
 62
7
 10
4.44350000
 20
5.80609375
  0
VERTEX
  8
B-1465A.PLT
 62
7
 10
4.45525000
 20
5.83000000
  0
VERTEX
  8
B-1465A.PLT
 62
7
 10
4.46287500
 20
5.85615625
  0
VERTEX
  8
B-1465A.PLT
 62
7
 10
4.46600000
 20
5.88400000
  0
VERTEX
  8
B-1465A.PLT
 62
7
 10
4.46463477
 20
5.90716211
  0
VERTEX
  8
B-1465A.PLT
 62
7
 10
4.45995313
 20
5.92923438
  0
VERTEX
  8
B-1465A.PLT
 62
7
 10
4.45220117
 20
5.94997070
  0
VERTEX
  8
B-1465A.PLT
 62
7
 10
4.44162500
 20
5.96912500
  0
VERTEX
  8
B-1465A.PLT
 62
7
 10
4.42847070
 20
5.98645117
  0
VERTEX
  8
B-1465A.PLT
 62
7
 10
4.41298437
 20
6.00170312
  0
VERTEX
  8
B-1465A.PLT
 62
7
 10
4.39541211
 20
6.01463477
  0
SEQEND
  0
POLYLINE
  8
B-1465A.PLT
 62
7
 66
1
 70
1
  0
VERTEX
  8
B-1465A.PLT
 62
7
 10
5.21100000
 20
6.48600000
  0
VERTEX
  8
B-1465A.PLT
 62
7
 10
5.18688550
 20
6.49464478
  0
VERTEX
  8
B-1465A.PLT
 62
7
 10
5.16372461
 20
6.50514258
  0
VERTEX
  8
B-1465A.PLT
 62
7
 10
5.14160376
 20
6.51740112
  0
VERTEX
  8
B-1465A.PLT
 62
7
 10
5.12060937
 20
6.53132812
  0
VERTEX
  8
B-1465A.PLT
 62
7
 10
5.10082788
 20
6.54683130
  0
VERTEX
  8
B-1465A.PLT
 62
7
 10
5.08234570
 20
6.56381836
  0
VERTEX
  8
B-1465A.PLT
 62
7
 10
5.06524927
 20
6.58219702
  0
VERTEX
  8
B-1465A.PLT
 62
7
 10
5.04962500
 20
6.60187500
  0
VERTEX
  8
B-1465A.PLT
 62
7
 10
5.03555933
 20
6.62276001
  0
VERTEX
  8
B-1465A.PLT
 62
7
 10
5.02313867
 20
6.64475977
  0
VERTEX
  8
B-1465A.PLT
 62
7
 10
5.01244946
 20
6.66778198
  0
VERTEX
  8
B-1465A.PLT
 62
7
 10
5.00357812
 20
6.69173438
  0
VERTEX
  8
B-1465A.PLT
 62
7
 10
4.99661108
 20
6.71652466
  0
VERTEX
  8
B-1465A.PLT
 62
7
 10
4.99163477
 20
6.74206055
  0
VERTEX
  8
B-1465A.PLT
 62
7
 10
4.98873560
 20
6.76824976
  0
VERTEX
  8
B-1465A.PLT
 62
7
 10
4.98800000
 20
6.79500000
  0
VERTEX
  8
B-1465A.PLT
 62
7
 10
4.99062500
 20
6.82875000
  0
VERTEX
  8
B-1465A.PLT
 62
7
 10
4.99700000
 20
6.86100000
  0
VERTEX
  8
B-1465A.PLT
 62
7
 10
5.02172095
 20
6.85542700
  0
VERTEX
  8
B-1465A.PLT
 62
7
 10
5.04556445
 20
6.84777539
  0
VERTEX
  8
B-1465A.PLT
 62
7
 10
5.06842651
 20
6.83814624
  0
VERTEX
  8
B-1465A.PLT
 62
7
 10
5.09020313
 20
6.82664062
  0
VERTEX
  8
B-1465A.PLT
 62
7
 10
5.11079028
 20
6.81335962
  0
VERTEX
  8
B-1465A.PLT
 62
7
 10
5.13008398
 20
6.79840430
  0
VERTEX
  8
B-1465A.PLT
 62
7
 10
5.14798022
 20
6.78187573
  0
VERTEX
  8
B-1465A.PLT
 62
7
 10
5.16437500
 20
6.76387500
  0
VERTEX
  8
B-1465A.PLT
 62
7
 10
5.17916431
 20
6.74450317
  0
VERTEX
  8
B-1465A.PLT
 62
7
 10
5.19224414
 20
6.72386133
  0
VERTEX
  8
B-1465A.PLT
 62
7
 10
5.20351050
 20
6.70205054
  0
VERTEX
  8
B-1465A.PLT
 62
7
 10
5.21285937
 20
6.67917187
  0
VERTEX
  8
B-1465A.PLT
 62
7
 10
5.22018677
 20
6.65532642
  0
VERTEX
  8
B-1465A.PLT
 62
7
 10
5.22538867
 20
6.63061523
  0
VERTEX
  8
B-1465A.PLT
 62
7
 10
5.22836108
 20
6.60513940
  0
VERTEX
  8
B-1465A.PLT
 62
7
 10
5.22900000
 20
6.57900000
  0
VERTEX
  8
B-1465A.PLT
 62
7
 10
5.22787500
 20
6.55462500
  0
VERTEX
  8
B-1465A.PLT
 62
7
 10
5.22450000
 20
6.53100000
  0
VERTEX
  8
B-1465A.PLT
 62
7
 10
5.21887500
 20
6.50812500
  0
SEQEND
  0
POLYLINE
  8
B-1465A.PLT
 62
7
 66
1
 70
1
  0
VERTEX
  8
B-1465A.PLT
 62
7
 10
4.60300000
 20
3.30000000
  0
VERTEX
  8
B-1465A.PLT
 62
7
 10
4.64550000
 20
3.22112500
  0
VERTEX
  8
B-1465A.PLT
 62
7
 10
4.68500000
 20
3.14300000
  0
VERTEX
  8
B-1465A.PLT
 62
7
 10
4.72154687
 20
3.15215625
  0
VERTEX
  8
B-1465A.PLT
 62
7
 10
4.75912500
 20
3.15850000
  0
VERTEX
  8
B-1465A.PLT
 62
7
 10
4.79764062
 20
3.16184375
  0
VERTEX
  8
B-1465A.PLT
 62
7
 10
4.83700000
 20
3.16200000
  0
VERTEX
  8
B-1465A.PLT
 62
7
 10
4.84500000
 20
3.16200000
  0
VERTEX
  8
B-1465A.PLT
 62
7
 10
4.83789063
 20
3.21384375
  0
VERTEX
  8
B-1465A.PLT
 62
7
 10
4.82562500
 20
3.26400000
  0
VERTEX
  8
B-1465A.PLT
 62
7
 10
4.80829687
 20
3.31190625
  0
VERTEX
  8
B-1465A.PLT
 62
7
 10
4.78600000
 20
3.35700000
  0
VERTEX
  8
B-1465A.PLT
 62
7
 10
4.76025000
 20
3.36387500
  0
VERTEX
  8
B-1465A.PLT
 62
7
 10
4.73300000
 20
3.36700000
  0
VERTEX
  8
B-1465A.PLT
 62
7
 10
4.71309961
 20
3.36608984
  0
VERTEX
  8
B-1465A.PLT
 62
7
 10
4.69398438
 20
3.36271875
  0
VERTEX
  8
B-1465A.PLT
 62
7
 10
4.67578320
 20
3.35705078
  0
VERTEX
  8
B-1465A.PLT
 62
7
 10
4.65862500
 20
3.34925000
  0
VERTEX
  8
B-1465A.PLT
 62
7
 10
4.64263867
 20
3.33948047
  0
VERTEX
  8
B-1465A.PLT
 62
7
 10
4.62795313
 20
3.32790625
  0
VERTEX
  8
B-1465A.PLT
 62
7
 10
4.61469727
 20
3.31469141
  0
SEQEND
  0
POLYLINE
  8
B-1465A.PLT
 62
7
 66
1
 70
1
  0
VERTEX
  8
B-1465A.PLT
 62
7
 10
2.73000000
 20
3.12800000
  0
VERTEX
  8
B-1465A.PLT
 62
7
 10
2.70042188
 20
3.17895313
  0
VERTEX
  8
B-1465A.PLT
 62
7
 10
2.67637500
 20
3.23262500
  0
VERTEX
  8
B-1465A.PLT
 62
7
 10
2.65814063
 20
3.28873438
  0
VERTEX
  8
B-1465A.PLT
 62
7
 10
2.64600000
 20
3.34700000
  0
VERTEX
  8
B-1465A.PLT
 62
7
 10
2.61103125
 20
3.32029687
  0
VERTEX
  8
B-1465A.PLT
 62
7
 10
2.57250000
 20
3.29912500
  0
VERTEX
  8
B-1465A.PLT
 62
7
 10
2.53096875
 20
3.28414063
  0
VERTEX
  8
B-1465A.PLT
 62
7
 10
2.48700000
 20
3.27600000
  0
VERTEX
  8
B-1465A.PLT
 62
7
 10
2.51276563
 20
3.24926563
  0
VERTEX
  8
B-1465A.PLT
 62
7
 10
2.53412500
 20
3.21887500
  0
VERTEX
  8
B-1465A.PLT
 62
7
 10
2.55042188
 20
3.18529688
  0
VERTEX
  8
B-1465A.PLT
 62
7
 10
2.56100000
 20
3.14900000
  0
VERTEX
  8
B-1465A.PLT
 62
7
 10
2.59462500
 20
3.15837500
  0
VERTEX
  8
B-1465A.PLT
 62
7
 10
2.62900000
 20
3.16100000
  0
VERTEX
  8
B-1465A.PLT
 62
7
 10
2.65673438
 20
3.15879688
  0
VERTEX
  8
B-1465A.PLT
 62
7
 10
2.68287500
 20
3.15237500
  0
VERTEX
  8
B-1465A.PLT
 62
7
 10
2.70732813
 20
3.14201563
  0
SEQEND
  0
POLYLINE
  8
B-1465A.PLT
 62
7
 66
1
 70
1
  0
VERTEX
  8
B-1465A.PLT
 62
7
 10
2.48900000
 20
3.10500000
  0
VERTEX
  8
B-1465A.PLT
 62
7
 10
2.48526367
 20
3.12965625
  0
VERTEX
  8
B-1465A.PLT
 62
7
 10
2.47842188
 20
3.15206250
  0
VERTEX
  8
B-1465A.PLT
 62
7
 10
2.46940039
 20
3.17250000
  0
VERTEX
  8
B-1465A.PLT
 62
7
 10
2.45912500
 20
3.19125000
  0
VERTEX
  8
B-1465A.PLT
 62
7
 10
2.44852148
 20
3.20859375
  0
VERTEX
  8
B-1465A.PLT
 62
7
 10
2.43851563
 20
3.22481250
  0
VERTEX
  8
B-1465A.PLT
 62
7
 10
2.43003320
 20
3.24018750
  0
VERTEX
  8
B-1465A.PLT
 62
7
 10
2.42400000
 20
3.25500000
  0
VERTEX
  8
B-1465A.PLT
 62
7
 10
2.41770313
 20
3.25610937
  0
VERTEX
  8
B-1465A.PLT
 62
7
 10
2.40362500
 20
3.25262500
  0
VERTEX
  8
B-1465A.PLT
 62
7
 10
2.38448438
 20
3.24782812
  0
VERTEX
  8
B-1465A.PLT
 62
7
 10
2.36300000
 20
3.24500000
  0
VERTEX
  8
B-1465A.PLT
 62
7
 10
2.24400000
 20
3.24000000
  0
VERTEX
  8
B-1465A.PLT
 62
7
 10
2.26450391
 20
3.20671875
  0
VERTEX
  8
B-1465A.PLT
 62
7
 10
2.28653125
 20
3.17868750
  0
VERTEX
  8
B-1465A.PLT
 62
7
 10
2.31048047
 20
3.15562500
  0
VERTEX
  8
B-1465A.PLT
 62
7
 10
2.33675000
 20
3.13725000
  0
VERTEX
  8
B-1465A.PLT
 62
7
 10
2.36573828
 20
3.12328125
  0
VERTEX
  8
B-1465A.PLT
 62
7
 10
2.39784375
 20
3.11343750
  0
VERTEX
  8
B-1465A.PLT
 62
7
 10
2.43346484
 20
3.10743750
  0
VERTEX
  8
B-1465A.PLT
 62
7
 10
2.47300000
 20
3.10500000
  0
SEQEND
  0
POLYLINE
  8
B-1465A.PLT
 62
7
 66
1
 70
1
  0
VERTEX
  8
B-1465A.PLT
 62
7
 10
2.70800000
 20
5.78500000
  0
VERTEX
  8
B-1465A.PLT
 62
7
 10
2.70362500
 20
5.79725000
  0
VERTEX
  8
B-1465A.PLT
 62
7
 10
2.70300000
 20
5.80800000
  0
VERTEX
  8
B-1465A.PLT
 62
7
 10
2.70413281
 20
5.81860352
  0
VERTEX
  8
B-1465A.PLT
 62
7
 10
2.70737500
 20
5.82851562
  0
VERTEX
  8
B-1465A.PLT
 62
7
 10
2.71249219
 20
5.83751367
  0
VERTEX
  8
B-1465A.PLT
 62
7
 10
2.71925000
 20
5.84537500
  0
VERTEX
  8
B-1465A.PLT
 62
7
 10
2.72741406
 20
5.85187695
  0
VERTEX
  8
B-1465A.PLT
 62
7
 10
2.73675000
 20
5.85679687
  0
VERTEX
  8
B-1465A.PLT
 62
7
 10
2.74702344
 20
5.85991211
  0
VERTEX
  8
B-1465A.PLT
 62
7
 10
2.75800000
 20
5.86100000
  0
VERTEX
  8
B-1465A.PLT
 62
7
 10
2.77875000
 20
5.85600000
  0
VERTEX
  8
B-1465A.PLT
 62
7
 10
2.79800000
 20
5.84200000
  0
VERTEX
  8
B-1465A.PLT
 62
7
 10
2.86437500
 20
5.72900000
  0
VERTEX
  8
B-1465A.PLT
 62
7
 10
2.92400000
 20
5.61300000
  0
VERTEX
  8
B-1465A.PLT
 62
7
 10
2.90876563
 20
5.59385938
  0
VERTEX
  8
B-1465A.PLT
 62
7
 10
2.88912500
 20
5.57912500
  0
VERTEX
  8
B-1465A.PLT
 62
7
 10
2.86592188
 20
5.56982812
  0
VERTEX
  8
B-1465A.PLT
 62
7
 10
2.84000000
 20
5.56700000
  0
VERTEX
  8
B-1465A.PLT
 62
7
 10
2.82900000
 20
5.56600000
  0
VERTEX
  8
B-1465A.PLT
 62
7
 10
2.77187500
 20
5.67737500
  0
SEQEND
  0
POLYLINE
  8
B-1465A.PLT
 62
7
 66
1
 70
1
  0
VERTEX
  8
B-1465A.PLT
 62
7
 10
12.74900000
 20
3.89800000
  0
VERTEX
  8
B-1465A.PLT
 62
7
 10
12.75923438
 20
3.91315625
  0
VERTEX
  8
B-1465A.PLT
 62
7
 10
12.76712500
 20
3.93000000
  0
VERTEX
  8
B-1465A.PLT
 62
7
 10
12.77220313
 20
3.94834375
  0
VERTEX
  8
B-1465A.PLT
 62
7
 10
12.77400000
 20
3.96800000
  0
VERTEX
  8
B-1465A.PLT
 62
7
 10
12.77177344
 20
3.99024023
  0
VERTEX
  8
B-1465A.PLT
 62
7
 10
12.76537500
 20
4.01092188
  0
VERTEX
  8
B-1465A.PLT
 62
7
 10
12.75522656
 20
4.02961133
  0
VERTEX
  8
B-1465A.PLT
 62
7
 10
12.74175000
 20
4.04587500
  0
VERTEX
  8
B-1465A.PLT
 62
7
 10
12.72536719
 20
4.05927930
  0
VERTEX
  8
B-1465A.PLT
 62
7
 10
12.70650000
 20
4.06939062
  0
VERTEX
  8
B-1465A.PLT
 62
7
 10
12.68557031
 20
4.07577539
  0
VERTEX
  8
B-1465A.PLT
 62
7
 10
12.66300000
 20
4.07800000
  0
VERTEX
  8
B-1465A.PLT
 62
7
 10
12.64075977
 20
4.07577539
  0
VERTEX
  8
B-1465A.PLT
 62
7
 10
12.62007812
 20
4.06939062
  0
VERTEX
  8
B-1465A.PLT
 62
7
 10
12.60138867
 20
4.05927930
  0
VERTEX
  8
B-1465A.PLT
 62
7
 10
12.58512500
 20
4.04587500
  0
VERTEX
  8
B-1465A.PLT
 62
7
 10
12.57172070
 20
4.02961133
  0
VERTEX
  8
B-1465A.PLT
 62
7
 10
12.56160938
 20
4.01092188
  0
VERTEX
  8
B-1465A.PLT
 62
7
 10
12.55522461
 20
3.99024023
  0
VERTEX
  8
B-1465A.PLT
 62
7
 10
12.55300000
 20
3.96800000
  0
VERTEX
  8
B-1465A.PLT
 62
7
 10
12.55522461
 20
3.94542969
  0
VERTEX
  8
B-1465A.PLT
 62
7
 10
12.56160938
 20
3.92450000
  0
VERTEX
  8
B-1465A.PLT
 62
7
 10
12.57172070
 20
3.90563281
  0
VERTEX
  8
B-1465A.PLT
 62
7
 10
12.58512500
 20
3.88925000
  0
VERTEX
  8
B-1465A.PLT
 62
7
 10
12.60138867
 20
3.87577344
  0
VERTEX
  8
B-1465A.PLT
 62
7
 10
12.62007812
 20
3.86562500
  0
VERTEX
  8
B-1465A.PLT
 62
7
 10
12.64075977
 20
3.85922656
  0
VERTEX
  8
B-1465A.PLT
 62
7
 10
12.66300000
 20
3.85700000
  0
VERTEX
  8
B-1465A.PLT
 62
7
 10
12.68600000
 20
3.85900000
  0
VERTEX
  8
B-1465A.PLT
 62
7
 10
12.70400000
 20
3.86593750
  0
VERTEX
  8
B-1465A.PLT
 62
7
 10
12.72050000
 20
3.87475000
  0
VERTEX
  8
B-1465A.PLT
 62
7
 10
12.73550000
 20
3.88543750
  0
SEQEND
  0
POLYLINE
  8
B-1465A.PLT
 62
7
 66
1
 70
1
  0
VERTEX
  8
B-1465A.PLT
 62
7
 10
3.54400000
 20
3.18300000
  0
VERTEX
  8
B-1465A.PLT
 62
7
 10
3.55475000
 20
3.16755859
  0
VERTEX
  8
B-1465A.PLT
 62
7
 10
3.56737500
 20
3.15359375
  0
VERTEX
  8
B-1465A.PLT
 62
7
 10
3.58168750
 20
3.14126953
  0
VERTEX
  8
B-1465A.PLT
 62
7
 10
3.59750000
 20
3.13075000
  0
VERTEX
  8
B-1465A.PLT
 62
7
 10
3.61462500
 20
3.12219922
  0
VERTEX
  8
B-1465A.PLT
 62
7
 10
3.63287500
 20
3.11578125
  0
VERTEX
  8
B-1465A.PLT
 62
7
 10
3.65206250
 20
3.11166016
  0
VERTEX
  8
B-1465A.PLT
 62
7
 10
3.67200000
 20
3.11000000
  0
VERTEX
  8
B-1465A.PLT
 62
7
 10
3.69721875
 20
3.11143750
  0
VERTEX
  8
B-1465A.PLT
 62
7
 10
3.72150000
 20
3.11700000
  0
VERTEX
  8
B-1465A.PLT
 62
7
 10
3.74428125
 20
3.12631250
  0
VERTEX
  8
B-1465A.PLT
 62
7
 10
3.76500000
 20
3.13900000
  0
VERTEX
  8
B-1465A.PLT
 62
7
 10
3.69600000
 20
3.22700000
  0
VERTEX
  8
B-1465A.PLT
 62
7
 10
3.67637500
 20
3.23237500
  0
VERTEX
  8
B-1465A.PLT
 62
7
 10
3.65600000
 20
3.23400000
  0
VERTEX
  8
B-1465A.PLT
 62
7
 10
3.62345313
 20
3.23053125
  0
VERTEX
  8
B-1465A.PLT
 62
7
 10
3.59362500
 20
3.22050000
  0
VERTEX
  8
B-1465A.PLT
 62
7
 10
3.56698438
 20
3.20446875
  0
SEQEND
  0
POLYLINE
  8
B-1465A.PLT
 62
7
 66
1
 70
1
  0
VERTEX
  8
B-1465A.PLT
 62
7
 10
1.59500000
 20
3.08700000
  0
VERTEX
  8
B-1465A.PLT
 62
7
 10
1.58601562
 20
3.12157813
  0
VERTEX
  8
B-1465A.PLT
 62
7
 10
1.57187500
 20
3.14912500
  0
VERTEX
  8
B-1465A.PLT
 62
7
 10
1.55154688
 20
3.17235938
  0
VERTEX
  8
B-1465A.PLT
 62
7
 10
1.52400000
 20
3.19400000
  0
VERTEX
  8
B-1465A.PLT
 62
7
 10
1.48800000
 20
3.18525000
  0
VERTEX
  8
B-1465A.PLT
 62
7
 10
1.44900000
 20
3.18400000
  0
VERTEX
  8
B-1465A.PLT
 62
7
 10
1.39600000
 20
3.18800000
  0
VERTEX
  8
B-1465A.PLT
 62
7
 10
1.40398633
 20
3.16259766
  0
VERTEX
  8
B-1465A.PLT
 62
7
 10
1.41451562
 20
3.14040625
  0
VERTEX
  8
B-1465A.PLT
 62
7
 10
1.42769336
 20
3.12144922
  0
VERTEX
  8
B-1465A.PLT
 62
7
 10
1.44362500
 20
3.10575000
  0
VERTEX
  8
B-1465A.PLT
 62
7
 10
1.46241602
 20
3.09333203
  0
VERTEX
  8
B-1465A.PLT
 62
7
 10
1.48417187
 20
3.08421875
  0
VERTEX
  8
B-1465A.PLT
 62
7
 10
1.50899805
 20
3.07843359
  0
VERTEX
  8
B-1465A.PLT
 62
7
 10
1.53700000
 20
3.07600000
  0
VERTEX
  8
B-1465A.PLT
 62
7
 10
1.56750000
 20
3.07775000
  0
SEQEND
  0
POLYLINE
  8
B-1465A.PLT
 62
7
 66
1
 70
1
  0
VERTEX
  8
B-1465A.PLT
 62
7
 10
3.87100000
 20
3.12400000
  0
VERTEX
  8
B-1465A.PLT
 62
7
 10
3.88764063
 20
3.13407812
  0
VERTEX
  8
B-1465A.PLT
 62
7
 10
3.90587500
 20
3.14162500
  0
VERTEX
  8
B-1465A.PLT
 62
7
 10
3.92542188
 20
3.14635937
  0
VERTEX
  8
B-1465A.PLT
 62
7
 10
3.94600000
 20
3.14800000
  0
VERTEX
  8
B-1465A.PLT
 62
7
 10
3.97700000
 20
3.14300000
  0
VERTEX
  8
B-1465A.PLT
 62
7
 10
3.96498437
 20
3.18592188
  0
VERTEX
  8
B-1465A.PLT
 62
7
 10
3.95437500
 20
3.21787500
  0
VERTEX
  8
B-1465A.PLT
 62
7
 10
3.93832813
 20
3.24664062
  0
VERTEX
  8
B-1465A.PLT
 62
7
 10
3.91000000
 20
3.28000000
  0
VERTEX
  8
B-1465A.PLT
 62
7
 10
3.88300000
 20
3.30000000
  0
VERTEX
  8
B-1465A.PLT
 62
7
 10
3.88219922
 20
3.28491992
  0
VERTEX
  8
B-1465A.PLT
 62
7
 10
3.88034375
 20
3.27254688
  0
VERTEX
  8
B-1465A.PLT
 62
7
 10
3.87712891
 20
3.26268164
  0
VERTEX
  8
B-1465A.PLT
 62
7
 10
3.87225000
 20
3.25512500
  0
VERTEX
  8
B-1465A.PLT
 62
7
 10
3.86540234
 20
3.24967773
  0
VERTEX
  8
B-1465A.PLT
 62
7
 10
3.85628125
 20
3.24614062
  0
VERTEX
  8
B-1465A.PLT
 62
7
 10
3.84458203
 20
3.24431445
  0
VERTEX
  8
B-1465A.PLT
 62
7
 10
3.83000000
 20
3.24400000
  0
VERTEX
  8
B-1465A.PLT
 62
7
 10
3.79200000
 20
3.23800000
  0
VERTEX
  8
B-1465A.PLT
 62
7
 10
3.82093750
 20
3.21526562
  0
VERTEX
  8
B-1465A.PLT
 62
7
 10
3.84125000
 20
3.18962500
  0
VERTEX
  8
B-1465A.PLT
 62
7
 10
3.85668750
 20
3.15967187
  0
SEQEND
  0
POLYLINE
  8
B-1465A.PLT
 62
7
 66
1
 70
1
  0
VERTEX
  8
B-1465A.PLT
 62
7
 10
1.68300000
 20
3.18700000
  0
VERTEX
  8
B-1465A.PLT
 62
7
 10
1.66200000
 20
3.13500000
  0
VERTEX
  8
B-1465A.PLT
 62
7
 10
1.66079688
 20
3.11589063
  0
VERTEX
  8
B-1465A.PLT
 62
7
 10
1.65987500
 20
3.10362500
  0
VERTEX
  8
B-1465A.PLT
 62
7
 10
1.66326563
 20
3.09379687
  0
VERTEX
  8
B-1465A.PLT
 62
7
 10
1.67500000
 20
3.08200000
  0
VERTEX
  8
B-1465A.PLT
 62
7
 10
1.69300000
 20
3.08000000
  0
VERTEX
  8
B-1465A.PLT
 62
7
 10
1.71400000
 20
3.08100000
  0
VERTEX
  8
B-1465A.PLT
 62
7
 10
1.73955273
 20
3.08629492
  0
VERTEX
  8
B-1465A.PLT
 62
7
 10
1.76167188
 20
3.09204687
  0
VERTEX
  8
B-1465A.PLT
 62
7
 10
1.78067383
 20
3.09880664
  0
VERTEX
  8
B-1465A.PLT
 62
7
 10
1.79687500
 20
3.10712500
  0
VERTEX
  8
B-1465A.PLT
 62
7
 10
1.81059180
 20
3.11755273
  0
VERTEX
  8
B-1465A.PLT
 62
7
 10
1.82214063
 20
3.13064062
  0
VERTEX
  8
B-1465A.PLT
 62
7
 10
1.83183789
 20
3.14693945
  0
VERTEX
  8
B-1465A.PLT
 62
7
 10
1.84000000
 20
3.16700000
  0
VERTEX
  8
B-1465A.PLT
 62
7
 10
1.83552930
 20
3.18154688
  0
VERTEX
  8
B-1465A.PLT
 62
7
 10
1.82898438
 20
3.19506250
  0
VERTEX
  8
B-1465A.PLT
 62
7
 10
1.82054102
 20
3.20735937
  0
VERTEX
  8
B-1465A.PLT
 62
7
 10
1.81037500
 20
3.21825000
  0
VERTEX
  8
B-1465A.PLT
 62
7
 10
1.79866211
 20
3.22754687
  0
VERTEX
  8
B-1465A.PLT
 62
7
 10
1.78557813
 20
3.23506250
  0
VERTEX
  8
B-1465A.PLT
 62
7
 10
1.77129883
 20
3.24060938
  0
VERTEX
  8
B-1465A.PLT
 62
7
 10
1.75600000
 20
3.24400000
  0
VERTEX
  8
B-1465A.PLT
 62
7
 10
1.73854687
 20
3.22243750
  0
VERTEX
  8
B-1465A.PLT
 62
7
 10
1.72512500
 20
3.20725000
  0
VERTEX
  8
B-1465A.PLT
 62
7
 10
1.70889063
 20
3.19618750
  0
SEQEND
  0
POLYLINE
  8
B-1465A.PLT
 62
7
 66
1
 70
1
  0
VERTEX
  8
B-1465A.PLT
 62
7
 10
3.28100000
 20
5.89800000
  0
VERTEX
  8
B-1465A.PLT
 62
7
 10
3.29693750
 20
5.91985937
  0
VERTEX
  8
B-1465A.PLT
 62
7
 10
3.31475000
 20
5.94012500
  0
VERTEX
  8
B-1465A.PLT
 62
7
 10
3.33443750
 20
5.95832813
  0
VERTEX
  8
B-1465A.PLT
 62
7
 10
3.35600000
 20
5.97400000
  0
VERTEX
  8
B-1465A.PLT
 62
7
 10
3.37776367
 20
5.95007617
  0
VERTEX
  8
B-1465A.PLT
 62
7
 10
3.39717188
 20
5.92417187
  0
VERTEX
  8
B-1465A.PLT
 62
7
 10
3.41402539
 20
5.89646289
  0
VERTEX
  8
B-1465A.PLT
 62
7
 10
3.42812500
 20
5.86712500
  0
VERTEX
  8
B-1465A.PLT
 62
7
 10
3.43927148
 20
5.83633398
  0
VERTEX
  8
B-1465A.PLT
 62
7
 10
3.44726563
 20
5.80426563
  0
VERTEX
  8
B-1465A.PLT
 62
7
 10
3.45190820
 20
5.77109570
  0
VERTEX
  8
B-1465A.PLT
 62
7
 10
3.45300000
 20
5.73700000
  0
VERTEX
  8
B-1465A.PLT
 62
7
 10
3.45003125
 20
5.69787500
  0
VERTEX
  8
B-1465A.PLT
 62
7
 10
3.44275000
 20
5.66025000
  0
VERTEX
  8
B-1465A.PLT
 62
7
 10
3.43134375
 20
5.62450000
  0
VERTEX
  8
B-1465A.PLT
 62
7
 10
3.41600000
 20
5.59100000
  0
VERTEX
  8
B-1465A.PLT
 62
7
 10
3.40685937
 20
5.58193750
  0
VERTEX
  8
B-1465A.PLT
 62
7
 10
3.39612500
 20
5.57475000
  0
VERTEX
  8
B-1465A.PLT
 62
7
 10
3.38407812
 20
5.57018750
  0
VERTEX
  8
B-1465A.PLT
 62
7
 10
3.37100000
 20
5.56900000
  0
VERTEX
  8
B-1465A.PLT
 62
7
 10
3.36043945
 20
5.57013281
  0
VERTEX
  8
B-1465A.PLT
 62
7
 10
3.35064063
 20
5.57337500
  0
VERTEX
  8
B-1465A.PLT
 62
7
 10
3.34180273
 20
5.57849219
  0
VERTEX
  8
B-1465A.PLT
 62
7
 10
3.33412500
 20
5.58525000
  0
VERTEX
  8
B-1465A.PLT
 62
7
 10
3.32780664
 20
5.59341406
  0
VERTEX
  8
B-1465A.PLT
 62
7
 10
3.32304688
 20
5.60275000
  0
VERTEX
  8
B-1465A.PLT
 62
7
 10
3.32004492
 20
5.61302344
  0
VERTEX
  8
B-1465A.PLT
 62
7
 10
3.31900000
 20
5.62400000
  0
VERTEX
  8
B-1465A.PLT
 62
7
 10
3.32200000
 20
5.64000000
  0
VERTEX
  8
B-1465A.PLT
 62
7
 10
3.33223438
 20
5.66290625
  0
VERTEX
  8
B-1465A.PLT
 62
7
 10
3.34012500
 20
5.68675000
  0
VERTEX
  8
B-1465A.PLT
 62
7
 10
3.34520312
 20
5.71171875
  0
VERTEX
  8
B-1465A.PLT
 62
7
 10
3.34700000
 20
5.73800000
  0
VERTEX
  8
B-1465A.PLT
 62
7
 10
3.34617383
 20
5.76099414
  0
VERTEX
  8
B-1465A.PLT
 62
7
 10
3.34301563
 20
5.78339063
  0
VERTEX
  8
B-1465A.PLT
 62
7
 10
3.33763086
 20
5.80506055
  0
VERTEX
  8
B-1465A.PLT
 62
7
 10
3.33012500
 20
5.82587500
  0
VERTEX
  8
B-1465A.PLT
 62
7
 10
3.32060352
 20
5.84570508
  0
VERTEX
  8
B-1465A.PLT
 62
7
 10
3.30917188
 20
5.86442187
  0
VERTEX
  8
B-1465A.PLT
 62
7
 10
3.29593555
 20
5.88189648
  0
SEQEND
  0
POLYLINE
  8
B-1465A.PLT
 62
7
 66
1
 70
1
  0
VERTEX
  8
B-1465A.PLT
 62
7
 10
4.19300000
 20
5.64800000
  0
VERTEX
  8
B-1465A.PLT
 62
7
 10
4.19521289
 20
5.65959375
  0
VERTEX
  8
B-1465A.PLT
 62
7
 10
4.19945312
 20
5.67025000
  0
VERTEX
  8
B-1465A.PLT
 62
7
 10
4.20549805
 20
5.67978125
  0
VERTEX
  8
B-1465A.PLT
 62
7
 10
4.21312500
 20
5.68800000
  0
VERTEX
  8
B-1465A.PLT
 62
7
 10
4.22211133
 20
5.69471875
  0
VERTEX
  8
B-1465A.PLT
 62
7
 10
4.23223438
 20
5.69975000
  0
VERTEX
  8
B-1465A.PLT
 62
7
 10
4.24327148
 20
5.70290625
  0
VERTEX
  8
B-1465A.PLT
 62
7
 10
4.25500000
 20
5.70400000
  0
VERTEX
  8
B-1465A.PLT
 62
7
 10
4.27312500
 20
5.70075000
  0
VERTEX
  8
B-1465A.PLT
 62
7
 10
4.28900000
 20
5.69300000
  0
VERTEX
  8
B-1465A.PLT
 62
7
 10
4.29906250
 20
5.66768750
  0
VERTEX
  8
B-1465A.PLT
 62
7
 10
4.30650000
 20
5.64125000
  0
VERTEX
  8
B-1465A.PLT
 62
7
 10
4.31093750
 20
5.61368750
  0
VERTEX
  8
B-1465A.PLT
 62
7
 10
4.31200000
 20
5.58500000
  0
VERTEX
  8
B-1465A.PLT
 62
7
 10
4.30992578
 20
5.55624609
  0
VERTEX
  8
B-1465A.PLT
 62
7
 10
4.30459375
 20
5.52859375
  0
VERTEX
  8
B-1465A.PLT
 62
7
 10
4.29621484
 20
5.50220703
  0
VERTEX
  8
B-1465A.PLT
 62
7
 10
4.28500000
 20
5.47725000
  0
VERTEX
  8
B-1465A.PLT
 62
7
 10
4.27116016
 20
5.45388672
  0
VERTEX
  8
B-1465A.PLT
 62
7
 10
4.25490625
 20
5.43228125
  0
VERTEX
  8
B-1465A.PLT
 62
7
 10
4.23644922
 20
5.41259766
  0
VERTEX
  8
B-1465A.PLT
 62
7
 10
4.21600000
 20
5.39500000
  0
VERTEX
  8
B-1465A.PLT
 62
7
 10
4.19800000
 20
5.39300000
  0
VERTEX
  8
B-1465A.PLT
 62
7
 10
4.18669336
 20
5.39446484
  0
VERTEX
  8
B-1465A.PLT
 62
7
 10
4.17617187
 20
5.39796875
  0
VERTEX
  8
B-1465A.PLT
 62
7
 10
4.16665820
 20
5.40330078
  0
VERTEX
  8
B-1465A.PLT
 62
7
 10
4.15837500
 20
5.41025000
  0
VERTEX
  8
B-1465A.PLT
 62
7
 10
4.15154492
 20
5.41860547
  0
VERTEX
  8
B-1465A.PLT
 62
7
 10
4.14639063
 20
5.42815625
  0
VERTEX
  8
B-1465A.PLT
 62
7
 10
4.14313477
 20
5.43869141
  0
VERTEX
  8
B-1465A.PLT
 62
7
 10
4.14200000
 20
5.45000000
  0
VERTEX
  8
B-1465A.PLT
 62
7
 10
4.14500000
 20
5.46575000
  0
VERTEX
  8
B-1465A.PLT
 62
7
 10
4.15100000
 20
5.48000000
  0
VERTEX
  8
B-1465A.PLT
 62
7
 10
4.17337500
 20
5.50065625
  0
VERTEX
  8
B-1465A.PLT
 62
7
 10
4.19050000
 20
5.52600000
  0
VERTEX
  8
B-1465A.PLT
 62
7
 10
4.20162500
 20
5.55509375
  0
VERTEX
  8
B-1465A.PLT
 62
7
 10
4.20600000
 20
5.58700000
  0
VERTEX
  8
B-1465A.PLT
 62
7
 10
4.20250000
 20
5.61900000
  0
SEQEND
  0
POLYLINE
  8
B-1465A.PLT
 62
7
 66
1
 70
1
  0
VERTEX
  8
B-1465A.PLT
 62
7
 10
1.64700000
 20
5.34200000
  0
VERTEX
  8
B-1465A.PLT
 62
7
 10
1.65573438
 20
5.35150000
  0
VERTEX
  8
B-1465A.PLT
 62
7
 10
1.66662500
 20
5.35875000
  0
VERTEX
  8
B-1465A.PLT
 62
7
 10
1.67920312
 20
5.36337500
  0
VERTEX
  8
B-1465A.PLT
 62
7
 10
1.69300000
 20
5.36500000
  0
VERTEX
  8
B-1465A.PLT
 62
7
 10
1.70393164
 20
5.36382422
  0
VERTEX
  8
B-1465A.PLT
 62
7
 10
1.71407812
 20
5.36046875
  0
VERTEX
  8
B-1465A.PLT
 62
7
 10
1.72321680
 20
5.35519141
  0
VERTEX
  8
B-1465A.PLT
 62
7
 10
1.73112500
 20
5.34825000
  0
VERTEX
  8
B-1465A.PLT
 62
7
 10
1.73758008
 20
5.33990234
  0
VERTEX
  8
B-1465A.PLT
 62
7
 10
1.74235937
 20
5.33040625
  0
VERTEX
  8
B-1465A.PLT
 62
7
 10
1.74524023
 20
5.32001953
  0
VERTEX
  8
B-1465A.PLT
 62
7
 10
1.74600000
 20
5.30900000
  0
VERTEX
  8
B-1465A.PLT
 62
7
 10
1.74600000
 20
5.30400000
  0
VERTEX
  8
B-1465A.PLT
 62
7
 10
1.73500000
 20
5.26300000
  0
VERTEX
  8
B-1465A.PLT
 62
7
 10
1.73000000
 20
5.21900000
  0
VERTEX
  8
B-1465A.PLT
 62
7
 10
1.73270313
 20
5.17798438
  0
VERTEX
  8
B-1465A.PLT
 62
7
 10
1.74187500
 20
5.13912500
  0
VERTEX
  8
B-1465A.PLT
 62
7
 10
1.75685937
 20
5.10270312
  0
VERTEX
  8
B-1465A.PLT
 62
7
 10
1.77700000
 20
5.06900000
  0
VERTEX
  8
B-1465A.PLT
 62
7
 10
1.77900000
 20
5.05300000
  0
VERTEX
  8
B-1465A.PLT
 62
7
 10
1.77753516
 20
5.04169531
  0
VERTEX
  8
B-1465A.PLT
 62
7
 10
1.77403125
 20
5.03118750
  0
VERTEX
  8
B-1465A.PLT
 62
7
 10
1.76869922
 20
5.02171094
  0
VERTEX
  8
B-1465A.PLT
 62
7
 10
1.76175000
 20
5.01350000
  0
VERTEX
  8
B-1465A.PLT
 62
7
 10
1.75339453
 20
5.00678906
  0
VERTEX
  8
B-1465A.PLT
 62
7
 10
1.74384375
 20
5.00181250
  0
VERTEX
  8
B-1465A.PLT
 62
7
 10
1.73330859
 20
4.99880469
  0
VERTEX
  8
B-1465A.PLT
 62
7
 10
1.72200000
 20
4.99800000
  0
VERTEX
  8
B-1465A.PLT
 62
7
 10
1.70537500
 20
5.00037500
  0
VERTEX
  8
B-1465A.PLT
 62
7
 10
1.69100000
 20
5.00800000
  0
VERTEX
  8
B-1465A.PLT
 62
7
 10
1.67540625
 20
5.03081055
  0
VERTEX
  8
B-1465A.PLT
 62
7
 10
1.66168750
 20
5.05492187
  0
VERTEX
  8
B-1465A.PLT
 62
7
 10
1.64993750
 20
5.08022852
  0
VERTEX
  8
B-1465A.PLT
 62
7
 10
1.64025000
 20
5.10662500
  0
VERTEX
  8
B-1465A.PLT
 62
7
 10
1.63271875
 20
5.13400586
  0
VERTEX
  8
B-1465A.PLT
 62
7
 10
1.62743750
 20
5.16226562
  0
VERTEX
  8
B-1465A.PLT
 62
7
 10
1.62450000
 20
5.19129883
  0
VERTEX
  8
B-1465A.PLT
 62
7
 10
1.62400000
 20
5.22100000
  0
VERTEX
  8
B-1465A.PLT
 62
7
 10
1.62548438
 20
5.25270313
  0
VERTEX
  8
B-1465A.PLT
 62
7
 10
1.62987500
 20
5.28337500
  0
VERTEX
  8
B-1465A.PLT
 62
7
 10
1.63707812
 20
5.31310937
  0
SEQEND
  0
POLYLINE
  8
B-1465A.PLT
 62
7
 66
1
 70
1
  0
VERTEX
  8
B-1465A.PLT
 62
7
 10
5.07600000
 20
6.70900000
  0
VERTEX
  8
B-1465A.PLT
 62
7
 10
5.07187500
 20
6.69625000
  0
VERTEX
  8
B-1465A.PLT
 62
7
 10
5.07000000
 20
6.68200000
  0
VERTEX
  8
B-1465A.PLT
 62
7
 10
5.07371875
 20
6.66050000
  0
VERTEX
  8
B-1465A.PLT
 62
7
 10
5.08400000
 20
6.64200000
  0
VERTEX
  8
B-1465A.PLT
 62
7
 10
5.09953125
 20
6.62800000
  0
VERTEX
  8
B-1465A.PLT
 62
7
 10
5.11900000
 20
6.62000000
  0
VERTEX
  8
B-1465A.PLT
 62
7
 10
5.12000000
 20
6.62000000
  0
VERTEX
  8
B-1465A.PLT
 62
7
 10
5.13100000
 20
6.62275000
  0
VERTEX
  8
B-1465A.PLT
 62
7
 10
5.13900000
 20
6.63000000
  0
VERTEX
  8
B-1465A.PLT
 62
7
 10
5.14400000
 20
6.64225000
  0
VERTEX
  8
B-1465A.PLT
 62
7
 10
5.14600000
 20
6.65600000
  0
VERTEX
  8
B-1465A.PLT
 62
7
 10
5.14528320
 20
6.66731445
  0
VERTEX
  8
B-1465A.PLT
 62
7
 10
5.14251562
 20
6.67789062
  0
VERTEX
  8
B-1465A.PLT
 62
7
 10
5.13789648
 20
6.68755273
  0
VERTEX
  8
B-1465A.PLT
 62
7
 10
5.13162500
 20
6.69612500
  0
VERTEX
  8
B-1465A.PLT
 62
7
 10
5.12390039
 20
6.70343164
  0
VERTEX
  8
B-1465A.PLT
 62
7
 10
5.11492188
 20
6.70929687
  0
VERTEX
  8
B-1465A.PLT
 62
7
 10
5.10488867
 20
6.71354492
  0
VERTEX
  8
B-1465A.PLT
 62
7
 10
5.09400000
 20
6.71600000
  0
VERTEX
  8
B-1465A.PLT
 62
7
 10
5.08900000
 20
6.71700000
  0
VERTEX
  8
B-1465A.PLT
 62
7
 10
5.08100000
 20
6.71487500
  0
SEQEND
  0
ENDSEC
  0
EOF
